  0
SECTION
  2
HEADER
  9
$ACADVER
  1
AC1024
  9
$ACADMAINTVER
 70
     6
  9
$DWGCODEPAGE
  3
UNDEFINED
  9
$INSBASE
 10
0.0
 20
0.0
 30
0.0
  9
$EXTMIN
 10
1.000000000000000E+20
 20
1.000000000000000E+20
 30
1.000000000000000E+20
  9
$EXTMAX
 10
-1.000000000000000E+20
 20
-1.000000000000000E+20
 30
-1.000000000000000E+20
  9
$LIMMIN
 10
0.0
 20
0.0
  9
$LIMMAX
 10
12.0
 20
9.0
  9
$ORTHOMODE
 70
     0
  9
$REGENMODE
 70
     1
  9
$FILLMODE
 70
     1
  9
$QTEXTMODE
 70
     0
  9
$MIRRTEXT
 70
     1
  9
$LTSCALE
 40
1.0
  9
$ATTMODE
 70
     1
  9
$TEXTSIZE
 40
0.2
  9
$TRACEWID
 40
0.05
  9
$TEXTSTYLE
  7
Standard
  9
$CLAYER
  8
0
  9
$CELTYPE
  6
ByLayer
  9
$CECOLOR
 62
   256
  9
$CELTSCALE
 40
1.0
  9
$DISPSILH
 70
     0
  9
$DIMSCALE
 40
1.0
  9
$DIMASZ
 40
0.18
  9
$DIMEXO
 40
0.0625
  9
$DIMDLI
 40
0.38
  9
$DIMRND
 40
0.0
  9
$DIMDLE
 40
0.0
  9
$DIMEXE
 40
0.18
  9
$DIMTP
 40
0.0
  9
$DIMTM
 40
0.0
  9
$DIMTXT
 40
0.18
  9
$DIMCEN
 40
0.09
  9
$DIMTSZ
 40
0.0
  9
$DIMTOL
 70
     0
  9
$DIMLIM
 70
     0
  9
$DIMTIH
 70
     1
  9
$DIMTOH
 70
     1
  9
$DIMSE1
 70
     0
  9
$DIMSE2
 70
     0
  9
$DIMTAD
 70
     0
  9
$DIMZIN
 70
     0
  9
$DIMBLK
  1

  9
$DIMASO
 70
     1
  9
$DIMSHO
 70
     1
  9
$DIMPOST
  1

  9
$DIMAPOST
  1

  9
$DIMALT
 70
     0
  9
$DIMALTD
 70
     2
  9
$DIMALTF
 40
25.4
  9
$DIMLFAC
 40
1.0
  9
$DIMTOFL
 70
     0
  9
$DIMTVP
 40
0.0
  9
$DIMTIX
 70
     0
  9
$DIMSOXD
 70
     0
  9
$DIMSAH
 70
     0
  9
$DIMBLK1
  1

  9
$DIMBLK2
  1

  9
$DIMSTYLE
  2
Standard
  9
$DIMCLRD
 70
     0
  9
$DIMCLRE
 70
     0
  9
$DIMCLRT
 70
     0
  9
$DIMTFAC
 40
1.0
  9
$DIMGAP
 40
0.09
  9
$DIMJUST
 70
     0
  9
$DIMSD1
 70
     0
  9
$DIMSD2
 70
     0
  9
$DIMTOLJ
 70
     1
  9
$DIMTZIN
 70
     0
  9
$DIMALTZ
 70
     0
  9
$DIMALTTZ
 70
     0
  9
$DIMUPT
 70
     0
  9
$DIMDEC
 70
     4
  9
$DIMTDEC
 70
     4
  9
$DIMALTU
 70
     2
  9
$DIMALTTD
 70
     2
  9
$DIMTXSTY
  7
Standard
  9
$DIMAUNIT
 70
     0
  9
$DIMADEC
 70
     0
  9
$DIMALTRND
 40
0.0
  9
$DIMAZIN
 70
     0
  9
$DIMDSEP
 70
    46
  9
$DIMATFIT
 70
     3
  9
$DIMFRAC
 70
     0
  9
$DIMLDRBLK
  1

  9
$DIMLUNIT
 70
     2
  9
$DIMLWD
 70
    -2
  9
$DIMLWE
 70
    -2
  9
$DIMTMOVE
 70
     0
  9
$DIMFXL
 40
1.0
  9
$DIMFXLON
 70
     0
  9
$DIMJOGANG
 40
0.7853981633974483
  9
$DIMTFILL
 70
     0
  9
$DIMTFILLCLR
 70
     0
  9
$DIMARCSYM
 70
     0
  9
$DIMLTYPE
  6

  9
$DIMLTEX1
  6

  9
$DIMLTEX2
  6

  9
$DIMTXTDIRECTION
 70
     0
  9
$LUNITS
 70
     2
  9
$LUPREC
 70
     4
  9
$SKETCHINC
 40
0.1
  9
$FILLETRAD
 40
0.5
  9
$AUNITS
 70
     0
  9
$AUPREC
 70
     0
  9
$MENU
  1
.
  9
$ELEVATION
 40
0.0
  9
$PELEVATION
 40
0.0
  9
$THICKNESS
 40
0.0
  9
$LIMCHECK
 70
     0
  9
$CHAMFERA
 40
0.5
  9
$CHAMFERB
 40
0.5
  9
$CHAMFERC
 40
1.0
  9
$CHAMFERD
 40
0.0
  9
$SKPOLY
 70
     0
  9
$TDCREATE
 40
2457917.617916655
  9
$TDUCREATE
 40
2457917.242916666
  9
$TDUPDATE
 40
2457917.617916655
  9
$TDUUPDATE
 40
2457917.242916666
  9
$TDINDWG
 40
0.0000000116
  9
$TDUSRTIMER
 40
0.0000000116
  9
$USRTIMER
 70
     1
  9
$ANGBASE
 50
0.0
  9
$ANGDIR
 70
     0
  9
$PDMODE
 70
     0
  9
$PDSIZE
 40
0.0
  9
$PLINEWID
 40
0.0
  9
$SPLFRAME
 70
     0
  9
$SPLINETYPE
 70
     6
  9
$SPLINESEGS
 70
     8
  9
$HANDSEED
  5
DD
  9
$SURFTAB1
 70
     6
  9
$SURFTAB2
 70
     6
  9
$SURFTYPE
 70
     6
  9
$SURFU
 70
     6
  9
$SURFV
 70
     6
  9
$UCSBASE
  2

  9
$UCSNAME
  2

  9
$UCSORG
 10
0.0
 20
0.0
 30
0.0
  9
$UCSXDIR
 10
1.0
 20
0.0
 30
0.0
  9
$UCSYDIR
 10
0.0
 20
1.0
 30
0.0
  9
$UCSORTHOREF
  2

  9
$UCSORTHOVIEW
 70
     0
  9
$UCSORGTOP
 10
0.0
 20
0.0
 30
0.0
  9
$UCSORGBOTTOM
 10
0.0
 20
0.0
 30
0.0
  9
$UCSORGLEFT
 10
0.0
 20
0.0
 30
0.0
  9
$UCSORGRIGHT
 10
0.0
 20
0.0
 30
0.0
  9
$UCSORGFRONT
 10
0.0
 20
0.0
 30
0.0
  9
$UCSORGBACK
 10
0.0
 20
0.0
 30
0.0
  9
$PUCSBASE
  2

  9
$PUCSNAME
  2

  9
$PUCSORG
 10
0.0
 20
0.0
 30
0.0
  9
$PUCSXDIR
 10
1.0
 20
0.0
 30
0.0
  9
$PUCSYDIR
 10
0.0
 20
1.0
 30
0.0
  9
$PUCSORTHOREF
  2

  9
$PUCSORTHOVIEW
 70
     0
  9
$PUCSORGTOP
 10
0.0
 20
0.0
 30
0.0
  9
$PUCSORGBOTTOM
 10
0.0
 20
0.0
 30
0.0
  9
$PUCSORGLEFT
 10
0.0
 20
0.0
 30
0.0
  9
$PUCSORGRIGHT
 10
0.0
 20
0.0
 30
0.0
  9
$PUCSORGFRONT
 10
0.0
 20
0.0
 30
0.0
  9
$PUCSORGBACK
 10
0.0
 20
0.0
 30
0.0
  9
$USERI1
 70
     0
  9
$USERI2
 70
     0
  9
$USERI3
 70
     0
  9
$USERI4
 70
     0
  9
$USERI5
 70
     0
  9
$USERR1
 40
0.0
  9
$USERR2
 40
0.0
  9
$USERR3
 40
0.0
  9
$USERR4
 40
0.0
  9
$USERR5
 40
0.0
  9
$WORLDVIEW
 70
     1
  9
$SHADEDGE
 70
     3
  9
$SHADEDIF
 70
    70
  9
$TILEMODE
 70
     1
  9
$MAXACTVP
 70
    64
  9
$PINSBASE
 10
0.0
 20
0.0
 30
0.0
  9
$PLIMCHECK
 70
     0
  9
$PEXTMIN
 10
1.000000000000000E+20
 20
1.000000000000000E+20
 30
1.000000000000000E+20
  9
$PEXTMAX
 10
-1.000000000000000E+20
 20
-1.000000000000000E+20
 30
-1.000000000000000E+20
  9
$PLIMMIN
 10
0.0
 20
0.0
  9
$PLIMMAX
 10
12.0
 20
9.0
  9
$UNITMODE
 70
     0
  9
$VISRETAIN
 70
     1
  9
$PLINEGEN
 70
     0
  9
$PSLTSCALE
 70
     1
  9
$TREEDEPTH
 70
  3020
  9
$CMLSTYLE
  2
Standard
  9
$CMLJUST
 70
     0
  9
$CMLSCALE
 40
1.0
  9
$PROXYGRAPHICS
 70
     1
  9
$MEASUREMENT
 70
     0
  9
$CELWEIGHT
370
    -1
  9
$ENDCAPS
280
     0
  9
$JOINSTYLE
280
     0
  9
$LWDISPLAY
290
     1
  9
$INSUNITS
 70
     1
  9
$HYPERLINKBASE
  1

  9
$STYLESHEET
  1

  9
$XEDIT
290
     1
  9
$CEPSNTYPE
380
     0
  9
$PSTYLEMODE
290
     1
  9
$FINGERPRINTGUID
  2
{3AE40F95-C2E3-3095-90FD-EC8D617B18AE}
  9
$VERSIONGUID
  2
{FAEB1C32-E019-11D5-929B-00C0DF256EC4}
  9
$EXTNAMES
290
     1
  9
$PSVPSCALE
 40
0.0
  9
$OLESTARTUP
290
     0
  9
$SORTENTS
280
   127
  9
$INDEXCTL
280
     0
  9
$HIDETEXT
280
     1
  9
$XCLIPFRAME
280
     2
  9
$HALOGAP
280
     0
  9
$OBSCOLOR
 70
   257
  9
$OBSLTYPE
280
     0
  9
$INTERSECTIONDISPLAY
280
     0
  9
$INTERSECTIONCOLOR
 70
   257
  9
$DIMASSOC
280
     2
  9
$PROJECTNAME
  1

  9
$CAMERADISPLAY
290
     0
  9
$LENSLENGTH
 40
50.0
  9
$CAMERAHEIGHT
 40
0.0
  9
$STEPSPERSEC
 40
2.0
  9
$STEPSIZE
 40
6.0
  9
$3DDWFPREC
 40
2.0
  9
$PSOLWIDTH
 40
0.25
  9
$PSOLHEIGHT
 40
4.0
  9
$LOFTANG1
 40
1.570796326794897
  9
$LOFTANG2
 40
1.570796326794897
  9
$LOFTMAG1
 40
0.0
  9
$LOFTMAG2
 40
0.0
  9
$LOFTPARAM
 70
     7
  9
$LOFTNORMALS
280
     1
  9
$LATITUDE
 40
37.795
  9
$LONGITUDE
 40
-122.394
  9
$NORTHDIRECTION
 40
0.0
  9
$TIMEZONE
 70
 -8000
  9
$LIGHTGLYPHDISPLAY
280
     1
  9
$TILEMODELIGHTSYNCH
280
     1
  9
$CMATERIAL
347
3C
  9
$SOLIDHIST
280
     1
  9
$SHOWHIST
280
     1
  9
$DWFFRAME
280
     2
  9
$DGNFRAME
280
     2
  9
$REALWORLDSCALE
290
     1
  9
$INTERFERECOLOR
 62
   256
  9
$CSHADOW
280
     0
  9
$SHADOWPLANELOCATION
 40
0.0
  0
ENDSEC
  0
SECTION
  2
CLASSES
  0
CLASS
  1
ACDBDICTIONARYWDFLT
  2
AcDbDictionaryWithDefault
  3
ObjectDBX Classes
 90
        0
 91
        4
280
     0
281
     0
  0
CLASS
  1
VISUALSTYLE
  2
AcDbVisualStyle
  3
ObjectDBX Classes
 90
     4095
 91
        4
280
     0
281
     0
  0
CLASS
  1
MATERIAL
  2
AcDbMaterial
  3
ObjectDBX Classes
 90
     1153
 91
        4
280
     0
281
     0
  0
CLASS
  1
SUN
  2
AcDbSun
  3
SCENEOE
 90
     1024
 91
        4
280
     0
281
     0
  0
ENDSEC
  0
SECTION
  2
TABLES
  0
TABLE
  2
VPORT
  5
8
330
0
100
AcDbSymbolTable
 70
     1
  0
VPORT
  5
29
330
8
100
AcDbSymbolTableRecord
100
AcDbViewportTableRecord
  2
*Active
 70
     0
 10
0.0
 20
0.0
 11
1.0
 21
1.0
 12
0.0
 22
0.0
 13
0.0
 23
0.0
 14
0.5
 24
0.5
 15
0.5
 25
0.5
 16
0.0
 26
0.0
 36
1.0
 17
91.00082462281999
 27
-128.4993055234307
 37
0.0
 40
256.9986110468615
 41
0.7081814508812795
 42
50.0
 43
0.0
 44
0.0
 50
0.0
 51
0.0
 71
     0
 72
   100
 73
     1
 74
     3
 75
     0
 76
     0
 77
     0
 78
     0
281
     0
 65
     1
110
0.0
120
0.0
130
0.0
111
1.0
121
0.0
131
0.0
112
0.0
122
1.0
132
0.0
 79
     0
146
0.0
 60
     3
 61
     5
292
     1
282
     1
141
0.0
142
0.0
 63
   250
361
3F
  0
ENDTAB
  0
TABLE
  2
LTYPE
  5
5
330
0
100
AcDbSymbolTable
 70
     2
  0
LTYPE
  5
14
330
5
100
AcDbSymbolTableRecord
100
AcDbLinetypeTableRecord
  2
ByBlock
 70
     0
  3

 72
    65
 73
     0
 40
0.0
  0
LTYPE
  5
15
330
5
100
AcDbSymbolTableRecord
100
AcDbLinetypeTableRecord
  2
ByLayer
 70
     0
  3

 72
    65
 73
     0
 40
0.0
  0
LTYPE
  5
16
330
5
100
AcDbSymbolTableRecord
100
AcDbLinetypeTableRecord
  2
Continuous
 70
     0
  3
Solid line
 72
    65
 73
     0
 40
0.0
  0
LTYPE
  5
CF
330
5
100
AcDbSymbolTableRecord
100
AcDbLinetypeTableRecord
  2
AI-Linetype-1
 70
     0
  3
Adobe Illustrator Linetype No. 1
 72
    65
 73
     2
 40
1.411111110758333
 49
0.7055555553791667
 74
     0
 49
-0.7055555553791667
 74
     0
  0
ENDTAB
  0
TABLE
  2
LAYER
  5
2
330
0
100
AcDbSymbolTable
 70
     2
  0
LAYER
  5
10
330
2
100
AcDbSymbolTableRecord
100
AcDbLayerTableRecord
  2
0
 70
     0
 62
     7
  6
Continuous
370
    -3
390
F
347
3E
  0
LAYER
  5
40
330
2
100
AcDbSymbolTableRecord
100
AcDbLayerTableRecord
  2
_U+30EC_U+30A4_U+30E4_U+30FC 1
 70
     0
 62
     7
  6
Continuous
370
    -3
390
F
347
3E
  0
ENDTAB
  0
TABLE
  2
STYLE
  5
3
330
0
100
AcDbSymbolTable
 70
     1
  0
STYLE
  5
11
330
3
100
AcDbSymbolTableRecord
100
AcDbTextStyleTableRecord
  2
Standard
 70
     0
 40
0.0
 41
1.0
 50
0.0
 71
     0
 42
0.2
  3
txt
  4

  0
ENDTAB
  0
TABLE
  2
VIEW
  5
6
330
0
100
AcDbSymbolTable
 70
     0
  0
ENDTAB
  0
TABLE
  2
UCS
  5
7
330
0
100
AcDbSymbolTable
 70
     0
  0
ENDTAB
  0
TABLE
  2
APPID
  5
9
330
0
100
AcDbSymbolTable
 70
     1
  0
APPID
  5
12
330
9
100
AcDbSymbolTableRecord
100
AcDbRegAppTableRecord
  2
ACAD
 70
     0
  0
ENDTAB
  0
TABLE
  2
DIMSTYLE
  5
A
330
0
100
AcDbSymbolTable
 70
     1
100
AcDbDimStyleTable
  0
DIMSTYLE
105
27
330
A
100
AcDbSymbolTableRecord
100
AcDbDimStyleTableRecord
  2
Standard
 70
     0
178
     0
340
11
  0
ENDTAB
  0
TABLE
  2
BLOCK_RECORD
  5
1
330
0
100
AcDbSymbolTable
 70
     6
  0
BLOCK_RECORD
  5
1F
330
1
100
AcDbSymbolTableRecord
100
AcDbBlockTableRecord
  2
*Model_Space
340
22
 70
     0
280
     1
281
     0
  0
BLOCK_RECORD
  5
1B
330
1
100
AcDbSymbolTableRecord
100
AcDbBlockTableRecord
  2
*Paper_Space
340
1E
 70
     0
280
     1
281
     0
  0
BLOCK_RECORD
  5
23
330
1
100
AcDbSymbolTableRecord
100
AcDbBlockTableRecord
  2
*Paper_Space0
340
26
 70
     0
280
     1
281
     0
  0
BLOCK_RECORD
  5
4F
330
1
100
AcDbSymbolTableRecord
100
AcDbBlockTableRecord
  2
block 2
340
0
102
{BLKREFS
331
50
102
}
 70
     0
280
     1
281
     0
  0
BLOCK_RECORD
  5
6A
330
1
100
AcDbSymbolTableRecord
100
AcDbBlockTableRecord
  2
block 3
340
0
102
{BLKREFS
331
6B
102
}
 70
     0
280
     1
281
     0
  0
BLOCK_RECORD
  5
AA
330
1
100
AcDbSymbolTableRecord
100
AcDbBlockTableRecord
  2
block 4
340
0
102
{BLKREFS
331
AB
102
}
 70
     0
280
     1
281
     0
  0
BLOCK_RECORD
  5
BE
330
1
100
AcDbSymbolTableRecord
100
AcDbBlockTableRecord
  2
block 5
340
0
102
{BLKREFS
331
BF
102
}
 70
     0
280
     1
281
     0
  0
BLOCK_RECORD
  5
D1
330
1
100
AcDbSymbolTableRecord
100
AcDbBlockTableRecord
  2
block 6
340
0
102
{BLKREFS
331
D2
102
}
 70
     0
280
     1
281
     0
  0
ENDTAB
  0
ENDSEC
  0
SECTION
  2
BLOCKS
  0
BLOCK
  5
20
330
1F
100
AcDbEntity
  8
0
100
AcDbBlockBegin
  2
*Model_Space
 70
     0
 10
0.0
 20
0.0
 30
0.0
  3
*Model_Space
  1

  0
ENDBLK
  5
21
330
1F
100
AcDbEntity
  8
0
100
AcDbBlockEnd
  0
BLOCK
  5
1C
330
1B
100
AcDbEntity
 67
     1
  8
0
100
AcDbBlockBegin
  2
*Paper_Space
 70
     0
 10
0.0
 20
0.0
 30
0.0
  3
*Paper_Space
  1

  0
ENDBLK
  5
1D
330
1B
100
AcDbEntity
 67
     1
  8
0
100
AcDbBlockEnd
  0
BLOCK
  5
24
330
23
100
AcDbEntity
  8
0
100
AcDbBlockBegin
  2
*Paper_Space0
 70
     0
 10
0.0
 20
0.0
 30
0.0
  3
*Paper_Space0
  1

  0
ENDBLK
  5
25
330
23
100
AcDbEntity
  8
0
100
AcDbBlockEnd
  0
BLOCK
  5
51
330
4F
100
AcDbEntity
  8
0
100
AcDbBlockBegin
  2
block 2
 70
     0
 10
0.0
 20
0.0
 30
0.0
  3
block 2
  1

  0
SPLINE
  5
53
330
4F
100
AcDbEntity
  8
_U+30EC_U+30A4_U+30E4_U+30FC 1
370
     0
100
AcDbSpline
210
0.0
220
0.0
230
1.0
 70
    11
 71
     3
 72
    29
 73
    25
 74
     0
 42
0.0000000001
 43
0.0000000001
 12
1.0
 22
0.0
 32
0.0
 13
1.0
 23
0.0
 33
0.0
 40
0.0
 40
0.0
 40
0.0
 40
0.0
 40
1.0
 40
1.0
 40
1.0
 40
2.0
 40
2.0
 40
2.0
 40
3.0
 40
3.0
 40
3.0
 40
4.0
 40
4.0
 40
4.0
 40
5.0
 40
5.0
 40
5.0
 40
6.0
 40
6.0
 40
6.0
 40
7.0
 40
7.0
 40
7.0
 40
8.0
 40
8.0
 40
8.0
 40
8.0
 10
101.2441216109737
 20
-130.0992078667808
 30
0.0
 10
101.2441216109737
 20
-130.3837727538624
 30
0.0
 10
101.1066623011122
 20
-130.6552462781001
 30
0.0
 10
100.7576741284564
 20
-130.6552462781001
 30
0.0
 10
100.5017035339024
 20
-130.6552462781001
 30
0.0
 10
100.4066188985095
 20
-130.5036620767491
 30
0.0
 10
100.345296198872
 20
-130.3906629448329
 30
0.0
 10
100.2860405565257
 20
-130.5239881401121
 30
0.0
 10
100.1716633864154
 20
-130.6056369031125
 30
0.0
 10
100.0107774272543
 20
-130.6056369031125
 30
0.0
 10
99.73585880753132
 20
-130.6056369031125
 30
0.0
 10
99.600466554961
 20
-130.3930745116726
 30
0.0
 10
99.600466554961
 20
-130.0992078667808
 30
0.0
 10
99.600466554961
 20
-129.7960394640788
 30
0.0
 10
99.74447154624444
 20
-129.592778830449
 30
0.0
 10
100.0107774272543
 20
-129.592778830449
 30
0.0
 10
100.1716633864154
 20
-129.592778830449
 30
0.0
 10
100.2860405565257
 20
-129.6761501411921
 30
0.0
 10
100.345296198872
 20
-129.8098198460198
 30
0.0
 10
100.3959391025052
 20
-129.7147352106269
 30
0.0
 10
100.4910237378981
 20
-129.5452365127526
 30
0.0
 10
100.7535400138741
 20
-129.5452365127526
 30
0.0
 10
101.1280218931208
 20
-129.5452365127526
 30
0.0
 10
101.2441216109737
 20
-129.8435817817752
 30
0.0
 10
101.2441216109737
 20
-130.0992078667808
 30
0.0
  0
SPLINE
  5
54
330
4F
100
AcDbEntity
  8
_U+30EC_U+30A4_U+30E4_U+30FC 1
370
     0
100
AcDbSpline
210
0.0
220
0.0
230
1.0
 70
    11
 71
     3
 72
    17
 73
    13
 74
     0
 42
0.0000000001
 43
0.0000000001
 12
1.0
 22
0.0
 32
0.0
 13
1.0
 23
0.0
 33
0.0
 40
0.0
 40
0.0
 40
0.0
 40
0.0
 40
1.0
 40
1.0
 40
1.0
 40
2.0
 40
2.0
 40
2.0
 40
3.0
 40
3.0
 40
3.0
 40
4.0
 40
4.0
 40
4.0
 40
4.0
 10
99.79304739258646
 20
-130.0992078667808
 30
0.0
 10
99.79304739258646
 20
-130.2755967556255
 30
0.0
 10
99.88813202797937
 20
-130.3658582573391
 30
0.0
 10
100.0235242805497
 20
-130.3658582573391
 30
0.0
 10
100.1461696798246
 20
-130.3658582573391
 30
0.0
 10
100.2646809645172
 20
-130.289032628018
 30
0.0
 10
100.2646809645172
 20
-130.0992078667808
 30
0.0
 10
100.2646809645172
 20
-129.909038595995
 30
0.0
 10
100.1461696798246
 20
-129.8322129666739
 30
0.0
 10
100.0235242805497
 20
-129.8322129666739
 30
0.0
 10
99.88813202797937
 20
-129.8322129666739
 30
0.0
 10
99.79304739258646
 20
-129.9248860352271
 30
0.0
 10
99.79304739258646
 20
-130.0992078667808
 30
0.0
  0
SPLINE
  5
55
330
4F
100
AcDbEntity
  8
_U+30EC_U+30A4_U+30E4_U+30FC 1
370
     0
100
AcDbSpline
210
0.0
220
0.0
230
1.0
 70
    11
 71
     3
 72
    17
 73
    13
 74
     0
 42
0.0000000001
 43
0.0000000001
 12
1.0
 22
0.0
 32
0.0
 13
1.0
 23
0.0
 33
0.0
 40
0.0
 40
0.0
 40
0.0
 40
0.0
 40
1.0
 40
1.0
 40
1.0
 40
2.0
 40
2.0
 40
2.0
 40
3.0
 40
3.0
 40
3.0
 40
4.0
 40
4.0
 40
4.0
 40
4.0
 10
100.4531276875603
 20
-130.0992078667808
 30
0.0
 10
100.4531276875603
 20
-130.2528591254229
 30
0.0
 10
100.5399440937886
 20
-130.4154676323267
 30
0.0
 10
100.7428602178698
 20
-130.4154676323267
 30
0.0
 10
100.9481879087907
 20
-130.4154676323267
 30
0.0
 10
101.0494737160571
 20
-130.2800753797564
 30
0.0
 10
101.0494737160571
 20
-130.0992078667808
 30
0.0
 10
101.0494737160571
 20
-129.9000813477333
 30
0.0
 10
100.9268283167822
 20
-129.7826035916863
 30
0.0
 10
100.7490613897433
 20
-129.7826035916863
 30
0.0
 10
100.5271972404932
 20
-129.7826035916863
 30
0.0
 10
100.4531276875603
 20
-129.9565809136914
 30
0.0
 10
100.4531276875603
 20
-130.0992078667808
 30
0.0
  0
HATCH
  5
56
330
4F
100
AcDbEntity
  8
_U+30EC_U+30A4_U+30E4_U+30FC 1
 62
     7
420
 16777215
100
AcDbHatch
 10
0.0
 20
0.0
 30
0.0
210
0.0
220
0.0
230
1.0
  2
SOLID
 70
     1
 71
     0
 91
        3
 92
        1
 93
        1
 72
     4
 94
        3
 73
     0
 74
     1
 95
       29
 96
       25
 40
0.0
 40
0.0
 40
0.0
 40
0.0
 40
1.0
 40
1.0
 40
1.0
 40
2.0
 40
2.0
 40
2.0
 40
3.0
 40
3.0
 40
3.0
 40
4.0
 40
4.0
 40
4.0
 40
5.0
 40
5.0
 40
5.0
 40
6.0
 40
6.0
 40
6.0
 40
7.0
 40
7.0
 40
7.0
 40
8.0
 40
8.0
 40
8.0
 40
8.0
 10
101.2441216109737
 20
-130.0992078667808
 10
101.2441216109737
 20
-130.3837727538624
 10
101.1066623011122
 20
-130.6552462781001
 10
100.7576741284564
 20
-130.6552462781001
 10
100.5017035339024
 20
-130.6552462781001
 10
100.4066188985095
 20
-130.5036620767491
 10
100.345296198872
 20
-130.3906629448329
 10
100.2860405565257
 20
-130.5239881401121
 10
100.1716633864154
 20
-130.6056369031125
 10
100.0107774272543
 20
-130.6056369031125
 10
99.73585880753132
 20
-130.6056369031125
 10
99.600466554961
 20
-130.3930745116726
 10
99.600466554961
 20
-130.0992078667808
 10
99.600466554961
 20
-129.7960394640788
 10
99.74447154624444
 20
-129.592778830449
 10
100.0107774272543
 20
-129.592778830449
 10
100.1716633864154
 20
-129.592778830449
 10
100.2860405565257
 20
-129.6761501411921
 10
100.345296198872
 20
-129.8098198460198
 10
100.3959391025052
 20
-129.7147352106269
 10
100.4910237378981
 20
-129.5452365127526
 10
100.7535400138741
 20
-129.5452365127526
 10
101.1280218931208
 20
-129.5452365127526
 10
101.2441216109737
 20
-129.8435817817752
 10
101.2441216109737
 20
-130.0992078667808
 97
        0
 97
        0
 92
        1
 93
        1
 72
     4
 94
        3
 73
     0
 74
     1
 95
       17
 96
       13
 40
0.0
 40
0.0
 40
0.0
 40
0.0
 40
1.0
 40
1.0
 40
1.0
 40
2.0
 40
2.0
 40
2.0
 40
3.0
 40
3.0
 40
3.0
 40
4.0
 40
4.0
 40
4.0
 40
4.0
 10
99.79304739258646
 20
-130.0992078667808
 10
99.79304739258646
 20
-130.2755967556255
 10
99.88813202797937
 20
-130.3658582573391
 10
100.0235242805497
 20
-130.3658582573391
 10
100.1461696798246
 20
-130.3658582573391
 10
100.2646809645172
 20
-130.289032628018
 10
100.2646809645172
 20
-130.0992078667808
 10
100.2646809645172
 20
-129.909038595995
 10
100.1461696798246
 20
-129.8322129666739
 10
100.0235242805497
 20
-129.8322129666739
 10
99.88813202797937
 20
-129.8322129666739
 10
99.79304739258646
 20
-129.9248860352271
 10
99.79304739258646
 20
-130.0992078667808
 97
        0
 97
        0
 92
        1
 93
        1
 72
     4
 94
        3
 73
     0
 74
     1
 95
       17
 96
       13
 40
0.0
 40
0.0
 40
0.0
 40
0.0
 40
1.0
 40
1.0
 40
1.0
 40
2.0
 40
2.0
 40
2.0
 40
3.0
 40
3.0
 40
3.0
 40
4.0
 40
4.0
 40
4.0
 40
4.0
 10
100.4531276875603
 20
-130.0992078667808
 10
100.4531276875603
 20
-130.2528591254229
 10
100.5399440937886
 20
-130.4154676323267
 10
100.7428602178698
 20
-130.4154676323267
 10
100.9481879087907
 20
-130.4154676323267
 10
101.0494737160571
 20
-130.2800753797564
 10
101.0494737160571
 20
-130.0992078667808
 10
101.0494737160571
 20
-129.9000813477333
 10
100.9268283167822
 20
-129.7826035916863
 10
100.7490613897433
 20
-129.7826035916863
 10
100.5271972404932
 20
-129.7826035916863
 10
100.4531276875603
 20
-129.9565809136914
 10
100.4531276875603
 20
-130.0992078667808
 97
        0
 97
        0
 75
     2
 76
     1
 98
        0
  0
POLYLINE
  5
57
330
4F
100
AcDbEntity
  8
_U+30EC_U+30A4_U+30E4_U+30FC 1
370
     0
100
AcDb2dPolyline
 66
     1
 10
0.0
 20
0.0
 30
0.0
  0
VERTEX
  5
58
330
57
100
AcDbEntity
  8
_U+30EC_U+30A4_U+30E4_U+30FC 1
370
     0
100
AcDbVertex
100
AcDb2dVertex
 10
101.1934787073405
 20
-129.3116590388526
 30
0.0
  0
VERTEX
  5
59
330
57
100
AcDbEntity
  8
_U+30EC_U+30A4_U+30E4_U+30FC 1
370
     0
100
AcDbVertex
100
AcDb2dVertex
 10
100.9416422273688
 20
-129.3116590388526
 30
0.0
  0
VERTEX
  5
5A
330
57
100
AcDbEntity
  8
_U+30EC_U+30A4_U+30E4_U+30FC 1
370
     0
100
AcDbVertex
100
AcDb2dVertex
 10
100.9416422273688
 20
-129.0425970814546
 30
0.0
  0
VERTEX
  5
5B
330
57
100
AcDbEntity
  8
_U+30EC_U+30A4_U+30E4_U+30FC 1
370
     0
100
AcDbVertex
100
AcDb2dVertex
 10
101.1934787073405
 20
-129.0425970814546
 30
0.0
  0
VERTEX
  5
5C
330
57
100
AcDbEntity
  8
_U+30EC_U+30A4_U+30E4_U+30FC 1
370
     0
100
AcDbVertex
100
AcDb2dVertex
 10
101.1934787073405
 20
-129.3116590388526
 30
0.0
  0
SEQEND
  5
5D
330
57
100
AcDbEntity
  8
_U+30EC_U+30A4_U+30E4_U+30FC 1
370
     0
  0
HATCH
  5
5E
330
4F
100
AcDbEntity
  8
_U+30EC_U+30A4_U+30E4_U+30FC 1
 62
     7
420
 16777215
100
AcDbHatch
 10
0.0
 20
0.0
 30
0.0
210
0.0
220
0.0
230
1.0
  2
SOLID
 70
     1
 71
     0
 91
        1
 92
        1
 93
        4
 72
     1
 10
101.1934787073405
 20
-129.3116590388526
 11
100.9416422273688
 21
-129.3116590388526
 72
     1
 10
100.9416422273688
 20
-129.3116590388526
 11
100.9416422273688
 21
-129.0425970814546
 72
     1
 10
100.9416422273688
 20
-129.0425970814546
 11
101.1934787073405
 21
-129.0425970814546
 72
     1
 10
101.1934787073405
 20
-129.0425970814546
 11
101.1934787073405
 21
-129.3116590388526
 97
        0
 75
     2
 76
     1
 98
        0
  0
SPLINE
  5
5F
330
4F
100
AcDbEntity
  8
_U+30EC_U+30A4_U+30E4_U+30FC 1
370
     0
100
AcDbSpline
210
0.0
220
0.0
230
1.0
 70
    11
 71
     3
 72
    53
 73
    49
 74
     0
 42
0.0000000001
 43
0.0000000001
 12
1.0
 22
0.0
 32
0.0
 13
1.0
 23
0.0
 33
0.0
 40
0.0
 40
0.0
 40
0.0
 40
0.0
 40
1.0
 40
1.0
 40
1.0
 40
2.0
 40
2.0
 40
2.0
 40
3.0
 40
3.0
 40
3.0
 40
4.0
 40
4.0
 40
4.0
 40
5.0
 40
5.0
 40
5.0
 40
6.0
 40
6.0
 40
6.0
 40
7.0
 40
7.0
 40
7.0
 40
8.0
 40
8.0
 40
8.0
 40
9.0
 40
9.0
 40
9.0
 40
10.0
 40
10.0
 40
10.0
 40
11.0
 40
11.0
 40
11.0
 40
12.0
 40
12.0
 40
12.0
 40
13.0
 40
13.0
 40
13.0
 40
14.0
 40
14.0
 40
14.0
 40
15.0
 40
15.0
 40
15.0
 40
16.0
 40
16.0
 40
16.0
 40
16.0
 10
101.2441216109737
 20
-128.275718826438
 30
0.0
 10
101.2441216109737
 20
-128.3594346467296
 30
0.0
 10
101.227240643096
 20
-128.4676106449664
 30
0.0
 10
101.1638508861674
 20
-128.5764756623003
 30
0.0
 10
101.0539523401879
 20
-128.7618217994068
 30
0.0
 10
100.9226942021999
 20
-128.7842149200609
 30
0.0
 10
100.8148627135116
 20
-128.8045409834239
 30
0.0
 10
100.8148627135116
 20
-128.8045409834239
 30
0.0
 10
100.8148627135116
 20
-128.5671739044901
 30
0.0
 10
100.8148627135116
 20
-128.5671739044901
 30
0.0
 10
101.0136447230105
 20
-128.5086072812409
 30
0.0
 10
101.0432725441836
 20
-128.3728705191221
 30
0.0
 10
101.0432725441836
 20
-128.2733072595983
 30
0.0
 10
101.0432725441836
 20
-128.124134625087
 30
0.0
 10
100.9437092846599
 20
-127.9611816086347
 30
0.0
 10
100.7111653394055
 20
-127.9611816086347
 30
0.0
 10
100.4551947448515
 20
-127.9611816086347
 30
0.0
 10
100.3852593065009
 20
-128.1534179367117
 30
0.0
 10
100.3852593065009
 20
-128.28226450786
 30
0.0
 10
100.3852593065009
 20
-128.316370953164
 30
0.0
 10
100.3852593065009
 20
-128.4676106449664
 30
0.0
 10
100.5144503871978
 20
-128.5626952803593
 30
0.0
 10
100.5144503871978
 20
-128.5626952803593
 30
0.0
 10
100.4955023620289
 20
-128.7504529843054
 30
0.0
 10
100.4955023620289
 20
-128.7504529843054
 30
0.0
 10
100.4955023620289
 20
-128.7504529843054
 30
0.0
 10
99.64904240130302
 20
-128.6216064131571
 30
0.0
 10
99.64904240130302
 20
-128.6216064131571
 30
0.0
 10
99.64904240130302
 20
-128.6216064131571
 30
0.0
 10
99.64904240130302
 20
-127.7896158534693
 30
0.0
 10
99.64904240130302
 20
-127.7896158534693
 30
0.0
 10
99.64904240130302
 20
-127.7896158534693
 30
0.0
 10
99.84369029621963
 20
-127.7896158534693
 30
0.0
 10
99.84369029621963
 20
-127.7896158534693
 30
0.0
 10
99.84369029621963
 20
-127.7896158534693
 30
0.0
 10
99.84369029621963
 20
-128.4472845816035
 30
0.0
 10
99.84369029621963
 20
-128.4472845816035
 30
0.0
 10
99.84369029621963
 20
-128.4472845816035
 30
0.0
 10
100.2667480218083
 20
-128.5175645295026
 30
0.0
 10
100.2667480218083
 20
-128.5175645295026
 30
0.0
 10
100.2329860860529
 20
-128.4521077152828
 30
0.0
 10
100.1926784688754
 20
-128.3639132708604
 30
0.0
 10
100.1926784688754
 20
-128.2371337570032
 30
0.0
 10
100.1926784688754
 20
-127.9660047423141
 30
0.0
 10
100.3790581346275
 20
-127.7127902241482
 30
0.0
 10
100.6922173142367
 20
-127.7127902241482
 30
0.0
 10
101.0095106084282
 20
-127.7127902241482
 30
0.0
 10
101.2441216109737
 20
-127.9522243603731
 30
0.0
 10
101.2441216109737
 20
-128.275718826438
 30
0.0
  0
HATCH
  5
60
330
4F
100
AcDbEntity
  8
_U+30EC_U+30A4_U+30E4_U+30FC 1
 62
     7
420
 16777215
100
AcDbHatch
 10
0.0
 20
0.0
 30
0.0
210
0.0
220
0.0
230
1.0
  2
SOLID
 70
     1
 71
     0
 91
        1
 92
        1
 93
        1
 72
     4
 94
        3
 73
     0
 74
     1
 95
       53
 96
       49
 40
0.0
 40
0.0
 40
0.0
 40
0.0
 40
1.0
 40
1.0
 40
1.0
 40
2.0
 40
2.0
 40
2.0
 40
3.0
 40
3.0
 40
3.0
 40
4.0
 40
4.0
 40
4.0
 40
5.0
 40
5.0
 40
5.0
 40
6.0
 40
6.0
 40
6.0
 40
7.0
 40
7.0
 40
7.0
 40
8.0
 40
8.0
 40
8.0
 40
9.0
 40
9.0
 40
9.0
 40
10.0
 40
10.0
 40
10.0
 40
11.0
 40
11.0
 40
11.0
 40
12.0
 40
12.0
 40
12.0
 40
13.0
 40
13.0
 40
13.0
 40
14.0
 40
14.0
 40
14.0
 40
15.0
 40
15.0
 40
15.0
 40
16.0
 40
16.0
 40
16.0
 40
16.0
 10
101.2441216109737
 20
-128.275718826438
 10
101.2441216109737
 20
-128.3594346467296
 10
101.227240643096
 20
-128.4676106449664
 10
101.1638508861674
 20
-128.5764756623003
 10
101.0539523401879
 20
-128.7618217994068
 10
100.9226942021999
 20
-128.7842149200609
 10
100.8148627135116
 20
-128.8045409834239
 10
100.8148627135116
 20
-128.8045409834239
 10
100.8148627135116
 20
-128.5671739044901
 10
100.8148627135116
 20
-128.5671739044901
 10
101.0136447230105
 20
-128.5086072812409
 10
101.0432725441836
 20
-128.3728705191221
 10
101.0432725441836
 20
-128.2733072595983
 10
101.0432725441836
 20
-128.124134625087
 10
100.9437092846599
 20
-127.9611816086347
 10
100.7111653394055
 20
-127.9611816086347
 10
100.4551947448515
 20
-127.9611816086347
 10
100.3852593065009
 20
-128.1534179367117
 10
100.3852593065009
 20
-128.28226450786
 10
100.3852593065009
 20
-128.316370953164
 10
100.3852593065009
 20
-128.4676106449664
 10
100.5144503871978
 20
-128.5626952803593
 10
100.5144503871978
 20
-128.5626952803593
 10
100.4955023620289
 20
-128.7504529843054
 10
100.4955023620289
 20
-128.7504529843054
 10
100.4955023620289
 20
-128.7504529843054
 10
99.64904240130302
 20
-128.6216064131571
 10
99.64904240130302
 20
-128.6216064131571
 10
99.64904240130302
 20
-128.6216064131571
 10
99.64904240130302
 20
-127.7896158534693
 10
99.64904240130302
 20
-127.7896158534693
 10
99.64904240130302
 20
-127.7896158534693
 10
99.84369029621963
 20
-127.7896158534693
 10
99.84369029621963
 20
-127.7896158534693
 10
99.84369029621963
 20
-127.7896158534693
 10
99.84369029621963
 20
-128.4472845816035
 10
99.84369029621963
 20
-128.4472845816035
 10
99.84369029621963
 20
-128.4472845816035
 10
100.2667480218083
 20
-128.5175645295026
 10
100.2667480218083
 20
-128.5175645295026
 10
100.2329860860529
 20
-128.4521077152828
 10
100.1926784688754
 20
-128.3639132708604
 10
100.1926784688754
 20
-128.2371337570032
 10
100.1926784688754
 20
-127.9660047423141
 10
100.3790581346275
 20
-127.7127902241482
 10
100.6922173142367
 20
-127.7127902241482
 10
101.0095106084282
 20
-127.7127902241482
 10
101.2441216109737
 20
-127.9522243603731
 10
101.2441216109737
 20
-128.275718826438
 97
        0
 97
        0
 75
     2
 76
     1
 98
        0
  0
ENDBLK
  5
52
330
4F
100
AcDbEntity
  8
0
100
AcDbBlockEnd
  0
BLOCK
  5
6C
330
6A
100
AcDbEntity
  8
0
100
AcDbBlockBegin
  2
block 3
 70
     0
 10
0.0
 20
0.0
 30
0.0
  3
block 3
  1

  0
SPLINE
  5
6E
330
6A
100
AcDbEntity
  8
_U+30EC_U+30A4_U+30E4_U+30FC 1
370
     0
100
AcDbSpline
210
0.0
220
0.0
230
1.0
 70
    11
 71
     3
 72
    26
 73
    22
 74
     0
 42
0.0000000001
 43
0.0000000001
 12
1.0
 22
0.0
 32
0.0
 13
1.0
 23
0.0
 33
0.0
 40
0.0
 40
0.0
 40
0.0
 40
0.0
 40
1.0
 40
1.0
 40
1.0
 40
2.0
 40
2.0
 40
2.0
 40
3.0
 40
3.0
 40
3.0
 40
4.0
 40
4.0
 40
4.0
 40
5.0
 40
5.0
 40
5.0
 40
6.0
 40
6.0
 40
6.0
 40
7.0
 40
7.0
 40
7.0
 40
7.0
 10
101.1934787073405
 20
-133.9504801097416
 30
0.0
 10
101.1934787073405
 20
-133.9504801097416
 30
0.0
 10
100.0893256043179
 20
-133.9504801097416
 30
0.0
 10
100.0893256043179
 20
-133.9504801097416
 30
0.0
 10
100.0893256043179
 20
-133.9504801097416
 30
0.0
 10
100.0893256043179
 20
-134.3029133778826
 30
0.0
 10
100.0893256043179
 20
-134.3029133778826
 30
0.0
 10
100.0893256043179
 20
-134.3029133778826
 30
0.0
 10
99.94118649845221
 20
-134.3029133778826
 30
0.0
 10
99.94118649845221
 20
-134.3029133778826
 30
0.0
 10
99.92637258786563
 20
-133.9480685429019
 30
0.0
 10
99.76341957141332
 20
-133.8984591679143
 30
0.0
 10
99.64904240130302
 20
-133.86676428945
 30
0.0
 10
99.64904240130302
 20
-133.86676428945
 30
0.0
 10
99.64904240130302
 20
-133.7107014639682
 30
0.0
 10
99.64904240130302
 20
-133.7107014639682
 30
0.0
 10
99.64904240130302
 20
-133.7107014639682
 30
0.0
 10
101.1934787073405
 20
-133.7107014639682
 30
0.0
 10
101.1934787073405
 20
-133.7107014639682
 30
0.0
 10
101.1934787073405
 20
-133.7107014639682
 30
0.0
 10
101.1934787073405
 20
-133.9504801097416
 30
0.0
 10
101.1934787073405
 20
-133.9504801097416
 30
0.0
  0
HATCH
  5
6F
330
6A
100
AcDbEntity
  8
_U+30EC_U+30A4_U+30E4_U+30FC 1
 62
   179
420
  2234388
100
AcDbHatch
 10
0.0
 20
0.0
 30
0.0
210
0.0
220
0.0
230
1.0
  2
SOLID
 70
     1
 71
     0
 91
        1
 92
        1
 93
        1
 72
     4
 94
        3
 73
     0
 74
     1
 95
       26
 96
       22
 40
0.0
 40
0.0
 40
0.0
 40
0.0
 40
1.0
 40
1.0
 40
1.0
 40
2.0
 40
2.0
 40
2.0
 40
3.0
 40
3.0
 40
3.0
 40
4.0
 40
4.0
 40
4.0
 40
5.0
 40
5.0
 40
5.0
 40
6.0
 40
6.0
 40
6.0
 40
7.0
 40
7.0
 40
7.0
 40
7.0
 10
101.1934787073405
 20
-133.9504801097416
 10
101.1934787073405
 20
-133.9504801097416
 10
100.0893256043179
 20
-133.9504801097416
 10
100.0893256043179
 20
-133.9504801097416
 10
100.0893256043179
 20
-133.9504801097416
 10
100.0893256043179
 20
-134.3029133778826
 10
100.0893256043179
 20
-134.3029133778826
 10
100.0893256043179
 20
-134.3029133778826
 10
99.94118649845221
 20
-134.3029133778826
 10
99.94118649845221
 20
-134.3029133778826
 10
99.92637258786563
 20
-133.9480685429019
 10
99.76341957141332
 20
-133.8984591679143
 10
99.64904240130302
 20
-133.86676428945
 10
99.64904240130302
 20
-133.86676428945
 10
99.64904240130302
 20
-133.7107014639682
 10
99.64904240130302
 20
-133.7107014639682
 10
99.64904240130302
 20
-133.7107014639682
 10
101.1934787073405
 20
-133.7107014639682
 10
101.1934787073405
 20
-133.7107014639682
 10
101.1934787073405
 20
-133.7107014639682
 10
101.1934787073405
 20
-133.9504801097416
 10
101.1934787073405
 20
-133.9504801097416
 97
        0
 97
        0
 75
     2
 76
     1
 98
        0
  0
ENDBLK
  5
6D
330
6A
100
AcDbEntity
  8
0
100
AcDbBlockEnd
  0
BLOCK
  5
AC
330
AA
100
AcDbEntity
  8
0
100
AcDbBlockBegin
  2
block 4
 70
     0
 10
0.0
 20
0.0
 30
0.0
  3
block 4
  1

  0
SPLINE
  5
AE
330
AA
100
AcDbEntity
  8
_U+30EC_U+30A4_U+30E4_U+30FC 1
370
     0
100
AcDbSpline
210
0.0
220
0.0
230
1.0
 70
    11
 71
     3
 72
    29
 73
    25
 74
     0
 42
0.0000000001
 43
0.0000000001
 12
1.0
 22
0.0
 32
0.0
 13
1.0
 23
0.0
 33
0.0
 40
0.0
 40
0.0
 40
0.0
 40
0.0
 40
1.0
 40
1.0
 40
1.0
 40
2.0
 40
2.0
 40
2.0
 40
3.0
 40
3.0
 40
3.0
 40
4.0
 40
4.0
 40
4.0
 40
5.0
 40
5.0
 40
5.0
 40
6.0
 40
6.0
 40
6.0
 40
7.0
 40
7.0
 40
7.0
 40
8.0
 40
8.0
 40
8.0
 40
8.0
 10
84.86751571229007
 20
-119.4387043972237
 30
0.0
 10
84.5826063156599
 20
-119.4387043972237
 30
0.0
 10
84.31130504619648
 20
-119.3010728325879
 30
0.0
 10
84.31130504619648
 20
-118.9520846599321
 30
0.0
 10
84.31130504619648
 20
-118.6961140653781
 30
0.0
 10
84.46271699277321
 20
-118.6008571752109
 30
0.0
 10
84.57588837946368
 20
-118.5395344755735
 30
0.0
 10
84.44239092941024
 20
-118.4802788332272
 30
0.0
 10
84.36108667595835
 20
-118.3660739178911
 30
0.0
 10
84.36108667595835
 20
-118.2053602135042
 30
0.0
 10
84.36108667595835
 20
-117.930269339007
 30
0.0
 10
84.57364906739826
 20
-117.7948770864367
 30
0.0
 10
84.86751571229007
 20
-117.7948770864367
 30
0.0
 10
85.17033960544353
 20
-117.7948770864367
 30
0.0
 10
85.3739447486218
 20
-117.9387098229459
 30
0.0
 10
85.3739447486218
 20
-118.2053602135042
 30
0.0
 10
85.3739447486218
 20
-118.3660739178911
 30
0.0
 10
85.29022892833022
 20
-118.4802788332272
 30
0.0
 10
85.15690373305105
 20
-118.5395344755735
 30
0.0
 10
85.25181611366969
 20
-118.5903496339809
 30
0.0
 10
85.42131481154398
 20
-118.685606524148
 30
0.0
 10
85.42131481154398
 20
-118.9477782905756
 30
0.0
 10
85.42131481154398
 20
-119.3222601698222
 30
0.0
 10
85.12296954252135
 20
-119.4387043972237
 30
0.0
 10
84.86751571229007
 20
-119.4387043972237
 30
0.0
  0
SPLINE
  5
AF
330
AA
100
AcDbEntity
  8
_U+30EC_U+30A4_U+30E4_U+30FC 1
370
     0
100
AcDbSpline
210
0.0
220
0.0
230
1.0
 70
    11
 71
     3
 72
    17
 73
    13
 74
     0
 42
0.0000000001
 43
0.0000000001
 12
1.0
 22
0.0
 32
0.0
 13
1.0
 23
0.0
 33
0.0
 40
0.0
 40
0.0
 40
0.0
 40
0.0
 40
1.0
 40
1.0
 40
1.0
 40
2.0
 40
2.0
 40
2.0
 40
3.0
 40
3.0
 40
3.0
 40
4.0
 40
4.0
 40
4.0
 40
4.0
 10
84.86751571229007
 20
-118.647538219036
 30
0.0
 10
84.71369219887366
 20
-118.647538219036
 30
0.0
 10
84.55091143719561
 20
-118.7341823704901
 30
0.0
 10
84.55091143719561
 20
-118.9372707493455
 30
0.0
 10
84.55091143719561
 20
-119.1424261854922
 30
0.0
 10
84.68664819931445
 20
-119.244056502307
 30
0.0
 10
84.86751571229007
 20
-119.244056502307
 30
0.0
 10
85.06646997656324
 20
-119.244056502307
 30
0.0
 10
85.18394773261026
 20
-119.1214111030322
 30
0.0
 10
85.18394773261026
 20
-118.9436441759933
 30
0.0
 10
85.18394773261026
 20
-118.7214355171946
 30
0.0
 10
85.00997041060515
 20
-118.647538219036
 30
0.0
 10
84.86751571229007
 20
-118.647538219036
 30
0.0
  0
SPLINE
  5
B0
330
AA
100
AcDbEntity
  8
_U+30EC_U+30A4_U+30E4_U+30FC 1
370
     0
100
AcDbSpline
210
0.0
220
0.0
230
1.0
 70
    11
 71
     3
 72
    17
 73
    13
 74
     0
 42
0.0000000001
 43
0.0000000001
 12
1.0
 22
0.0
 32
0.0
 13
1.0
 23
0.0
 33
0.0
 40
0.0
 40
0.0
 40
0.0
 40
0.0
 40
1.0
 40
1.0
 40
1.0
 40
2.0
 40
2.0
 40
2.0
 40
3.0
 40
3.0
 40
3.0
 40
4.0
 40
4.0
 40
4.0
 40
4.0
 10
84.86751571229007
 20
-117.9874579240622
 30
0.0
 10
84.69112682344527
 20
-117.9874579240622
 30
0.0
 10
84.60069306695748
 20
-118.0825425594551
 30
0.0
 10
84.60069306695748
 20
-118.2179348120254
 30
0.0
 10
84.60069306695748
 20
-118.3407524660745
 30
0.0
 10
84.67751869627854
 20
-118.4592637507671
 30
0.0
 10
84.86751571229007
 20
-118.4592637507671
 30
0.0
 10
85.05734047352733
 20
-118.4592637507671
 30
0.0
 10
85.13416610284841
 20
-118.3407524660745
 30
0.0
 10
85.13416610284841
 20
-118.2179348120254
 30
0.0
 10
85.13416610284841
 20
-118.0825425594551
 30
0.0
 10
85.04149303429519
 20
-117.9874579240622
 30
0.0
 10
84.86751571229007
 20
-117.9874579240622
 30
0.0
  0
HATCH
  5
B1
330
AA
100
AcDbEntity
  8
_U+30EC_U+30A4_U+30E4_U+30FC 1
 62
   179
420
  2234388
100
AcDbHatch
 10
0.0
 20
0.0
 30
0.0
210
0.0
220
0.0
230
1.0
  2
SOLID
 70
     1
 71
     0
 91
        3
 92
        1
 93
        1
 72
     4
 94
        3
 73
     0
 74
     1
 95
       29
 96
       25
 40
0.0
 40
0.0
 40
0.0
 40
0.0
 40
1.0
 40
1.0
 40
1.0
 40
2.0
 40
2.0
 40
2.0
 40
3.0
 40
3.0
 40
3.0
 40
4.0
 40
4.0
 40
4.0
 40
5.0
 40
5.0
 40
5.0
 40
6.0
 40
6.0
 40
6.0
 40
7.0
 40
7.0
 40
7.0
 40
8.0
 40
8.0
 40
8.0
 40
8.0
 10
84.86751571229007
 20
-119.4387043972237
 10
84.5826063156599
 20
-119.4387043972237
 10
84.31130504619648
 20
-119.3010728325879
 10
84.31130504619648
 20
-118.9520846599321
 10
84.31130504619648
 20
-118.6961140653781
 10
84.46271699277321
 20
-118.6008571752109
 10
84.57588837946368
 20
-118.5395344755735
 10
84.44239092941024
 20
-118.4802788332272
 10
84.36108667595835
 20
-118.3660739178911
 10
84.36108667595835
 20
-118.2053602135042
 10
84.36108667595835
 20
-117.930269339007
 10
84.57364906739826
 20
-117.7948770864367
 10
84.86751571229007
 20
-117.7948770864367
 10
85.17033960544353
 20
-117.7948770864367
 10
85.3739447486218
 20
-117.9387098229459
 10
85.3739447486218
 20
-118.2053602135042
 10
85.3739447486218
 20
-118.3660739178911
 10
85.29022892833022
 20
-118.4802788332272
 10
85.15690373305105
 20
-118.5395344755735
 10
85.25181611366969
 20
-118.5903496339809
 10
85.42131481154398
 20
-118.685606524148
 10
85.42131481154398
 20
-118.9477782905756
 10
85.42131481154398
 20
-119.3222601698222
 10
85.12296954252135
 20
-119.4387043972237
 10
84.86751571229007
 20
-119.4387043972237
 97
        0
 97
        0
 92
        1
 93
        1
 72
     4
 94
        3
 73
     0
 74
     1
 95
       17
 96
       13
 40
0.0
 40
0.0
 40
0.0
 40
0.0
 40
1.0
 40
1.0
 40
1.0
 40
2.0
 40
2.0
 40
2.0
 40
3.0
 40
3.0
 40
3.0
 40
4.0
 40
4.0
 40
4.0
 40
4.0
 10
84.86751571229007
 20
-118.647538219036
 10
84.71369219887366
 20
-118.647538219036
 10
84.55091143719561
 20
-118.7341823704901
 10
84.55091143719561
 20
-118.9372707493455
 10
84.55091143719561
 20
-119.1424261854922
 10
84.68664819931445
 20
-119.244056502307
 10
84.86751571229007
 20
-119.244056502307
 10
85.06646997656324
 20
-119.244056502307
 10
85.18394773261026
 20
-119.1214111030322
 10
85.18394773261026
 20
-118.9436441759933
 10
85.18394773261026
 20
-118.7214355171946
 10
85.00997041060515
 20
-118.647538219036
 10
84.86751571229007
 20
-118.647538219036
 97
        0
 97
        0
 92
        1
 93
        1
 72
     4
 94
        3
 73
     0
 74
     1
 95
       17
 96
       13
 40
0.0
 40
0.0
 40
0.0
 40
0.0
 40
1.0
 40
1.0
 40
1.0
 40
2.0
 40
2.0
 40
2.0
 40
3.0
 40
3.0
 40
3.0
 40
4.0
 40
4.0
 40
4.0
 40
4.0
 10
84.86751571229007
 20
-117.9874579240622
 10
84.69112682344527
 20
-117.9874579240622
 10
84.60069306695748
 20
-118.0825425594551
 10
84.60069306695748
 20
-118.2179348120254
 10
84.60069306695748
 20
-118.3407524660745
 10
84.67751869627854
 20
-118.4592637507671
 10
84.86751571229007
 20
-118.4592637507671
 10
85.05734047352733
 20
-118.4592637507671
 10
85.13416610284841
 20
-118.3407524660745
 10
85.13416610284841
 20
-118.2179348120254
 10
85.13416610284841
 20
-118.0825425594551
 10
85.04149303429519
 20
-117.9874579240622
 10
84.86751571229007
 20
-117.9874579240622
 97
        0
 97
        0
 75
     2
 76
     1
 98
        0
  0
ENDBLK
  5
AD
330
AA
100
AcDbEntity
  8
0
100
AcDbBlockEnd
  0
BLOCK
  5
C0
330
BE
100
AcDbEntity
  8
0
100
AcDbBlockBegin
  2
block 5
 70
     0
 10
0.0
 20
0.0
 30
0.0
  3
block 5
  1

  0
SPLINE
  5
C2
330
BE
100
AcDbEntity
  8
_U+30EC_U+30A4_U+30E4_U+30FC 1
370
     0
100
AcDbSpline
210
0.0
220
0.0
230
1.0
 70
    11
 71
     3
 72
    26
 73
    22
 74
     0
 42
0.0000000001
 43
0.0000000001
 12
1.0
 22
0.0
 32
0.0
 13
1.0
 23
0.0
 33
0.0
 40
0.0
 40
0.0
 40
0.0
 40
0.0
 40
1.0
 40
1.0
 40
1.0
 40
2.0
 40
2.0
 40
2.0
 40
3.0
 40
3.0
 40
3.0
 40
4.0
 40
4.0
 40
4.0
 40
5.0
 40
5.0
 40
5.0
 40
6.0
 40
6.0
 40
6.0
 40
7.0
 40
7.0
 40
7.0
 40
7.0
 10
89.14856361703578
 20
-137.8878797398336
 30
0.0
 10
89.14856361703578
 20
-137.8878797398336
 30
0.0
 10
89.14856361703578
 20
-136.783726636811
 30
0.0
 10
89.14856361703578
 20
-136.783726636811
 30
0.0
 10
89.14856361703578
 20
-136.783726636811
 30
0.0
 10
88.79613034889472
 20
-136.783726636811
 30
0.0
 10
88.79613034889472
 20
-136.783726636811
 30
0.0
 10
88.79613034889472
 20
-136.783726636811
 30
0.0
 10
88.79613034889472
 20
-136.6355875309453
 30
0.0
 10
88.79613034889472
 20
-136.6355875309453
 30
0.0
 10
89.15097518387546
 20
-136.6207736203587
 30
0.0
 10
89.20058455886306
 20
-136.4578206039064
 30
0.0
 10
89.23227943732735
 20
-136.3434434337961
 30
0.0
 10
89.23227943732735
 20
-136.3434434337961
 30
0.0
 10
89.38834226280918
 20
-136.3434434337961
 30
0.0
 10
89.38834226280918
 20
-136.3434434337961
 30
0.0
 10
89.38834226280918
 20
-136.3434434337961
 30
0.0
 10
89.38834226280918
 20
-137.8878797398336
 30
0.0
 10
89.38834226280918
 20
-137.8878797398336
 30
0.0
 10
89.38834226280918
 20
-137.8878797398336
 30
0.0
 10
89.14856361703578
 20
-137.8878797398336
 30
0.0
 10
89.14856361703578
 20
-137.8878797398336
 30
0.0
  0
HATCH
  5
C3
330
BE
100
AcDbEntity
  8
_U+30EC_U+30A4_U+30E4_U+30FC 1
 62
   179
420
  2234388
100
AcDbHatch
 10
0.0
 20
0.0
 30
0.0
210
0.0
220
0.0
230
1.0
  2
SOLID
 70
     1
 71
     0
 91
        1
 92
        1
 93
        1
 72
     4
 94
        3
 73
     0
 74
     1
 95
       26
 96
       22
 40
0.0
 40
0.0
 40
0.0
 40
0.0
 40
1.0
 40
1.0
 40
1.0
 40
2.0
 40
2.0
 40
2.0
 40
3.0
 40
3.0
 40
3.0
 40
4.0
 40
4.0
 40
4.0
 40
5.0
 40
5.0
 40
5.0
 40
6.0
 40
6.0
 40
6.0
 40
7.0
 40
7.0
 40
7.0
 40
7.0
 10
89.14856361703578
 20
-137.8878797398336
 10
89.14856361703578
 20
-137.8878797398336
 10
89.14856361703578
 20
-136.783726636811
 10
89.14856361703578
 20
-136.783726636811
 10
89.14856361703578
 20
-136.783726636811
 10
88.79613034889472
 20
-136.783726636811
 10
88.79613034889472
 20
-136.783726636811
 10
88.79613034889472
 20
-136.783726636811
 10
88.79613034889472
 20
-136.6355875309453
 10
88.79613034889472
 20
-136.6355875309453
 10
89.15097518387546
 20
-136.6207736203587
 10
89.20058455886306
 20
-136.4578206039064
 10
89.23227943732735
 20
-136.3434434337961
 10
89.23227943732735
 20
-136.3434434337961
 10
89.38834226280918
 20
-136.3434434337961
 10
89.38834226280918
 20
-136.3434434337961
 10
89.38834226280918
 20
-136.3434434337961
 10
89.38834226280918
 20
-137.8878797398336
 10
89.38834226280918
 20
-137.8878797398336
 10
89.38834226280918
 20
-137.8878797398336
 10
89.14856361703578
 20
-137.8878797398336
 10
89.14856361703578
 20
-137.8878797398336
 97
        0
 97
        0
 75
     2
 76
     1
 98
        0
  0
SPLINE
  5
C4
330
BE
100
AcDbEntity
  8
_U+30EC_U+30A4_U+30E4_U+30FC 1
370
     0
100
AcDbSpline
210
0.0
220
0.0
230
1.0
 70
    11
 71
     3
 72
    29
 73
    25
 74
     0
 42
0.0000000001
 43
0.0000000001
 12
1.0
 22
0.0
 32
0.0
 13
1.0
 23
0.0
 33
0.0
 40
0.0
 40
0.0
 40
0.0
 40
0.0
 40
1.0
 40
1.0
 40
1.0
 40
2.0
 40
2.0
 40
2.0
 40
3.0
 40
3.0
 40
3.0
 40
4.0
 40
4.0
 40
4.0
 40
5.0
 40
5.0
 40
5.0
 40
6.0
 40
6.0
 40
6.0
 40
7.0
 40
7.0
 40
7.0
 40
8.0
 40
8.0
 40
8.0
 40
8.0
 10
90.45838892052777
 20
-137.9385226434668
 30
0.0
 10
90.17347952389761
 20
-137.9385226434668
 30
0.0
 10
89.90235050920845
 20
-137.8010633336053
 30
0.0
 10
89.90235050920845
 20
-137.4520751609495
 30
0.0
 10
89.90235050920845
 20
-137.1961045663954
 30
0.0
 10
90.05393471055943
 20
-137.1010199310025
 30
0.0
 10
90.16693384247563
 20
-137.0396972313651
 30
0.0
 10
90.03360864719646
 20
-136.9804415890188
 30
0.0
 10
89.95195988419604
 20
-136.8660644189085
 30
0.0
 10
89.95195988419604
 20
-136.7051784597473
 30
0.0
 10
89.95195988419604
 20
-136.4302598400244
 30
0.0
 10
90.16452227563596
 20
-136.2948675874541
 30
0.0
 10
90.45838892052777
 20
-136.2948675874541
 30
0.0
 10
90.76155732322975
 20
-136.2948675874541
 30
0.0
 10
90.96481795685949
 20
-136.4388725787375
 30
0.0
 10
90.96481795685949
 20
-136.7051784597473
 30
0.0
 10
90.96481795685949
 20
-136.8660644189085
 30
0.0
 10
90.88144664611644
 20
-136.9804415890188
 30
0.0
 10
90.74777694128875
 20
-137.0396972313651
 30
0.0
 10
90.84286157668166
 20
-137.0903401349983
 30
0.0
 10
91.01236027455595
 20
-137.1854247703911
 30
0.0
 10
91.01236027455595
 20
-137.4479410463672
 30
0.0
 10
91.01236027455595
 20
-137.8224229256138
 30
0.0
 10
90.71401500553331
 20
-137.9385226434668
 30
0.0
 10
90.45838892052777
 20
-137.9385226434668
 30
0.0
  0
SPLINE
  5
C5
330
BE
100
AcDbEntity
  8
_U+30EC_U+30A4_U+30E4_U+30FC 1
370
     0
100
AcDbSpline
210
0.0
220
0.0
230
1.0
 70
    11
 71
     3
 72
    17
 73
    13
 74
     0
 42
0.0000000001
 43
0.0000000001
 12
1.0
 22
0.0
 32
0.0
 13
1.0
 23
0.0
 33
0.0
 40
0.0
 40
0.0
 40
0.0
 40
0.0
 40
1.0
 40
1.0
 40
1.0
 40
2.0
 40
2.0
 40
2.0
 40
3.0
 40
3.0
 40
3.0
 40
4.0
 40
4.0
 40
4.0
 40
4.0
 10
90.45838892052777
 20
-137.1475287200534
 30
0.0
 10
90.30473766188562
 20
-137.1475287200534
 30
0.0
 10
90.14212915498183
 20
-137.2343451262817
 30
0.0
 10
90.14212915498183
 20
-137.4372612503629
 30
0.0
 10
90.14212915498183
 20
-137.6425889412838
 30
0.0
 10
90.27752140755216
 20
-137.7438747485502
 30
0.0
 10
90.45838892052777
 20
-137.7438747485502
 30
0.0
 10
90.6575154395752
 20
-137.7438747485502
 30
0.0
 10
90.77499319562223
 20
-137.6212293492753
 30
0.0
 10
90.77499319562223
 20
-137.4434624222364
 30
0.0
 10
90.77499319562223
 20
-137.2215982729863
 30
0.0
 10
90.60101587361711
 20
-137.1475287200534
 30
0.0
 10
90.45838892052777
 20
-137.1475287200534
 30
0.0
  0
SPLINE
  5
C6
330
BE
100
AcDbEntity
  8
_U+30EC_U+30A4_U+30E4_U+30FC 1
370
     0
100
AcDbSpline
210
0.0
220
0.0
230
1.0
 70
    11
 71
     3
 72
    17
 73
    13
 74
     0
 42
0.0000000001
 43
0.0000000001
 12
1.0
 22
0.0
 32
0.0
 13
1.0
 23
0.0
 33
0.0
 40
0.0
 40
0.0
 40
0.0
 40
0.0
 40
1.0
 40
1.0
 40
1.0
 40
2.0
 40
2.0
 40
2.0
 40
3.0
 40
3.0
 40
3.0
 40
4.0
 40
4.0
 40
4.0
 40
4.0
 10
90.45838892052777
 20
-136.4874484250795
 30
0.0
 10
90.2823445412315
 20
-136.4874484250795
 30
0.0
 10
90.19173852996943
 20
-136.5825330604724
 30
0.0
 10
90.19173852996943
 20
-136.7179253130427
 30
0.0
 10
90.19173852996943
 20
-136.8405707123176
 30
0.0
 10
90.2685641592905
 20
-136.9590819970102
 30
0.0
 10
90.45838892052777
 20
-136.9590819970102
 30
0.0
 10
90.64855819131355
 20
-136.9590819970102
 30
0.0
 10
90.72538382063463
 20
-136.8405707123176
 30
0.0
 10
90.72538382063463
 20
-136.7179253130427
 30
0.0
 10
90.72538382063463
 20
-136.5825330604724
 30
0.0
 10
90.63271075208141
 20
-136.4874484250795
 30
0.0
 10
90.45838892052777
 20
-136.4874484250795
 30
0.0
  0
HATCH
  5
C7
330
BE
100
AcDbEntity
  8
_U+30EC_U+30A4_U+30E4_U+30FC 1
 62
   179
420
  2234388
100
AcDbHatch
 10
0.0
 20
0.0
 30
0.0
210
0.0
220
0.0
230
1.0
  2
SOLID
 70
     1
 71
     0
 91
        3
 92
        1
 93
        1
 72
     4
 94
        3
 73
     0
 74
     1
 95
       29
 96
       25
 40
0.0
 40
0.0
 40
0.0
 40
0.0
 40
1.0
 40
1.0
 40
1.0
 40
2.0
 40
2.0
 40
2.0
 40
3.0
 40
3.0
 40
3.0
 40
4.0
 40
4.0
 40
4.0
 40
5.0
 40
5.0
 40
5.0
 40
6.0
 40
6.0
 40
6.0
 40
7.0
 40
7.0
 40
7.0
 40
8.0
 40
8.0
 40
8.0
 40
8.0
 10
90.45838892052777
 20
-137.9385226434668
 10
90.17347952389761
 20
-137.9385226434668
 10
89.90235050920845
 20
-137.8010633336053
 10
89.90235050920845
 20
-137.4520751609495
 10
89.90235050920845
 20
-137.1961045663954
 10
90.05393471055943
 20
-137.1010199310025
 10
90.16693384247563
 20
-137.0396972313651
 10
90.03360864719646
 20
-136.9804415890188
 10
89.95195988419604
 20
-136.8660644189085
 10
89.95195988419604
 20
-136.7051784597473
 10
89.95195988419604
 20
-136.4302598400244
 10
90.16452227563596
 20
-136.2948675874541
 10
90.45838892052777
 20
-136.2948675874541
 10
90.76155732322975
 20
-136.2948675874541
 10
90.96481795685949
 20
-136.4388725787375
 10
90.96481795685949
 20
-136.7051784597473
 10
90.96481795685949
 20
-136.8660644189085
 10
90.88144664611644
 20
-136.9804415890188
 10
90.74777694128875
 20
-137.0396972313651
 10
90.84286157668166
 20
-137.0903401349983
 10
91.01236027455595
 20
-137.1854247703911
 10
91.01236027455595
 20
-137.4479410463672
 10
91.01236027455595
 20
-137.8224229256138
 10
90.71401500553331
 20
-137.9385226434668
 10
90.45838892052777
 20
-137.9385226434668
 97
        0
 97
        0
 92
        1
 93
        1
 72
     4
 94
        3
 73
     0
 74
     1
 95
       17
 96
       13
 40
0.0
 40
0.0
 40
0.0
 40
0.0
 40
1.0
 40
1.0
 40
1.0
 40
2.0
 40
2.0
 40
2.0
 40
3.0
 40
3.0
 40
3.0
 40
4.0
 40
4.0
 40
4.0
 40
4.0
 10
90.45838892052777
 20
-137.1475287200534
 10
90.30473766188562
 20
-137.1475287200534
 10
90.14212915498183
 20
-137.2343451262817
 10
90.14212915498183
 20
-137.4372612503629
 10
90.14212915498183
 20
-137.6425889412838
 10
90.27752140755216
 20
-137.7438747485502
 10
90.45838892052777
 20
-137.7438747485502
 10
90.6575154395752
 20
-137.7438747485502
 10
90.77499319562223
 20
-137.6212293492753
 10
90.77499319562223
 20
-137.4434624222364
 10
90.77499319562223
 20
-137.2215982729863
 10
90.60101587361711
 20
-137.1475287200534
 10
90.45838892052777
 20
-137.1475287200534
 97
        0
 97
        0
 92
        1
 93
        1
 72
     4
 94
        3
 73
     0
 74
     1
 95
       17
 96
       13
 40
0.0
 40
0.0
 40
0.0
 40
0.0
 40
1.0
 40
1.0
 40
1.0
 40
2.0
 40
2.0
 40
2.0
 40
3.0
 40
3.0
 40
3.0
 40
4.0
 40
4.0
 40
4.0
 40
4.0
 10
90.45838892052777
 20
-136.4874484250795
 10
90.2823445412315
 20
-136.4874484250795
 10
90.19173852996943
 20
-136.5825330604724
 10
90.19173852996943
 20
-136.7179253130427
 10
90.19173852996943
 20
-136.8405707123176
 10
90.2685641592905
 20
-136.9590819970102
 10
90.45838892052777
 20
-136.9590819970102
 10
90.64855819131355
 20
-136.9590819970102
 10
90.72538382063463
 20
-136.8405707123176
 10
90.72538382063463
 20
-136.7179253130427
 10
90.72538382063463
 20
-136.5825330604724
 10
90.63271075208141
 20
-136.4874484250795
 10
90.45838892052777
 20
-136.4874484250795
 97
        0
 97
        0
 75
     2
 76
     1
 98
        0
  0
ENDBLK
  5
C1
330
BE
100
AcDbEntity
  8
0
100
AcDbBlockEnd
  0
BLOCK
  5
D3
330
D1
100
AcDbEntity
  8
0
100
AcDbBlockBegin
  2
block 6
 70
     0
 10
0.0
 20
0.0
 30
0.0
  3
block 6
  1

  0
SPLINE
  5
D5
330
D1
100
AcDbEntity
  8
_U+30EC_U+30A4_U+30E4_U+30FC 1
370
     0
100
AcDbSpline
210
0.0
220
0.0
230
1.0
 70
    11
 71
     3
 72
    26
 73
    22
 74
     0
 42
0.0000000001
 43
0.0000000001
 12
1.0
 22
0.0
 32
0.0
 13
1.0
 23
0.0
 33
0.0
 40
0.0
 40
0.0
 40
0.0
 40
0.0
 40
1.0
 40
1.0
 40
1.0
 40
2.0
 40
2.0
 40
2.0
 40
3.0
 40
3.0
 40
3.0
 40
4.0
 40
4.0
 40
4.0
 40
5.0
 40
5.0
 40
5.0
 40
6.0
 40
6.0
 40
6.0
 40
7.0
 40
7.0
 40
7.0
 40
7.0
 10
78.88769122376766
 20
-128.5763034075261
 30
0.0
 10
78.88769122376766
 20
-128.5763034075261
 30
0.0
 10
78.88769122376766
 20
-127.4719780497292
 30
0.0
 10
78.88769122376766
 20
-127.4719780497292
 30
0.0
 10
78.88769122376766
 20
-127.4719780497292
 30
0.0
 10
78.55765107628073
 20
-127.4719780497292
 30
0.0
 10
78.55765107628073
 20
-127.4719780497292
 30
0.0
 10
78.55765107628073
 20
-127.4719780497292
 30
0.0
 10
78.55765107628073
 20
-127.3238389438635
 30
0.0
 10
78.55765107628073
 20
-127.3238389438635
 30
0.0
 10
78.88975828105882
 20
-127.3091972880512
 30
0.0
 10
78.9362670701097
 20
-127.1462442715989
 30
0.0
 10
78.96589489128283
 20
-127.0320393562628
 30
0.0
 10
78.96589489128283
 20
-127.0320393562628
 30
0.0
 10
79.11196693985742
 20
-127.0320393562628
 30
0.0
 10
79.11196693985742
 20
-127.0320393562628
 30
0.0
 10
79.11196693985742
 20
-127.0320393562628
 30
0.0
 10
79.11196693985742
 20
-128.5763034075261
 30
0.0
 10
79.11196693985742
 20
-128.5763034075261
 30
0.0
 10
79.11196693985742
 20
-128.5763034075261
 30
0.0
 10
78.88769122376766
 20
-128.5763034075261
 30
0.0
 10
78.88769122376766
 20
-128.5763034075261
 30
0.0
  0
HATCH
  5
D6
330
D1
100
AcDbEntity
  8
_U+30EC_U+30A4_U+30E4_U+30FC 1
 62
   179
420
  2234388
100
AcDbHatch
 10
0.0
 20
0.0
 30
0.0
210
0.0
220
0.0
230
1.0
  2
SOLID
 70
     1
 71
     0
 91
        1
 92
        1
 93
        1
 72
     4
 94
        3
 73
     0
 74
     1
 95
       26
 96
       22
 40
0.0
 40
0.0
 40
0.0
 40
0.0
 40
1.0
 40
1.0
 40
1.0
 40
2.0
 40
2.0
 40
2.0
 40
3.0
 40
3.0
 40
3.0
 40
4.0
 40
4.0
 40
4.0
 40
5.0
 40
5.0
 40
5.0
 40
6.0
 40
6.0
 40
6.0
 40
7.0
 40
7.0
 40
7.0
 40
7.0
 10
78.88769122376766
 20
-128.5763034075261
 10
78.88769122376766
 20
-128.5763034075261
 10
78.88769122376766
 20
-127.4719780497292
 10
78.88769122376766
 20
-127.4719780497292
 10
78.88769122376766
 20
-127.4719780497292
 10
78.55765107628073
 20
-127.4719780497292
 10
78.55765107628073
 20
-127.4719780497292
 10
78.55765107628073
 20
-127.4719780497292
 10
78.55765107628073
 20
-127.3238389438635
 10
78.55765107628073
 20
-127.3238389438635
 10
78.88975828105882
 20
-127.3091972880512
 10
78.9362670701097
 20
-127.1462442715989
 10
78.96589489128283
 20
-127.0320393562628
 10
78.96589489128283
 20
-127.0320393562628
 10
79.11196693985742
 20
-127.0320393562628
 10
79.11196693985742
 20
-127.0320393562628
 10
79.11196693985742
 20
-127.0320393562628
 10
79.11196693985742
 20
-128.5763034075261
 10
79.11196693985742
 20
-128.5763034075261
 10
79.11196693985742
 20
-128.5763034075261
 10
78.88769122376766
 20
-128.5763034075261
 10
78.88769122376766
 20
-128.5763034075261
 97
        0
 97
        0
 75
     2
 76
     1
 98
        0
  0
ENDBLK
  5
D4
330
D1
100
AcDbEntity
  8
0
100
AcDbBlockEnd
  0
ENDSEC
  0
SECTION
  2
ENTITIES
  0
SPLINE
  5
41
330
1F
100
AcDbEntity
  8
_U+30EC_U+30A4_U+30E4_U+30FC 1
 62
     7
420
 16777215
370
     9
100
AcDbSpline
210
0.0
220
0.0
230
1.0
 70
    11
 71
     3
 72
    17
 73
    13
 74
     0
 42
0.0000000001
 43
0.0000000001
 12
1.0
 22
0.0
 32
0.0
 13
1.0
 23
0.0
 33
0.0
 40
0.0
 40
0.0
 40
0.0
 40
0.0
 40
1.0
 40
1.0
 40
1.0
 40
2.0
 40
2.0
 40
2.0
 40
3.0
 40
3.0
 40
3.0
 40
4.0
 40
4.0
 40
4.0
 40
4.0
 10
102.859519875835
 20
-124.9270777465459
 30
0.0
 10
102.859519875835
 20
-124.871973857671
 30
0.0
 10
102.8147523769771
 20
-124.8271710799043
 30
0.0
 10
102.7596132117172
 20
-124.8271710799043
 30
0.0
 10
102.7045093242341
 20
-124.8271710799043
 30
0.0
 10
102.6597065475994
 20
-124.871973857671
 30
0.0
 10
102.6597065475994
 20
-124.9270777465459
 30
0.0
 10
102.6597065475994
 20
-124.982216913199
 30
0.0
 10
102.7045093242341
 20
-125.0269844131876
 30
0.0
 10
102.7596132117172
 20
-125.0269844131876
 30
0.0
 10
102.8147523769771
 20
-125.0269844131876
 30
0.0
 10
102.859519875835
 20
-124.982216913199
 30
0.0
 10
102.859519875835
 20
-124.9270777465459
 30
0.0
  0
SPLINE
  5
42
330
1F
100
AcDbEntity
  8
_U+30EC_U+30A4_U+30E4_U+30FC 1
 62
     7
420
 16777215
370
     9
100
AcDbSpline
210
0.0
220
0.0
230
1.0
 70
    11
 71
     3
 72
    17
 73
    13
 74
     0
 42
0.0000000001
 43
0.0000000001
 12
1.0
 22
0.0
 32
0.0
 13
1.0
 23
0.0
 33
0.0
 40
0.0
 40
0.0
 40
0.0
 40
0.0
 40
1.0
 40
1.0
 40
1.0
 40
2.0
 40
2.0
 40
2.0
 40
3.0
 40
3.0
 40
3.0
 40
4.0
 40
4.0
 40
4.0
 40
4.0
 10
102.859519875835
 20
-133.4271877444212
 30
0.0
 10
102.859519875835
 20
-133.3713430222126
 30
0.0
 10
102.8147523769771
 20
-133.326575522224
 30
0.0
 10
102.7596132117172
 20
-133.326575522224
 30
0.0
 10
102.7045093242341
 20
-133.326575522224
 30
0.0
 10
102.6597065475994
 20
-133.3713430222126
 30
0.0
 10
102.6597065475994
 20
-133.4271877444212
 30
0.0
 10
102.6597065475994
 20
-133.4822916332961
 30
0.0
 10
102.7045093242341
 20
-133.5270944110628
 30
0.0
 10
102.7596132117172
 20
-133.5270944110628
 30
0.0
 10
102.8147523769771
 20
-133.5270944110628
 30
0.0
 10
102.859519875835
 20
-133.4822916332961
 30
0.0
 10
102.859519875835
 20
-133.4271877444212
 30
0.0
  0
POLYLINE
  5
43
330
1F
100
AcDbEntity
  8
_U+30EC_U+30A4_U+30E4_U+30FC 1
 62
     7
420
 16777215
370
     9
100
AcDb2dPolyline
 66
     1
 10
0.0
 20
0.0
 30
0.0
  0
VERTEX
  5
44
330
43
100
AcDbEntity
  8
_U+30EC_U+30A4_U+30E4_U+30FC 1
 62
     7
420
 16777215
370
     9
100
AcDbVertex
100
AcDb2dVertex
 10
102.7596132117172
 20
-133.4271877444212
 30
0.0
  0
VERTEX
  5
45
330
43
100
AcDbEntity
  8
_U+30EC_U+30A4_U+30E4_U+30FC 1
 62
     7
420
 16777215
370
     9
100
AcDbVertex
100
AcDb2dVertex
 10
102.7596132117172
 20
-124.9270777465459
 30
0.0
  0
SEQEND
  5
46
330
43
100
AcDbEntity
  8
_U+30EC_U+30A4_U+30E4_U+30FC 1
 62
     7
420
 16777215
370
     9
  0
POLYLINE
  5
47
330
1F
100
AcDbEntity
  8
_U+30EC_U+30A4_U+30E4_U+30FC 1
 62
     7
420
 16777215
370
     9
100
AcDb2dPolyline
 66
     1
 10
0.0
 20
0.0
 30
0.0
  0
VERTEX
  5
48
330
47
100
AcDbEntity
  8
_U+30EC_U+30A4_U+30E4_U+30FC 1
 62
     7
420
 16777215
370
     9
100
AcDbVertex
100
AcDb2dVertex
 10
101.2423865837582
 20
-133.4233777444221
 30
0.0
  0
VERTEX
  5
49
330
47
100
AcDbEntity
  8
_U+30EC_U+30A4_U+30E4_U+30FC 1
 62
     7
420
 16777215
370
     9
100
AcDbVertex
100
AcDb2dVertex
 10
103.7600583073932
 20
-133.4271877444212
 30
0.0
  0
SEQEND
  5
4A
330
47
100
AcDbEntity
  8
_U+30EC_U+30A4_U+30E4_U+30FC 1
 62
     7
420
 16777215
370
     9
  0
POLYLINE
  5
4B
330
1F
100
AcDbEntity
  8
_U+30EC_U+30A4_U+30E4_U+30FC 1
 62
     7
420
 16777215
370
     9
100
AcDb2dPolyline
 66
     1
 10
0.0
 20
0.0
 30
0.0
  0
VERTEX
  5
4C
330
4B
100
AcDbEntity
  8
_U+30EC_U+30A4_U+30E4_U+30FC 1
 62
     7
420
 16777215
370
     9
100
AcDbVertex
100
AcDb2dVertex
 10
101.2995718600771
 20
-124.9270777465459
 30
0.0
  0
VERTEX
  5
4D
330
4B
100
AcDbEntity
  8
_U+30EC_U+30A4_U+30E4_U+30FC 1
 62
     7
420
 16777215
370
     9
100
AcDbVertex
100
AcDb2dVertex
 10
103.7600583073932
 20
-124.9270777465459
 30
0.0
  0
SEQEND
  5
4E
330
4B
100
AcDbEntity
  8
_U+30EC_U+30A4_U+30E4_U+30FC 1
 62
     7
420
 16777215
370
     9
  0
INSERT
  5
50
330
1F
100
AcDbEntity
  8
_U+30EC_U+30A4_U+30E4_U+30FC 1
100
AcDbBlockReference
  2
block 2
 10
0.0
 20
0.0
 30
0.0
  0
SPLINE
  5
61
330
1F
100
AcDbEntity
  8
_U+30EC_U+30A4_U+30E4_U+30FC 1
 62
   179
420
  2234388
370
     9
100
AcDbSpline
210
0.0
220
0.0
230
1.0
 70
    11
 71
     3
 72
    17
 73
    13
 74
     0
 42
0.0000000001
 43
0.0000000001
 12
1.0
 22
0.0
 32
0.0
 13
1.0
 23
0.0
 33
0.0
 40
0.0
 40
0.0
 40
0.0
 40
0.0
 40
1.0
 40
1.0
 40
1.0
 40
2.0
 40
2.0
 40
2.0
 40
3.0
 40
3.0
 40
3.0
 40
4.0
 40
4.0
 40
4.0
 40
4.0
 10
102.8616012646708
 20
-134.4269246886156
 30
0.0
 10
102.8616012646708
 20
-134.3711152441851
 30
0.0
 10
102.8167984880361
 20
-134.3263477441959
 30
0.0
 10
102.7616971965317
 20
-134.3263477441959
 30
0.0
 10
102.706555435293
 20
-134.3263477441959
 30
0.0
 10
102.6617879364351
 20
-134.3711152441851
 30
0.0
 10
102.6617879364351
 20
-134.4269246886156
 30
0.0
 10
102.6617879364351
 20
-134.4820638552686
 30
0.0
 10
102.706555435293
 20
-134.5268313552572
 30
0.0
 10
102.7616971965317
 20
-134.5268313552572
 30
0.0
 10
102.8167984880361
 20
-134.5268313552572
 30
0.0
 10
102.8616012646708
 20
-134.4820638552686
 30
0.0
 10
102.8616012646708
 20
-134.4269246886156
 30
0.0
  0
POLYLINE
  5
62
330
1F
100
AcDbEntity
  8
_U+30EC_U+30A4_U+30E4_U+30FC 1
 62
   179
420
  2234388
370
     9
100
AcDb2dPolyline
 66
     1
 10
0.0
 20
0.0
 30
0.0
  0
VERTEX
  5
63
330
62
100
AcDbEntity
  8
_U+30EC_U+30A4_U+30E4_U+30FC 1
 62
   179
420
  2234388
370
     9
100
AcDbVertex
100
AcDb2dVertex
 10
102.7616971965317
 20
-134.4266071886153
 30
0.0
  0
VERTEX
  5
64
330
62
100
AcDbEntity
  8
_U+30EC_U+30A4_U+30E4_U+30FC 1
 62
   179
420
  2234388
370
     9
100
AcDbVertex
100
AcDb2dVertex
 10
102.7616971965317
 20
-133.4264821888657
 30
0.0
  0
SEQEND
  5
65
330
62
100
AcDbEntity
  8
_U+30EC_U+30A4_U+30E4_U+30FC 1
 62
   179
420
  2234388
370
     9
  0
POLYLINE
  5
66
330
1F
100
AcDbEntity
  8
_U+30EC_U+30A4_U+30E4_U+30FC 1
 62
   179
420
  2234388
370
     9
100
AcDb2dPolyline
 66
     1
 10
0.0
 20
0.0
 30
0.0
  0
VERTEX
  5
67
330
66
100
AcDbEntity
  8
_U+30EC_U+30A4_U+30E4_U+30FC 1
 62
   179
420
  2234388
370
     9
100
AcDbVertex
100
AcDb2dVertex
 10
101.2809804716625
 20
-134.4266071886153
 30
0.0
  0
VERTEX
  5
68
330
66
100
AcDbEntity
  8
_U+30EC_U+30A4_U+30E4_U+30FC 1
 62
   179
420
  2234388
370
     9
100
AcDbVertex
100
AcDb2dVertex
 10
103.7614694185042
 20
-134.4266071886153
 30
0.0
  0
SEQEND
  5
69
330
66
100
AcDbEntity
  8
_U+30EC_U+30A4_U+30E4_U+30FC 1
 62
   179
420
  2234388
370
     9
  0
INSERT
  5
6B
330
1F
100
AcDbEntity
  8
_U+30EC_U+30A4_U+30E4_U+30FC 1
100
AcDbBlockReference
  2
block 3
 10
0.0
 20
0.0
 30
0.0
  0
SPLINE
  5
70
330
1F
100
AcDbEntity
  8
_U+30EC_U+30A4_U+30E4_U+30FC 1
370
     0
100
AcDbSpline
210
0.0
220
0.0
230
1.0
 70
    11
 71
     3
 72
    44
 73
    40
 74
     0
 42
0.0000000001
 43
0.0000000001
 12
1.0
 22
0.0
 32
0.0
 13
1.0
 23
0.0
 33
0.0
 40
0.0
 40
0.0
 40
0.0
 40
0.0
 40
1.0
 40
1.0
 40
1.0
 40
2.0
 40
2.0
 40
2.0
 40
3.0
 40
3.0
 40
3.0
 40
4.0
 40
4.0
 40
4.0
 40
5.0
 40
5.0
 40
5.0
 40
6.0
 40
6.0
 40
6.0
 40
7.0
 40
7.0
 40
7.0
 40
8.0
 40
8.0
 40
8.0
 40
9.0
 40
9.0
 40
9.0
 40
10.0
 40
10.0
 40
10.0
 40
11.0
 40
11.0
 40
11.0
 40
12.0
 40
12.0
 40
12.0
 40
13.0
 40
13.0
 40
13.0
 40
13.0
 10
98.32509082485129
 20
-133.9842591331705
 30
0.0
 10
98.32509082485129
 20
-133.9842591331705
 30
0.0
 10
88.82506773388373
 20
-133.9842591331705
 30
0.0
 10
88.82506773388373
 20
-133.9842591331705
 30
0.0
 10
88.64659746065911
 20
-133.6748730221366
 30
0.0
 10
88.3165738579676
 20
-133.4846905221841
 30
0.0
 10
87.95896303375768
 20
-133.4846905221841
 30
0.0
 10
87.95896303375768
 20
-133.4846905221841
 30
0.0
 10
81.82461624581346
 20
-133.4846905221841
 30
0.0
 10
81.82461624581346
 20
-133.4846905221841
 30
0.0
 10
81.82461624581346
 20
-133.4846905221841
 30
0.0
 10
81.82461624581346
 20
-124.9842630243096
 30
0.0
 10
81.82461624581346
 20
-124.9842630243096
 30
0.0
 10
81.82461624581346
 20
-124.9842630243096
 30
0.0
 10
88.82506773388373
 20
-124.9842630243096
 30
0.0
 10
88.82506773388373
 20
-124.9842630243096
 30
0.0
 10
88.82506773388373
 20
-124.9842630243096
 30
0.0
 10
88.82506773388373
 20
-124.3844702466817
 30
0.0
 10
88.82506773388373
 20
-124.3844702466817
 30
0.0
 10
88.82506773388373
 20
-124.3844702466817
 30
0.0
 10
86.81518695182673
 20
-124.183633857843
 30
0.0
 10
86.81518695182673
 20
-124.183633857843
 30
0.0
 10
85.48884837455333
 20
-124.0506366356542
 30
0.0
 10
84.1576414640708
 20
-123.9844908023374
 30
0.0
 10
82.82509399806692
 20
-123.9844908023374
 30
0.0
 10
82.82509399806692
 20
-123.9844908023374
 30
0.0
 10
80.82487932687442
 20
-123.9844908023374
 30
0.0
 10
80.82487932687442
 20
-123.9844908023374
 30
0.0
 10
80.82487932687442
 20
-123.9844908023374
 30
0.0
 10
80.82487932687442
 20
-133.684503855468
 30
0.0
 10
80.82487932687442
 20
-133.684503855468
 30
0.0
 10
80.82487932687442
 20
-134.1261816331349
 30
0.0
 10
81.18316042884503
 20
-134.4844627441566
 30
0.0
 10
81.6248029175778
 20
-134.4844627441566
 30
0.0
 10
81.6248029175778
 20
-134.4844627441566
 30
0.0
 10
98.82462414544045
 20
-134.4844627441566
 30
0.0
 10
98.82462414544045
 20
-134.4844627441566
 30
0.0
 10
98.82462414544045
 20
-134.2081671886702
 30
0.0
 10
98.60068330868302
 20
-133.9842591331705
 30
0.0
 10
98.32509082485129
 20
-133.9842591331705
 30
0.0
  0
HATCH
  5
71
330
1F
100
AcDbEntity
  8
_U+30EC_U+30A4_U+30E4_U+30FC 1
 62
   253
420
 11711154
100
AcDbHatch
 10
0.0
 20
0.0
 30
0.0
210
0.0
220
0.0
230
1.0
  2
SOLID
 70
     1
 71
     0
 91
        1
 92
        1
 93
        1
 72
     4
 94
        3
 73
     0
 74
     1
 95
       44
 96
       40
 40
0.0
 40
0.0
 40
0.0
 40
0.0
 40
1.0
 40
1.0
 40
1.0
 40
2.0
 40
2.0
 40
2.0
 40
3.0
 40
3.0
 40
3.0
 40
4.0
 40
4.0
 40
4.0
 40
5.0
 40
5.0
 40
5.0
 40
6.0
 40
6.0
 40
6.0
 40
7.0
 40
7.0
 40
7.0
 40
8.0
 40
8.0
 40
8.0
 40
9.0
 40
9.0
 40
9.0
 40
10.0
 40
10.0
 40
10.0
 40
11.0
 40
11.0
 40
11.0
 40
12.0
 40
12.0
 40
12.0
 40
13.0
 40
13.0
 40
13.0
 40
13.0
 10
98.32509082485129
 20
-133.9842591331705
 10
98.32509082485129
 20
-133.9842591331705
 10
88.82506773388373
 20
-133.9842591331705
 10
88.82506773388373
 20
-133.9842591331705
 10
88.64659746065911
 20
-133.6748730221366
 10
88.3165738579676
 20
-133.4846905221841
 10
87.95896303375768
 20
-133.4846905221841
 10
87.95896303375768
 20
-133.4846905221841
 10
81.82461624581346
 20
-133.4846905221841
 10
81.82461624581346
 20
-133.4846905221841
 10
81.82461624581346
 20
-133.4846905221841
 10
81.82461624581346
 20
-124.9842630243096
 10
81.82461624581346
 20
-124.9842630243096
 10
81.82461624581346
 20
-124.9842630243096
 10
88.82506773388373
 20
-124.9842630243096
 10
88.82506773388373
 20
-124.9842630243096
 10
88.82506773388373
 20
-124.9842630243096
 10
88.82506773388373
 20
-124.3844702466817
 10
88.82506773388373
 20
-124.3844702466817
 10
88.82506773388373
 20
-124.3844702466817
 10
86.81518695182673
 20
-124.183633857843
 10
86.81518695182673
 20
-124.183633857843
 10
85.48884837455333
 20
-124.0506366356542
 10
84.1576414640708
 20
-123.9844908023374
 10
82.82509399806692
 20
-123.9844908023374
 10
82.82509399806692
 20
-123.9844908023374
 10
80.82487932687442
 20
-123.9844908023374
 10
80.82487932687442
 20
-123.9844908023374
 10
80.82487932687442
 20
-123.9844908023374
 10
80.82487932687442
 20
-133.684503855468
 10
80.82487932687442
 20
-133.684503855468
 10
80.82487932687442
 20
-134.1261816331349
 10
81.18316042884503
 20
-134.4844627441566
 10
81.6248029175778
 20
-134.4844627441566
 10
81.6248029175778
 20
-134.4844627441566
 10
98.82462414544045
 20
-134.4844627441566
 10
98.82462414544045
 20
-134.4844627441566
 10
98.82462414544045
 20
-134.2081671886702
 10
98.60068330868302
 20
-133.9842591331705
 10
98.32509082485129
 20
-133.9842591331705
 97
        0
 97
        0
 75
     2
 76
     1
 98
        0
  0
POLYLINE
  5
72
330
1F
100
AcDbEntity
  8
_U+30EC_U+30A4_U+30E4_U+30FC 1
 62
   179
420
  2234388
370
    25
100
AcDb2dPolyline
 66
     1
 10
0.0
 20
0.0
 30
0.0
  0
VERTEX
  5
73
330
72
100
AcDbEntity
  8
_U+30EC_U+30A4_U+30E4_U+30FC 1
 62
   179
420
  2234388
370
    25
100
AcDbVertex
100
AcDb2dVertex
 10
81.82461624581346
 20
-124.9842630243096
 30
0.0
  0
VERTEX
  5
74
330
72
100
AcDbEntity
  8
_U+30EC_U+30A4_U+30E4_U+30FC 1
 62
   179
420
  2234388
370
    25
100
AcDbVertex
100
AcDb2dVertex
 10
88.82506773388373
 20
-124.9842630243096
 30
0.0
  0
SEQEND
  5
75
330
72
100
AcDbEntity
  8
_U+30EC_U+30A4_U+30E4_U+30FC 1
 62
   179
420
  2234388
370
    25
  0
POLYLINE
  5
76
330
1F
100
AcDbEntity
  8
_U+30EC_U+30A4_U+30E4_U+30FC 1
 62
   179
420
  2234388
370
    25
100
AcDb2dPolyline
 66
     1
 10
0.0
 20
0.0
 30
0.0
  0
VERTEX
  5
77
330
76
100
AcDbEntity
  8
_U+30EC_U+30A4_U+30E4_U+30FC 1
 62
   179
420
  2234388
370
    25
100
AcDbVertex
100
AcDb2dVertex
 10
80.82487932687442
 20
-123.9844908023374
 30
0.0
  0
VERTEX
  5
78
330
76
100
AcDbEntity
  8
_U+30EC_U+30A4_U+30E4_U+30FC 1
 62
   179
420
  2234388
370
    25
100
AcDbVertex
100
AcDb2dVertex
 10
82.82509399806692
 20
-123.9844908023374
 30
0.0
  0
SEQEND
  5
79
330
76
100
AcDbEntity
  8
_U+30EC_U+30A4_U+30E4_U+30FC 1
 62
   179
420
  2234388
370
    25
  0
POLYLINE
  5
7A
330
1F
100
AcDbEntity
  8
_U+30EC_U+30A4_U+30E4_U+30FC 1
 62
   179
420
  2234388
370
    25
100
AcDb2dPolyline
 66
     1
 10
0.0
 20
0.0
 30
0.0
  0
VERTEX
  5
7B
330
7A
100
AcDbEntity
  8
_U+30EC_U+30A4_U+30E4_U+30FC 1
 62
   179
420
  2234388
370
    25
100
AcDbVertex
100
AcDb2dVertex
 10
81.82461624581346
 20
-133.4846905221841
 30
0.0
  0
VERTEX
  5
7C
330
7A
100
AcDbEntity
  8
_U+30EC_U+30A4_U+30E4_U+30FC 1
 62
   179
420
  2234388
370
    25
100
AcDbVertex
100
AcDb2dVertex
 10
87.95896303375768
 20
-133.4846905221841
 30
0.0
  0
SEQEND
  5
7D
330
7A
100
AcDbEntity
  8
_U+30EC_U+30A4_U+30E4_U+30FC 1
 62
   179
420
  2234388
370
    25
  0
POLYLINE
  5
7E
330
1F
100
AcDbEntity
  8
_U+30EC_U+30A4_U+30E4_U+30FC 1
 62
   179
420
  2234388
370
    25
100
AcDb2dPolyline
 66
     1
 10
0.0
 20
0.0
 30
0.0
  0
VERTEX
  5
7F
330
7E
100
AcDbEntity
  8
_U+30EC_U+30A4_U+30E4_U+30FC 1
 62
   179
420
  2234388
370
    25
100
AcDbVertex
100
AcDb2dVertex
 10
81.6248029175778
 20
-134.4844627441566
 30
0.0
  0
VERTEX
  5
80
330
7E
100
AcDbEntity
  8
_U+30EC_U+30A4_U+30E4_U+30FC 1
 62
   179
420
  2234388
370
    25
100
AcDbVertex
100
AcDb2dVertex
 10
98.82462414544045
 20
-134.4844627441566
 30
0.0
  0
SEQEND
  5
81
330
7E
100
AcDbEntity
  8
_U+30EC_U+30A4_U+30E4_U+30FC 1
 62
   179
420
  2234388
370
    25
  0
POLYLINE
  5
82
330
1F
100
AcDbEntity
  8
_U+30EC_U+30A4_U+30E4_U+30FC 1
 62
   179
420
  2234388
370
    25
100
AcDb2dPolyline
 66
     1
 10
0.0
 20
0.0
 30
0.0
  0
VERTEX
  5
83
330
82
100
AcDbEntity
  8
_U+30EC_U+30A4_U+30E4_U+30FC 1
 62
   179
420
  2234388
370
    25
100
AcDbVertex
100
AcDb2dVertex
 10
88.82506773388373
 20
-124.3844702466817
 30
0.0
  0
VERTEX
  5
84
330
82
100
AcDbEntity
  8
_U+30EC_U+30A4_U+30E4_U+30FC 1
 62
   179
420
  2234388
370
    25
100
AcDbVertex
100
AcDb2dVertex
 10
88.82506773388373
 20
-124.9842630243096
 30
0.0
  0
SEQEND
  5
85
330
82
100
AcDbEntity
  8
_U+30EC_U+30A4_U+30E4_U+30FC 1
 62
   179
420
  2234388
370
    25
  0
POLYLINE
  5
86
330
1F
100
AcDbEntity
  8
_U+30EC_U+30A4_U+30E4_U+30FC 1
 62
   179
420
  2234388
370
    25
100
AcDb2dPolyline
 66
     1
 10
0.0
 20
0.0
 30
0.0
  0
VERTEX
  5
87
330
86
100
AcDbEntity
  8
_U+30EC_U+30A4_U+30E4_U+30FC 1
 62
   179
420
  2234388
370
    25
100
AcDbVertex
100
AcDb2dVertex
 10
80.82487932687442
 20
-123.9844908023374
 30
0.0
  0
VERTEX
  5
88
330
86
100
AcDbEntity
  8
_U+30EC_U+30A4_U+30E4_U+30FC 1
 62
   179
420
  2234388
370
    25
100
AcDbVertex
100
AcDb2dVertex
 10
80.82487932687442
 20
-133.684503855468
 30
0.0
  0
SEQEND
  5
89
330
86
100
AcDbEntity
  8
_U+30EC_U+30A4_U+30E4_U+30FC 1
 62
   179
420
  2234388
370
    25
  0
POLYLINE
  5
8A
330
1F
100
AcDbEntity
  8
_U+30EC_U+30A4_U+30E4_U+30FC 1
 62
   179
420
  2234388
370
    25
100
AcDb2dPolyline
 66
     1
 10
0.0
 20
0.0
 30
0.0
  0
VERTEX
  5
8B
330
8A
100
AcDbEntity
  8
_U+30EC_U+30A4_U+30E4_U+30FC 1
 62
   179
420
  2234388
370
    25
100
AcDbVertex
100
AcDb2dVertex
 10
81.82461624581346
 20
-124.9842630243096
 30
0.0
  0
VERTEX
  5
8C
330
8A
100
AcDbEntity
  8
_U+30EC_U+30A4_U+30E4_U+30FC 1
 62
   179
420
  2234388
370
    25
100
AcDbVertex
100
AcDb2dVertex
 10
81.82461624581346
 20
-133.4846905221841
 30
0.0
  0
SEQEND
  5
8D
330
8A
100
AcDbEntity
  8
_U+30EC_U+30A4_U+30E4_U+30FC 1
 62
   179
420
  2234388
370
    25
  0
POLYLINE
  5
8E
330
1F
100
AcDbEntity
  8
_U+30EC_U+30A4_U+30E4_U+30FC 1
 62
   179
420
  2234388
370
    25
100
AcDb2dPolyline
 66
     1
 10
0.0
 20
0.0
 30
0.0
  0
VERTEX
  5
8F
330
8E
100
AcDbEntity
  8
_U+30EC_U+30A4_U+30E4_U+30FC 1
 62
   179
420
  2234388
370
    25
100
AcDbVertex
100
AcDb2dVertex
 10
86.81518695182673
 20
-124.183633857843
 30
0.0
  0
VERTEX
  5
90
330
8E
100
AcDbEntity
  8
_U+30EC_U+30A4_U+30E4_U+30FC 1
 62
   179
420
  2234388
370
    25
100
AcDbVertex
100
AcDb2dVertex
 10
88.82506773388373
 20
-124.3844702466817
 30
0.0
  0
SEQEND
  5
91
330
8E
100
AcDbEntity
  8
_U+30EC_U+30A4_U+30E4_U+30FC 1
 62
   179
420
  2234388
370
    25
  0
POLYLINE
  5
92
330
1F
100
AcDbEntity
  8
_U+30EC_U+30A4_U+30E4_U+30FC 1
 62
   179
420
  2234388
370
    25
100
AcDb2dPolyline
 66
     1
 10
0.0
 20
0.0
 30
0.0
  0
VERTEX
  5
93
330
92
100
AcDbEntity
  8
_U+30EC_U+30A4_U+30E4_U+30FC 1
 62
   179
420
  2234388
370
    25
100
AcDbVertex
100
AcDb2dVertex
 10
88.82506773388373
 20
-133.9842591331705
 30
0.0
  0
VERTEX
  5
94
330
92
100
AcDbEntity
  8
_U+30EC_U+30A4_U+30E4_U+30FC 1
 62
   179
420
  2234388
370
    25
100
AcDbVertex
100
AcDb2dVertex
 10
98.32509082485129
 20
-133.9842591331705
 30
0.0
  0
SEQEND
  5
95
330
92
100
AcDbEntity
  8
_U+30EC_U+30A4_U+30E4_U+30FC 1
 62
   179
420
  2234388
370
    25
  0
SPLINE
  5
96
330
1F
100
AcDbEntity
  8
_U+30EC_U+30A4_U+30E4_U+30FC 1
 62
   179
420
  2234388
370
    25
100
AcDbSpline
210
0.0
220
0.0
230
1.0
 70
     8
 71
     3
 72
     8
 73
     4
 74
     0
 42
0.0000000001
 43
0.0000000001
 12
1.0
 22
0.0
 32
0.0
 13
1.0
 23
0.0
 33
0.0
 40
0.0
 40
0.0
 40
0.0
 40
0.0
 40
1.0
 40
1.0
 40
1.0
 40
1.0
 10
80.82487932687442
 20
-133.684503855468
 30
0.0
 10
80.82487932687442
 20
-134.1261816331349
 30
0.0
 10
81.18316042884503
 20
-134.4844627441566
 30
0.0
 10
81.6248029175778
 20
-134.4844627441566
 30
0.0
  0
SPLINE
  5
97
330
1F
100
AcDbEntity
  8
_U+30EC_U+30A4_U+30E4_U+30FC 1
 62
   179
420
  2234388
370
    25
100
AcDbSpline
210
0.0
220
0.0
230
1.0
 70
     8
 71
     3
 72
     8
 73
     4
 74
     0
 42
0.0000000001
 43
0.0000000001
 12
1.0
 22
0.0
 32
0.0
 13
1.0
 23
0.0
 33
0.0
 40
0.0
 40
0.0
 40
0.0
 40
0.0
 40
1.0
 40
1.0
 40
1.0
 40
1.0
 10
98.82462414544045
 20
-134.4844627441566
 30
0.0
 10
98.82462414544045
 20
-134.2081671886702
 30
0.0
 10
98.60068330868302
 20
-133.9842591331705
 30
0.0
 10
98.32509082485129
 20
-133.9842591331705
 30
0.0
  0
SPLINE
  5
98
330
1F
100
AcDbEntity
  8
_U+30EC_U+30A4_U+30E4_U+30FC 1
 62
   179
420
  2234388
370
    25
100
AcDbSpline
210
0.0
220
0.0
230
1.0
 70
     8
 71
     3
 72
     8
 73
     4
 74
     0
 42
0.0000000001
 43
0.0000000001
 12
1.0
 22
0.0
 32
0.0
 13
1.0
 23
0.0
 33
0.0
 40
0.0
 40
0.0
 40
0.0
 40
0.0
 40
1.0
 40
1.0
 40
1.0
 40
1.0
 10
88.82506773388373
 20
-133.9842591331705
 30
0.0
 10
88.64659746065911
 20
-133.6748730221366
 30
0.0
 10
88.3165738579676
 20
-133.4846905221841
 30
0.0
 10
87.95896303375768
 20
-133.4846905221841
 30
0.0
  0
SPLINE
  5
99
330
1F
100
AcDbEntity
  8
_U+30EC_U+30A4_U+30E4_U+30FC 1
 62
   179
420
  2234388
370
    25
100
AcDbSpline
210
0.0
220
0.0
230
1.0
 70
     8
 71
     3
 72
     8
 73
     4
 74
     0
 42
0.0000000001
 43
0.0000000001
 12
1.0
 22
0.0
 32
0.0
 13
1.0
 23
0.0
 33
0.0
 40
0.0
 40
0.0
 40
0.0
 40
0.0
 40
1.0
 40
1.0
 40
1.0
 40
1.0
 10
86.81518695182673
 20
-124.183633857843
 30
0.0
 10
85.48884837455333
 20
-124.0506366356542
 30
0.0
 10
84.1576414640708
 20
-123.9844908023374
 30
0.0
 10
82.82509399806692
 20
-123.9844908023374
 30
0.0
  0
SPLINE
  5
9A
330
1F
100
AcDbEntity
  8
_U+30EC_U+30A4_U+30E4_U+30FC 1
 62
   179
420
  2234388
370
     9
100
AcDbSpline
210
0.0
220
0.0
230
1.0
 70
    11
 71
     3
 72
    17
 73
    13
 74
     0
 42
0.0000000001
 43
0.0000000001
 12
1.0
 22
0.0
 32
0.0
 13
1.0
 23
0.0
 33
0.0
 40
0.0
 40
0.0
 40
0.0
 40
0.0
 40
1.0
 40
1.0
 40
1.0
 40
2.0
 40
2.0
 40
2.0
 40
3.0
 40
3.0
 40
3.0
 40
4.0
 40
4.0
 40
4.0
 40
4.0
 10
80.92478599099226
 20
-119.9844141366706
 30
0.0
 10
80.92478599099226
 20
-119.9292749700178
 30
0.0
 10
80.8799832143575
 20
-119.8845074700289
 30
0.0
 10
80.82487932687442
 20
-119.8845074700289
 30
0.0
 10
80.76974016161448
 20
-119.8845074700289
 30
0.0
 10
80.7249726627566
 20
-119.9292749700178
 30
0.0
 10
80.7249726627566
 20
-119.9844141366706
 30
0.0
 10
80.7249726627566
 20
-120.0398708033232
 30
0.0
 10
80.76974016161448
 20
-120.08467358109
 30
0.0
 10
80.82487932687442
 20
-120.08467358109
 30
0.0
 10
80.8799832143575
 20
-120.08467358109
 30
0.0
 10
80.92478599099226
 20
-120.0398708033232
 30
0.0
 10
80.92478599099226
 20
-119.9844141366706
 30
0.0
  0
SPLINE
  5
9B
330
1F
100
AcDbEntity
  8
_U+30EC_U+30A4_U+30E4_U+30FC 1
 62
   179
420
  2234388
370
     9
100
AcDbSpline
210
0.0
220
0.0
230
1.0
 70
    11
 71
     3
 72
    17
 73
    13
 74
     0
 42
0.0000000001
 43
0.0000000001
 12
1.0
 22
0.0
 32
0.0
 13
1.0
 23
0.0
 33
0.0
 40
0.0
 40
0.0
 40
0.0
 40
0.0
 40
1.0
 40
1.0
 40
1.0
 40
2.0
 40
2.0
 40
2.0
 40
3.0
 40
3.0
 40
3.0
 40
4.0
 40
4.0
 40
4.0
 40
4.0
 10
88.92497439800157
 20
-119.9844141366706
 30
0.0
 10
88.92497439800157
 20
-119.9292749700178
 30
0.0
 10
88.8801716213668
 20
-119.8845074700289
 30
0.0
 10
88.82506773388373
 20
-119.8845074700289
 30
0.0
 10
88.76992856862378
 20
-119.8845074700289
 30
0.0
 10
88.72516106976589
 20
-119.9292749700178
 30
0.0
 10
88.72516106976589
 20
-119.9844141366706
 30
0.0
 10
88.72516106976589
 20
-120.0398708033232
 30
0.0
 10
88.76992856862378
 20
-120.08467358109
 30
0.0
 10
88.82506773388373
 20
-120.08467358109
 30
0.0
 10
88.8801716213668
 20
-120.08467358109
 30
0.0
 10
88.92497439800157
 20
-120.0398708033232
 30
0.0
 10
88.92497439800157
 20
-119.9844141366706
 30
0.0
  0
SPLINE
  5
9C
330
1F
100
AcDbEntity
  8
_U+30EC_U+30A4_U+30E4_U+30FC 1
 62
   179
420
  2234388
370
     9
100
AcDbSpline
210
0.0
220
0.0
230
1.0
 70
    11
 71
     3
 72
    17
 73
    13
 74
     0
 42
0.0000000001
 43
0.0000000001
 12
1.0
 22
0.0
 32
0.0
 13
1.0
 23
0.0
 33
0.0
 40
0.0
 40
0.0
 40
0.0
 40
0.0
 40
1.0
 40
1.0
 40
1.0
 40
2.0
 40
2.0
 40
2.0
 40
3.0
 40
3.0
 40
3.0
 40
4.0
 40
4.0
 40
4.0
 40
4.0
 10
80.92478599099226
 20
-138.4845746876013
 30
0.0
 10
80.92478599099226
 20
-138.429118020948
 30
0.0
 10
80.8799832143575
 20
-138.3843152431819
 30
0.0
 10
80.82487932687442
 20
-138.3843152431819
 30
0.0
 10
80.76974016161448
 20
-138.3843152431819
 30
0.0
 10
80.7249726627566
 20
-138.429118020948
 30
0.0
 10
80.7249726627566
 20
-138.4845746876013
 30
0.0
 10
80.7249726627566
 20
-138.5396785764762
 30
0.0
 10
80.76974016161448
 20
-138.5844813542429
 30
0.0
 10
80.82487932687442
 20
-138.5844813542429
 30
0.0
 10
80.8799832143575
 20
-138.5844813542429
 30
0.0
 10
80.92478599099226
 20
-138.5396785764762
 30
0.0
 10
80.92478599099226
 20
-138.4845746876013
 30
0.0
  0
SPLINE
  5
9D
330
1F
100
AcDbEntity
  8
_U+30EC_U+30A4_U+30E4_U+30FC 1
 62
   179
420
  2234388
370
     9
100
AcDbSpline
210
0.0
220
0.0
230
1.0
 70
    11
 71
     3
 72
    17
 73
    13
 74
     0
 42
0.0000000001
 43
0.0000000001
 12
1.0
 22
0.0
 32
0.0
 13
1.0
 23
0.0
 33
0.0
 40
0.0
 40
0.0
 40
0.0
 40
0.0
 40
1.0
 40
1.0
 40
1.0
 40
2.0
 40
2.0
 40
2.0
 40
3.0
 40
3.0
 40
3.0
 40
4.0
 40
4.0
 40
4.0
 40
4.0
 10
98.92453330860194
 20
-138.4845746876013
 30
0.0
 10
98.92453330860194
 20
-138.429118020948
 30
0.0
 10
98.87976331070041
 20
-138.3843152431819
 30
0.0
 10
98.82462414544045
 20
-138.3843152431819
 30
0.0
 10
98.76952025795738
 20
-138.3843152431819
 30
0.0
 10
98.72471748132263
 20
-138.429118020948
 30
0.0
 10
98.72471748132263
 20
-138.4845746876013
 30
0.0
 10
98.72471748132263
 20
-138.5396785764762
 30
0.0
 10
98.76952025795738
 20
-138.5844813542429
 30
0.0
 10
98.82462414544045
 20
-138.5844813542429
 30
0.0
 10
98.87976331070041
 20
-138.5844813542429
 30
0.0
 10
98.92453330860194
 20
-138.5396785764762
 30
0.0
 10
98.92453330860194
 20
-138.4845746876013
 30
0.0
  0
POLYLINE
  5
9E
330
1F
100
AcDbEntity
  8
_U+30EC_U+30A4_U+30E4_U+30FC 1
 62
   179
420
  2234388
370
     9
100
AcDb2dPolyline
 66
     1
 10
0.0
 20
0.0
 30
0.0
  0
VERTEX
  5
9F
330
9E
100
AcDbEntity
  8
_U+30EC_U+30A4_U+30E4_U+30FC 1
 62
   179
420
  2234388
370
     9
100
AcDbVertex
100
AcDb2dVertex
 10
80.82487932687442
 20
-119.9844141366706
 30
0.0
  0
VERTEX
  5
A0
330
9E
100
AcDbEntity
  8
_U+30EC_U+30A4_U+30E4_U+30FC 1
 62
   179
420
  2234388
370
     9
100
AcDbVertex
100
AcDb2dVertex
 10
88.82506773388373
 20
-119.9844141366706
 30
0.0
  0
SEQEND
  5
A1
330
9E
100
AcDbEntity
  8
_U+30EC_U+30A4_U+30E4_U+30FC 1
 62
   179
420
  2234388
370
     9
  0
POLYLINE
  5
A2
330
1F
100
AcDbEntity
  8
_U+30EC_U+30A4_U+30E4_U+30FC 1
 62
   179
420
  2234388
370
     9
100
AcDb2dPolyline
 66
     1
 10
0.0
 20
0.0
 30
0.0
  0
VERTEX
  5
A3
330
A2
100
AcDbEntity
  8
_U+30EC_U+30A4_U+30E4_U+30FC 1
 62
   179
420
  2234388
370
     9
100
AcDbVertex
100
AcDb2dVertex
 10
80.82487932687442
 20
-121.4444555251946
 30
0.0
  0
VERTEX
  5
A4
330
A2
100
AcDbEntity
  8
_U+30EC_U+30A4_U+30E4_U+30FC 1
 62
   179
420
  2234388
370
     9
100
AcDbVertex
100
AcDb2dVertex
 10
80.82487932687442
 20
-118.9842891369206
 30
0.0
  0
SEQEND
  5
A5
330
A2
100
AcDbEntity
  8
_U+30EC_U+30A4_U+30E4_U+30FC 1
 62
   179
420
  2234388
370
     9
  0
POLYLINE
  5
A6
330
1F
100
AcDbEntity
  8
_U+30EC_U+30A4_U+30E4_U+30FC 1
 62
   179
420
  2234388
370
     9
100
AcDb2dPolyline
 66
     1
 10
0.0
 20
0.0
 30
0.0
  0
VERTEX
  5
A7
330
A6
100
AcDbEntity
  8
_U+30EC_U+30A4_U+30E4_U+30FC 1
 62
   179
420
  2234388
370
     9
100
AcDbVertex
100
AcDb2dVertex
 10
88.82506773388373
 20
-121.8443996917611
 30
0.0
  0
VERTEX
  5
A8
330
A6
100
AcDbEntity
  8
_U+30EC_U+30A4_U+30E4_U+30FC 1
 62
   179
420
  2234388
370
     9
100
AcDbVertex
100
AcDb2dVertex
 10
88.82506773388373
 20
-118.9842891369206
 30
0.0
  0
SEQEND
  5
A9
330
A6
100
AcDbEntity
  8
_U+30EC_U+30A4_U+30E4_U+30FC 1
 62
   179
420
  2234388
370
     9
  0
INSERT
  5
AB
330
1F
100
AcDbEntity
  8
_U+30EC_U+30A4_U+30E4_U+30FC 1
100
AcDbBlockReference
  2
block 4
 10
0.0
 20
0.0
 30
0.0
  0
POLYLINE
  5
B2
330
1F
100
AcDbEntity
  8
_U+30EC_U+30A4_U+30E4_U+30FC 1
 62
   179
420
  2234388
370
     9
100
AcDb2dPolyline
 66
     1
 10
0.0
 20
0.0
 30
0.0
  0
VERTEX
  5
B3
330
B2
100
AcDbEntity
  8
_U+30EC_U+30A4_U+30E4_U+30FC 1
 62
   179
420
  2234388
370
     9
100
AcDbVertex
100
AcDb2dVertex
 10
80.82487932687442
 20
-138.4845746876013
 30
0.0
  0
VERTEX
  5
B4
330
B2
100
AcDbEntity
  8
_U+30EC_U+30A4_U+30E4_U+30FC 1
 62
   179
420
  2234388
370
     9
100
AcDbVertex
100
AcDb2dVertex
 10
98.82462414544045
 20
-138.4845746876013
 30
0.0
  0
SEQEND
  5
B5
330
B2
100
AcDbEntity
  8
_U+30EC_U+30A4_U+30E4_U+30FC 1
 62
   179
420
  2234388
370
     9
  0
POLYLINE
  5
B6
330
1F
100
AcDbEntity
  8
_U+30EC_U+30A4_U+30E4_U+30FC 1
 62
   179
420
  2234388
370
     9
100
AcDb2dPolyline
 66
     1
 10
0.0
 20
0.0
 30
0.0
  0
VERTEX
  5
B7
330
B6
100
AcDbEntity
  8
_U+30EC_U+30A4_U+30E4_U+30FC 1
 62
   179
420
  2234388
370
     9
100
AcDbVertex
100
AcDb2dVertex
 10
80.82487932687442
 20
-136.2242569103881
 30
0.0
  0
VERTEX
  5
B8
330
B6
100
AcDbEntity
  8
_U+30EC_U+30A4_U+30E4_U+30FC 1
 62
   179
420
  2234388
370
     9
100
AcDbVertex
100
AcDb2dVertex
 10
80.82487932687442
 20
-139.4843469095732
 30
0.0
  0
SEQEND
  5
B9
330
B6
100
AcDbEntity
  8
_U+30EC_U+30A4_U+30E4_U+30FC 1
 62
   179
420
  2234388
370
     9
  0
POLYLINE
  5
BA
330
1F
100
AcDbEntity
  8
_U+30EC_U+30A4_U+30E4_U+30FC 1
 62
   179
420
  2234388
370
     9
100
AcDb2dPolyline
 66
     1
 10
0.0
 20
0.0
 30
0.0
  0
VERTEX
  5
BB
330
BA
100
AcDbEntity
  8
_U+30EC_U+30A4_U+30E4_U+30FC 1
 62
   179
420
  2234388
370
     9
100
AcDbVertex
100
AcDb2dVertex
 10
98.82462414544045
 20
-137.0245332990769
 30
0.0
  0
VERTEX
  5
BC
330
BA
100
AcDbEntity
  8
_U+30EC_U+30A4_U+30E4_U+30FC 1
 62
   179
420
  2234388
370
     9
100
AcDbVertex
100
AcDb2dVertex
 10
98.82462414544045
 20
-139.4843469095732
 30
0.0
  0
SEQEND
  5
BD
330
BA
100
AcDbEntity
  8
_U+30EC_U+30A4_U+30E4_U+30FC 1
 62
   179
420
  2234388
370
     9
  0
INSERT
  5
BF
330
1F
100
AcDbEntity
  8
_U+30EC_U+30A4_U+30E4_U+30FC 1
100
AcDbBlockReference
  2
block 5
 10
0.0
 20
0.0
 30
0.0
  0
SPLINE
  5
C8
330
1F
100
AcDbEntity
  8
_U+30EC_U+30A4_U+30E4_U+30FC 1
 62
   179
420
  2234388
370
     9
100
AcDbSpline
210
0.0
220
0.0
230
1.0
 70
    11
 71
     3
 72
    17
 73
    13
 74
     0
 42
0.0000000001
 43
0.0000000001
 12
1.0
 22
0.0
 32
0.0
 13
1.0
 23
0.0
 33
0.0
 40
0.0
 40
0.0
 40
0.0
 40
0.0
 40
1.0
 40
1.0
 40
1.0
 40
2.0
 40
2.0
 40
2.0
 40
3.0
 40
3.0
 40
3.0
 40
4.0
 40
4.0
 40
4.0
 40
4.0
 10
80.93512237961745
 20
-129.1687013565964
 30
0.0
 10
80.93512237961745
 20
-129.113562189944
 30
0.0
 10
80.89031960298269
 20
-129.0687946899548
 30
0.0
 10
80.83451015996206
 20
-129.0687946899548
 30
0.0
 10
80.7794083131384
 20
-129.0687946899548
 30
0.0
 10
80.734605535372
 20
-129.113562189944
 30
0.0
 10
80.734605535372
 20
-129.1687013565964
 30
0.0
 10
80.734605535372
 20
-129.223805245472
 30
0.0
 10
80.7794083131384
 20
-129.2686080232387
 30
0.0
 10
80.83451015996206
 20
-129.2686080232387
 30
0.0
 10
80.89031960298269
 20
-129.2686080232387
 30
0.0
 10
80.93512237961745
 20
-129.223805245472
 30
0.0
 10
80.93512237961745
 20
-129.1687013565964
 30
0.0
  0
SPLINE
  5
C9
330
1F
100
AcDbEntity
  8
_U+30EC_U+30A4_U+30E4_U+30FC 1
 62
   179
420
  2234388
370
     9
100
AcDbSpline
210
0.0
220
0.0
230
1.0
 70
    11
 71
     3
 72
    17
 73
    13
 74
     0
 42
0.0000000001
 43
0.0000000001
 12
1.0
 22
0.0
 32
0.0
 13
1.0
 23
0.0
 33
0.0
 40
0.0
 40
0.0
 40
0.0
 40
0.0
 40
1.0
 40
1.0
 40
1.0
 40
2.0
 40
2.0
 40
2.0
 40
3.0
 40
3.0
 40
3.0
 40
4.0
 40
4.0
 40
4.0
 40
4.0
 10
81.93485929855647
 20
-129.1687013565964
 30
0.0
 10
81.93485929855647
 20
-129.113562189944
 30
0.0
 10
81.8900917996986
 20
-129.0687946899548
 30
0.0
 10
81.83428235667797
 20
-129.0687946899548
 30
0.0
 10
81.77914319141802
 20
-129.0687946899548
 30
0.0
 10
81.73437775734422
 20
-129.113562189944
 30
0.0
 10
81.73437775734422
 20
-129.1687013565964
 30
0.0
 10
81.73437775734422
 20
-129.223805245472
 30
0.0
 10
81.77914319141802
 20
-129.2686080232387
 30
0.0
 10
81.83428235667797
 20
-129.2686080232387
 30
0.0
 10
81.8900917996986
 20
-129.2686080232387
 30
0.0
 10
81.93485929855647
 20
-129.223805245472
 30
0.0
 10
81.93485929855647
 20
-129.1687013565964
 30
0.0
  0
POLYLINE
  5
CA
330
1F
100
AcDbEntity
  8
_U+30EC_U+30A4_U+30E4_U+30FC 1
  6
AI-Linetype-1
 62
   251
420
  5855577
370
    25
100
AcDb2dPolyline
 66
     1
 10
0.0
 20
0.0
 30
0.0
  0
VERTEX
  5
CB
330
CA
100
AcDbEntity
  8
_U+30EC_U+30A4_U+30E4_U+30FC 1
  6
AI-Linetype-1
 62
   251
420
  5855577
370
    25
100
AcDbVertex
100
AcDb2dVertex
 10
89.39660299708044
 20
-125.0156249687461
 30
0.0
  0
VERTEX
  5
CC
330
CA
100
AcDbEntity
  8
_U+30EC_U+30A4_U+30E4_U+30FC 1
  6
AI-Linetype-1
 62
   251
420
  5855577
370
    25
100
AcDbVertex
100
AcDb2dVertex
 10
89.39660299708044
 20
-123.3840277469318
 30
0.0
  0
VERTEX
  5
CD
330
CA
100
AcDbEntity
  8
_U+30EC_U+30A4_U+30E4_U+30FC 1
  6
AI-Linetype-1
 62
   251
420
  5855577
370
    25
100
AcDbVertex
100
AcDb2dVertex
 10
80.22438100886109
 20
-123.3840277469318
 30
0.0
  0
VERTEX
  5
CE
330
CA
100
AcDbEntity
  8
_U+30EC_U+30A4_U+30E4_U+30FC 1
  6
AI-Linetype-1
 62
   251
420
  5855577
370
    25
100
AcDbVertex
100
AcDb2dVertex
 10
80.22438100886109
 20
-134.5743857996897
 30
0.0
  0
SEQEND
  5
D0
330
CA
100
AcDbEntity
  8
_U+30EC_U+30A4_U+30E4_U+30FC 1
  6
AI-Linetype-1
 62
   251
420
  5855577
370
    25
  0
INSERT
  5
D2
330
1F
100
AcDbEntity
  8
_U+30EC_U+30A4_U+30E4_U+30FC 1
100
AcDbBlockReference
  2
block 6
 10
0.0
 20
0.0
 30
0.0
  0
POLYLINE
  5
D7
330
1F
100
AcDbEntity
  8
_U+30EC_U+30A4_U+30E4_U+30FC 1
 62
   179
420
  2234388
370
     9
100
AcDb2dPolyline
 66
     1
 10
0.0
 20
0.0
 30
0.0
  0
VERTEX
  5
D8
330
D7
100
AcDbEntity
  8
_U+30EC_U+30A4_U+30E4_U+30FC 1
 62
   179
420
  2234388
370
     9
100
AcDbVertex
100
AcDb2dVertex
 10
82.67385816859193
 20
-129.1648913565974
 30
0.0
  0
VERTEX
  5
D9
330
D7
100
AcDbEntity
  8
_U+30EC_U+30A4_U+30E4_U+30FC 1
 62
   179
420
  2234388
370
     9
100
AcDbVertex
100
AcDb2dVertex
 10
78.0849955078858
 20
-129.1648913565974
 30
0.0
  0
SEQEND
  5
DA
330
D7
100
AcDbEntity
  8
_U+30EC_U+30A4_U+30E4_U+30FC 1
 62
   179
420
  2234388
370
     9
  0
ENDSEC
  0
SECTION
  2
OBJECTS
  0
DICTIONARY
  5
C
330
0
100
AcDbDictionary
281
     1
  3
ACAD_GROUP
350
D
  3
ACAD_LAYOUT
350
1A
  3
ACAD_MATERIAL
350
3B
  3
ACAD_MLEADERSTYLE
350
DC
  3
ACAD_MLINESTYLE
350
17
  3
ACAD_PLOTSETTINGS
350
19
  3
ACAD_PLOTSTYLENAME
350
E
  3
ACAD_TABLESTYLE
350
DB
  3
ACAD_VISUALSTYLE
350
2A
  0
SUN
  5
3F
330
29
100
AcDbSun
 90
        1
290
     0
 63
     7
421
 16777215
 40
1.0
291
     1
 91
  2455826
 92
 54000000
292
     0
 70
     2
 71
   256
280
     1
  0
DICTIONARY
  5
D
102
{ACAD_REACTORS
330
C
102
}
330
C
100
AcDbDictionary
281
     1
  0
DICTIONARY
  5
1A
102
{ACAD_REACTORS
330
C
102
}
330
C
100
AcDbDictionary
281
     1
  3
Layout1
350
1E
  3
Layout2
350
26
  3
Model
350
22
  0
DICTIONARY
  5
3B
102
{ACAD_REACTORS
330
C
102
}
330
C
100
AcDbDictionary
281
     1
  3
ByBlock
350
3D
  3
ByLayer
350
3C
  3
Global
350
3E
  0
DICTIONARY
  5
DC
102
{ACAD_REACTORS
330
C
102
}
330
C
100
AcDbDictionary
281
     1
  0
DICTIONARY
  5
17
102
{ACAD_REACTORS
330
C
102
}
330
C
100
AcDbDictionary
281
     1
  3
Standard
350
18
  0
DICTIONARY
  5
19
102
{ACAD_REACTORS
330
C
102
}
330
C
100
AcDbDictionary
281
     1
  0
ACDBDICTIONARYWDFLT
  5
E
102
{ACAD_REACTORS
330
C
102
}
330
C
100
AcDbDictionary
281
     1
  3
Normal
350
F
100
AcDbDictionaryWithDefault
340
F
  0
DICTIONARY
  5
DB
102
{ACAD_REACTORS
330
C
102
}
330
C
100
AcDbDictionary
281
     1
  0
DICTIONARY
  5
2A
102
{ACAD_REACTORS
330
C
102
}
330
C
100
AcDbDictionary
281
     1
  3
2dWireframe
350
2F
  3
3D Hidden
350
31
  3
3dWireframe
350
30
  3
Basic
350
32
  3
Brighten
350
36
  3
ColorChange
350
3A
  3
Conceptual
350
34
  3
Dim
350
35
  3
Facepattern
350
39
  3
Flat
350
2B
  3
FlatWithEdges
350
2C
  3
Gouraud
350
2D
  3
GouraudWithEdges
350
2E
  3
Linepattern
350
38
  3
Realistic
350
33
  3
Thicken
350
37
  0
LAYOUT
  5
1E
102
{ACAD_REACTORS
330
1A
102
}
330
1A
100
AcDbPlotSettings
  1

  2
none_device
  4

  6

 40
0.0
 41
0.0
 42
0.0
 43
0.0
 44
0.0
 45
0.0
 46
0.0
 47
0.0
 48
0.0
 49
0.0
140
0.0
141
0.0
142
1.0
143
1.0
 70
   688
 72
     0
 73
     0
 74
     5
  7

 75
    16
 76
     0
 77
     2
 78
   300
147
1.0
148
0.0
149
0.0
100
AcDbLayout
  1
Layout1
 70
     1
 71
     1
 10
0.0
 20
0.0
 11
12.0
 21
9.0
 12
0.0
 22
0.0
 32
0.0
 14
1.000000000000000E+20
 24
1.000000000000000E+20
 34
1.000000000000000E+20
 15
-1.000000000000000E+20
 25
-1.000000000000000E+20
 35
-1.000000000000000E+20
146
0.0
 13
0.0
 23
0.0
 33
0.0
 16
1.0
 26
0.0
 36
0.0
 17
0.0
 27
1.0
 37
0.0
 76
     0
330
1B
  0
LAYOUT
  5
26
102
{ACAD_REACTORS
330
1A
102
}
330
1A
100
AcDbPlotSettings
  1

  2
none_device
  4

  6

 40
0.0
 41
0.0
 42
0.0
 43
0.0
 44
0.0
 45
0.0
 46
0.0
 47
0.0
 48
0.0
 49
0.0
140
0.0
141
0.0
142
1.0
143
1.0
 70
   688
 72
     0
 73
     0
 74
     5
  7

 75
    16
 76
     0
 77
     2
 78
   300
147
1.0
148
0.0
149
0.0
100
AcDbLayout
  1
Layout2
 70
     1
 71
     2
 10
0.0
 20
0.0
 11
0.0
 21
0.0
 12
0.0
 22
0.0
 32
0.0
 14
0.0
 24
0.0
 34
0.0
 15
0.0
 25
0.0
 35
0.0
146
0.0
 13
0.0
 23
0.0
 33
0.0
 16
1.0
 26
0.0
 36
0.0
 17
0.0
 27
1.0
 37
0.0
 76
     0
330
23
  0
LAYOUT
  5
22
102
{ACAD_REACTORS
330
1A
102
}
330
1A
100
AcDbPlotSettings
  1

  2
none_device
  4

  6

 40
0.0
 41
0.0
 42
0.0
 43
0.0
 44
0.0
 45
0.0
 46
0.0
 47
0.0
 48
0.0
 49
0.0
140
0.0
141
0.0
142
1.0
143
1.0
 70
  1712
 72
     0
 73
     0
 74
     0
  7

 75
     0
 76
     0
 77
     2
 78
   300
147
1.0
148
0.0
149
0.0
100
AcDbLayout
  1
Model
 70
     1
 71
     0
 10
0.0
 20
0.0
 11
12.0
 21
9.0
 12
0.0
 22
0.0
 32
0.0
 14
1.000000000000000E+20
 24
1.000000000000000E+20
 34
1.000000000000000E+20
 15
-1.000000000000000E+20
 25
-1.000000000000000E+20
 35
-1.000000000000000E+20
146
0.0
 13
0.0
 23
0.0
 33
0.0
 16
1.0
 26
0.0
 36
0.0
 17
0.0
 27
1.0
 37
0.0
 76
     0
330
1F
331
29
  0
MATERIAL
  5
3D
102
{ACAD_REACTORS
330
3B
102
}
330
3B
100
AcDbMaterial
  1
ByBlock
 72
     1
 94
      127
  0
MATERIAL
  5
3C
102
{ACAD_REACTORS
330
3B
102
}
330
3B
100
AcDbMaterial
  1
ByLayer
 72
     1
 94
      127
  0
MATERIAL
  5
3E
102
{ACAD_REACTORS
330
3B
102
}
330
3B
100
AcDbMaterial
  1
Global
 72
     1
 94
      127
  0
MLINESTYLE
  5
18
102
{ACAD_REACTORS
330
17
102
}
330
17
100
AcDbMlineStyle
  2
Standard
 70
     0
  3

 62
   256
 51
90.0
 52
90.0
 71
     2
 49
0.5
 62
   256
  6
BYLAYER
 49
-0.5
 62
   256
  6
BYLAYER
  0
ACDBPLACEHOLDER
  5
F
102
{ACAD_REACTORS
330
E
102
}
330
E
  0
VISUALSTYLE
  5
2F
102
{ACAD_REACTORS
330
2A
102
}
330
2A
100
AcDbVisualStyle
  2
2dWireframe
 70
     4
177
     2
291
     0
 71
     0
176
     1
 72
     2
176
     1
 73
     0
176
     1
 90
        0
176
     1
 40
-0.6
176
     1
 41
-30.0
176
     1
 62
     5
 63
     7
421
 16777215
176
     1
 74
     1
176
     1
 91
        4
176
     1
 64
     7
176
     1
 65
   257
176
     1
 75
     1
176
     1
175
     1
176
     1
 42
1.0
176
     1
 92
        0
176
     1
 66
   257
176
     1
 43
1.0
176
     1
 76
     1
176
     1
 77
     6
176
     1
 78
     2
176
     1
 67
     7
176
     1
 79
     5
176
     1
170
     0
176
     1
171
     0
176
     1
290
     0
176
     1
 93
        1
176
     1
 44
0.0
176
     1
173
     0
176
     1
  0
VISUALSTYLE
  5
31
102
{ACAD_REACTORS
330
2A
102
}
330
2A
100
AcDbVisualStyle
  2
3D Hidden
 70
     6
177
     2
291
     0
 71
     1
176
     1
 72
     2
176
     1
 73
     2
176
     1
 90
        0
176
     1
 40
-0.6
176
     1
 41
-30.0
176
     1
 62
     5
 63
     7
421
 16777215
176
     1
 74
     2
176
     1
 91
        2
176
     1
 64
     7
176
     1
 65
   257
176
     1
 75
     2
176
     1
175
     1
176
     1
 42
40.0
176
     1
 92
        0
176
     1
 66
   257
176
     1
 43
1.0
176
     1
 76
     1
176
     1
 77
     6
176
     1
 78
     2
176
     1
 67
     7
176
     1
 79
     3
176
     1
170
     0
176
     1
171
     0
176
     1
290
     0
176
     1
 93
        1
176
     1
 44
0.0
176
     1
173
     0
176
     1
  0
VISUALSTYLE
  5
30
102
{ACAD_REACTORS
330
2A
102
}
330
2A
100
AcDbVisualStyle
  2
3dWireframe
 70
     5
177
     2
291
     0
 71
     0
176
     1
 72
     2
176
     1
 73
     0
176
     1
 90
        0
176
     1
 40
-0.6
176
     1
 41
-30.0
176
     1
 62
     5
 63
     7
421
 16777215
176
     1
 74
     1
176
     1
 91
        4
176
     1
 64
     7
176
     1
 65
   257
176
     1
 75
     1
176
     1
175
     1
176
     1
 42
1.0
176
     1
 92
        0
176
     1
 66
   257
176
     1
 43
1.0
176
     1
 76
     1
176
     1
 77
     6
176
     1
 78
     2
176
     1
 67
     7
176
     1
 79
     5
176
     1
170
     0
176
     1
171
     0
176
     1
290
     0
176
     1
 93
        1
176
     1
 44
0.0
176
     1
173
     0
176
     1
  0
VISUALSTYLE
  5
32
102
{ACAD_REACTORS
330
2A
102
}
330
2A
100
AcDbVisualStyle
  2
Basic
 70
     7
177
     2
291
     1
 71
     1
176
     1
 72
     0
176
     1
 73
     1
176
     1
 90
        0
176
     1
 40
-0.6
176
     1
 41
-30.0
176
     1
 62
     5
 63
     7
421
 16777215
176
     1
 74
     0
176
     1
 91
        4
176
     1
 64
     7
176
     1
 65
   257
176
     1
 75
     1
176
     1
175
     1
176
     1
 42
1.0
176
     1
 92
        8
176
     1
 66
     7
176
     1
 43
1.0
176
     1
 76
     1
176
     1
 77
     6
176
     1
 78
     2
176
     1
 67
     7
176
     1
 79
     5
176
     1
170
     0
176
     1
171
     0
176
     1
290
     0
176
     1
 93
        1
176
     1
 44
0.0
176
     1
173
     0
176
     1
  0
VISUALSTYLE
  5
36
102
{ACAD_REACTORS
330
2A
102
}
330
2A
100
AcDbVisualStyle
  2
Brighten
 70
    12
177
     2
291
     1
 71
     2
176
     1
 72
     2
176
     1
 73
     0
176
     1
 90
        0
176
     1
 40
-0.6
176
     1
 41
-30.0
176
     1
 62
     5
 63
     7
421
 16777215
176
     1
 74
     1
176
     1
 91
        4
176
     1
 64
     7
176
     1
 65
   257
176
     1
 75
     1
176
     1
175
     1
176
     1
 42
1.0
176
     1
 92
        8
176
     1
 66
     7
176
     1
 43
1.0
176
     1
 76
     1
176
     1
 77
     6
176
     1
 78
     2
176
     1
 67
     7
176
     1
 79
     5
176
     1
170
     0
176
     1
171
     0
176
     1
290
     0
176
     1
 93
        1
176
     1
 44
50.0
176
     1
173
     0
176
     1
  0
VISUALSTYLE
  5
3A
102
{ACAD_REACTORS
330
2A
102
}
330
2A
100
AcDbVisualStyle
  2
ColorChange
 70
    16
177
     2
291
     1
 71
     2
176
     1
 72
     2
176
     1
 73
     3
176
     1
 90
        0
176
     1
 40
-0.6
176
     1
 41
-30.0
176
     1
 62
     5
 63
     8
421
  8421504
176
     1
 74
     1
176
     1
 91
        4
176
     1
 64
     7
176
     1
 65
   257
176
     1
 75
     1
176
     1
175
     1
176
     1
 42
1.0
176
     1
 92
        8
176
     1
 66
     8
424
  8421504
176
     1
 43
1.0
176
     1
 76
     1
176
     1
 77
     6
176
     1
 78
     2
176
     1
 67
     7
176
     1
 79
     5
176
     1
170
     0
176
     1
171
     0
176
     1
290
     0
176
     1
 93
        1
176
     1
 44
0.0
176
     1
173
     0
176
     1
  0
VISUALSTYLE
  5
34
102
{ACAD_REACTORS
330
2A
102
}
330
2A
100
AcDbVisualStyle
  2
Conceptual
 70
     9
177
     2
291
     0
 71
     3
176
     1
 72
     2
176
     1
 73
     0
176
     1
 90
        0
176
     1
 40
-0.6
176
     1
 41
-30.0
176
     1
 62
     5
 63
     7
421
 16777215
176
     1
 74
     2
176
     1
 91
        2
176
     1
 64
     7
176
     1
 65
   257
176
     1
 75
     1
176
     1
175
     1
176
     1
 42
40.0
176
     1
 92
        8
176
     1
 66
     7
176
     1
 43
1.0
176
     1
 76
     1
176
     1
 77
     6
176
     1
 78
     2
176
     1
 67
     7
176
     1
 79
     3
176
     1
170
     0
176
     1
171
     0
176
     1
290
     0
176
     1
 93
        1
176
     1
 44
0.0
176
     1
173
     0
176
     1
  0
VISUALSTYLE
  5
35
102
{ACAD_REACTORS
330
2A
102
}
330
2A
100
AcDbVisualStyle
  2
Dim
 70
    11
177
     2
291
     1
 71
     2
176
     1
 72
     2
176
     1
 73
     0
176
     1
 90
        0
176
     1
 40
-0.6
176
     1
 41
-30.0
176
     1
 62
     5
 63
     7
421
 16777215
176
     1
 74
     1
176
     1
 91
        4
176
     1
 64
     7
176
     1
 65
   257
176
     1
 75
     1
176
     1
175
     1
176
     1
 42
1.0
176
     1
 92
        8
176
     1
 66
     7
176
     1
 43
1.0
176
     1
 76
     1
176
     1
 77
     6
176
     1
 78
     2
176
     1
 67
     7
176
     1
 79
     5
176
     1
170
     0
176
     1
171
     0
176
     1
290
     0
176
     1
 93
        1
176
     1
 44
-50.0
176
     1
173
     0
176
     1
  0
VISUALSTYLE
  5
39
102
{ACAD_REACTORS
330
2A
102
}
330
2A
100
AcDbVisualStyle
  2
Facepattern
 70
    15
177
     2
291
     1
 71
     2
176
     1
 72
     2
176
     1
 73
     0
176
     1
 90
        0
176
     1
 40
-0.6
176
     1
 41
-30.0
176
     1
 62
     5
 63
     7
421
 16777215
176
     1
 74
     1
176
     1
 91
        4
176
     1
 64
     7
176
     1
 65
   257
176
     1
 75
     1
176
     1
175
     1
176
     1
 42
1.0
176
     1
 92
        8
176
     1
 66
     7
176
     1
 43
1.0
176
     1
 76
     1
176
     1
 77
     6
176
     1
 78
     2
176
     1
 67
     7
176
     1
 79
     5
176
     1
170
     0
176
     1
171
     0
176
     1
290
     0
176
     1
 93
        1
176
     1
 44
0.0
176
     1
173
     0
176
     1
  0
VISUALSTYLE
  5
2B
102
{ACAD_REACTORS
330
2A
102
}
330
2A
100
AcDbVisualStyle
  2
Flat
 70
     0
177
     2
291
     1
 71
     2
176
     1
 72
     1
176
     1
 73
     1
176
     1
 90
        2
176
     1
 40
-0.6
176
     1
 41
30.0
176
     1
 62
     5
 63
     7
421
 16777215
176
     1
 74
     0
176
     1
 91
        4
176
     1
 64
     7
176
     1
 65
   257
176
     1
 75
     1
176
     1
175
     1
176
     1
 42
1.0
176
     1
 92
        8
176
     1
 66
     7
176
     1
 43
1.0
176
     1
 76
     1
176
     1
 77
     6
176
     1
 78
     2
176
     1
 67
     7
176
     1
 79
     5
176
     1
170
     0
176
     1
171
     0
176
     1
290
     0
176
     1
 93
       13
176
     1
 44
0.0
176
     1
173
     0
176
     1
  0
VISUALSTYLE
  5
2C
102
{ACAD_REACTORS
330
2A
102
}
330
2A
100
AcDbVisualStyle
  2
FlatWithEdges
 70
     1
177
     2
291
     1
 71
     2
176
     1
 72
     1
176
     1
 73
     1
176
     1
 90
        2
176
     1
 40
-0.6
176
     1
 41
30.0
176
     1
 62
     5
 63
     7
421
 16777215
176
     1
 74
     1
176
     1
 91
        4
176
     1
 64
     7
176
     1
 65
   257
176
     1
 75
     1
176
     1
175
     1
176
     1
 42
1.0
176
     1
 92
        0
176
     1
 66
   257
176
     1
 43
1.0
176
     1
 76
     1
176
     1
 77
     6
176
     1
 78
     2
176
     1
 67
     7
176
     1
 79
     5
176
     1
170
     0
176
     1
171
     0
176
     1
290
     0
176
     1
 93
       13
176
     1
 44
0.0
176
     1
173
     0
176
     1
  0
VISUALSTYLE
  5
2D
102
{ACAD_REACTORS
330
2A
102
}
330
2A
100
AcDbVisualStyle
  2
Gouraud
 70
     2
177
     2
291
     1
 71
     2
176
     1
 72
     2
176
     1
 73
     1
176
     1
 90
        2
176
     1
 40
-0.6
176
     1
 41
30.0
176
     1
 62
     5
 63
     7
421
 16777215
176
     1
 74
     0
176
     1
 91
        4
176
     1
 64
     7
176
     1
 65
   257
176
     1
 75
     1
176
     1
175
     1
176
     1
 42
1.0
176
     1
 92
        0
176
     1
 66
     7
176
     1
 43
1.0
176
     1
 76
     1
176
     1
 77
     6
176
     1
 78
     2
176
     1
 67
     7
176
     1
 79
     5
176
     1
170
     0
176
     1
171
     0
176
     1
290
     0
176
     1
 93
       13
176
     1
 44
0.0
176
     1
173
     0
176
     1
  0
VISUALSTYLE
  5
2E
102
{ACAD_REACTORS
330
2A
102
}
330
2A
100
AcDbVisualStyle
  2
GouraudWithEdges
 70
     3
177
     2
291
     1
 71
     2
176
     1
 72
     2
176
     1
 73
     1
176
     1
 90
        2
176
     1
 40
-0.6
176
     1
 41
30.0
176
     1
 62
     5
 63
     7
421
 16777215
176
     1
 74
     1
176
     1
 91
        4
176
     1
 64
     7
176
     1
 65
   257
176
     1
 75
     1
176
     1
175
     1
176
     1
 42
1.0
176
     1
 92
        0
176
     1
 66
   257
176
     1
 43
1.0
176
     1
 76
     1
176
     1
 77
     6
176
     1
 78
     2
176
     1
 67
     7
176
     1
 79
     5
176
     1
170
     0
176
     1
171
     0
176
     1
290
     0
176
     1
 93
       13
176
     1
 44
0.0
176
     1
173
     0
176
     1
  0
VISUALSTYLE
  5
38
102
{ACAD_REACTORS
330
2A
102
}
330
2A
100
AcDbVisualStyle
  2
Linepattern
 70
    14
177
     2
291
     1
 71
     2
176
     1
 72
     2
176
     1
 73
     0
176
     1
 90
        0
176
     1
 40
-0.6
176
     1
 41
-30.0
176
     1
 62
     5
 63
     7
421
 16777215
176
     1
 74
     1
176
     1
 91
        4
176
     1
 64
     7
176
     1
 65
   257
176
     1
 75
     7
176
     1
175
     7
176
     1
 42
1.0
176
     1
 92
        8
176
     1
 66
     7
176
     1
 43
1.0
176
     1
 76
     1
176
     1
 77
     6
176
     1
 78
     2
176
     1
 67
     7
176
     1
 79
     5
176
     1
170
     0
176
     1
171
     0
176
     1
290
     0
176
     1
 93
        1
176
     1
 44
0.0
176
     1
173
     0
176
     1
  0
VISUALSTYLE
  5
33
102
{ACAD_REACTORS
330
2A
102
}
330
2A
100
AcDbVisualStyle
  2
Realistic
 70
     8
177
     2
291
     0
 71
     2
176
     1
 72
     2
176
     1
 73
     0
176
     1
 90
        0
176
     1
 40
-0.6
176
     1
 41
-30.0
176
     1
 62
     5
 63
     7
421
 16777215
176
     1
 74
     1
176
     1
 91
        0
176
     1
 64
     7
176
     1
 65
   257
176
     1
 75
     1
176
     1
175
     1
176
     1
 42
1.0
176
     1
 92
        8
176
     1
 66
     8
424
  7895160
176
     1
 43
1.0
176
     1
 76
     1
176
     1
 77
     6
176
     1
 78
     2
176
     1
 67
     7
176
     1
 79
     5
176
     1
170
     0
176
     1
171
     0
176
     1
290
     0
176
     1
 93
       13
176
     1
 44
0.0
176
     1
173
     0
176
     1
  0
VISUALSTYLE
  5
37
102
{ACAD_REACTORS
330
2A
102
}
330
2A
100
AcDbVisualStyle
  2
Thicken
 70
    13
177
     2
291
     1
 71
     2
176
     1
 72
     2
176
     1
 73
     0
176
     1
 90
        0
176
     1
 40
-0.6
176
     1
 41
-30.0
176
     1
 62
     5
 63
     7
421
 16777215
176
     1
 74
     1
176
     1
 91
        4
176
     1
 64
     7
176
     1
 65
   257
176
     1
 75
     1
176
     1
175
     1
176
     1
 42
1.0
176
     1
 92
       12
176
     1
 66
     7
176
     1
 43
1.0
176
     1
 76
     1
176
     1
 77
     6
176
     1
 78
     2
176
     1
 67
     7
176
     1
 79
     5
176
     1
170
     0
176
     1
171
     0
176
     1
290
     0
176
     1
 93
        1
176
     1
 44
0.0
176
     1
173
     0
176
     1
  0
ENDSEC
  0
EOF
