  0
SECTION
  2
HEADER
  9
$ACADVER
  1
AC1024
  9
$ACADMAINTVER
 70
     6
  9
$DWGCODEPAGE
  3
UNDEFINED
  9
$INSBASE
 10
0.0
 20
0.0
 30
0.0
  9
$EXTMIN
 10
1.000000000000000E+20
 20
1.000000000000000E+20
 30
1.000000000000000E+20
  9
$EXTMAX
 10
-1.000000000000000E+20
 20
-1.000000000000000E+20
 30
-1.000000000000000E+20
  9
$LIMMIN
 10
0.0
 20
0.0
  9
$LIMMAX
 10
12.0
 20
9.0
  9
$ORTHOMODE
 70
     0
  9
$REGENMODE
 70
     1
  9
$FILLMODE
 70
     1
  9
$QTEXTMODE
 70
     0
  9
$MIRRTEXT
 70
     1
  9
$LTSCALE
 40
1.0
  9
$ATTMODE
 70
     1
  9
$TEXTSIZE
 40
0.2
  9
$TRACEWID
 40
0.05
  9
$TEXTSTYLE
  7
Standard
  9
$CLAYER
  8
0
  9
$CELTYPE
  6
ByLayer
  9
$CECOLOR
 62
   256
  9
$CELTSCALE
 40
1.0
  9
$DISPSILH
 70
     0
  9
$DIMSCALE
 40
1.0
  9
$DIMASZ
 40
0.18
  9
$DIMEXO
 40
0.0625
  9
$DIMDLI
 40
0.38
  9
$DIMRND
 40
0.0
  9
$DIMDLE
 40
0.0
  9
$DIMEXE
 40
0.18
  9
$DIMTP
 40
0.0
  9
$DIMTM
 40
0.0
  9
$DIMTXT
 40
0.18
  9
$DIMCEN
 40
0.09
  9
$DIMTSZ
 40
0.0
  9
$DIMTOL
 70
     0
  9
$DIMLIM
 70
     0
  9
$DIMTIH
 70
     1
  9
$DIMTOH
 70
     1
  9
$DIMSE1
 70
     0
  9
$DIMSE2
 70
     0
  9
$DIMTAD
 70
     0
  9
$DIMZIN
 70
     0
  9
$DIMBLK
  1

  9
$DIMASO
 70
     1
  9
$DIMSHO
 70
     1
  9
$DIMPOST
  1

  9
$DIMAPOST
  1

  9
$DIMALT
 70
     0
  9
$DIMALTD
 70
     2
  9
$DIMALTF
 40
25.4
  9
$DIMLFAC
 40
1.0
  9
$DIMTOFL
 70
     0
  9
$DIMTVP
 40
0.0
  9
$DIMTIX
 70
     0
  9
$DIMSOXD
 70
     0
  9
$DIMSAH
 70
     0
  9
$DIMBLK1
  1

  9
$DIMBLK2
  1

  9
$DIMSTYLE
  2
Standard
  9
$DIMCLRD
 70
     0
  9
$DIMCLRE
 70
     0
  9
$DIMCLRT
 70
     0
  9
$DIMTFAC
 40
1.0
  9
$DIMGAP
 40
0.09
  9
$DIMJUST
 70
     0
  9
$DIMSD1
 70
     0
  9
$DIMSD2
 70
     0
  9
$DIMTOLJ
 70
     1
  9
$DIMTZIN
 70
     0
  9
$DIMALTZ
 70
     0
  9
$DIMALTTZ
 70
     0
  9
$DIMUPT
 70
     0
  9
$DIMDEC
 70
     4
  9
$DIMTDEC
 70
     4
  9
$DIMALTU
 70
     2
  9
$DIMALTTD
 70
     2
  9
$DIMTXSTY
  7
Standard
  9
$DIMAUNIT
 70
     0
  9
$DIMADEC
 70
     0
  9
$DIMALTRND
 40
0.0
  9
$DIMAZIN
 70
     0
  9
$DIMDSEP
 70
    46
  9
$DIMATFIT
 70
     3
  9
$DIMFRAC
 70
     0
  9
$DIMLDRBLK
  1

  9
$DIMLUNIT
 70
     2
  9
$DIMLWD
 70
    -2
  9
$DIMLWE
 70
    -2
  9
$DIMTMOVE
 70
     0
  9
$DIMFXL
 40
1.0
  9
$DIMFXLON
 70
     0
  9
$DIMJOGANG
 40
0.7853981633974483
  9
$DIMTFILL
 70
     0
  9
$DIMTFILLCLR
 70
     0
  9
$DIMARCSYM
 70
     0
  9
$DIMLTYPE
  6

  9
$DIMLTEX1
  6

  9
$DIMLTEX2
  6

  9
$DIMTXTDIRECTION
 70
     0
  9
$LUNITS
 70
     2
  9
$LUPREC
 70
     4
  9
$SKETCHINC
 40
0.1
  9
$FILLETRAD
 40
0.5
  9
$AUNITS
 70
     0
  9
$AUPREC
 70
     0
  9
$MENU
  1
.
  9
$ELEVATION
 40
0.0
  9
$PELEVATION
 40
0.0
  9
$THICKNESS
 40
0.0
  9
$LIMCHECK
 70
     0
  9
$CHAMFERA
 40
0.5
  9
$CHAMFERB
 40
0.5
  9
$CHAMFERC
 40
1.0
  9
$CHAMFERD
 40
0.0
  9
$SKPOLY
 70
     0
  9
$TDCREATE
 40
2457917.617893507
  9
$TDUCREATE
 40
2457917.242893518
  9
$TDUPDATE
 40
2457917.617893507
  9
$TDUUPDATE
 40
2457917.242893518
  9
$TDINDWG
 40
0.0000000116
  9
$TDUSRTIMER
 40
0.0000000116
  9
$USRTIMER
 70
     1
  9
$ANGBASE
 50
0.0
  9
$ANGDIR
 70
     0
  9
$PDMODE
 70
     0
  9
$PDSIZE
 40
0.0
  9
$PLINEWID
 40
0.0
  9
$SPLFRAME
 70
     0
  9
$SPLINETYPE
 70
     6
  9
$SPLINESEGS
 70
     8
  9
$HANDSEED
  5
D6
  9
$SURFTAB1
 70
     6
  9
$SURFTAB2
 70
     6
  9
$SURFTYPE
 70
     6
  9
$SURFU
 70
     6
  9
$SURFV
 70
     6
  9
$UCSBASE
  2

  9
$UCSNAME
  2

  9
$UCSORG
 10
0.0
 20
0.0
 30
0.0
  9
$UCSXDIR
 10
1.0
 20
0.0
 30
0.0
  9
$UCSYDIR
 10
0.0
 20
1.0
 30
0.0
  9
$UCSORTHOREF
  2

  9
$UCSORTHOVIEW
 70
     0
  9
$UCSORGTOP
 10
0.0
 20
0.0
 30
0.0
  9
$UCSORGBOTTOM
 10
0.0
 20
0.0
 30
0.0
  9
$UCSORGLEFT
 10
0.0
 20
0.0
 30
0.0
  9
$UCSORGRIGHT
 10
0.0
 20
0.0
 30
0.0
  9
$UCSORGFRONT
 10
0.0
 20
0.0
 30
0.0
  9
$UCSORGBACK
 10
0.0
 20
0.0
 30
0.0
  9
$PUCSBASE
  2

  9
$PUCSNAME
  2

  9
$PUCSORG
 10
0.0
 20
0.0
 30
0.0
  9
$PUCSXDIR
 10
1.0
 20
0.0
 30
0.0
  9
$PUCSYDIR
 10
0.0
 20
1.0
 30
0.0
  9
$PUCSORTHOREF
  2

  9
$PUCSORTHOVIEW
 70
     0
  9
$PUCSORGTOP
 10
0.0
 20
0.0
 30
0.0
  9
$PUCSORGBOTTOM
 10
0.0
 20
0.0
 30
0.0
  9
$PUCSORGLEFT
 10
0.0
 20
0.0
 30
0.0
  9
$PUCSORGRIGHT
 10
0.0
 20
0.0
 30
0.0
  9
$PUCSORGFRONT
 10
0.0
 20
0.0
 30
0.0
  9
$PUCSORGBACK
 10
0.0
 20
0.0
 30
0.0
  9
$USERI1
 70
     0
  9
$USERI2
 70
     0
  9
$USERI3
 70
     0
  9
$USERI4
 70
     0
  9
$USERI5
 70
     0
  9
$USERR1
 40
0.0
  9
$USERR2
 40
0.0
  9
$USERR3
 40
0.0
  9
$USERR4
 40
0.0
  9
$USERR5
 40
0.0
  9
$WORLDVIEW
 70
     1
  9
$SHADEDGE
 70
     3
  9
$SHADEDIF
 70
    70
  9
$TILEMODE
 70
     1
  9
$MAXACTVP
 70
    64
  9
$PINSBASE
 10
0.0
 20
0.0
 30
0.0
  9
$PLIMCHECK
 70
     0
  9
$PEXTMIN
 10
1.000000000000000E+20
 20
1.000000000000000E+20
 30
1.000000000000000E+20
  9
$PEXTMAX
 10
-1.000000000000000E+20
 20
-1.000000000000000E+20
 30
-1.000000000000000E+20
  9
$PLIMMIN
 10
0.0
 20
0.0
  9
$PLIMMAX
 10
12.0
 20
9.0
  9
$UNITMODE
 70
     0
  9
$VISRETAIN
 70
     1
  9
$PLINEGEN
 70
     0
  9
$PSLTSCALE
 70
     1
  9
$TREEDEPTH
 70
  3020
  9
$CMLSTYLE
  2
Standard
  9
$CMLJUST
 70
     0
  9
$CMLSCALE
 40
1.0
  9
$PROXYGRAPHICS
 70
     1
  9
$MEASUREMENT
 70
     0
  9
$CELWEIGHT
370
    -1
  9
$ENDCAPS
280
     0
  9
$JOINSTYLE
280
     0
  9
$LWDISPLAY
290
     1
  9
$INSUNITS
 70
     1
  9
$HYPERLINKBASE
  1

  9
$STYLESHEET
  1

  9
$XEDIT
290
     1
  9
$CEPSNTYPE
380
     0
  9
$PSTYLEMODE
290
     1
  9
$FINGERPRINTGUID
  2
{5B407822-04E9-3819-78FC-56CFE8644428}
  9
$VERSIONGUID
  2
{FAEB1C32-E019-11D5-929B-00C0DF256EC4}
  9
$EXTNAMES
290
     1
  9
$PSVPSCALE
 40
0.0
  9
$OLESTARTUP
290
     0
  9
$SORTENTS
280
   127
  9
$INDEXCTL
280
     0
  9
$HIDETEXT
280
     1
  9
$XCLIPFRAME
280
     2
  9
$HALOGAP
280
     0
  9
$OBSCOLOR
 70
   257
  9
$OBSLTYPE
280
     0
  9
$INTERSECTIONDISPLAY
280
     0
  9
$INTERSECTIONCOLOR
 70
   257
  9
$DIMASSOC
280
     2
  9
$PROJECTNAME
  1

  9
$CAMERADISPLAY
290
     0
  9
$LENSLENGTH
 40
50.0
  9
$CAMERAHEIGHT
 40
0.0
  9
$STEPSPERSEC
 40
2.0
  9
$STEPSIZE
 40
6.0
  9
$3DDWFPREC
 40
2.0
  9
$PSOLWIDTH
 40
0.25
  9
$PSOLHEIGHT
 40
4.0
  9
$LOFTANG1
 40
1.570796326794897
  9
$LOFTANG2
 40
1.570796326794897
  9
$LOFTMAG1
 40
0.0
  9
$LOFTMAG2
 40
0.0
  9
$LOFTPARAM
 70
     7
  9
$LOFTNORMALS
280
     1
  9
$LATITUDE
 40
37.795
  9
$LONGITUDE
 40
-122.394
  9
$NORTHDIRECTION
 40
0.0
  9
$TIMEZONE
 70
 -8000
  9
$LIGHTGLYPHDISPLAY
280
     1
  9
$TILEMODELIGHTSYNCH
280
     1
  9
$CMATERIAL
347
3C
  9
$SOLIDHIST
280
     1
  9
$SHOWHIST
280
     1
  9
$DWFFRAME
280
     2
  9
$DGNFRAME
280
     2
  9
$REALWORLDSCALE
290
     1
  9
$INTERFERECOLOR
 62
   256
  9
$CSHADOW
280
     0
  9
$SHADOWPLANELOCATION
 40
0.0
  0
ENDSEC
  0
SECTION
  2
CLASSES
  0
CLASS
  1
ACDBDICTIONARYWDFLT
  2
AcDbDictionaryWithDefault
  3
ObjectDBX Classes
 90
        0
 91
        4
280
     0
281
     0
  0
CLASS
  1
VISUALSTYLE
  2
AcDbVisualStyle
  3
ObjectDBX Classes
 90
     4095
 91
        4
280
     0
281
     0
  0
CLASS
  1
MATERIAL
  2
AcDbMaterial
  3
ObjectDBX Classes
 90
     1153
 91
        4
280
     0
281
     0
  0
CLASS
  1
SUN
  2
AcDbSun
  3
SCENEOE
 90
     1024
 91
        4
280
     0
281
     0
  0
ENDSEC
  0
SECTION
  2
TABLES
  0
TABLE
  2
VPORT
  5
8
330
0
100
AcDbSymbolTable
 70
     1
  0
VPORT
  5
29
330
8
100
AcDbSymbolTableRecord
100
AcDbViewportTableRecord
  2
*Active
 70
     0
 10
0.0
 20
0.0
 11
1.0
 21
1.0
 12
0.0
 22
0.0
 13
0.0
 23
0.0
 14
0.5
 24
0.5
 15
0.5
 25
0.5
 16
0.0
 26
0.0
 36
1.0
 17
91.00082462281999
 27
-128.4993055234307
 37
0.0
 40
256.9986110468615
 41
0.7081814508812795
 42
50.0
 43
0.0
 44
0.0
 50
0.0
 51
0.0
 71
     0
 72
   100
 73
     1
 74
     3
 75
     0
 76
     0
 77
     0
 78
     0
281
     0
 65
     1
110
0.0
120
0.0
130
0.0
111
1.0
121
0.0
131
0.0
112
0.0
122
1.0
132
0.0
 79
     0
146
0.0
 60
     3
 61
     5
292
     1
282
     1
141
0.0
142
0.0
 63
   250
361
3F
  0
ENDTAB
  0
TABLE
  2
LTYPE
  5
5
330
0
100
AcDbSymbolTable
 70
     1
  0
LTYPE
  5
14
330
5
100
AcDbSymbolTableRecord
100
AcDbLinetypeTableRecord
  2
ByBlock
 70
     0
  3

 72
    65
 73
     0
 40
0.0
  0
LTYPE
  5
15
330
5
100
AcDbSymbolTableRecord
100
AcDbLinetypeTableRecord
  2
ByLayer
 70
     0
  3

 72
    65
 73
     0
 40
0.0
  0
LTYPE
  5
16
330
5
100
AcDbSymbolTableRecord
100
AcDbLinetypeTableRecord
  2
Continuous
 70
     0
  3
Solid line
 72
    65
 73
     0
 40
0.0
  0
ENDTAB
  0
TABLE
  2
LAYER
  5
2
330
0
100
AcDbSymbolTable
 70
     2
  0
LAYER
  5
10
330
2
100
AcDbSymbolTableRecord
100
AcDbLayerTableRecord
  2
0
 70
     0
 62
     7
  6
Continuous
370
    -3
390
F
347
3E
  0
LAYER
  5
40
330
2
100
AcDbSymbolTableRecord
100
AcDbLayerTableRecord
  2
_U+30EC_U+30A4_U+30E4_U+30FC 1
 70
     0
 62
     7
  6
Continuous
370
    -3
390
F
347
3E
  0
ENDTAB
  0
TABLE
  2
STYLE
  5
3
330
0
100
AcDbSymbolTable
 70
     1
  0
STYLE
  5
11
330
3
100
AcDbSymbolTableRecord
100
AcDbTextStyleTableRecord
  2
Standard
 70
     0
 40
0.0
 41
1.0
 50
0.0
 71
     0
 42
0.2
  3
txt
  4

  0
ENDTAB
  0
TABLE
  2
VIEW
  5
6
330
0
100
AcDbSymbolTable
 70
     0
  0
ENDTAB
  0
TABLE
  2
UCS
  5
7
330
0
100
AcDbSymbolTable
 70
     0
  0
ENDTAB
  0
TABLE
  2
APPID
  5
9
330
0
100
AcDbSymbolTable
 70
     1
  0
APPID
  5
12
330
9
100
AcDbSymbolTableRecord
100
AcDbRegAppTableRecord
  2
ACAD
 70
     0
  0
ENDTAB
  0
TABLE
  2
DIMSTYLE
  5
A
330
0
100
AcDbSymbolTable
 70
     1
100
AcDbDimStyleTable
  0
DIMSTYLE
105
27
330
A
100
AcDbSymbolTableRecord
100
AcDbDimStyleTableRecord
  2
Standard
 70
     0
178
     0
340
11
  0
ENDTAB
  0
TABLE
  2
BLOCK_RECORD
  5
1
330
0
100
AcDbSymbolTable
 70
     6
  0
BLOCK_RECORD
  5
1F
330
1
100
AcDbSymbolTableRecord
100
AcDbBlockTableRecord
  2
*Model_Space
340
22
 70
     0
280
     1
281
     0
  0
BLOCK_RECORD
  5
1B
330
1
100
AcDbSymbolTableRecord
100
AcDbBlockTableRecord
  2
*Paper_Space
340
1E
 70
     0
280
     1
281
     0
  0
BLOCK_RECORD
  5
23
330
1
100
AcDbSymbolTableRecord
100
AcDbBlockTableRecord
  2
*Paper_Space0
340
26
 70
     0
280
     1
281
     0
  0
BLOCK_RECORD
  5
7D
330
1
100
AcDbSymbolTableRecord
100
AcDbBlockTableRecord
  2
block 2
340
0
102
{BLKREFS
331
7E
102
}
 70
     0
280
     1
281
     0
  0
BLOCK_RECORD
  5
91
330
1
100
AcDbSymbolTableRecord
100
AcDbBlockTableRecord
  2
block 3
340
0
102
{BLKREFS
331
92
102
}
 70
     0
280
     1
281
     0
  0
BLOCK_RECORD
  5
A7
330
1
100
AcDbSymbolTableRecord
100
AcDbBlockTableRecord
  2
block 4
340
0
102
{BLKREFS
331
A8
102
}
 70
     0
280
     1
281
     0
  0
BLOCK_RECORD
  5
C2
330
1
100
AcDbSymbolTableRecord
100
AcDbBlockTableRecord
  2
block 5
340
0
102
{BLKREFS
331
C3
102
}
 70
     0
280
     1
281
     0
  0
BLOCK_RECORD
  5
CA
330
1
100
AcDbSymbolTableRecord
100
AcDbBlockTableRecord
  2
block 6
340
0
102
{BLKREFS
331
CB
102
}
 70
     0
280
     1
281
     0
  0
ENDTAB
  0
ENDSEC
  0
SECTION
  2
BLOCKS
  0
BLOCK
  5
20
330
1F
100
AcDbEntity
  8
0
100
AcDbBlockBegin
  2
*Model_Space
 70
     0
 10
0.0
 20
0.0
 30
0.0
  3
*Model_Space
  1

  0
ENDBLK
  5
21
330
1F
100
AcDbEntity
  8
0
100
AcDbBlockEnd
  0
BLOCK
  5
1C
330
1B
100
AcDbEntity
 67
     1
  8
0
100
AcDbBlockBegin
  2
*Paper_Space
 70
     0
 10
0.0
 20
0.0
 30
0.0
  3
*Paper_Space
  1

  0
ENDBLK
  5
1D
330
1B
100
AcDbEntity
 67
     1
  8
0
100
AcDbBlockEnd
  0
BLOCK
  5
24
330
23
100
AcDbEntity
  8
0
100
AcDbBlockBegin
  2
*Paper_Space0
 70
     0
 10
0.0
 20
0.0
 30
0.0
  3
*Paper_Space0
  1

  0
ENDBLK
  5
25
330
23
100
AcDbEntity
  8
0
100
AcDbBlockEnd
  0
BLOCK
  5
7F
330
7D
100
AcDbEntity
  8
0
100
AcDbBlockBegin
  2
block 2
 70
     0
 10
0.0
 20
0.0
 30
0.0
  3
block 2
  1

  0
SPLINE
  5
81
330
7D
100
AcDbEntity
  8
_U+30EC_U+30A4_U+30E4_U+30FC 1
370
     0
100
AcDbSpline
210
0.0
220
0.0
230
1.0
 70
    11
 71
     3
 72
    29
 73
    25
 74
     0
 42
0.0000000001
 43
0.0000000001
 12
1.0
 22
0.0
 32
0.0
 13
1.0
 23
0.0
 33
0.0
 40
0.0
 40
0.0
 40
0.0
 40
0.0
 40
1.0
 40
1.0
 40
1.0
 40
2.0
 40
2.0
 40
2.0
 40
3.0
 40
3.0
 40
3.0
 40
4.0
 40
4.0
 40
4.0
 40
5.0
 40
5.0
 40
5.0
 40
6.0
 40
6.0
 40
6.0
 40
7.0
 40
7.0
 40
7.0
 40
8.0
 40
8.0
 40
8.0
 40
8.0
 10
84.35574677795621
 20
-119.474361135496
 30
0.0
 10
84.07083738132604
 20
-119.474361135496
 30
0.0
 10
83.79953611186262
 20
-119.3367295708603
 30
0.0
 10
83.79953611186262
 20
-118.9877413982045
 30
0.0
 10
83.79953611186262
 20
-118.7317708036504
 30
0.0
 10
83.95094805843935
 20
-118.6365139134832
 30
0.0
 10
84.0641194451298
 20
-118.5751912138458
 30
0.0
 10
83.93062199507638
 20
-118.5159355714995
 30
0.0
 10
83.84931774162447
 20
-118.4017306561635
 30
0.0
 10
83.84931774162447
 20
-118.2410169517766
 30
0.0
 10
83.84931774162447
 20
-117.9659260772794
 30
0.0
 10
84.06170787829014
 20
-117.830533824709
 30
0.0
 10
84.35574677795621
 20
-117.830533824709
 30
0.0
 10
84.65874292588393
 20
-117.830533824709
 30
0.0
 10
84.86217581428794
 20
-117.9743665612182
 30
0.0
 10
84.86217581428794
 20
-118.2410169517766
 30
0.0
 10
84.86217581428794
 20
-118.4017306561635
 30
0.0
 10
84.77845999399636
 20
-118.5159355714995
 30
0.0
 10
84.6451347987172
 20
-118.5751912138458
 30
0.0
 10
84.74004717933583
 20
-118.6260063722532
 30
0.0
 10
84.90954587721012
 20
-118.7212632624204
 30
0.0
 10
84.90954587721012
 20
-118.9836072836222
 30
0.0
 10
84.90954587721012
 20
-119.3579169080946
 30
0.0
 10
84.61120060818749
 20
-119.474361135496
 30
0.0
 10
84.35574677795621
 20
-119.474361135496
 30
0.0
  0
SPLINE
  5
82
330
7D
100
AcDbEntity
  8
_U+30EC_U+30A4_U+30E4_U+30FC 1
370
     0
100
AcDbSpline
210
0.0
220
0.0
230
1.0
 70
    11
 71
     3
 72
    17
 73
    13
 74
     0
 42
0.0000000001
 43
0.0000000001
 12
1.0
 22
0.0
 32
0.0
 13
1.0
 23
0.0
 33
0.0
 40
0.0
 40
0.0
 40
0.0
 40
0.0
 40
1.0
 40
1.0
 40
1.0
 40
2.0
 40
2.0
 40
2.0
 40
3.0
 40
3.0
 40
3.0
 40
4.0
 40
4.0
 40
4.0
 40
4.0
 10
84.35574677795621
 20
-118.6831949573084
 30
0.0
 10
84.2019232645398
 20
-118.6831949573084
 30
0.0
 10
84.03914250286175
 20
-118.7698391087624
 30
0.0
 10
84.03914250286175
 20
-118.9729274876179
 30
0.0
 10
84.03914250286175
 20
-119.1780829237645
 30
0.0
 10
84.17487926498059
 20
-119.2797132405794
 30
0.0
 10
84.35574677795621
 20
-119.2797132405794
 30
0.0
 10
84.55470104222938
 20
-119.2797132405794
 30
0.0
 10
84.6721787982764
 20
-119.1570678413045
 30
0.0
 10
84.6721787982764
 20
-118.9793009142656
 30
0.0
 10
84.6721787982764
 20
-118.757092255467
 30
0.0
 10
84.49820147627129
 20
-118.6831949573084
 30
0.0
 10
84.35574677795621
 20
-118.6831949573084
 30
0.0
  0
SPLINE
  5
83
330
7D
100
AcDbEntity
  8
_U+30EC_U+30A4_U+30E4_U+30FC 1
370
     0
100
AcDbSpline
210
0.0
220
0.0
230
1.0
 70
    11
 71
     3
 72
    17
 73
    13
 74
     0
 42
0.0000000001
 43
0.0000000001
 12
1.0
 22
0.0
 32
0.0
 13
1.0
 23
0.0
 33
0.0
 40
0.0
 40
0.0
 40
0.0
 40
0.0
 40
1.0
 40
1.0
 40
1.0
 40
2.0
 40
2.0
 40
2.0
 40
3.0
 40
3.0
 40
3.0
 40
4.0
 40
4.0
 40
4.0
 40
4.0
 10
84.35574677795621
 20
-118.0231146623345
 30
0.0
 10
84.17935788911142
 20
-118.0231146623345
 30
0.0
 10
84.0889241326236
 20
-118.1181992977274
 30
0.0
 10
84.0889241326236
 20
-118.2535915502977
 30
0.0
 10
84.0889241326236
 20
-118.3764092043469
 30
0.0
 10
84.16574976194468
 20
-118.4949204890395
 30
0.0
 10
84.35574677795621
 20
-118.4949204890395
 30
0.0
 10
84.54557153919347
 20
-118.4949204890395
 30
0.0
 10
84.62256942328881
 20
-118.3764092043469
 30
0.0
 10
84.62256942328881
 20
-118.2535915502977
 30
0.0
 10
84.62256942328881
 20
-118.1181992977274
 30
0.0
 10
84.52972409996133
 20
-118.0231146623345
 30
0.0
 10
84.35574677795621
 20
-118.0231146623345
 30
0.0
  0
HATCH
  5
84
330
7D
100
AcDbEntity
  8
_U+30EC_U+30A4_U+30E4_U+30FC 1
 62
   179
420
  2234388
100
AcDbHatch
 10
0.0
 20
0.0
 30
0.0
210
0.0
220
0.0
230
1.0
  2
SOLID
 70
     1
 71
     0
 91
        3
 92
        1
 93
        1
 72
     4
 94
        3
 73
     0
 74
     1
 95
       29
 96
       25
 40
0.0
 40
0.0
 40
0.0
 40
0.0
 40
1.0
 40
1.0
 40
1.0
 40
2.0
 40
2.0
 40
2.0
 40
3.0
 40
3.0
 40
3.0
 40
4.0
 40
4.0
 40
4.0
 40
5.0
 40
5.0
 40
5.0
 40
6.0
 40
6.0
 40
6.0
 40
7.0
 40
7.0
 40
7.0
 40
8.0
 40
8.0
 40
8.0
 40
8.0
 10
84.35574677795621
 20
-119.474361135496
 10
84.07083738132604
 20
-119.474361135496
 10
83.79953611186262
 20
-119.3367295708603
 10
83.79953611186262
 20
-118.9877413982045
 10
83.79953611186262
 20
-118.7317708036504
 10
83.95094805843935
 20
-118.6365139134832
 10
84.0641194451298
 20
-118.5751912138458
 10
83.93062199507638
 20
-118.5159355714995
 10
83.84931774162447
 20
-118.4017306561635
 10
83.84931774162447
 20
-118.2410169517766
 10
83.84931774162447
 20
-117.9659260772794
 10
84.06170787829014
 20
-117.830533824709
 10
84.35574677795621
 20
-117.830533824709
 10
84.65874292588393
 20
-117.830533824709
 10
84.86217581428794
 20
-117.9743665612182
 10
84.86217581428794
 20
-118.2410169517766
 10
84.86217581428794
 20
-118.4017306561635
 10
84.77845999399636
 20
-118.5159355714995
 10
84.6451347987172
 20
-118.5751912138458
 10
84.74004717933583
 20
-118.6260063722532
 10
84.90954587721012
 20
-118.7212632624204
 10
84.90954587721012
 20
-118.9836072836222
 10
84.90954587721012
 20
-119.3579169080946
 10
84.61120060818749
 20
-119.474361135496
 10
84.35574677795621
 20
-119.474361135496
 97
        0
 97
        0
 92
        1
 93
        1
 72
     4
 94
        3
 73
     0
 74
     1
 95
       17
 96
       13
 40
0.0
 40
0.0
 40
0.0
 40
0.0
 40
1.0
 40
1.0
 40
1.0
 40
2.0
 40
2.0
 40
2.0
 40
3.0
 40
3.0
 40
3.0
 40
4.0
 40
4.0
 40
4.0
 40
4.0
 10
84.35574677795621
 20
-118.6831949573084
 10
84.2019232645398
 20
-118.6831949573084
 10
84.03914250286175
 20
-118.7698391087624
 10
84.03914250286175
 20
-118.9729274876179
 10
84.03914250286175
 20
-119.1780829237645
 10
84.17487926498059
 20
-119.2797132405794
 10
84.35574677795621
 20
-119.2797132405794
 10
84.55470104222938
 20
-119.2797132405794
 10
84.6721787982764
 20
-119.1570678413045
 10
84.6721787982764
 20
-118.9793009142656
 10
84.6721787982764
 20
-118.757092255467
 10
84.49820147627129
 20
-118.6831949573084
 10
84.35574677795621
 20
-118.6831949573084
 97
        0
 97
        0
 92
        1
 93
        1
 72
     4
 94
        3
 73
     0
 74
     1
 95
       17
 96
       13
 40
0.0
 40
0.0
 40
0.0
 40
0.0
 40
1.0
 40
1.0
 40
1.0
 40
2.0
 40
2.0
 40
2.0
 40
3.0
 40
3.0
 40
3.0
 40
4.0
 40
4.0
 40
4.0
 40
4.0
 10
84.35574677795621
 20
-118.0231146623345
 10
84.17935788911142
 20
-118.0231146623345
 10
84.0889241326236
 20
-118.1181992977274
 10
84.0889241326236
 20
-118.2535915502977
 10
84.0889241326236
 20
-118.3764092043469
 10
84.16574976194468
 20
-118.4949204890395
 10
84.35574677795621
 20
-118.4949204890395
 10
84.54557153919347
 20
-118.4949204890395
 10
84.62256942328881
 20
-118.3764092043469
 10
84.62256942328881
 20
-118.2535915502977
 10
84.62256942328881
 20
-118.1181992977274
 10
84.52972409996133
 20
-118.0231146623345
 10
84.35574677795621
 20
-118.0231146623345
 97
        0
 97
        0
 75
     2
 76
     1
 98
        0
  0
ENDBLK
  5
80
330
7D
100
AcDbEntity
  8
0
100
AcDbBlockEnd
  0
BLOCK
  5
93
330
91
100
AcDbEntity
  8
0
100
AcDbBlockBegin
  2
block 3
 70
     0
 10
0.0
 20
0.0
 30
0.0
  3
block 3
  1

  0
SPLINE
  5
95
330
91
100
AcDbEntity
  8
_U+30EC_U+30A4_U+30E4_U+30FC 1
370
     0
100
AcDbSpline
210
0.0
220
0.0
230
1.0
 70
    11
 71
     3
 72
    26
 73
    22
 74
     0
 42
0.0000000001
 43
0.0000000001
 12
1.0
 22
0.0
 32
0.0
 13
1.0
 23
0.0
 33
0.0
 40
0.0
 40
0.0
 40
0.0
 40
0.0
 40
1.0
 40
1.0
 40
1.0
 40
2.0
 40
2.0
 40
2.0
 40
3.0
 40
3.0
 40
3.0
 40
4.0
 40
4.0
 40
4.0
 40
5.0
 40
5.0
 40
5.0
 40
6.0
 40
6.0
 40
6.0
 40
7.0
 40
7.0
 40
7.0
 40
7.0
 10
88.63679468270192
 20
-137.9237087328802
 30
0.0
 10
88.63679468270192
 20
-137.9237087328802
 30
0.0
 10
88.63679468270192
 20
-136.8195556298576
 30
0.0
 10
88.63679468270192
 20
-136.8195556298576
 30
0.0
 10
88.63679468270192
 20
-136.8195556298576
 30
0.0
 10
88.28436141456086
 20
-136.8195556298576
 30
0.0
 10
88.28436141456086
 20
-136.8195556298576
 30
0.0
 10
88.28436141456086
 20
-136.8195556298576
 30
0.0
 10
88.28436141456086
 20
-136.6714165239919
 30
0.0
 10
88.28436141456086
 20
-136.6714165239919
 30
0.0
 10
88.63920624954159
 20
-136.6566026134053
 30
0.0
 10
88.68881562452918
 20
-136.493649596953
 30
0.0
 10
88.72051050299349
 20
-136.3792724268427
 30
0.0
 10
88.72051050299349
 20
-136.3792724268427
 30
0.0
 10
88.8765733284753
 20
-136.3792724268427
 30
0.0
 10
88.8765733284753
 20
-136.3792724268427
 30
0.0
 10
88.8765733284753
 20
-136.3792724268427
 30
0.0
 10
88.8765733284753
 20
-137.9237087328802
 30
0.0
 10
88.8765733284753
 20
-137.9237087328802
 30
0.0
 10
88.8765733284753
 20
-137.9237087328802
 30
0.0
 10
88.63679468270192
 20
-137.9237087328802
 30
0.0
 10
88.63679468270192
 20
-137.9237087328802
 30
0.0
  0
HATCH
  5
96
330
91
100
AcDbEntity
  8
_U+30EC_U+30A4_U+30E4_U+30FC 1
 62
   179
420
  2234388
100
AcDbHatch
 10
0.0
 20
0.0
 30
0.0
210
0.0
220
0.0
230
1.0
  2
SOLID
 70
     1
 71
     0
 91
        1
 92
        1
 93
        1
 72
     4
 94
        3
 73
     0
 74
     1
 95
       26
 96
       22
 40
0.0
 40
0.0
 40
0.0
 40
0.0
 40
1.0
 40
1.0
 40
1.0
 40
2.0
 40
2.0
 40
2.0
 40
3.0
 40
3.0
 40
3.0
 40
4.0
 40
4.0
 40
4.0
 40
5.0
 40
5.0
 40
5.0
 40
6.0
 40
6.0
 40
6.0
 40
7.0
 40
7.0
 40
7.0
 40
7.0
 10
88.63679468270192
 20
-137.9237087328802
 10
88.63679468270192
 20
-137.9237087328802
 10
88.63679468270192
 20
-136.8195556298576
 10
88.63679468270192
 20
-136.8195556298576
 10
88.63679468270192
 20
-136.8195556298576
 10
88.28436141456086
 20
-136.8195556298576
 10
88.28436141456086
 20
-136.8195556298576
 10
88.28436141456086
 20
-136.8195556298576
 10
88.28436141456086
 20
-136.6714165239919
 10
88.28436141456086
 20
-136.6714165239919
 10
88.63920624954159
 20
-136.6566026134053
 10
88.68881562452918
 20
-136.493649596953
 10
88.72051050299349
 20
-136.3792724268427
 10
88.72051050299349
 20
-136.3792724268427
 10
88.8765733284753
 20
-136.3792724268427
 10
88.8765733284753
 20
-136.3792724268427
 10
88.8765733284753
 20
-136.3792724268427
 10
88.8765733284753
 20
-137.9237087328802
 10
88.8765733284753
 20
-137.9237087328802
 10
88.8765733284753
 20
-137.9237087328802
 10
88.63679468270192
 20
-137.9237087328802
 10
88.63679468270192
 20
-137.9237087328802
 97
        0
 97
        0
 75
     2
 76
     1
 98
        0
  0
SPLINE
  5
97
330
91
100
AcDbEntity
  8
_U+30EC_U+30A4_U+30E4_U+30FC 1
370
     0
100
AcDbSpline
210
0.0
220
0.0
230
1.0
 70
    11
 71
     3
 72
    29
 73
    25
 74
     0
 42
0.0000000001
 43
0.0000000001
 12
1.0
 22
0.0
 32
0.0
 13
1.0
 23
0.0
 33
0.0
 40
0.0
 40
0.0
 40
0.0
 40
0.0
 40
1.0
 40
1.0
 40
1.0
 40
2.0
 40
2.0
 40
2.0
 40
3.0
 40
3.0
 40
3.0
 40
4.0
 40
4.0
 40
4.0
 40
5.0
 40
5.0
 40
5.0
 40
6.0
 40
6.0
 40
6.0
 40
7.0
 40
7.0
 40
7.0
 40
8.0
 40
8.0
 40
8.0
 40
8.0
 10
89.94661998619391
 20
-137.9743516365134
 30
0.0
 10
89.66171058956374
 20
-137.9743516365134
 30
0.0
 10
89.39058157487459
 20
-137.8368923266519
 30
0.0
 10
89.39058157487459
 20
-137.4879041539961
 30
0.0
 10
89.39058157487459
 20
-137.231933559442
 30
0.0
 10
89.54216577622557
 20
-137.1368489240491
 30
0.0
 10
89.65516490814177
 20
-137.0755262244117
 30
0.0
 10
89.5218397128626
 20
-137.0162705820654
 30
0.0
 10
89.44019094986218
 20
-136.9018934119551
 30
0.0
 10
89.44019094986218
 20
-136.7410074527939
 30
0.0
 10
89.44019094986218
 20
-136.466088833071
 30
0.0
 10
89.65275334130209
 20
-136.3306965805007
 30
0.0
 10
89.94661998619391
 20
-136.3306965805007
 30
0.0
 10
90.2497883888959
 20
-136.3306965805007
 30
0.0
 10
90.45304902252563
 20
-136.4747015717841
 30
0.0
 10
90.45304902252563
 20
-136.7410074527939
 30
0.0
 10
90.45304902252563
 20
-136.9018934119551
 30
0.0
 10
90.36967771178259
 20
-137.0162705820654
 30
0.0
 10
90.23600800695489
 20
-137.0755262244117
 30
0.0
 10
90.33109264234778
 20
-137.1261691280449
 30
0.0
 10
90.50059134022207
 20
-137.2212537634377
 30
0.0
 10
90.50059134022207
 20
-137.4837700394138
 30
0.0
 10
90.50059134022207
 20
-137.8582519186604
 30
0.0
 10
90.20224607119944
 20
-137.9743516365134
 30
0.0
 10
89.94661998619391
 20
-137.9743516365134
 30
0.0
  0
SPLINE
  5
98
330
91
100
AcDbEntity
  8
_U+30EC_U+30A4_U+30E4_U+30FC 1
370
     0
100
AcDbSpline
210
0.0
220
0.0
230
1.0
 70
    11
 71
     3
 72
    17
 73
    13
 74
     0
 42
0.0000000001
 43
0.0000000001
 12
1.0
 22
0.0
 32
0.0
 13
1.0
 23
0.0
 33
0.0
 40
0.0
 40
0.0
 40
0.0
 40
0.0
 40
1.0
 40
1.0
 40
1.0
 40
2.0
 40
2.0
 40
2.0
 40
3.0
 40
3.0
 40
3.0
 40
4.0
 40
4.0
 40
4.0
 40
4.0
 10
89.94661998619391
 20
-137.1833577131
 30
0.0
 10
89.79296872755177
 20
-137.1833577131
 30
0.0
 10
89.63036022064797
 20
-137.2701741193283
 30
0.0
 10
89.63036022064797
 20
-137.4730902434095
 30
0.0
 10
89.63036022064797
 20
-137.6784179343304
 30
0.0
 10
89.76575247321828
 20
-137.7797037415967
 30
0.0
 10
89.94661998619391
 20
-137.7797037415967
 30
0.0
 10
90.14574650524135
 20
-137.7797037415967
 30
0.0
 10
90.26322426128837
 20
-137.6570583423218
 30
0.0
 10
90.26322426128837
 20
-137.479291415283
 30
0.0
 10
90.26322426128837
 20
-137.2574272660329
 30
0.0
 10
90.08924693928324
 20
-137.1833577131
 30
0.0
 10
89.94661998619391
 20
-137.1833577131
 30
0.0
  0
SPLINE
  5
99
330
91
100
AcDbEntity
  8
_U+30EC_U+30A4_U+30E4_U+30FC 1
370
     0
100
AcDbSpline
210
0.0
220
0.0
230
1.0
 70
    11
 71
     3
 72
    17
 73
    13
 74
     0
 42
0.0000000001
 43
0.0000000001
 12
1.0
 22
0.0
 32
0.0
 13
1.0
 23
0.0
 33
0.0
 40
0.0
 40
0.0
 40
0.0
 40
0.0
 40
1.0
 40
1.0
 40
1.0
 40
2.0
 40
2.0
 40
2.0
 40
3.0
 40
3.0
 40
3.0
 40
4.0
 40
4.0
 40
4.0
 40
4.0
 10
89.94661998619391
 20
-136.5232774181261
 30
0.0
 10
89.77057560689764
 20
-136.5232774181261
 30
0.0
 10
89.67996959563557
 20
-136.618362053519
 30
0.0
 10
89.67996959563557
 20
-136.7537543060893
 30
0.0
 10
89.67996959563557
 20
-136.8763997053642
 30
0.0
 10
89.75679522495663
 20
-136.9949109900568
 30
0.0
 10
89.94661998619391
 20
-136.9949109900568
 30
0.0
 10
90.1367892569797
 20
-136.9949109900568
 30
0.0
 10
90.21361488630076
 20
-136.8763997053642
 30
0.0
 10
90.21361488630076
 20
-136.7537543060893
 30
0.0
 10
90.21361488630076
 20
-136.618362053519
 30
0.0
 10
90.12094181774755
 20
-136.5232774181261
 30
0.0
 10
89.94661998619391
 20
-136.5232774181261
 30
0.0
  0
HATCH
  5
9A
330
91
100
AcDbEntity
  8
_U+30EC_U+30A4_U+30E4_U+30FC 1
 62
   179
420
  2234388
100
AcDbHatch
 10
0.0
 20
0.0
 30
0.0
210
0.0
220
0.0
230
1.0
  2
SOLID
 70
     1
 71
     0
 91
        3
 92
        1
 93
        1
 72
     4
 94
        3
 73
     0
 74
     1
 95
       29
 96
       25
 40
0.0
 40
0.0
 40
0.0
 40
0.0
 40
1.0
 40
1.0
 40
1.0
 40
2.0
 40
2.0
 40
2.0
 40
3.0
 40
3.0
 40
3.0
 40
4.0
 40
4.0
 40
4.0
 40
5.0
 40
5.0
 40
5.0
 40
6.0
 40
6.0
 40
6.0
 40
7.0
 40
7.0
 40
7.0
 40
8.0
 40
8.0
 40
8.0
 40
8.0
 10
89.94661998619391
 20
-137.9743516365134
 10
89.66171058956374
 20
-137.9743516365134
 10
89.39058157487459
 20
-137.8368923266519
 10
89.39058157487459
 20
-137.4879041539961
 10
89.39058157487459
 20
-137.231933559442
 10
89.54216577622557
 20
-137.1368489240491
 10
89.65516490814177
 20
-137.0755262244117
 10
89.5218397128626
 20
-137.0162705820654
 10
89.44019094986218
 20
-136.9018934119551
 10
89.44019094986218
 20
-136.7410074527939
 10
89.44019094986218
 20
-136.466088833071
 10
89.65275334130209
 20
-136.3306965805007
 10
89.94661998619391
 20
-136.3306965805007
 10
90.2497883888959
 20
-136.3306965805007
 10
90.45304902252563
 20
-136.4747015717841
 10
90.45304902252563
 20
-136.7410074527939
 10
90.45304902252563
 20
-136.9018934119551
 10
90.36967771178259
 20
-137.0162705820654
 10
90.23600800695489
 20
-137.0755262244117
 10
90.33109264234778
 20
-137.1261691280449
 10
90.50059134022207
 20
-137.2212537634377
 10
90.50059134022207
 20
-137.4837700394138
 10
90.50059134022207
 20
-137.8582519186604
 10
90.20224607119944
 20
-137.9743516365134
 10
89.94661998619391
 20
-137.9743516365134
 97
        0
 97
        0
 92
        1
 93
        1
 72
     4
 94
        3
 73
     0
 74
     1
 95
       17
 96
       13
 40
0.0
 40
0.0
 40
0.0
 40
0.0
 40
1.0
 40
1.0
 40
1.0
 40
2.0
 40
2.0
 40
2.0
 40
3.0
 40
3.0
 40
3.0
 40
4.0
 40
4.0
 40
4.0
 40
4.0
 10
89.94661998619391
 20
-137.1833577131
 10
89.79296872755177
 20
-137.1833577131
 10
89.63036022064797
 20
-137.2701741193283
 10
89.63036022064797
 20
-137.4730902434095
 10
89.63036022064797
 20
-137.6784179343304
 10
89.76575247321828
 20
-137.7797037415967
 10
89.94661998619391
 20
-137.7797037415967
 10
90.14574650524135
 20
-137.7797037415967
 10
90.26322426128837
 20
-137.6570583423218
 10
90.26322426128837
 20
-137.479291415283
 10
90.26322426128837
 20
-137.2574272660329
 10
90.08924693928324
 20
-137.1833577131
 10
89.94661998619391
 20
-137.1833577131
 97
        0
 97
        0
 92
        1
 93
        1
 72
     4
 94
        3
 73
     0
 74
     1
 95
       17
 96
       13
 40
0.0
 40
0.0
 40
0.0
 40
0.0
 40
1.0
 40
1.0
 40
1.0
 40
2.0
 40
2.0
 40
2.0
 40
3.0
 40
3.0
 40
3.0
 40
4.0
 40
4.0
 40
4.0
 40
4.0
 10
89.94661998619391
 20
-136.5232774181261
 10
89.77057560689764
 20
-136.5232774181261
 10
89.67996959563557
 20
-136.618362053519
 10
89.67996959563557
 20
-136.7537543060893
 10
89.67996959563557
 20
-136.8763997053642
 10
89.75679522495663
 20
-136.9949109900568
 10
89.94661998619391
 20
-136.9949109900568
 10
90.1367892569797
 20
-136.9949109900568
 10
90.21361488630076
 20
-136.8763997053642
 10
90.21361488630076
 20
-136.7537543060893
 10
90.21361488630076
 20
-136.618362053519
 10
90.12094181774755
 20
-136.5232774181261
 10
89.94661998619391
 20
-136.5232774181261
 97
        0
 97
        0
 75
     2
 76
     1
 98
        0
  0
ENDBLK
  5
94
330
91
100
AcDbEntity
  8
0
100
AcDbBlockEnd
  0
BLOCK
  5
A9
330
A7
100
AcDbEntity
  8
0
100
AcDbBlockBegin
  2
block 4
 70
     0
 10
0.0
 20
0.0
 30
0.0
  3
block 4
  1

  0
SPLINE
  5
AB
330
A7
100
AcDbEntity
  8
_U+30EC_U+30A4_U+30E4_U+30FC 1
370
     0
100
AcDbSpline
210
0.0
220
0.0
230
1.0
 70
    11
 71
     3
 72
    29
 73
    25
 74
     0
 42
0.0000000001
 43
0.0000000001
 12
1.0
 22
0.0
 32
0.0
 13
1.0
 23
0.0
 33
0.0
 40
0.0
 40
0.0
 40
0.0
 40
0.0
 40
1.0
 40
1.0
 40
1.0
 40
2.0
 40
2.0
 40
2.0
 40
3.0
 40
3.0
 40
3.0
 40
4.0
 40
4.0
 40
4.0
 40
5.0
 40
5.0
 40
5.0
 40
6.0
 40
6.0
 40
6.0
 40
7.0
 40
7.0
 40
7.0
 40
8.0
 40
8.0
 40
8.0
 40
8.0
 10
100.8792859990857
 20
-130.0392632053374
 30
0.0
 10
100.8792859990857
 20
-130.323828092419
 30
0.0
 10
100.7418266892243
 20
-130.5953016166567
 30
0.0
 10
100.3928385165685
 20
-130.5953016166567
 30
0.0
 10
100.1368679220144
 20
-130.5953016166567
 30
0.0
 10
100.0417832866215
 20
-130.4437174153057
 30
0.0
 10
99.98046058698405
 20
-130.3307182833896
 30
0.0
 10
99.92120494463776
 20
-130.4640434786687
 30
0.0
 10
99.80682777452746
 20
-130.5456922416691
 30
0.0
 10
99.6459418153663
 20
-130.5456922416691
 30
0.0
 10
99.37102319564336
 20
-130.5456922416691
 30
0.0
 10
99.23563094307305
 20
-130.3331298502292
 30
0.0
 10
99.23563094307305
 20
-130.0392632053374
 30
0.0
 10
99.23563094307305
 20
-129.7360948026354
 30
0.0
 10
99.37963593435649
 20
-129.5328341690057
 30
0.0
 10
99.6459418153663
 20
-129.5328341690057
 30
0.0
 10
99.80682777452746
 20
-129.5328341690057
 30
0.0
 10
99.92120494463776
 20
-129.6162054797487
 30
0.0
 10
99.98046058698405
 20
-129.7498751845764
 30
0.0
 10
100.0311034906172
 20
-129.6547905491835
 30
0.0
 10
100.1261881260101
 20
-129.4852918513092
 30
0.0
 10
100.3887044019862
 20
-129.4852918513092
 30
0.0
 10
100.7631862812328
 20
-129.4852918513092
 30
0.0
 10
100.8792859990857
 20
-129.7836371203319
 30
0.0
 10
100.8792859990857
 20
-130.0392632053374
 30
0.0
  0
SPLINE
  5
AC
330
A7
100
AcDbEntity
  8
_U+30EC_U+30A4_U+30E4_U+30FC 1
370
     0
100
AcDbSpline
210
0.0
220
0.0
230
1.0
 70
    11
 71
     3
 72
    17
 73
    13
 74
     0
 42
0.0000000001
 43
0.0000000001
 12
1.0
 22
0.0
 32
0.0
 13
1.0
 23
0.0
 33
0.0
 40
0.0
 40
0.0
 40
0.0
 40
0.0
 40
1.0
 40
1.0
 40
1.0
 40
2.0
 40
2.0
 40
2.0
 40
3.0
 40
3.0
 40
3.0
 40
4.0
 40
4.0
 40
4.0
 40
4.0
 10
99.4282117806985
 20
-130.0392632053374
 30
0.0
 10
99.4282117806985
 20
-130.2156520941822
 30
0.0
 10
99.5232964160914
 20
-130.3059135958958
 30
0.0
 10
99.65868866866172
 20
-130.3059135958958
 30
0.0
 10
99.78133406793661
 20
-130.3059135958958
 30
0.0
 10
99.89984535262921
 20
-130.2290879665747
 30
0.0
 10
99.89984535262921
 20
-130.0392632053374
 30
0.0
 10
99.89984535262921
 20
-129.8490939345516
 30
0.0
 10
99.78133406793661
 20
-129.7722683052305
 30
0.0
 10
99.65868866866172
 20
-129.7722683052305
 30
0.0
 10
99.5232964160914
 20
-129.7722683052305
 30
0.0
 10
99.4282117806985
 20
-129.8649413737838
 30
0.0
 10
99.4282117806985
 20
-130.0392632053374
 30
0.0
  0
SPLINE
  5
AD
330
A7
100
AcDbEntity
  8
_U+30EC_U+30A4_U+30E4_U+30FC 1
370
     0
100
AcDbSpline
210
0.0
220
0.0
230
1.0
 70
    11
 71
     3
 72
    17
 73
    13
 74
     0
 42
0.0000000001
 43
0.0000000001
 12
1.0
 22
0.0
 32
0.0
 13
1.0
 23
0.0
 33
0.0
 40
0.0
 40
0.0
 40
0.0
 40
0.0
 40
1.0
 40
1.0
 40
1.0
 40
2.0
 40
2.0
 40
2.0
 40
3.0
 40
3.0
 40
3.0
 40
4.0
 40
4.0
 40
4.0
 40
4.0
 10
100.0882920756724
 20
-130.0392632053374
 30
0.0
 10
100.0882920756724
 20
-130.1929144639795
 30
0.0
 10
100.1751084819007
 20
-130.3555229708834
 30
0.0
 10
100.3780246059819
 20
-130.3555229708834
 30
0.0
 10
100.5833522969028
 20
-130.3555229708834
 30
0.0
 10
100.6846381041691
 20
-130.220130718313
 30
0.0
 10
100.6846381041691
 20
-130.0392632053374
 30
0.0
 10
100.6846381041691
 20
-129.84013668629
 30
0.0
 10
100.5619927048942
 20
-129.7226589302429
 30
0.0
 10
100.3842257778553
 20
-129.7226589302429
 30
0.0
 10
100.1623616286053
 20
-129.7226589302429
 30
0.0
 10
100.0882920756724
 20
-129.8966362522481
 30
0.0
 10
100.0882920756724
 20
-130.0392632053374
 30
0.0
  0
HATCH
  5
AE
330
A7
100
AcDbEntity
  8
_U+30EC_U+30A4_U+30E4_U+30FC 1
 62
   179
420
  2234388
100
AcDbHatch
 10
0.0
 20
0.0
 30
0.0
210
0.0
220
0.0
230
1.0
  2
SOLID
 70
     1
 71
     0
 91
        3
 92
        1
 93
        1
 72
     4
 94
        3
 73
     0
 74
     1
 95
       29
 96
       25
 40
0.0
 40
0.0
 40
0.0
 40
0.0
 40
1.0
 40
1.0
 40
1.0
 40
2.0
 40
2.0
 40
2.0
 40
3.0
 40
3.0
 40
3.0
 40
4.0
 40
4.0
 40
4.0
 40
5.0
 40
5.0
 40
5.0
 40
6.0
 40
6.0
 40
6.0
 40
7.0
 40
7.0
 40
7.0
 40
8.0
 40
8.0
 40
8.0
 40
8.0
 10
100.8792859990857
 20
-130.0392632053374
 10
100.8792859990857
 20
-130.323828092419
 10
100.7418266892243
 20
-130.5953016166567
 10
100.3928385165685
 20
-130.5953016166567
 10
100.1368679220144
 20
-130.5953016166567
 10
100.0417832866215
 20
-130.4437174153057
 10
99.98046058698405
 20
-130.3307182833896
 10
99.92120494463776
 20
-130.4640434786687
 10
99.80682777452746
 20
-130.5456922416691
 10
99.6459418153663
 20
-130.5456922416691
 10
99.37102319564336
 20
-130.5456922416691
 10
99.23563094307305
 20
-130.3331298502292
 10
99.23563094307305
 20
-130.0392632053374
 10
99.23563094307305
 20
-129.7360948026354
 10
99.37963593435649
 20
-129.5328341690057
 10
99.6459418153663
 20
-129.5328341690057
 10
99.80682777452746
 20
-129.5328341690057
 10
99.92120494463776
 20
-129.6162054797487
 10
99.98046058698405
 20
-129.7498751845764
 10
100.0311034906172
 20
-129.6547905491835
 10
100.1261881260101
 20
-129.4852918513092
 10
100.3887044019862
 20
-129.4852918513092
 10
100.7631862812328
 20
-129.4852918513092
 10
100.8792859990857
 20
-129.7836371203319
 10
100.8792859990857
 20
-130.0392632053374
 97
        0
 97
        0
 92
        1
 93
        1
 72
     4
 94
        3
 73
     0
 74
     1
 95
       17
 96
       13
 40
0.0
 40
0.0
 40
0.0
 40
0.0
 40
1.0
 40
1.0
 40
1.0
 40
2.0
 40
2.0
 40
2.0
 40
3.0
 40
3.0
 40
3.0
 40
4.0
 40
4.0
 40
4.0
 40
4.0
 10
99.4282117806985
 20
-130.0392632053374
 10
99.4282117806985
 20
-130.2156520941822
 10
99.5232964160914
 20
-130.3059135958958
 10
99.65868866866172
 20
-130.3059135958958
 10
99.78133406793661
 20
-130.3059135958958
 10
99.89984535262921
 20
-130.2290879665747
 10
99.89984535262921
 20
-130.0392632053374
 10
99.89984535262921
 20
-129.8490939345516
 10
99.78133406793661
 20
-129.7722683052305
 10
99.65868866866172
 20
-129.7722683052305
 10
99.5232964160914
 20
-129.7722683052305
 10
99.4282117806985
 20
-129.8649413737838
 10
99.4282117806985
 20
-130.0392632053374
 97
        0
 97
        0
 92
        1
 93
        1
 72
     4
 94
        3
 73
     0
 74
     1
 95
       17
 96
       13
 40
0.0
 40
0.0
 40
0.0
 40
0.0
 40
1.0
 40
1.0
 40
1.0
 40
2.0
 40
2.0
 40
2.0
 40
3.0
 40
3.0
 40
3.0
 40
4.0
 40
4.0
 40
4.0
 40
4.0
 10
100.0882920756724
 20
-130.0392632053374
 10
100.0882920756724
 20
-130.1929144639795
 10
100.1751084819007
 20
-130.3555229708834
 10
100.3780246059819
 20
-130.3555229708834
 10
100.5833522969028
 20
-130.3555229708834
 10
100.6846381041691
 20
-130.220130718313
 10
100.6846381041691
 20
-130.0392632053374
 10
100.6846381041691
 20
-129.84013668629
 10
100.5619927048942
 20
-129.7226589302429
 10
100.3842257778553
 20
-129.7226589302429
 10
100.1623616286053
 20
-129.7226589302429
 10
100.0882920756724
 20
-129.8966362522481
 10
100.0882920756724
 20
-130.0392632053374
 97
        0
 97
        0
 75
     2
 76
     1
 98
        0
  0
POLYLINE
  5
AF
330
A7
100
AcDbEntity
  8
_U+30EC_U+30A4_U+30E4_U+30FC 1
370
     0
100
AcDb2dPolyline
 66
     1
 10
0.0
 20
0.0
 30
0.0
  0
VERTEX
  5
B0
330
AF
100
AcDbEntity
  8
_U+30EC_U+30A4_U+30E4_U+30FC 1
370
     0
100
AcDbVertex
100
AcDb2dVertex
 10
100.8286430954526
 20
-129.2517143774093
 30
0.0
  0
VERTEX
  5
B1
330
AF
100
AcDbEntity
  8
_U+30EC_U+30A4_U+30E4_U+30FC 1
370
     0
100
AcDbVertex
100
AcDb2dVertex
 10
100.5768066154808
 20
-129.2517143774093
 30
0.0
  0
VERTEX
  5
B2
330
AF
100
AcDbEntity
  8
_U+30EC_U+30A4_U+30E4_U+30FC 1
370
     0
100
AcDbVertex
100
AcDb2dVertex
 10
100.5768066154808
 20
-128.9826524200113
 30
0.0
  0
VERTEX
  5
B3
330
AF
100
AcDbEntity
  8
_U+30EC_U+30A4_U+30E4_U+30FC 1
370
     0
100
AcDbVertex
100
AcDb2dVertex
 10
100.8286430954526
 20
-128.9826524200113
 30
0.0
  0
VERTEX
  5
B4
330
AF
100
AcDbEntity
  8
_U+30EC_U+30A4_U+30E4_U+30FC 1
370
     0
100
AcDbVertex
100
AcDb2dVertex
 10
100.8286430954526
 20
-129.2517143774093
 30
0.0
  0
SEQEND
  5
B5
330
AF
100
AcDbEntity
  8
_U+30EC_U+30A4_U+30E4_U+30FC 1
370
     0
  0
HATCH
  5
B6
330
A7
100
AcDbEntity
  8
_U+30EC_U+30A4_U+30E4_U+30FC 1
 62
   179
420
  2234388
100
AcDbHatch
 10
0.0
 20
0.0
 30
0.0
210
0.0
220
0.0
230
1.0
  2
SOLID
 70
     1
 71
     0
 91
        1
 92
        1
 93
        4
 72
     1
 10
100.8286430954526
 20
-129.2517143774093
 11
100.5768066154808
 21
-129.2517143774093
 72
     1
 10
100.5768066154808
 20
-129.2517143774093
 11
100.5768066154808
 21
-128.9826524200113
 72
     1
 10
100.5768066154808
 20
-128.9826524200113
 11
100.8286430954526
 21
-128.9826524200113
 72
     1
 10
100.8286430954526
 20
-128.9826524200113
 11
100.8286430954526
 21
-129.2517143774093
 97
        0
 75
     2
 76
     1
 98
        0
  0
SPLINE
  5
B7
330
A7
100
AcDbEntity
  8
_U+30EC_U+30A4_U+30E4_U+30FC 1
370
     0
100
AcDbSpline
210
0.0
220
0.0
230
1.0
 70
    11
 71
     3
 72
    53
 73
    49
 74
     0
 42
0.0000000001
 43
0.0000000001
 12
1.0
 22
0.0
 32
0.0
 13
1.0
 23
0.0
 33
0.0
 40
0.0
 40
0.0
 40
0.0
 40
0.0
 40
1.0
 40
1.0
 40
1.0
 40
2.0
 40
2.0
 40
2.0
 40
3.0
 40
3.0
 40
3.0
 40
4.0
 40
4.0
 40
4.0
 40
5.0
 40
5.0
 40
5.0
 40
6.0
 40
6.0
 40
6.0
 40
7.0
 40
7.0
 40
7.0
 40
8.0
 40
8.0
 40
8.0
 40
9.0
 40
9.0
 40
9.0
 40
10.0
 40
10.0
 40
10.0
 40
11.0
 40
11.0
 40
11.0
 40
12.0
 40
12.0
 40
12.0
 40
13.0
 40
13.0
 40
13.0
 40
14.0
 40
14.0
 40
14.0
 40
15.0
 40
15.0
 40
15.0
 40
16.0
 40
16.0
 40
16.0
 40
16.0
 10
100.8792859990857
 20
-128.2157741649947
 30
0.0
 10
100.8792859990857
 20
-128.2994899852862
 30
0.0
 10
100.862405031208
 20
-128.4076659835231
 30
0.0
 10
100.7990152742794
 20
-128.516531000857
 30
0.0
 10
100.6891167283
 20
-128.7018771379634
 30
0.0
 10
100.5578585903119
 20
-128.7242702586175
 30
0.0
 10
100.4500271016236
 20
-128.7445963219805
 30
0.0
 10
100.4500271016236
 20
-128.7445963219805
 30
0.0
 10
100.4500271016236
 20
-128.5072292430468
 30
0.0
 10
100.4500271016236
 20
-128.5072292430468
 30
0.0
 10
100.6488091111225
 20
-128.4486626197976
 30
0.0
 10
100.6784369322957
 20
-128.3129258576787
 30
0.0
 10
100.6784369322957
 20
-128.213362598155
 30
0.0
 10
100.6784369322957
 20
-128.0641899636437
 30
0.0
 10
100.5788736727719
 20
-127.9012369471914
 30
0.0
 10
100.3463297275176
 20
-127.9012369471914
 30
0.0
 10
100.0903591329635
 20
-127.9012369471914
 30
0.0
 10
100.020423694613
 20
-128.0934732752683
 30
0.0
 10
100.020423694613
 20
-128.2223198464166
 30
0.0
 10
100.020423694613
 20
-128.2564262917206
 30
0.0
 10
100.020423694613
 20
-128.4076659835231
 30
0.0
 10
100.1496147753098
 20
-128.502750618916
 30
0.0
 10
100.1496147753098
 20
-128.502750618916
 30
0.0
 10
100.1306667501409
 20
-128.6905083228621
 30
0.0
 10
100.1306667501409
 20
-128.6905083228621
 30
0.0
 10
100.1306667501409
 20
-128.6905083228621
 30
0.0
 10
99.28420678941507
 20
-128.5616617517138
 30
0.0
 10
99.28420678941507
 20
-128.5616617517138
 30
0.0
 10
99.28420678941507
 20
-128.5616617517138
 30
0.0
 10
99.28420678941507
 20
-127.7296711920259
 30
0.0
 10
99.28420678941507
 20
-127.7296711920259
 30
0.0
 10
99.28420678941507
 20
-127.7296711920259
 30
0.0
 10
99.47885468433168
 20
-127.7296711920259
 30
0.0
 10
99.47885468433168
 20
-127.7296711920259
 30
0.0
 10
99.47885468433168
 20
-127.7296711920259
 30
0.0
 10
99.47885468433168
 20
-128.3873399201601
 30
0.0
 10
99.47885468433168
 20
-128.3873399201601
 30
0.0
 10
99.47885468433168
 20
-128.3873399201601
 30
0.0
 10
99.90191240992036
 20
-128.4576198680592
 30
0.0
 10
99.90191240992036
 20
-128.4576198680592
 30
0.0
 10
99.8681504741649
 20
-128.3921630538395
 30
0.0
 10
99.82784285698749
 20
-128.3039686094171
 30
0.0
 10
99.82784285698749
 20
-128.1771890955599
 30
0.0
 10
99.82784285698749
 20
-127.9060600808707
 30
0.0
 10
100.0142225227395
 20
-127.6528455627049
 30
0.0
 10
100.3273817023487
 20
-127.6528455627049
 30
0.0
 10
100.6446749965402
 20
-127.6528455627049
 30
0.0
 10
100.8792859990857
 20
-127.8922796989297
 30
0.0
 10
100.8792859990857
 20
-128.2157741649947
 30
0.0
  0
HATCH
  5
B8
330
A7
100
AcDbEntity
  8
_U+30EC_U+30A4_U+30E4_U+30FC 1
 62
   179
420
  2234388
100
AcDbHatch
 10
0.0
 20
0.0
 30
0.0
210
0.0
220
0.0
230
1.0
  2
SOLID
 70
     1
 71
     0
 91
        1
 92
        1
 93
        1
 72
     4
 94
        3
 73
     0
 74
     1
 95
       53
 96
       49
 40
0.0
 40
0.0
 40
0.0
 40
0.0
 40
1.0
 40
1.0
 40
1.0
 40
2.0
 40
2.0
 40
2.0
 40
3.0
 40
3.0
 40
3.0
 40
4.0
 40
4.0
 40
4.0
 40
5.0
 40
5.0
 40
5.0
 40
6.0
 40
6.0
 40
6.0
 40
7.0
 40
7.0
 40
7.0
 40
8.0
 40
8.0
 40
8.0
 40
9.0
 40
9.0
 40
9.0
 40
10.0
 40
10.0
 40
10.0
 40
11.0
 40
11.0
 40
11.0
 40
12.0
 40
12.0
 40
12.0
 40
13.0
 40
13.0
 40
13.0
 40
14.0
 40
14.0
 40
14.0
 40
15.0
 40
15.0
 40
15.0
 40
16.0
 40
16.0
 40
16.0
 40
16.0
 10
100.8792859990857
 20
-128.2157741649947
 10
100.8792859990857
 20
-128.2994899852862
 10
100.862405031208
 20
-128.4076659835231
 10
100.7990152742794
 20
-128.516531000857
 10
100.6891167283
 20
-128.7018771379634
 10
100.5578585903119
 20
-128.7242702586175
 10
100.4500271016236
 20
-128.7445963219805
 10
100.4500271016236
 20
-128.7445963219805
 10
100.4500271016236
 20
-128.5072292430468
 10
100.4500271016236
 20
-128.5072292430468
 10
100.6488091111225
 20
-128.4486626197976
 10
100.6784369322957
 20
-128.3129258576787
 10
100.6784369322957
 20
-128.213362598155
 10
100.6784369322957
 20
-128.0641899636437
 10
100.5788736727719
 20
-127.9012369471914
 10
100.3463297275176
 20
-127.9012369471914
 10
100.0903591329635
 20
-127.9012369471914
 10
100.020423694613
 20
-128.0934732752683
 10
100.020423694613
 20
-128.2223198464166
 10
100.020423694613
 20
-128.2564262917206
 10
100.020423694613
 20
-128.4076659835231
 10
100.1496147753098
 20
-128.502750618916
 10
100.1496147753098
 20
-128.502750618916
 10
100.1306667501409
 20
-128.6905083228621
 10
100.1306667501409
 20
-128.6905083228621
 10
100.1306667501409
 20
-128.6905083228621
 10
99.28420678941507
 20
-128.5616617517138
 10
99.28420678941507
 20
-128.5616617517138
 10
99.28420678941507
 20
-128.5616617517138
 10
99.28420678941507
 20
-127.7296711920259
 10
99.28420678941507
 20
-127.7296711920259
 10
99.28420678941507
 20
-127.7296711920259
 10
99.47885468433168
 20
-127.7296711920259
 10
99.47885468433168
 20
-127.7296711920259
 10
99.47885468433168
 20
-127.7296711920259
 10
99.47885468433168
 20
-128.3873399201601
 10
99.47885468433168
 20
-128.3873399201601
 10
99.47885468433168
 20
-128.3873399201601
 10
99.90191240992036
 20
-128.4576198680592
 10
99.90191240992036
 20
-128.4576198680592
 10
99.8681504741649
 20
-128.3921630538395
 10
99.82784285698749
 20
-128.3039686094171
 10
99.82784285698749
 20
-128.1771890955599
 10
99.82784285698749
 20
-127.9060600808707
 10
100.0142225227395
 20
-127.6528455627049
 10
100.3273817023487
 20
-127.6528455627049
 10
100.6446749965402
 20
-127.6528455627049
 10
100.8792859990857
 20
-127.8922796989297
 10
100.8792859990857
 20
-128.2157741649947
 97
        0
 97
        0
 75
     2
 76
     1
 98
        0
  0
ENDBLK
  5
AA
330
A7
100
AcDbEntity
  8
0
100
AcDbBlockEnd
  0
BLOCK
  5
C4
330
C2
100
AcDbEntity
  8
0
100
AcDbBlockBegin
  2
block 5
 70
     0
 10
0.0
 20
0.0
 30
0.0
  3
block 5
  1

  0
SPLINE
  5
C6
330
C2
100
AcDbEntity
  8
_U+30EC_U+30A4_U+30E4_U+30FC 1
370
     0
100
AcDbSpline
210
0.0
220
0.0
230
1.0
 70
    11
 71
     3
 72
    26
 73
    22
 74
     0
 42
0.0000000001
 43
0.0000000001
 12
1.0
 22
0.0
 32
0.0
 13
1.0
 23
0.0
 33
0.0
 40
0.0
 40
0.0
 40
0.0
 40
0.0
 40
1.0
 40
1.0
 40
1.0
 40
2.0
 40
2.0
 40
2.0
 40
3.0
 40
3.0
 40
3.0
 40
4.0
 40
4.0
 40
4.0
 40
5.0
 40
5.0
 40
5.0
 40
6.0
 40
6.0
 40
6.0
 40
7.0
 40
7.0
 40
7.0
 40
7.0
 10
100.828298585904
 20
-134.0335069109361
 30
0.0
 10
100.828298585904
 20
-134.0335069109361
 30
0.0
 10
99.72414548288147
 20
-134.0335069109361
 30
0.0
 10
99.72414548288147
 20
-134.0335069109361
 30
0.0
 10
99.72414548288147
 20
-134.0335069109361
 30
0.0
 10
99.72414548288147
 20
-134.3859401790771
 30
0.0
 10
99.72414548288147
 20
-134.3859401790771
 30
0.0
 10
99.72414548288147
 20
-134.3859401790771
 30
0.0
 10
99.57600637701573
 20
-134.3859401790771
 30
0.0
 10
99.57600637701573
 20
-134.3859401790771
 30
0.0
 10
99.56119246642915
 20
-134.0310953440964
 30
0.0
 10
99.39823944997683
 20
-133.9814859691088
 30
0.0
 10
99.28386227986654
 20
-133.9497910906445
 30
0.0
 10
99.28386227986654
 20
-133.9497910906445
 30
0.0
 10
99.28386227986654
 20
-133.7937282651627
 30
0.0
 10
99.28386227986654
 20
-133.7937282651627
 30
0.0
 10
99.28386227986654
 20
-133.7937282651627
 30
0.0
 10
100.828298585904
 20
-133.7937282651627
 30
0.0
 10
100.828298585904
 20
-133.7937282651627
 30
0.0
 10
100.828298585904
 20
-133.7937282651627
 30
0.0
 10
100.828298585904
 20
-134.0335069109361
 30
0.0
 10
100.828298585904
 20
-134.0335069109361
 30
0.0
  0
HATCH
  5
C7
330
C2
100
AcDbEntity
  8
_U+30EC_U+30A4_U+30E4_U+30FC 1
 62
   179
420
  2234388
100
AcDbHatch
 10
0.0
 20
0.0
 30
0.0
210
0.0
220
0.0
230
1.0
  2
SOLID
 70
     1
 71
     0
 91
        1
 92
        1
 93
        1
 72
     4
 94
        3
 73
     0
 74
     1
 95
       26
 96
       22
 40
0.0
 40
0.0
 40
0.0
 40
0.0
 40
1.0
 40
1.0
 40
1.0
 40
2.0
 40
2.0
 40
2.0
 40
3.0
 40
3.0
 40
3.0
 40
4.0
 40
4.0
 40
4.0
 40
5.0
 40
5.0
 40
5.0
 40
6.0
 40
6.0
 40
6.0
 40
7.0
 40
7.0
 40
7.0
 40
7.0
 10
100.828298585904
 20
-134.0335069109361
 10
100.828298585904
 20
-134.0335069109361
 10
99.72414548288147
 20
-134.0335069109361
 10
99.72414548288147
 20
-134.0335069109361
 10
99.72414548288147
 20
-134.0335069109361
 10
99.72414548288147
 20
-134.3859401790771
 10
99.72414548288147
 20
-134.3859401790771
 10
99.72414548288147
 20
-134.3859401790771
 10
99.57600637701573
 20
-134.3859401790771
 10
99.57600637701573
 20
-134.3859401790771
 10
99.56119246642915
 20
-134.0310953440964
 10
99.39823944997683
 20
-133.9814859691088
 10
99.28386227986654
 20
-133.9497910906445
 10
99.28386227986654
 20
-133.9497910906445
 10
99.28386227986654
 20
-133.7937282651627
 10
99.28386227986654
 20
-133.7937282651627
 10
99.28386227986654
 20
-133.7937282651627
 10
100.828298585904
 20
-133.7937282651627
 10
100.828298585904
 20
-133.7937282651627
 10
100.828298585904
 20
-133.7937282651627
 10
100.828298585904
 20
-134.0335069109361
 10
100.828298585904
 20
-134.0335069109361
 97
        0
 97
        0
 75
     2
 76
     1
 98
        0
  0
ENDBLK
  5
C5
330
C2
100
AcDbEntity
  8
0
100
AcDbBlockEnd
  0
BLOCK
  5
CC
330
CA
100
AcDbEntity
  8
0
100
AcDbBlockBegin
  2
block 6
 70
     0
 10
0.0
 20
0.0
 30
0.0
  3
block 6
  1

  0
SPLINE
  5
CE
330
CA
100
AcDbEntity
  8
_U+30EC_U+30A4_U+30E4_U+30FC 1
370
     0
100
AcDbSpline
210
0.0
220
0.0
230
1.0
 70
    11
 71
     3
 72
    26
 73
    22
 74
     0
 42
0.0000000001
 43
0.0000000001
 12
1.0
 22
0.0
 32
0.0
 13
1.0
 23
0.0
 33
0.0
 40
0.0
 40
0.0
 40
0.0
 40
0.0
 40
1.0
 40
1.0
 40
1.0
 40
2.0
 40
2.0
 40
2.0
 40
3.0
 40
3.0
 40
3.0
 40
4.0
 40
4.0
 40
4.0
 40
5.0
 40
5.0
 40
5.0
 40
6.0
 40
6.0
 40
6.0
 40
7.0
 40
7.0
 40
7.0
 40
7.0
 10
79.14779593290403
 20
-128.6155774960579
 30
0.0
 10
79.14779593290403
 20
-128.6155774960579
 30
0.0
 10
79.14779593290403
 20
-127.5112521382611
 30
0.0
 10
79.14779593290403
 20
-127.5112521382611
 30
0.0
 10
79.14779593290403
 20
-127.5112521382611
 30
0.0
 10
78.81775578541709
 20
-127.5112521382611
 30
0.0
 10
78.81775578541709
 20
-127.5112521382611
 30
0.0
 10
78.81775578541709
 20
-127.5112521382611
 30
0.0
 10
78.81775578541709
 20
-127.3631130323953
 30
0.0
 10
78.81775578541709
 20
-127.3631130323953
 30
0.0
 10
79.14986299019517
 20
-127.348471376583
 30
0.0
 10
79.19637177924605
 20
-127.1855183601307
 30
0.0
 10
79.2259996004192
 20
-127.0713134447947
 30
0.0
 10
79.2259996004192
 20
-127.0713134447947
 30
0.0
 10
79.3720716489938
 20
-127.0713134447947
 30
0.0
 10
79.3720716489938
 20
-127.0713134447947
 30
0.0
 10
79.3720716489938
 20
-127.0713134447947
 30
0.0
 10
79.3720716489938
 20
-128.6155774960579
 30
0.0
 10
79.3720716489938
 20
-128.6155774960579
 30
0.0
 10
79.3720716489938
 20
-128.6155774960579
 30
0.0
 10
79.14779593290403
 20
-128.6155774960579
 30
0.0
 10
79.14779593290403
 20
-128.6155774960579
 30
0.0
  0
HATCH
  5
CF
330
CA
100
AcDbEntity
  8
_U+30EC_U+30A4_U+30E4_U+30FC 1
 62
   179
420
  2234388
100
AcDbHatch
 10
0.0
 20
0.0
 30
0.0
210
0.0
220
0.0
230
1.0
  2
SOLID
 70
     1
 71
     0
 91
        1
 92
        1
 93
        1
 72
     4
 94
        3
 73
     0
 74
     1
 95
       26
 96
       22
 40
0.0
 40
0.0
 40
0.0
 40
0.0
 40
1.0
 40
1.0
 40
1.0
 40
2.0
 40
2.0
 40
2.0
 40
3.0
 40
3.0
 40
3.0
 40
4.0
 40
4.0
 40
4.0
 40
5.0
 40
5.0
 40
5.0
 40
6.0
 40
6.0
 40
6.0
 40
7.0
 40
7.0
 40
7.0
 40
7.0
 10
79.14779593290403
 20
-128.6155774960579
 10
79.14779593290403
 20
-128.6155774960579
 10
79.14779593290403
 20
-127.5112521382611
 10
79.14779593290403
 20
-127.5112521382611
 10
79.14779593290403
 20
-127.5112521382611
 10
78.81775578541709
 20
-127.5112521382611
 10
78.81775578541709
 20
-127.5112521382611
 10
78.81775578541709
 20
-127.5112521382611
 10
78.81775578541709
 20
-127.3631130323953
 10
78.81775578541709
 20
-127.3631130323953
 10
79.14986299019517
 20
-127.348471376583
 10
79.19637177924605
 20
-127.1855183601307
 10
79.2259996004192
 20
-127.0713134447947
 10
79.2259996004192
 20
-127.0713134447947
 10
79.3720716489938
 20
-127.0713134447947
 10
79.3720716489938
 20
-127.0713134447947
 10
79.3720716489938
 20
-127.0713134447947
 10
79.3720716489938
 20
-128.6155774960579
 10
79.3720716489938
 20
-128.6155774960579
 10
79.3720716489938
 20
-128.6155774960579
 10
79.14779593290403
 20
-128.6155774960579
 10
79.14779593290403
 20
-128.6155774960579
 97
        0
 97
        0
 75
     2
 76
     1
 98
        0
  0
ENDBLK
  5
CD
330
CA
100
AcDbEntity
  8
0
100
AcDbBlockEnd
  0
ENDSEC
  0
SECTION
  2
ENTITIES
  0
SPLINE
  5
41
330
1F
100
AcDbEntity
  8
_U+30EC_U+30A4_U+30E4_U+30FC 1
370
     0
100
AcDbSpline
210
0.0
220
0.0
230
1.0
 70
    11
 71
     3
 72
    44
 73
    40
 74
     0
 42
0.0000000001
 43
0.0000000001
 12
1.0
 22
0.0
 32
0.0
 13
1.0
 23
0.0
 33
0.0
 40
0.0
 40
0.0
 40
0.0
 40
0.0
 40
1.0
 40
1.0
 40
1.0
 40
2.0
 40
2.0
 40
2.0
 40
3.0
 40
3.0
 40
3.0
 40
4.0
 40
4.0
 40
4.0
 40
5.0
 40
5.0
 40
5.0
 40
6.0
 40
6.0
 40
6.0
 40
7.0
 40
7.0
 40
7.0
 40
8.0
 40
8.0
 40
8.0
 40
9.0
 40
9.0
 40
9.0
 40
10.0
 40
10.0
 40
10.0
 40
11.0
 40
11.0
 40
11.0
 40
12.0
 40
12.0
 40
12.0
 40
13.0
 40
13.0
 40
13.0
 40
13.0
 10
97.81349250456991
 20
-134.0197132998284
 30
0.0
 10
97.81349250456991
 20
-134.0197132998284
 30
0.0
 10
88.31329302471796
 20
-134.0197132998284
 30
0.0
 10
88.31329302471796
 20
-134.0197132998284
 30
0.0
 10
88.13485802927022
 20
-133.7103624665727
 30
0.0
 10
87.80479914880183
 20
-133.5201799666202
 30
0.0
 10
87.44718832459192
 20
-133.5201799666202
 30
0.0
 10
87.44718832459192
 20
-133.5201799666202
 30
0.0
 10
81.31287681442457
 20
-133.5201799666202
 30
0.0
 10
81.31287681442457
 20
-133.5201799666202
 30
0.0
 10
81.31287681442457
 20
-133.5201799666202
 30
0.0
 10
81.31287681442457
 20
-125.0197524687451
 30
0.0
 10
81.31287681442457
 20
-125.0197524687451
 30
0.0
 10
81.31287681442457
 20
-125.0197524687451
 30
0.0
 10
88.31329302471796
 20
-125.0197524687451
 30
0.0
 10
88.31329302471796
 20
-125.0197524687451
 30
0.0
 10
88.31329302471796
 20
-125.0197524687451
 30
0.0
 10
88.31329302471796
 20
-124.4203124688949
 30
0.0
 10
88.31329302471796
 20
-124.4203124688949
 30
0.0
 10
88.31329302471796
 20
-124.4203124688949
 30
0.0
 10
86.30341224266097
 20
-124.2191233022784
 30
0.0
 10
86.30341224266097
 20
-124.2191233022784
 30
0.0
 10
84.97707366538756
 20
-124.0861260800897
 30
0.0
 10
83.64586675490504
 20
-124.0199802467729
 30
0.0
 10
82.31331928890116
 20
-124.0199802467729
 30
0.0
 10
82.31331928890116
 20
-124.0199802467729
 30
0.0
 10
80.31310461770867
 20
-124.0199802467729
 30
0.0
 10
80.31310461770867
 20
-124.0199802467729
 30
0.0
 10
80.31310461770867
 20
-124.0199802467729
 30
0.0
 10
80.31310461770867
 20
-133.7199932999035
 30
0.0
 10
80.31310461770867
 20
-133.7199932999035
 30
0.0
 10
80.31310461770867
 20
-134.161671077571
 30
0.0
 10
80.67138571967926
 20
-134.5199521885921
 30
0.0
 10
81.1130634861889
 20
-134.5199521885921
 30
0.0
 10
81.1130634861889
 20
-134.5199521885921
 30
0.0
 10
98.31302582515909
 20
-134.5199521885921
 30
0.0
 10
98.31302582515909
 20
-134.5199521885921
 30
0.0
 10
98.31302582515909
 20
-134.2436566331057
 30
0.0
 10
98.0891177753159
 20
-134.0197132998284
 30
0.0
 10
97.81349250456991
 20
-134.0197132998284
 30
0.0
  0
HATCH
  5
42
330
1F
100
AcDbEntity
  8
_U+30EC_U+30A4_U+30E4_U+30FC 1
 62
   253
420
 11711154
100
AcDbHatch
 10
0.0
 20
0.0
 30
0.0
210
0.0
220
0.0
230
1.0
  2
SOLID
 70
     1
 71
     0
 91
        1
 92
        1
 93
        1
 72
     4
 94
        3
 73
     0
 74
     1
 95
       44
 96
       40
 40
0.0
 40
0.0
 40
0.0
 40
0.0
 40
1.0
 40
1.0
 40
1.0
 40
2.0
 40
2.0
 40
2.0
 40
3.0
 40
3.0
 40
3.0
 40
4.0
 40
4.0
 40
4.0
 40
5.0
 40
5.0
 40
5.0
 40
6.0
 40
6.0
 40
6.0
 40
7.0
 40
7.0
 40
7.0
 40
8.0
 40
8.0
 40
8.0
 40
9.0
 40
9.0
 40
9.0
 40
10.0
 40
10.0
 40
10.0
 40
11.0
 40
11.0
 40
11.0
 40
12.0
 40
12.0
 40
12.0
 40
13.0
 40
13.0
 40
13.0
 40
13.0
 10
97.81349250456991
 20
-134.0197132998284
 10
97.81349250456991
 20
-134.0197132998284
 10
88.31329302471796
 20
-134.0197132998284
 10
88.31329302471796
 20
-134.0197132998284
 10
88.13485802927022
 20
-133.7103624665727
 10
87.80479914880183
 20
-133.5201799666202
 10
87.44718832459192
 20
-133.5201799666202
 10
87.44718832459192
 20
-133.5201799666202
 10
81.31287681442457
 20
-133.5201799666202
 10
81.31287681442457
 20
-133.5201799666202
 10
81.31287681442457
 20
-133.5201799666202
 10
81.31287681442457
 20
-125.0197524687451
 10
81.31287681442457
 20
-125.0197524687451
 10
81.31287681442457
 20
-125.0197524687451
 10
88.31329302471796
 20
-125.0197524687451
 10
88.31329302471796
 20
-125.0197524687451
 10
88.31329302471796
 20
-125.0197524687451
 10
88.31329302471796
 20
-124.4203124688949
 10
88.31329302471796
 20
-124.4203124688949
 10
88.31329302471796
 20
-124.4203124688949
 10
86.30341224266097
 20
-124.2191233022784
 10
86.30341224266097
 20
-124.2191233022784
 10
84.97707366538756
 20
-124.0861260800897
 10
83.64586675490504
 20
-124.0199802467729
 10
82.31331928890116
 20
-124.0199802467729
 10
82.31331928890116
 20
-124.0199802467729
 10
80.31310461770867
 20
-124.0199802467729
 10
80.31310461770867
 20
-124.0199802467729
 10
80.31310461770867
 20
-124.0199802467729
 10
80.31310461770867
 20
-133.7199932999035
 10
80.31310461770867
 20
-133.7199932999035
 10
80.31310461770867
 20
-134.161671077571
 10
80.67138571967926
 20
-134.5199521885921
 10
81.1130634861889
 20
-134.5199521885921
 10
81.1130634861889
 20
-134.5199521885921
 10
98.31302582515909
 20
-134.5199521885921
 10
98.31302582515909
 20
-134.5199521885921
 10
98.31302582515909
 20
-134.2436566331057
 10
98.0891177753159
 20
-134.0197132998284
 10
97.81349250456991
 20
-134.0197132998284
 97
        0
 97
        0
 75
     2
 76
     1
 98
        0
  0
POLYLINE
  5
43
330
1F
100
AcDbEntity
  8
_U+30EC_U+30A4_U+30E4_U+30FC 1
 62
   179
420
  2234388
370
    25
100
AcDb2dPolyline
 66
     1
 10
0.0
 20
0.0
 30
0.0
  0
VERTEX
  5
44
330
43
100
AcDbEntity
  8
_U+30EC_U+30A4_U+30E4_U+30FC 1
 62
   179
420
  2234388
370
    25
100
AcDbVertex
100
AcDb2dVertex
 10
81.31287681442457
 20
-125.0197524687451
 30
0.0
  0
VERTEX
  5
45
330
43
100
AcDbEntity
  8
_U+30EC_U+30A4_U+30E4_U+30FC 1
 62
   179
420
  2234388
370
    25
100
AcDbVertex
100
AcDb2dVertex
 10
88.31329302471796
 20
-125.0197524687451
 30
0.0
  0
SEQEND
  5
46
330
43
100
AcDbEntity
  8
_U+30EC_U+30A4_U+30E4_U+30FC 1
 62
   179
420
  2234388
370
    25
  0
POLYLINE
  5
47
330
1F
100
AcDbEntity
  8
_U+30EC_U+30A4_U+30E4_U+30FC 1
 62
   179
420
  2234388
370
    25
100
AcDb2dPolyline
 66
     1
 10
0.0
 20
0.0
 30
0.0
  0
VERTEX
  5
48
330
47
100
AcDbEntity
  8
_U+30EC_U+30A4_U+30E4_U+30FC 1
 62
   179
420
  2234388
370
    25
100
AcDbVertex
100
AcDb2dVertex
 10
80.31310461770867
 20
-124.0199802467729
 30
0.0
  0
VERTEX
  5
49
330
47
100
AcDbEntity
  8
_U+30EC_U+30A4_U+30E4_U+30FC 1
 62
   179
420
  2234388
370
    25
100
AcDbVertex
100
AcDb2dVertex
 10
82.31331928890116
 20
-124.0199802467729
 30
0.0
  0
SEQEND
  5
4A
330
47
100
AcDbEntity
  8
_U+30EC_U+30A4_U+30E4_U+30FC 1
 62
   179
420
  2234388
370
    25
  0
POLYLINE
  5
4B
330
1F
100
AcDbEntity
  8
_U+30EC_U+30A4_U+30E4_U+30FC 1
 62
   179
420
  2234388
370
    25
100
AcDb2dPolyline
 66
     1
 10
0.0
 20
0.0
 30
0.0
  0
VERTEX
  5
4C
330
4B
100
AcDbEntity
  8
_U+30EC_U+30A4_U+30E4_U+30FC 1
 62
   179
420
  2234388
370
    25
100
AcDbVertex
100
AcDb2dVertex
 10
81.31287681442457
 20
-133.5201799666202
 30
0.0
  0
VERTEX
  5
4D
330
4B
100
AcDbEntity
  8
_U+30EC_U+30A4_U+30E4_U+30FC 1
 62
   179
420
  2234388
370
    25
100
AcDbVertex
100
AcDb2dVertex
 10
87.44718832459192
 20
-133.5201799666202
 30
0.0
  0
SEQEND
  5
4E
330
4B
100
AcDbEntity
  8
_U+30EC_U+30A4_U+30E4_U+30FC 1
 62
   179
420
  2234388
370
    25
  0
POLYLINE
  5
4F
330
1F
100
AcDbEntity
  8
_U+30EC_U+30A4_U+30E4_U+30FC 1
 62
   179
420
  2234388
370
    25
100
AcDb2dPolyline
 66
     1
 10
0.0
 20
0.0
 30
0.0
  0
VERTEX
  5
50
330
4F
100
AcDbEntity
  8
_U+30EC_U+30A4_U+30E4_U+30FC 1
 62
   179
420
  2234388
370
    25
100
AcDbVertex
100
AcDb2dVertex
 10
81.1130634861889
 20
-134.5199521885921
 30
0.0
  0
VERTEX
  5
51
330
4F
100
AcDbEntity
  8
_U+30EC_U+30A4_U+30E4_U+30FC 1
 62
   179
420
  2234388
370
    25
100
AcDbVertex
100
AcDb2dVertex
 10
98.31302582515909
 20
-134.5199521885921
 30
0.0
  0
SEQEND
  5
52
330
4F
100
AcDbEntity
  8
_U+30EC_U+30A4_U+30E4_U+30FC 1
 62
   179
420
  2234388
370
    25
  0
POLYLINE
  5
53
330
1F
100
AcDbEntity
  8
_U+30EC_U+30A4_U+30E4_U+30FC 1
 62
   179
420
  2234388
370
    25
100
AcDb2dPolyline
 66
     1
 10
0.0
 20
0.0
 30
0.0
  0
VERTEX
  5
54
330
53
100
AcDbEntity
  8
_U+30EC_U+30A4_U+30E4_U+30FC 1
 62
   179
420
  2234388
370
    25
100
AcDbVertex
100
AcDb2dVertex
 10
88.31329302471796
 20
-124.4203124688949
 30
0.0
  0
VERTEX
  5
55
330
53
100
AcDbEntity
  8
_U+30EC_U+30A4_U+30E4_U+30FC 1
 62
   179
420
  2234388
370
    25
100
AcDbVertex
100
AcDb2dVertex
 10
88.31329302471796
 20
-125.0197524687451
 30
0.0
  0
SEQEND
  5
56
330
53
100
AcDbEntity
  8
_U+30EC_U+30A4_U+30E4_U+30FC 1
 62
   179
420
  2234388
370
    25
  0
POLYLINE
  5
57
330
1F
100
AcDbEntity
  8
_U+30EC_U+30A4_U+30E4_U+30FC 1
 62
   179
420
  2234388
370
    25
100
AcDb2dPolyline
 66
     1
 10
0.0
 20
0.0
 30
0.0
  0
VERTEX
  5
58
330
57
100
AcDbEntity
  8
_U+30EC_U+30A4_U+30E4_U+30FC 1
 62
   179
420
  2234388
370
    25
100
AcDbVertex
100
AcDb2dVertex
 10
80.31310461770867
 20
-124.0199802467729
 30
0.0
  0
VERTEX
  5
59
330
57
100
AcDbEntity
  8
_U+30EC_U+30A4_U+30E4_U+30FC 1
 62
   179
420
  2234388
370
    25
100
AcDbVertex
100
AcDb2dVertex
 10
80.31310461770867
 20
-133.7199932999035
 30
0.0
  0
SEQEND
  5
5A
330
57
100
AcDbEntity
  8
_U+30EC_U+30A4_U+30E4_U+30FC 1
 62
   179
420
  2234388
370
    25
  0
POLYLINE
  5
5B
330
1F
100
AcDbEntity
  8
_U+30EC_U+30A4_U+30E4_U+30FC 1
 62
   179
420
  2234388
370
    25
100
AcDb2dPolyline
 66
     1
 10
0.0
 20
0.0
 30
0.0
  0
VERTEX
  5
5C
330
5B
100
AcDbEntity
  8
_U+30EC_U+30A4_U+30E4_U+30FC 1
 62
   179
420
  2234388
370
    25
100
AcDbVertex
100
AcDb2dVertex
 10
81.31287681442457
 20
-125.0197524687451
 30
0.0
  0
VERTEX
  5
5D
330
5B
100
AcDbEntity
  8
_U+30EC_U+30A4_U+30E4_U+30FC 1
 62
   179
420
  2234388
370
    25
100
AcDbVertex
100
AcDb2dVertex
 10
81.31287681442457
 20
-133.5201799666202
 30
0.0
  0
SEQEND
  5
5E
330
5B
100
AcDbEntity
  8
_U+30EC_U+30A4_U+30E4_U+30FC 1
 62
   179
420
  2234388
370
    25
  0
POLYLINE
  5
5F
330
1F
100
AcDbEntity
  8
_U+30EC_U+30A4_U+30E4_U+30FC 1
 62
   179
420
  2234388
370
    25
100
AcDb2dPolyline
 66
     1
 10
0.0
 20
0.0
 30
0.0
  0
VERTEX
  5
60
330
5F
100
AcDbEntity
  8
_U+30EC_U+30A4_U+30E4_U+30FC 1
 62
   179
420
  2234388
370
    25
100
AcDbVertex
100
AcDb2dVertex
 10
86.30341224266097
 20
-124.2191233022784
 30
0.0
  0
VERTEX
  5
61
330
5F
100
AcDbEntity
  8
_U+30EC_U+30A4_U+30E4_U+30FC 1
 62
   179
420
  2234388
370
    25
100
AcDbVertex
100
AcDb2dVertex
 10
88.31329302471796
 20
-124.4203124688949
 30
0.0
  0
SEQEND
  5
62
330
5F
100
AcDbEntity
  8
_U+30EC_U+30A4_U+30E4_U+30FC 1
 62
   179
420
  2234388
370
    25
  0
POLYLINE
  5
63
330
1F
100
AcDbEntity
  8
_U+30EC_U+30A4_U+30E4_U+30FC 1
 62
   179
420
  2234388
370
    25
100
AcDb2dPolyline
 66
     1
 10
0.0
 20
0.0
 30
0.0
  0
VERTEX
  5
64
330
63
100
AcDbEntity
  8
_U+30EC_U+30A4_U+30E4_U+30FC 1
 62
   179
420
  2234388
370
    25
100
AcDbVertex
100
AcDb2dVertex
 10
88.31329302471796
 20
-134.0197132998284
 30
0.0
  0
VERTEX
  5
65
330
63
100
AcDbEntity
  8
_U+30EC_U+30A4_U+30E4_U+30FC 1
 62
   179
420
  2234388
370
    25
100
AcDbVertex
100
AcDb2dVertex
 10
97.81349250456991
 20
-134.0197132998284
 30
0.0
  0
SEQEND
  5
66
330
63
100
AcDbEntity
  8
_U+30EC_U+30A4_U+30E4_U+30FC 1
 62
   179
420
  2234388
370
    25
  0
SPLINE
  5
67
330
1F
100
AcDbEntity
  8
_U+30EC_U+30A4_U+30E4_U+30FC 1
 62
   179
420
  2234388
370
    25
100
AcDbSpline
210
0.0
220
0.0
230
1.0
 70
     8
 71
     3
 72
     8
 73
     4
 74
     0
 42
0.0000000001
 43
0.0000000001
 12
1.0
 22
0.0
 32
0.0
 13
1.0
 23
0.0
 33
0.0
 40
0.0
 40
0.0
 40
0.0
 40
0.0
 40
1.0
 40
1.0
 40
1.0
 40
1.0
 10
80.31310461770867
 20
-133.7199932999035
 30
0.0
 10
80.31310461770867
 20
-134.161671077571
 30
0.0
 10
80.67138571967926
 20
-134.5199521885921
 30
0.0
 10
81.1130634861889
 20
-134.5199521885921
 30
0.0
  0
SPLINE
  5
68
330
1F
100
AcDbEntity
  8
_U+30EC_U+30A4_U+30E4_U+30FC 1
 62
   179
420
  2234388
370
    25
100
AcDbSpline
210
0.0
220
0.0
230
1.0
 70
     8
 71
     3
 72
     8
 73
     4
 74
     0
 42
0.0000000001
 43
0.0000000001
 12
1.0
 22
0.0
 32
0.0
 13
1.0
 23
0.0
 33
0.0
 40
0.0
 40
0.0
 40
0.0
 40
0.0
 40
1.0
 40
1.0
 40
1.0
 40
1.0
 10
98.31302582515909
 20
-134.5199521885921
 30
0.0
 10
98.31302582515909
 20
-134.2436566331057
 30
0.0
 10
98.0891177753159
 20
-134.0197132998284
 30
0.0
 10
97.81349250456991
 20
-134.0197132998284
 30
0.0
  0
SPLINE
  5
69
330
1F
100
AcDbEntity
  8
_U+30EC_U+30A4_U+30E4_U+30FC 1
 62
   179
420
  2234388
370
    25
100
AcDbSpline
210
0.0
220
0.0
230
1.0
 70
     8
 71
     3
 72
     8
 73
     4
 74
     0
 42
0.0000000001
 43
0.0000000001
 12
1.0
 22
0.0
 32
0.0
 13
1.0
 23
0.0
 33
0.0
 40
0.0
 40
0.0
 40
0.0
 40
0.0
 40
1.0
 40
1.0
 40
1.0
 40
1.0
 10
88.31329302471796
 20
-134.0197132998284
 30
0.0
 10
88.13485802927022
 20
-133.7103624665727
 30
0.0
 10
87.80479914880183
 20
-133.5201799666202
 30
0.0
 10
87.44718832459192
 20
-133.5201799666202
 30
0.0
  0
SPLINE
  5
6A
330
1F
100
AcDbEntity
  8
_U+30EC_U+30A4_U+30E4_U+30FC 1
 62
   179
420
  2234388
370
    25
100
AcDbSpline
210
0.0
220
0.0
230
1.0
 70
     8
 71
     3
 72
     8
 73
     4
 74
     0
 42
0.0000000001
 43
0.0000000001
 12
1.0
 22
0.0
 32
0.0
 13
1.0
 23
0.0
 33
0.0
 40
0.0
 40
0.0
 40
0.0
 40
0.0
 40
1.0
 40
1.0
 40
1.0
 40
1.0
 10
86.30341224266097
 20
-124.2191233022784
 30
0.0
 10
84.97707366538756
 20
-124.0861260800897
 30
0.0
 10
83.64586675490504
 20
-124.0199802467729
 30
0.0
 10
82.31331928890116
 20
-124.0199802467729
 30
0.0
  0
SPLINE
  5
6B
330
1F
100
AcDbEntity
  8
_U+30EC_U+30A4_U+30E4_U+30FC 1
 62
   179
420
  2234388
370
     9
100
AcDbSpline
210
0.0
220
0.0
230
1.0
 70
    11
 71
     3
 72
    17
 73
    13
 74
     0
 42
0.0000000001
 43
0.0000000001
 12
1.0
 22
0.0
 32
0.0
 13
1.0
 23
0.0
 33
0.0
 40
0.0
 40
0.0
 40
0.0
 40
0.0
 40
1.0
 40
1.0
 40
1.0
 40
2.0
 40
2.0
 40
2.0
 40
3.0
 40
3.0
 40
3.0
 40
4.0
 40
4.0
 40
4.0
 40
4.0
 10
80.4130112818265
 20
-120.020221081106
 30
0.0
 10
80.4130112818265
 20
-119.965117192231
 30
0.0
 10
80.36820850519175
 20
-119.9203144144643
 30
0.0
 10
80.31310461770867
 20
-119.9203144144643
 30
0.0
 10
80.25796545244872
 20
-119.9203144144643
 30
0.0
 10
80.21319997994678
 20
-119.965117192231
 30
0.0
 10
80.21319997994678
 20
-120.020221081106
 30
0.0
 10
80.21319997994678
 20
-120.0753602477591
 30
0.0
 10
80.25796545244872
 20
-120.1201277477476
 30
0.0
 10
80.31310461770867
 20
-120.1201277477476
 30
0.0
 10
80.36820850519175
 20
-120.1201277477476
 30
0.0
 10
80.4130112818265
 20
-120.0753602477591
 30
0.0
 10
80.4130112818265
 20
-120.020221081106
 30
0.0
  0
SPLINE
  5
6C
330
1F
100
AcDbEntity
  8
_U+30EC_U+30A4_U+30E4_U+30FC 1
 62
   179
420
  2234388
370
     9
100
AcDbSpline
210
0.0
220
0.0
230
1.0
 70
    11
 71
     3
 72
    17
 73
    13
 74
     0
 42
0.0000000001
 43
0.0000000001
 12
1.0
 22
0.0
 32
0.0
 13
1.0
 23
0.0
 33
0.0
 40
0.0
 40
0.0
 40
0.0
 40
0.0
 40
1.0
 40
1.0
 40
1.0
 40
2.0
 40
2.0
 40
2.0
 40
3.0
 40
3.0
 40
3.0
 40
4.0
 40
4.0
 40
4.0
 40
4.0
 10
88.4131996888358
 20
-120.020221081106
 30
0.0
 10
88.4131996888358
 20
-119.965117192231
 30
0.0
 10
88.36843218997792
 20
-119.9203144144643
 30
0.0
 10
88.31329302471796
 20
-119.9203144144643
 30
0.0
 10
88.2581891372349
 20
-119.9203144144643
 30
0.0
 10
88.21338636060014
 20
-119.965117192231
 30
0.0
 10
88.21338636060014
 20
-120.020221081106
 30
0.0
 10
88.21338636060014
 20
-120.0753602477591
 30
0.0
 10
88.2581891372349
 20
-120.1201277477476
 30
0.0
 10
88.31329302471796
 20
-120.1201277477476
 30
0.0
 10
88.36843218997792
 20
-120.1201277477476
 30
0.0
 10
88.4131996888358
 20
-120.0753602477591
 30
0.0
 10
88.4131996888358
 20
-120.020221081106
 30
0.0
  0
SPLINE
  5
6D
330
1F
100
AcDbEntity
  8
_U+30EC_U+30A4_U+30E4_U+30FC 1
 62
   179
420
  2234388
370
     9
100
AcDbSpline
210
0.0
220
0.0
230
1.0
 70
    11
 71
     3
 72
    17
 73
    13
 74
     0
 42
0.0000000001
 43
0.0000000001
 12
1.0
 22
0.0
 32
0.0
 13
1.0
 23
0.0
 33
0.0
 40
0.0
 40
0.0
 40
0.0
 40
0.0
 40
1.0
 40
1.0
 40
1.0
 40
2.0
 40
2.0
 40
2.0
 40
3.0
 40
3.0
 40
3.0
 40
4.0
 40
4.0
 40
4.0
 40
4.0
 10
102.2300937807819
 20
-125.0142491354132
 30
0.0
 10
102.2300937807819
 20
-124.9591099687601
 30
0.0
 10
102.185326281924
 20
-124.9143424687716
 30
0.0
 10
102.1301871166641
 20
-124.9143424687716
 30
0.0
 10
102.075083229181
 20
-124.9143424687716
 30
0.0
 10
102.0302804525462
 20
-124.9591099687601
 30
0.0
 10
102.0302804525462
 20
-125.0142491354132
 30
0.0
 10
102.0302804525462
 20
-125.0700585798437
 30
0.0
 10
102.075083229181
 20
-125.1148613576101
 30
0.0
 10
102.1301871166641
 20
-125.1148613576101
 30
0.0
 10
102.185326281924
 20
-125.1148613576101
 30
0.0
 10
102.2300937807819
 20
-125.0700585798437
 30
0.0
 10
102.2300937807819
 20
-125.0142491354132
 30
0.0
  0
SPLINE
  5
6E
330
1F
100
AcDbEntity
  8
_U+30EC_U+30A4_U+30E4_U+30FC 1
 62
   179
420
  2234388
370
     9
100
AcDbSpline
210
0.0
220
0.0
230
1.0
 70
    11
 71
     3
 72
    17
 73
    13
 74
     0
 42
0.0000000001
 43
0.0000000001
 12
1.0
 22
0.0
 32
0.0
 13
1.0
 23
0.0
 33
0.0
 40
0.0
 40
0.0
 40
0.0
 40
0.0
 40
1.0
 40
1.0
 40
1.0
 40
2.0
 40
2.0
 40
2.0
 40
3.0
 40
3.0
 40
3.0
 40
4.0
 40
4.0
 40
4.0
 40
4.0
 10
102.2300937807819
 20
-133.514676633288
 30
0.0
 10
102.2300937807819
 20
-133.459537466635
 30
0.0
 10
102.185326281924
 20
-133.4147699666464
 30
0.0
 10
102.1301871166641
 20
-133.4147699666464
 30
0.0
 10
102.075083229181
 20
-133.4147699666464
 30
0.0
 10
102.0302804525462
 20
-133.459537466635
 30
0.0
 10
102.0302804525462
 20
-133.514676633288
 30
0.0
 10
102.0302804525462
 20
-133.569780522163
 30
0.0
 10
102.075083229181
 20
-133.6145832999297
 30
0.0
 10
102.1301871166641
 20
-133.6145832999297
 30
0.0
 10
102.185326281924
 20
-133.6145832999297
 30
0.0
 10
102.2300937807819
 20
-133.569780522163
 30
0.0
 10
102.2300937807819
 20
-133.514676633288
 30
0.0
  0
SPLINE
  5
6F
330
1F
100
AcDbEntity
  8
_U+30EC_U+30A4_U+30E4_U+30FC 1
 62
   179
420
  2234388
370
     9
100
AcDbSpline
210
0.0
220
0.0
230
1.0
 70
    11
 71
     3
 72
    17
 73
    13
 74
     0
 42
0.0000000001
 43
0.0000000001
 12
1.0
 22
0.0
 32
0.0
 13
1.0
 23
0.0
 33
0.0
 40
0.0
 40
0.0
 40
0.0
 40
0.0
 40
1.0
 40
1.0
 40
1.0
 40
2.0
 40
2.0
 40
2.0
 40
3.0
 40
3.0
 40
3.0
 40
4.0
 40
4.0
 40
4.0
 40
4.0
 10
80.4130112818265
 20
-138.5204169098145
 30
0.0
 10
80.4130112818265
 20
-138.4645721876059
 30
0.0
 10
80.36820850519175
 20
-138.4198046876174
 30
0.0
 10
80.31310461770867
 20
-138.4198046876174
 30
0.0
 10
80.25796545244872
 20
-138.4198046876174
 30
0.0
 10
80.21319997994678
 20
-138.4645721876059
 30
0.0
 10
80.21319997994678
 20
-138.5204169098145
 30
0.0
 10
80.21319997994678
 20
-138.5755207986895
 30
0.0
 10
80.25796545244872
 20
-138.6203235764562
 30
0.0
 10
80.31310461770867
 20
-138.6203235764562
 30
0.0
 10
80.36820850519175
 20
-138.6203235764562
 30
0.0
 10
80.4130112818265
 20
-138.5755207986895
 30
0.0
 10
80.4130112818265
 20
-138.5204169098145
 30
0.0
  0
SPLINE
  5
70
330
1F
100
AcDbEntity
  8
_U+30EC_U+30A4_U+30E4_U+30FC 1
 62
   179
420
  2234388
370
     9
100
AcDbSpline
210
0.0
220
0.0
230
1.0
 70
    11
 71
     3
 72
    17
 73
    13
 74
     0
 42
0.0000000001
 43
0.0000000001
 12
1.0
 22
0.0
 32
0.0
 13
1.0
 23
0.0
 33
0.0
 40
0.0
 40
0.0
 40
0.0
 40
0.0
 40
1.0
 40
1.0
 40
1.0
 40
2.0
 40
2.0
 40
2.0
 40
3.0
 40
3.0
 40
3.0
 40
4.0
 40
4.0
 40
4.0
 40
4.0
 10
98.41293248927693
 20
-138.5204169098145
 30
0.0
 10
98.41293248927693
 20
-138.4645721876059
 30
0.0
 10
98.36816499041903
 20
-138.4198046876174
 30
0.0
 10
98.31302582515909
 20
-138.4198046876174
 30
0.0
 10
98.25792193767602
 20
-138.4198046876174
 30
0.0
 10
98.21311916104125
 20
-138.4645721876059
 30
0.0
 10
98.21311916104125
 20
-138.5204169098145
 30
0.0
 10
98.21311916104125
 20
-138.5755207986895
 30
0.0
 10
98.25792193767602
 20
-138.6203235764562
 30
0.0
 10
98.31302582515909
 20
-138.6203235764562
 30
0.0
 10
98.36816499041903
 20
-138.6203235764562
 30
0.0
 10
98.41293248927693
 20
-138.5755207986895
 30
0.0
 10
98.41293248927693
 20
-138.5204169098145
 30
0.0
  0
POLYLINE
  5
71
330
1F
100
AcDbEntity
  8
_U+30EC_U+30A4_U+30E4_U+30FC 1
 62
   179
420
  2234388
370
     9
100
AcDb2dPolyline
 66
     1
 10
0.0
 20
0.0
 30
0.0
  0
VERTEX
  5
72
330
71
100
AcDbEntity
  8
_U+30EC_U+30A4_U+30E4_U+30FC 1
 62
   179
420
  2234388
370
     9
100
AcDbVertex
100
AcDb2dVertex
 10
80.31310461770867
 20
-120.020221081106
 30
0.0
  0
VERTEX
  5
73
330
71
100
AcDbEntity
  8
_U+30EC_U+30A4_U+30E4_U+30FC 1
 62
   179
420
  2234388
370
     9
100
AcDbVertex
100
AcDb2dVertex
 10
88.31329302471796
 20
-120.020221081106
 30
0.0
  0
SEQEND
  5
74
330
71
100
AcDbEntity
  8
_U+30EC_U+30A4_U+30E4_U+30FC 1
 62
   179
420
  2234388
370
     9
  0
POLYLINE
  5
75
330
1F
100
AcDbEntity
  8
_U+30EC_U+30A4_U+30E4_U+30FC 1
 62
   179
420
  2234388
370
     9
100
AcDb2dPolyline
 66
     1
 10
0.0
 20
0.0
 30
0.0
  0
VERTEX
  5
76
330
75
100
AcDbEntity
  8
_U+30EC_U+30A4_U+30E4_U+30FC 1
 62
   179
420
  2234388
370
     9
100
AcDbVertex
100
AcDb2dVertex
 10
80.31310461770867
 20
-121.48026246963
 30
0.0
  0
VERTEX
  5
77
330
75
100
AcDbEntity
  8
_U+30EC_U+30A4_U+30E4_U+30FC 1
 62
   179
420
  2234388
370
     9
100
AcDbVertex
100
AcDb2dVertex
 10
80.31310461770867
 20
-119.0197785813561
 30
0.0
  0
SEQEND
  5
78
330
75
100
AcDbEntity
  8
_U+30EC_U+30A4_U+30E4_U+30FC 1
 62
   179
420
  2234388
370
     9
  0
POLYLINE
  5
79
330
1F
100
AcDbEntity
  8
_U+30EC_U+30A4_U+30E4_U+30FC 1
 62
   179
420
  2234388
370
     9
100
AcDb2dPolyline
 66
     1
 10
0.0
 20
0.0
 30
0.0
  0
VERTEX
  5
7A
330
79
100
AcDbEntity
  8
_U+30EC_U+30A4_U+30E4_U+30FC 1
 62
   179
420
  2234388
370
     9
100
AcDbVertex
100
AcDb2dVertex
 10
88.31329302471796
 20
-121.8798891361969
 30
0.0
  0
VERTEX
  5
7B
330
79
100
AcDbEntity
  8
_U+30EC_U+30A4_U+30E4_U+30FC 1
 62
   179
420
  2234388
370
     9
100
AcDbVertex
100
AcDb2dVertex
 10
88.31329302471796
 20
-119.0197785813561
 30
0.0
  0
SEQEND
  5
7C
330
79
100
AcDbEntity
  8
_U+30EC_U+30A4_U+30E4_U+30FC 1
 62
   179
420
  2234388
370
     9
  0
INSERT
  5
7E
330
1F
100
AcDbEntity
  8
_U+30EC_U+30A4_U+30E4_U+30FC 1
100
AcDbBlockReference
  2
block 2
 10
0.0
 20
0.0
 30
0.0
  0
POLYLINE
  5
85
330
1F
100
AcDbEntity
  8
_U+30EC_U+30A4_U+30E4_U+30FC 1
 62
   179
420
  2234388
370
     9
100
AcDb2dPolyline
 66
     1
 10
0.0
 20
0.0
 30
0.0
  0
VERTEX
  5
86
330
85
100
AcDbEntity
  8
_U+30EC_U+30A4_U+30E4_U+30FC 1
 62
   179
420
  2234388
370
     9
100
AcDbVertex
100
AcDb2dVertex
 10
80.31310461770867
 20
-138.5204169098145
 30
0.0
  0
VERTEX
  5
87
330
85
100
AcDbEntity
  8
_U+30EC_U+30A4_U+30E4_U+30FC 1
 62
   179
420
  2234388
370
     9
100
AcDbVertex
100
AcDb2dVertex
 10
98.31302582515909
 20
-138.5204169098145
 30
0.0
  0
SEQEND
  5
88
330
85
100
AcDbEntity
  8
_U+30EC_U+30A4_U+30E4_U+30FC 1
 62
   179
420
  2234388
370
     9
  0
POLYLINE
  5
89
330
1F
100
AcDbEntity
  8
_U+30EC_U+30A4_U+30E4_U+30FC 1
 62
   179
420
  2234388
370
     9
100
AcDb2dPolyline
 66
     1
 10
0.0
 20
0.0
 30
0.0
  0
VERTEX
  5
8A
330
89
100
AcDbEntity
  8
_U+30EC_U+30A4_U+30E4_U+30FC 1
 62
   179
420
  2234388
370
     9
100
AcDbVertex
100
AcDb2dVertex
 10
80.31310461770867
 20
-136.259711077046
 30
0.0
  0
VERTEX
  5
8B
330
89
100
AcDbEntity
  8
_U+30EC_U+30A4_U+30E4_U+30FC 1
 62
   179
420
  2234388
370
     9
100
AcDbVertex
100
AcDb2dVertex
 10
80.31310461770867
 20
-139.5201538540089
 30
0.0
  0
SEQEND
  5
8C
330
89
100
AcDbEntity
  8
_U+30EC_U+30A4_U+30E4_U+30FC 1
 62
   179
420
  2234388
370
     9
  0
POLYLINE
  5
8D
330
1F
100
AcDbEntity
  8
_U+30EC_U+30A4_U+30E4_U+30FC 1
 62
   179
420
  2234388
370
     9
100
AcDb2dPolyline
 66
     1
 10
0.0
 20
0.0
 30
0.0
  0
VERTEX
  5
8E
330
8D
100
AcDbEntity
  8
_U+30EC_U+30A4_U+30E4_U+30FC 1
 62
   179
420
  2234388
370
     9
100
AcDbVertex
100
AcDb2dVertex
 10
98.31302582515909
 20
-137.0603755212902
 30
0.0
  0
VERTEX
  5
8F
330
8D
100
AcDbEntity
  8
_U+30EC_U+30A4_U+30E4_U+30FC 1
 62
   179
420
  2234388
370
     9
100
AcDbVertex
100
AcDb2dVertex
 10
98.31302582515909
 20
-139.5201538540089
 30
0.0
  0
SEQEND
  5
90
330
8D
100
AcDbEntity
  8
_U+30EC_U+30A4_U+30E4_U+30FC 1
 62
   179
420
  2234388
370
     9
  0
INSERT
  5
92
330
1F
100
AcDbEntity
  8
_U+30EC_U+30A4_U+30E4_U+30FC 1
100
AcDbBlockReference
  2
block 3
 10
0.0
 20
0.0
 30
0.0
  0
POLYLINE
  5
9B
330
1F
100
AcDbEntity
  8
_U+30EC_U+30A4_U+30E4_U+30FC 1
 62
   179
420
  2234388
370
     9
100
AcDb2dPolyline
 66
     1
 10
0.0
 20
0.0
 30
0.0
  0
VERTEX
  5
9C
330
9B
100
AcDbEntity
  8
_U+30EC_U+30A4_U+30E4_U+30FC 1
 62
   179
420
  2234388
370
     9
100
AcDbVertex
100
AcDb2dVertex
 10
102.1301871166641
 20
-133.514676633288
 30
0.0
  0
VERTEX
  5
9D
330
9B
100
AcDbEntity
  8
_U+30EC_U+30A4_U+30E4_U+30FC 1
 62
   179
420
  2234388
370
     9
100
AcDbVertex
100
AcDb2dVertex
 10
102.1301871166641
 20
-125.0142491354132
 30
0.0
  0
SEQEND
  5
9E
330
9B
100
AcDbEntity
  8
_U+30EC_U+30A4_U+30E4_U+30FC 1
 62
   179
420
  2234388
370
     9
  0
POLYLINE
  5
9F
330
1F
100
AcDbEntity
  8
_U+30EC_U+30A4_U+30E4_U+30FC 1
 62
   179
420
  2234388
370
     9
100
AcDb2dPolyline
 66
     1
 10
0.0
 20
0.0
 30
0.0
  0
VERTEX
  5
A0
330
9F
100
AcDbEntity
  8
_U+30EC_U+30A4_U+30E4_U+30FC 1
 62
   179
420
  2234388
370
     9
100
AcDbVertex
100
AcDb2dVertex
 10
101.013292700714
 20
-133.514676633288
 30
0.0
  0
VERTEX
  5
A1
330
9F
100
AcDbEntity
  8
_U+30EC_U+30A4_U+30E4_U+30FC 1
 62
   179
420
  2234388
370
     9
100
AcDbVertex
100
AcDb2dVertex
 10
103.1306648689175
 20
-133.514676633288
 30
0.0
  0
SEQEND
  5
A2
330
9F
100
AcDbEntity
  8
_U+30EC_U+30A4_U+30E4_U+30FC 1
 62
   179
420
  2234388
370
     9
  0
POLYLINE
  5
A3
330
1F
100
AcDbEntity
  8
_U+30EC_U+30A4_U+30E4_U+30FC 1
 62
   179
420
  2234388
370
     9
100
AcDb2dPolyline
 66
     1
 10
0.0
 20
0.0
 30
0.0
  0
VERTEX
  5
A4
330
A3
100
AcDbEntity
  8
_U+30EC_U+30A4_U+30E4_U+30FC 1
 62
   179
420
  2234388
370
     9
100
AcDbVertex
100
AcDb2dVertex
 10
101.013292700714
 20
-125.0142491354132
 30
0.0
  0
VERTEX
  5
A5
330
A3
100
AcDbEntity
  8
_U+30EC_U+30A4_U+30E4_U+30FC 1
 62
   179
420
  2234388
370
     9
100
AcDbVertex
100
AcDb2dVertex
 10
103.1306648689175
 20
-125.0142491354132
 30
0.0
  0
SEQEND
  5
A6
330
A3
100
AcDbEntity
  8
_U+30EC_U+30A4_U+30E4_U+30FC 1
 62
   179
420
  2234388
370
     9
  0
INSERT
  5
A8
330
1F
100
AcDbEntity
  8
_U+30EC_U+30A4_U+30E4_U+30FC 1
100
AcDbBlockReference
  2
block 4
 10
0.0
 20
0.0
 30
0.0
  0
SPLINE
  5
B9
330
1F
100
AcDbEntity
  8
_U+30EC_U+30A4_U+30E4_U+30FC 1
 62
   179
420
  2234388
370
     9
100
AcDbSpline
210
0.0
220
0.0
230
1.0
 70
    11
 71
     3
 72
    17
 73
    13
 74
     0
 42
0.0000000001
 43
0.0000000001
 12
1.0
 22
0.0
 32
0.0
 13
1.0
 23
0.0
 33
0.0
 40
0.0
 40
0.0
 40
0.0
 40
0.0
 40
1.0
 40
1.0
 40
1.0
 40
2.0
 40
2.0
 40
2.0
 40
3.0
 40
3.0
 40
3.0
 40
4.0
 40
4.0
 40
4.0
 40
4.0
 10
102.2411357249447
 20
-134.5103213552613
 30
0.0
 10
102.2411357249447
 20
-134.4545119108309
 30
0.0
 10
102.1963329483099
 20
-134.4097091330642
 30
0.0
 10
102.1412290608268
 20
-134.4097091330642
 30
0.0
 10
102.0860898955669
 20
-134.4097091330642
 30
0.0
 10
102.0413249744897
 20
-134.4545119108309
 30
0.0
 10
102.0413249744897
 20
-134.5103213552613
 30
0.0
 10
102.0413249744897
 20
-134.5654252441362
 30
0.0
 10
102.0860898955669
 20
-134.6102280219029
 30
0.0
 10
102.1412290608268
 20
-134.6102280219029
 30
0.0
 10
102.1963329483099
 20
-134.6102280219029
 30
0.0
 10
102.2411357249447
 20
-134.5654252441362
 30
0.0
 10
102.2411357249447
 20
-134.5103213552613
 30
0.0
  0
POLYLINE
  5
BA
330
1F
100
AcDbEntity
  8
_U+30EC_U+30A4_U+30E4_U+30FC 1
 62
   179
420
  2234388
370
     9
100
AcDb2dPolyline
 66
     1
 10
0.0
 20
0.0
 30
0.0
  0
VERTEX
  5
BB
330
BA
100
AcDbEntity
  8
_U+30EC_U+30A4_U+30E4_U+30FC 1
 62
   179
420
  2234388
370
     9
100
AcDbVertex
100
AcDb2dVertex
 10
102.1412290608268
 20
-134.5096157997058
 30
0.0
  0
VERTEX
  5
BC
330
BA
100
AcDbEntity
  8
_U+30EC_U+30A4_U+30E4_U+30FC 1
 62
   179
420
  2234388
370
     9
100
AcDbVertex
100
AcDb2dVertex
 10
102.1412290608268
 20
-132.5397046890875
 30
0.0
  0
SEQEND
  5
BD
330
BA
100
AcDbEntity
  8
_U+30EC_U+30A4_U+30E4_U+30FC 1
 62
   179
420
  2234388
370
     9
  0
POLYLINE
  5
BE
330
1F
100
AcDbEntity
  8
_U+30EC_U+30A4_U+30E4_U+30FC 1
 62
   179
420
  2234388
370
     9
100
AcDb2dPolyline
 66
     1
 10
0.0
 20
0.0
 30
0.0
  0
VERTEX
  5
BF
330
BE
100
AcDbEntity
  8
_U+30EC_U+30A4_U+30E4_U+30FC 1
 62
   179
420
  2234388
370
     9
100
AcDbVertex
100
AcDb2dVertex
 10
101.013292700714
 20
-134.5096157997058
 30
0.0
  0
VERTEX
  5
C0
330
BE
100
AcDbEntity
  8
_U+30EC_U+30A4_U+30E4_U+30FC 1
 62
   179
420
  2234388
370
     9
100
AcDbVertex
100
AcDb2dVertex
 10
103.1410012575427
 20
-134.5096157997058
 30
0.0
  0
SEQEND
  5
C1
330
BE
100
AcDbEntity
  8
_U+30EC_U+30A4_U+30E4_U+30FC 1
 62
   179
420
  2234388
370
     9
  0
INSERT
  5
C3
330
1F
100
AcDbEntity
  8
_U+30EC_U+30A4_U+30E4_U+30FC 1
100
AcDbBlockReference
  2
block 5
 10
0.0
 20
0.0
 30
0.0
  0
SPLINE
  5
C8
330
1F
100
AcDbEntity
  8
_U+30EC_U+30A4_U+30E4_U+30FC 1
 62
   179
420
  2234388
370
     9
100
AcDbSpline
210
0.0
220
0.0
230
1.0
 70
    11
 71
     3
 72
    17
 73
    13
 74
     0
 42
0.0000000001
 43
0.0000000001
 12
1.0
 22
0.0
 32
0.0
 13
1.0
 23
0.0
 33
0.0
 40
0.0
 40
0.0
 40
0.0
 40
0.0
 40
1.0
 40
1.0
 40
1.0
 40
2.0
 40
2.0
 40
2.0
 40
3.0
 40
3.0
 40
3.0
 40
4.0
 40
4.0
 40
4.0
 40
4.0
 10
80.42334767045169
 20
-129.2041555232544
 30
0.0
 10
80.42334767045169
 20
-129.1490516343795
 30
0.0
 10
80.37854489381692
 20
-129.1042488566127
 30
0.0
 10
80.3227354507963
 20
-129.1042488566127
 30
0.0
 10
80.26763156331323
 20
-129.1042488566127
 30
0.0
 10
80.22282878667846
 20
-129.1490516343795
 30
0.0
 10
80.22282878667846
 20
-129.2041555232544
 30
0.0
 10
80.22282878667846
 20
-129.2592946899074
 30
0.0
 10
80.26763156331323
 20
-129.3040974676742
 30
0.0
 10
80.3227354507963
 20
-129.3040974676742
 30
0.0
 10
80.37854489381692
 20
-129.3040974676742
 30
0.0
 10
80.42334767045169
 20
-129.2592946899074
 30
0.0
 10
80.42334767045169
 20
-129.2041555232544
 30
0.0
  0
SPLINE
  5
C9
330
1F
100
AcDbEntity
  8
_U+30EC_U+30A4_U+30E4_U+30FC 1
 62
   179
420
  2234388
370
     9
100
AcDbSpline
210
0.0
220
0.0
230
1.0
 70
    11
 71
     3
 72
    17
 73
    13
 74
     0
 42
0.0000000001
 43
0.0000000001
 12
1.0
 22
0.0
 32
0.0
 13
1.0
 23
0.0
 33
0.0
 40
0.0
 40
0.0
 40
0.0
 40
0.0
 40
1.0
 40
1.0
 40
1.0
 40
2.0
 40
2.0
 40
2.0
 40
3.0
 40
3.0
 40
3.0
 40
4.0
 40
4.0
 40
4.0
 40
4.0
 10
81.4231198671676
 20
-129.2041555232544
 30
0.0
 10
81.4231198671676
 20
-129.1490516343795
 30
0.0
 10
81.37831709053283
 20
-129.1042488566127
 30
0.0
 10
81.32250764751221
 20
-129.1042488566127
 30
0.0
 10
81.26740376002914
 20
-129.1042488566127
 30
0.0
 10
81.22260098339437
 20
-129.1490516343795
 30
0.0
 10
81.22260098339437
 20
-129.2041555232544
 30
0.0
 10
81.22260098339437
 20
-129.2592946899074
 30
0.0
 10
81.26740376002914
 20
-129.3040974676742
 30
0.0
 10
81.32250764751221
 20
-129.3040974676742
 30
0.0
 10
81.37831709053283
 20
-129.3040974676742
 30
0.0
 10
81.4231198671676
 20
-129.2592946899074
 30
0.0
 10
81.4231198671676
 20
-129.2041555232544
 30
0.0
  0
INSERT
  5
CB
330
1F
100
AcDbEntity
  8
_U+30EC_U+30A4_U+30E4_U+30FC 1
100
AcDbBlockReference
  2
block 6
 10
0.0
 20
0.0
 30
0.0
  0
POLYLINE
  5
D0
330
1F
100
AcDbEntity
  8
_U+30EC_U+30A4_U+30E4_U+30FC 1
 62
   179
420
  2234388
370
     9
100
AcDb2dPolyline
 66
     1
 10
0.0
 20
0.0
 30
0.0
  0
VERTEX
  5
D1
330
D0
100
AcDbEntity
  8
_U+30EC_U+30A4_U+30E4_U+30FC 1
 62
   179
420
  2234388
370
     9
100
AcDbVertex
100
AcDb2dVertex
 10
82.18448484774356
 20
-129.2041555232544
 30
0.0
  0
VERTEX
  5
D2
330
D0
100
AcDbEntity
  8
_U+30EC_U+30A4_U+30E4_U+30FC 1
 62
   179
420
  2234388
370
     9
100
AcDbVertex
100
AcDb2dVertex
 10
78.34527494568997
 20
-129.2041555232544
 30
0.0
  0
SEQEND
  5
D3
330
D0
100
AcDbEntity
  8
_U+30EC_U+30A4_U+30E4_U+30FC 1
 62
   179
420
  2234388
370
     9
  0
ENDSEC
  0
SECTION
  2
OBJECTS
  0
DICTIONARY
  5
C
330
0
100
AcDbDictionary
281
     1
  3
ACAD_GROUP
350
D
  3
ACAD_LAYOUT
350
1A
  3
ACAD_MATERIAL
350
3B
  3
ACAD_MLEADERSTYLE
350
D5
  3
ACAD_MLINESTYLE
350
17
  3
ACAD_PLOTSETTINGS
350
19
  3
ACAD_PLOTSTYLENAME
350
E
  3
ACAD_TABLESTYLE
350
D4
  3
ACAD_VISUALSTYLE
350
2A
  0
SUN
  5
3F
330
29
100
AcDbSun
 90
        1
290
     0
 63
     7
421
 16777215
 40
1.0
291
     1
 91
  2455826
 92
 54000000
292
     0
 70
     2
 71
   256
280
     1
  0
DICTIONARY
  5
D
102
{ACAD_REACTORS
330
C
102
}
330
C
100
AcDbDictionary
281
     1
  0
DICTIONARY
  5
1A
102
{ACAD_REACTORS
330
C
102
}
330
C
100
AcDbDictionary
281
     1
  3
Layout1
350
1E
  3
Layout2
350
26
  3
Model
350
22
  0
DICTIONARY
  5
3B
102
{ACAD_REACTORS
330
C
102
}
330
C
100
AcDbDictionary
281
     1
  3
ByBlock
350
3D
  3
ByLayer
350
3C
  3
Global
350
3E
  0
DICTIONARY
  5
D5
102
{ACAD_REACTORS
330
C
102
}
330
C
100
AcDbDictionary
281
     1
  0
DICTIONARY
  5
17
102
{ACAD_REACTORS
330
C
102
}
330
C
100
AcDbDictionary
281
     1
  3
Standard
350
18
  0
DICTIONARY
  5
19
102
{ACAD_REACTORS
330
C
102
}
330
C
100
AcDbDictionary
281
     1
  0
ACDBDICTIONARYWDFLT
  5
E
102
{ACAD_REACTORS
330
C
102
}
330
C
100
AcDbDictionary
281
     1
  3
Normal
350
F
100
AcDbDictionaryWithDefault
340
F
  0
DICTIONARY
  5
D4
102
{ACAD_REACTORS
330
C
102
}
330
C
100
AcDbDictionary
281
     1
  0
DICTIONARY
  5
2A
102
{ACAD_REACTORS
330
C
102
}
330
C
100
AcDbDictionary
281
     1
  3
2dWireframe
350
2F
  3
3D Hidden
350
31
  3
3dWireframe
350
30
  3
Basic
350
32
  3
Brighten
350
36
  3
ColorChange
350
3A
  3
Conceptual
350
34
  3
Dim
350
35
  3
Facepattern
350
39
  3
Flat
350
2B
  3
FlatWithEdges
350
2C
  3
Gouraud
350
2D
  3
GouraudWithEdges
350
2E
  3
Linepattern
350
38
  3
Realistic
350
33
  3
Thicken
350
37
  0
LAYOUT
  5
1E
102
{ACAD_REACTORS
330
1A
102
}
330
1A
100
AcDbPlotSettings
  1

  2
none_device
  4

  6

 40
0.0
 41
0.0
 42
0.0
 43
0.0
 44
0.0
 45
0.0
 46
0.0
 47
0.0
 48
0.0
 49
0.0
140
0.0
141
0.0
142
1.0
143
1.0
 70
   688
 72
     0
 73
     0
 74
     5
  7

 75
    16
 76
     0
 77
     2
 78
   300
147
1.0
148
0.0
149
0.0
100
AcDbLayout
  1
Layout1
 70
     1
 71
     1
 10
0.0
 20
0.0
 11
12.0
 21
9.0
 12
0.0
 22
0.0
 32
0.0
 14
1.000000000000000E+20
 24
1.000000000000000E+20
 34
1.000000000000000E+20
 15
-1.000000000000000E+20
 25
-1.000000000000000E+20
 35
-1.000000000000000E+20
146
0.0
 13
0.0
 23
0.0
 33
0.0
 16
1.0
 26
0.0
 36
0.0
 17
0.0
 27
1.0
 37
0.0
 76
     0
330
1B
  0
LAYOUT
  5
26
102
{ACAD_REACTORS
330
1A
102
}
330
1A
100
AcDbPlotSettings
  1

  2
none_device
  4

  6

 40
0.0
 41
0.0
 42
0.0
 43
0.0
 44
0.0
 45
0.0
 46
0.0
 47
0.0
 48
0.0
 49
0.0
140
0.0
141
0.0
142
1.0
143
1.0
 70
   688
 72
     0
 73
     0
 74
     5
  7

 75
    16
 76
     0
 77
     2
 78
   300
147
1.0
148
0.0
149
0.0
100
AcDbLayout
  1
Layout2
 70
     1
 71
     2
 10
0.0
 20
0.0
 11
0.0
 21
0.0
 12
0.0
 22
0.0
 32
0.0
 14
0.0
 24
0.0
 34
0.0
 15
0.0
 25
0.0
 35
0.0
146
0.0
 13
0.0
 23
0.0
 33
0.0
 16
1.0
 26
0.0
 36
0.0
 17
0.0
 27
1.0
 37
0.0
 76
     0
330
23
  0
LAYOUT
  5
22
102
{ACAD_REACTORS
330
1A
102
}
330
1A
100
AcDbPlotSettings
  1

  2
none_device
  4

  6

 40
0.0
 41
0.0
 42
0.0
 43
0.0
 44
0.0
 45
0.0
 46
0.0
 47
0.0
 48
0.0
 49
0.0
140
0.0
141
0.0
142
1.0
143
1.0
 70
  1712
 72
     0
 73
     0
 74
     0
  7

 75
     0
 76
     0
 77
     2
 78
   300
147
1.0
148
0.0
149
0.0
100
AcDbLayout
  1
Model
 70
     1
 71
     0
 10
0.0
 20
0.0
 11
12.0
 21
9.0
 12
0.0
 22
0.0
 32
0.0
 14
1.000000000000000E+20
 24
1.000000000000000E+20
 34
1.000000000000000E+20
 15
-1.000000000000000E+20
 25
-1.000000000000000E+20
 35
-1.000000000000000E+20
146
0.0
 13
0.0
 23
0.0
 33
0.0
 16
1.0
 26
0.0
 36
0.0
 17
0.0
 27
1.0
 37
0.0
 76
     0
330
1F
331
29
  0
MATERIAL
  5
3D
102
{ACAD_REACTORS
330
3B
102
}
330
3B
100
AcDbMaterial
  1
ByBlock
 72
     1
 94
      127
  0
MATERIAL
  5
3C
102
{ACAD_REACTORS
330
3B
102
}
330
3B
100
AcDbMaterial
  1
ByLayer
 72
     1
 94
      127
  0
MATERIAL
  5
3E
102
{ACAD_REACTORS
330
3B
102
}
330
3B
100
AcDbMaterial
  1
Global
 72
     1
 94
      127
  0
MLINESTYLE
  5
18
102
{ACAD_REACTORS
330
17
102
}
330
17
100
AcDbMlineStyle
  2
Standard
 70
     0
  3

 62
   256
 51
90.0
 52
90.0
 71
     2
 49
0.5
 62
   256
  6
BYLAYER
 49
-0.5
 62
   256
  6
BYLAYER
  0
ACDBPLACEHOLDER
  5
F
102
{ACAD_REACTORS
330
E
102
}
330
E
  0
VISUALSTYLE
  5
2F
102
{ACAD_REACTORS
330
2A
102
}
330
2A
100
AcDbVisualStyle
  2
2dWireframe
 70
     4
177
     2
291
     0
 71
     0
176
     1
 72
     2
176
     1
 73
     0
176
     1
 90
        0
176
     1
 40
-0.6
176
     1
 41
-30.0
176
     1
 62
     5
 63
     7
421
 16777215
176
     1
 74
     1
176
     1
 91
        4
176
     1
 64
     7
176
     1
 65
   257
176
     1
 75
     1
176
     1
175
     1
176
     1
 42
1.0
176
     1
 92
        0
176
     1
 66
   257
176
     1
 43
1.0
176
     1
 76
     1
176
     1
 77
     6
176
     1
 78
     2
176
     1
 67
     7
176
     1
 79
     5
176
     1
170
     0
176
     1
171
     0
176
     1
290
     0
176
     1
 93
        1
176
     1
 44
0.0
176
     1
173
     0
176
     1
  0
VISUALSTYLE
  5
31
102
{ACAD_REACTORS
330
2A
102
}
330
2A
100
AcDbVisualStyle
  2
3D Hidden
 70
     6
177
     2
291
     0
 71
     1
176
     1
 72
     2
176
     1
 73
     2
176
     1
 90
        0
176
     1
 40
-0.6
176
     1
 41
-30.0
176
     1
 62
     5
 63
     7
421
 16777215
176
     1
 74
     2
176
     1
 91
        2
176
     1
 64
     7
176
     1
 65
   257
176
     1
 75
     2
176
     1
175
     1
176
     1
 42
40.0
176
     1
 92
        0
176
     1
 66
   257
176
     1
 43
1.0
176
     1
 76
     1
176
     1
 77
     6
176
     1
 78
     2
176
     1
 67
     7
176
     1
 79
     3
176
     1
170
     0
176
     1
171
     0
176
     1
290
     0
176
     1
 93
        1
176
     1
 44
0.0
176
     1
173
     0
176
     1
  0
VISUALSTYLE
  5
30
102
{ACAD_REACTORS
330
2A
102
}
330
2A
100
AcDbVisualStyle
  2
3dWireframe
 70
     5
177
     2
291
     0
 71
     0
176
     1
 72
     2
176
     1
 73
     0
176
     1
 90
        0
176
     1
 40
-0.6
176
     1
 41
-30.0
176
     1
 62
     5
 63
     7
421
 16777215
176
     1
 74
     1
176
     1
 91
        4
176
     1
 64
     7
176
     1
 65
   257
176
     1
 75
     1
176
     1
175
     1
176
     1
 42
1.0
176
     1
 92
        0
176
     1
 66
   257
176
     1
 43
1.0
176
     1
 76
     1
176
     1
 77
     6
176
     1
 78
     2
176
     1
 67
     7
176
     1
 79
     5
176
     1
170
     0
176
     1
171
     0
176
     1
290
     0
176
     1
 93
        1
176
     1
 44
0.0
176
     1
173
     0
176
     1
  0
VISUALSTYLE
  5
32
102
{ACAD_REACTORS
330
2A
102
}
330
2A
100
AcDbVisualStyle
  2
Basic
 70
     7
177
     2
291
     1
 71
     1
176
     1
 72
     0
176
     1
 73
     1
176
     1
 90
        0
176
     1
 40
-0.6
176
     1
 41
-30.0
176
     1
 62
     5
 63
     7
421
 16777215
176
     1
 74
     0
176
     1
 91
        4
176
     1
 64
     7
176
     1
 65
   257
176
     1
 75
     1
176
     1
175
     1
176
     1
 42
1.0
176
     1
 92
        8
176
     1
 66
     7
176
     1
 43
1.0
176
     1
 76
     1
176
     1
 77
     6
176
     1
 78
     2
176
     1
 67
     7
176
     1
 79
     5
176
     1
170
     0
176
     1
171
     0
176
     1
290
     0
176
     1
 93
        1
176
     1
 44
0.0
176
     1
173
     0
176
     1
  0
VISUALSTYLE
  5
36
102
{ACAD_REACTORS
330
2A
102
}
330
2A
100
AcDbVisualStyle
  2
Brighten
 70
    12
177
     2
291
     1
 71
     2
176
     1
 72
     2
176
     1
 73
     0
176
     1
 90
        0
176
     1
 40
-0.6
176
     1
 41
-30.0
176
     1
 62
     5
 63
     7
421
 16777215
176
     1
 74
     1
176
     1
 91
        4
176
     1
 64
     7
176
     1
 65
   257
176
     1
 75
     1
176
     1
175
     1
176
     1
 42
1.0
176
     1
 92
        8
176
     1
 66
     7
176
     1
 43
1.0
176
     1
 76
     1
176
     1
 77
     6
176
     1
 78
     2
176
     1
 67
     7
176
     1
 79
     5
176
     1
170
     0
176
     1
171
     0
176
     1
290
     0
176
     1
 93
        1
176
     1
 44
50.0
176
     1
173
     0
176
     1
  0
VISUALSTYLE
  5
3A
102
{ACAD_REACTORS
330
2A
102
}
330
2A
100
AcDbVisualStyle
  2
ColorChange
 70
    16
177
     2
291
     1
 71
     2
176
     1
 72
     2
176
     1
 73
     3
176
     1
 90
        0
176
     1
 40
-0.6
176
     1
 41
-30.0
176
     1
 62
     5
 63
     8
421
  8421504
176
     1
 74
     1
176
     1
 91
        4
176
     1
 64
     7
176
     1
 65
   257
176
     1
 75
     1
176
     1
175
     1
176
     1
 42
1.0
176
     1
 92
        8
176
     1
 66
     8
424
  8421504
176
     1
 43
1.0
176
     1
 76
     1
176
     1
 77
     6
176
     1
 78
     2
176
     1
 67
     7
176
     1
 79
     5
176
     1
170
     0
176
     1
171
     0
176
     1
290
     0
176
     1
 93
        1
176
     1
 44
0.0
176
     1
173
     0
176
     1
  0
VISUALSTYLE
  5
34
102
{ACAD_REACTORS
330
2A
102
}
330
2A
100
AcDbVisualStyle
  2
Conceptual
 70
     9
177
     2
291
     0
 71
     3
176
     1
 72
     2
176
     1
 73
     0
176
     1
 90
        0
176
     1
 40
-0.6
176
     1
 41
-30.0
176
     1
 62
     5
 63
     7
421
 16777215
176
     1
 74
     2
176
     1
 91
        2
176
     1
 64
     7
176
     1
 65
   257
176
     1
 75
     1
176
     1
175
     1
176
     1
 42
40.0
176
     1
 92
        8
176
     1
 66
     7
176
     1
 43
1.0
176
     1
 76
     1
176
     1
 77
     6
176
     1
 78
     2
176
     1
 67
     7
176
     1
 79
     3
176
     1
170
     0
176
     1
171
     0
176
     1
290
     0
176
     1
 93
        1
176
     1
 44
0.0
176
     1
173
     0
176
     1
  0
VISUALSTYLE
  5
35
102
{ACAD_REACTORS
330
2A
102
}
330
2A
100
AcDbVisualStyle
  2
Dim
 70
    11
177
     2
291
     1
 71
     2
176
     1
 72
     2
176
     1
 73
     0
176
     1
 90
        0
176
     1
 40
-0.6
176
     1
 41
-30.0
176
     1
 62
     5
 63
     7
421
 16777215
176
     1
 74
     1
176
     1
 91
        4
176
     1
 64
     7
176
     1
 65
   257
176
     1
 75
     1
176
     1
175
     1
176
     1
 42
1.0
176
     1
 92
        8
176
     1
 66
     7
176
     1
 43
1.0
176
     1
 76
     1
176
     1
 77
     6
176
     1
 78
     2
176
     1
 67
     7
176
     1
 79
     5
176
     1
170
     0
176
     1
171
     0
176
     1
290
     0
176
     1
 93
        1
176
     1
 44
-50.0
176
     1
173
     0
176
     1
  0
VISUALSTYLE
  5
39
102
{ACAD_REACTORS
330
2A
102
}
330
2A
100
AcDbVisualStyle
  2
Facepattern
 70
    15
177
     2
291
     1
 71
     2
176
     1
 72
     2
176
     1
 73
     0
176
     1
 90
        0
176
     1
 40
-0.6
176
     1
 41
-30.0
176
     1
 62
     5
 63
     7
421
 16777215
176
     1
 74
     1
176
     1
 91
        4
176
     1
 64
     7
176
     1
 65
   257
176
     1
 75
     1
176
     1
175
     1
176
     1
 42
1.0
176
     1
 92
        8
176
     1
 66
     7
176
     1
 43
1.0
176
     1
 76
     1
176
     1
 77
     6
176
     1
 78
     2
176
     1
 67
     7
176
     1
 79
     5
176
     1
170
     0
176
     1
171
     0
176
     1
290
     0
176
     1
 93
        1
176
     1
 44
0.0
176
     1
173
     0
176
     1
  0
VISUALSTYLE
  5
2B
102
{ACAD_REACTORS
330
2A
102
}
330
2A
100
AcDbVisualStyle
  2
Flat
 70
     0
177
     2
291
     1
 71
     2
176
     1
 72
     1
176
     1
 73
     1
176
     1
 90
        2
176
     1
 40
-0.6
176
     1
 41
30.0
176
     1
 62
     5
 63
     7
421
 16777215
176
     1
 74
     0
176
     1
 91
        4
176
     1
 64
     7
176
     1
 65
   257
176
     1
 75
     1
176
     1
175
     1
176
     1
 42
1.0
176
     1
 92
        8
176
     1
 66
     7
176
     1
 43
1.0
176
     1
 76
     1
176
     1
 77
     6
176
     1
 78
     2
176
     1
 67
     7
176
     1
 79
     5
176
     1
170
     0
176
     1
171
     0
176
     1
290
     0
176
     1
 93
       13
176
     1
 44
0.0
176
     1
173
     0
176
     1
  0
VISUALSTYLE
  5
2C
102
{ACAD_REACTORS
330
2A
102
}
330
2A
100
AcDbVisualStyle
  2
FlatWithEdges
 70
     1
177
     2
291
     1
 71
     2
176
     1
 72
     1
176
     1
 73
     1
176
     1
 90
        2
176
     1
 40
-0.6
176
     1
 41
30.0
176
     1
 62
     5
 63
     7
421
 16777215
176
     1
 74
     1
176
     1
 91
        4
176
     1
 64
     7
176
     1
 65
   257
176
     1
 75
     1
176
     1
175
     1
176
     1
 42
1.0
176
     1
 92
        0
176
     1
 66
   257
176
     1
 43
1.0
176
     1
 76
     1
176
     1
 77
     6
176
     1
 78
     2
176
     1
 67
     7
176
     1
 79
     5
176
     1
170
     0
176
     1
171
     0
176
     1
290
     0
176
     1
 93
       13
176
     1
 44
0.0
176
     1
173
     0
176
     1
  0
VISUALSTYLE
  5
2D
102
{ACAD_REACTORS
330
2A
102
}
330
2A
100
AcDbVisualStyle
  2
Gouraud
 70
     2
177
     2
291
     1
 71
     2
176
     1
 72
     2
176
     1
 73
     1
176
     1
 90
        2
176
     1
 40
-0.6
176
     1
 41
30.0
176
     1
 62
     5
 63
     7
421
 16777215
176
     1
 74
     0
176
     1
 91
        4
176
     1
 64
     7
176
     1
 65
   257
176
     1
 75
     1
176
     1
175
     1
176
     1
 42
1.0
176
     1
 92
        0
176
     1
 66
     7
176
     1
 43
1.0
176
     1
 76
     1
176
     1
 77
     6
176
     1
 78
     2
176
     1
 67
     7
176
     1
 79
     5
176
     1
170
     0
176
     1
171
     0
176
     1
290
     0
176
     1
 93
       13
176
     1
 44
0.0
176
     1
173
     0
176
     1
  0
VISUALSTYLE
  5
2E
102
{ACAD_REACTORS
330
2A
102
}
330
2A
100
AcDbVisualStyle
  2
GouraudWithEdges
 70
     3
177
     2
291
     1
 71
     2
176
     1
 72
     2
176
     1
 73
     1
176
     1
 90
        2
176
     1
 40
-0.6
176
     1
 41
30.0
176
     1
 62
     5
 63
     7
421
 16777215
176
     1
 74
     1
176
     1
 91
        4
176
     1
 64
     7
176
     1
 65
   257
176
     1
 75
     1
176
     1
175
     1
176
     1
 42
1.0
176
     1
 92
        0
176
     1
 66
   257
176
     1
 43
1.0
176
     1
 76
     1
176
     1
 77
     6
176
     1
 78
     2
176
     1
 67
     7
176
     1
 79
     5
176
     1
170
     0
176
     1
171
     0
176
     1
290
     0
176
     1
 93
       13
176
     1
 44
0.0
176
     1
173
     0
176
     1
  0
VISUALSTYLE
  5
38
102
{ACAD_REACTORS
330
2A
102
}
330
2A
100
AcDbVisualStyle
  2
Linepattern
 70
    14
177
     2
291
     1
 71
     2
176
     1
 72
     2
176
     1
 73
     0
176
     1
 90
        0
176
     1
 40
-0.6
176
     1
 41
-30.0
176
     1
 62
     5
 63
     7
421
 16777215
176
     1
 74
     1
176
     1
 91
        4
176
     1
 64
     7
176
     1
 65
   257
176
     1
 75
     7
176
     1
175
     7
176
     1
 42
1.0
176
     1
 92
        8
176
     1
 66
     7
176
     1
 43
1.0
176
     1
 76
     1
176
     1
 77
     6
176
     1
 78
     2
176
     1
 67
     7
176
     1
 79
     5
176
     1
170
     0
176
     1
171
     0
176
     1
290
     0
176
     1
 93
        1
176
     1
 44
0.0
176
     1
173
     0
176
     1
  0
VISUALSTYLE
  5
33
102
{ACAD_REACTORS
330
2A
102
}
330
2A
100
AcDbVisualStyle
  2
Realistic
 70
     8
177
     2
291
     0
 71
     2
176
     1
 72
     2
176
     1
 73
     0
176
     1
 90
        0
176
     1
 40
-0.6
176
     1
 41
-30.0
176
     1
 62
     5
 63
     7
421
 16777215
176
     1
 74
     1
176
     1
 91
        0
176
     1
 64
     7
176
     1
 65
   257
176
     1
 75
     1
176
     1
175
     1
176
     1
 42
1.0
176
     1
 92
        8
176
     1
 66
     8
424
  7895160
176
     1
 43
1.0
176
     1
 76
     1
176
     1
 77
     6
176
     1
 78
     2
176
     1
 67
     7
176
     1
 79
     5
176
     1
170
     0
176
     1
171
     0
176
     1
290
     0
176
     1
 93
       13
176
     1
 44
0.0
176
     1
173
     0
176
     1
  0
VISUALSTYLE
  5
37
102
{ACAD_REACTORS
330
2A
102
}
330
2A
100
AcDbVisualStyle
  2
Thicken
 70
    13
177
     2
291
     1
 71
     2
176
     1
 72
     2
176
     1
 73
     0
176
     1
 90
        0
176
     1
 40
-0.6
176
     1
 41
-30.0
176
     1
 62
     5
 63
     7
421
 16777215
176
     1
 74
     1
176
     1
 91
        4
176
     1
 64
     7
176
     1
 65
   257
176
     1
 75
     1
176
     1
175
     1
176
     1
 42
1.0
176
     1
 92
       12
176
     1
 66
     7
176
     1
 43
1.0
176
     1
 76
     1
176
     1
 77
     6
176
     1
 78
     2
176
     1
 67
     7
176
     1
 79
     5
176
     1
170
     0
176
     1
171
     0
176
     1
290
     0
176
     1
 93
        1
176
     1
 44
0.0
176
     1
173
     0
176
     1
  0
ENDSEC
  0
EOF
