  0
SECTION
  2
HEADER
  9
$ACADVER
  1
AC1024
  9
$ACADMAINTVER
 70
     6
  9
$DWGCODEPAGE
  3
UNDEFINED
  9
$INSBASE
 10
0.0
 20
0.0
 30
0.0
  9
$EXTMIN
 10
1.000000000000000E+20
 20
1.000000000000000E+20
 30
1.000000000000000E+20
  9
$EXTMAX
 10
-1.000000000000000E+20
 20
-1.000000000000000E+20
 30
-1.000000000000000E+20
  9
$LIMMIN
 10
0.0
 20
0.0
  9
$LIMMAX
 10
12.0
 20
9.0
  9
$ORTHOMODE
 70
     0
  9
$REGENMODE
 70
     1
  9
$FILLMODE
 70
     1
  9
$QTEXTMODE
 70
     0
  9
$MIRRTEXT
 70
     1
  9
$LTSCALE
 40
1.0
  9
$ATTMODE
 70
     1
  9
$TEXTSIZE
 40
0.2
  9
$TRACEWID
 40
0.05
  9
$TEXTSTYLE
  7
Standard
  9
$CLAYER
  8
0
  9
$CELTYPE
  6
ByLayer
  9
$CECOLOR
 62
   256
  9
$CELTSCALE
 40
1.0
  9
$DISPSILH
 70
     0
  9
$DIMSCALE
 40
1.0
  9
$DIMASZ
 40
0.18
  9
$DIMEXO
 40
0.0625
  9
$DIMDLI
 40
0.38
  9
$DIMRND
 40
0.0
  9
$DIMDLE
 40
0.0
  9
$DIMEXE
 40
0.18
  9
$DIMTP
 40
0.0
  9
$DIMTM
 40
0.0
  9
$DIMTXT
 40
0.18
  9
$DIMCEN
 40
0.09
  9
$DIMTSZ
 40
0.0
  9
$DIMTOL
 70
     0
  9
$DIMLIM
 70
     0
  9
$DIMTIH
 70
     1
  9
$DIMTOH
 70
     1
  9
$DIMSE1
 70
     0
  9
$DIMSE2
 70
     0
  9
$DIMTAD
 70
     0
  9
$DIMZIN
 70
     0
  9
$DIMBLK
  1

  9
$DIMASO
 70
     1
  9
$DIMSHO
 70
     1
  9
$DIMPOST
  1

  9
$DIMAPOST
  1

  9
$DIMALT
 70
     0
  9
$DIMALTD
 70
     2
  9
$DIMALTF
 40
25.4
  9
$DIMLFAC
 40
1.0
  9
$DIMTOFL
 70
     0
  9
$DIMTVP
 40
0.0
  9
$DIMTIX
 70
     0
  9
$DIMSOXD
 70
     0
  9
$DIMSAH
 70
     0
  9
$DIMBLK1
  1

  9
$DIMBLK2
  1

  9
$DIMSTYLE
  2
Standard
  9
$DIMCLRD
 70
     0
  9
$DIMCLRE
 70
     0
  9
$DIMCLRT
 70
     0
  9
$DIMTFAC
 40
1.0
  9
$DIMGAP
 40
0.09
  9
$DIMJUST
 70
     0
  9
$DIMSD1
 70
     0
  9
$DIMSD2
 70
     0
  9
$DIMTOLJ
 70
     1
  9
$DIMTZIN
 70
     0
  9
$DIMALTZ
 70
     0
  9
$DIMALTTZ
 70
     0
  9
$DIMUPT
 70
     0
  9
$DIMDEC
 70
     4
  9
$DIMTDEC
 70
     4
  9
$DIMALTU
 70
     2
  9
$DIMALTTD
 70
     2
  9
$DIMTXSTY
  7
Standard
  9
$DIMAUNIT
 70
     0
  9
$DIMADEC
 70
     0
  9
$DIMALTRND
 40
0.0
  9
$DIMAZIN
 70
     0
  9
$DIMDSEP
 70
    46
  9
$DIMATFIT
 70
     3
  9
$DIMFRAC
 70
     0
  9
$DIMLDRBLK
  1

  9
$DIMLUNIT
 70
     2
  9
$DIMLWD
 70
    -2
  9
$DIMLWE
 70
    -2
  9
$DIMTMOVE
 70
     0
  9
$DIMFXL
 40
1.0
  9
$DIMFXLON
 70
     0
  9
$DIMJOGANG
 40
0.7853981633974483
  9
$DIMTFILL
 70
     0
  9
$DIMTFILLCLR
 70
     0
  9
$DIMARCSYM
 70
     0
  9
$DIMLTYPE
  6

  9
$DIMLTEX1
  6

  9
$DIMLTEX2
  6

  9
$DIMTXTDIRECTION
 70
     0
  9
$LUNITS
 70
     2
  9
$LUPREC
 70
     4
  9
$SKETCHINC
 40
0.1
  9
$FILLETRAD
 40
0.5
  9
$AUNITS
 70
     0
  9
$AUPREC
 70
     0
  9
$MENU
  1
.
  9
$ELEVATION
 40
0.0
  9
$PELEVATION
 40
0.0
  9
$THICKNESS
 40
0.0
  9
$LIMCHECK
 70
     0
  9
$CHAMFERA
 40
0.5
  9
$CHAMFERB
 40
0.5
  9
$CHAMFERC
 40
1.0
  9
$CHAMFERD
 40
0.0
  9
$SKPOLY
 70
     0
  9
$TDCREATE
 40
2457917.617777778
  9
$TDUCREATE
 40
2457917.242777778
  9
$TDUPDATE
 40
2457917.617777778
  9
$TDUUPDATE
 40
2457917.242777778
  9
$TDINDWG
 40
0.0000000116
  9
$TDUSRTIMER
 40
0.0000000116
  9
$USRTIMER
 70
     1
  9
$ANGBASE
 50
0.0
  9
$ANGDIR
 70
     0
  9
$PDMODE
 70
     0
  9
$PDSIZE
 40
0.0
  9
$PLINEWID
 40
0.0
  9
$SPLFRAME
 70
     0
  9
$SPLINETYPE
 70
     6
  9
$SPLINESEGS
 70
     8
  9
$HANDSEED
  5
D5
  9
$SURFTAB1
 70
     6
  9
$SURFTAB2
 70
     6
  9
$SURFTYPE
 70
     6
  9
$SURFU
 70
     6
  9
$SURFV
 70
     6
  9
$UCSBASE
  2

  9
$UCSNAME
  2

  9
$UCSORG
 10
0.0
 20
0.0
 30
0.0
  9
$UCSXDIR
 10
1.0
 20
0.0
 30
0.0
  9
$UCSYDIR
 10
0.0
 20
1.0
 30
0.0
  9
$UCSORTHOREF
  2

  9
$UCSORTHOVIEW
 70
     0
  9
$UCSORGTOP
 10
0.0
 20
0.0
 30
0.0
  9
$UCSORGBOTTOM
 10
0.0
 20
0.0
 30
0.0
  9
$UCSORGLEFT
 10
0.0
 20
0.0
 30
0.0
  9
$UCSORGRIGHT
 10
0.0
 20
0.0
 30
0.0
  9
$UCSORGFRONT
 10
0.0
 20
0.0
 30
0.0
  9
$UCSORGBACK
 10
0.0
 20
0.0
 30
0.0
  9
$PUCSBASE
  2

  9
$PUCSNAME
  2

  9
$PUCSORG
 10
0.0
 20
0.0
 30
0.0
  9
$PUCSXDIR
 10
1.0
 20
0.0
 30
0.0
  9
$PUCSYDIR
 10
0.0
 20
1.0
 30
0.0
  9
$PUCSORTHOREF
  2

  9
$PUCSORTHOVIEW
 70
     0
  9
$PUCSORGTOP
 10
0.0
 20
0.0
 30
0.0
  9
$PUCSORGBOTTOM
 10
0.0
 20
0.0
 30
0.0
  9
$PUCSORGLEFT
 10
0.0
 20
0.0
 30
0.0
  9
$PUCSORGRIGHT
 10
0.0
 20
0.0
 30
0.0
  9
$PUCSORGFRONT
 10
0.0
 20
0.0
 30
0.0
  9
$PUCSORGBACK
 10
0.0
 20
0.0
 30
0.0
  9
$USERI1
 70
     0
  9
$USERI2
 70
     0
  9
$USERI3
 70
     0
  9
$USERI4
 70
     0
  9
$USERI5
 70
     0
  9
$USERR1
 40
0.0
  9
$USERR2
 40
0.0
  9
$USERR3
 40
0.0
  9
$USERR4
 40
0.0
  9
$USERR5
 40
0.0
  9
$WORLDVIEW
 70
     1
  9
$SHADEDGE
 70
     3
  9
$SHADEDIF
 70
    70
  9
$TILEMODE
 70
     1
  9
$MAXACTVP
 70
    64
  9
$PINSBASE
 10
0.0
 20
0.0
 30
0.0
  9
$PLIMCHECK
 70
     0
  9
$PEXTMIN
 10
1.000000000000000E+20
 20
1.000000000000000E+20
 30
1.000000000000000E+20
  9
$PEXTMAX
 10
-1.000000000000000E+20
 20
-1.000000000000000E+20
 30
-1.000000000000000E+20
  9
$PLIMMIN
 10
0.0
 20
0.0
  9
$PLIMMAX
 10
12.0
 20
9.0
  9
$UNITMODE
 70
     0
  9
$VISRETAIN
 70
     1
  9
$PLINEGEN
 70
     0
  9
$PSLTSCALE
 70
     1
  9
$TREEDEPTH
 70
  3020
  9
$CMLSTYLE
  2
Standard
  9
$CMLJUST
 70
     0
  9
$CMLSCALE
 40
1.0
  9
$PROXYGRAPHICS
 70
     1
  9
$MEASUREMENT
 70
     0
  9
$CELWEIGHT
370
    -1
  9
$ENDCAPS
280
     0
  9
$JOINSTYLE
280
     0
  9
$LWDISPLAY
290
     1
  9
$INSUNITS
 70
     1
  9
$HYPERLINKBASE
  1

  9
$STYLESHEET
  1

  9
$XEDIT
290
     1
  9
$CEPSNTYPE
380
     0
  9
$PSTYLEMODE
290
     1
  9
$FINGERPRINTGUID
  2
{49C29362-59A9-227D-7FC7-C9CF90487B56}
  9
$VERSIONGUID
  2
{FAEB1C32-E019-11D5-929B-00C0DF256EC4}
  9
$EXTNAMES
290
     1
  9
$PSVPSCALE
 40
0.0
  9
$OLESTARTUP
290
     0
  9
$SORTENTS
280
   127
  9
$INDEXCTL
280
     0
  9
$HIDETEXT
280
     1
  9
$XCLIPFRAME
280
     2
  9
$HALOGAP
280
     0
  9
$OBSCOLOR
 70
   257
  9
$OBSLTYPE
280
     0
  9
$INTERSECTIONDISPLAY
280
     0
  9
$INTERSECTIONCOLOR
 70
   257
  9
$DIMASSOC
280
     2
  9
$PROJECTNAME
  1

  9
$CAMERADISPLAY
290
     0
  9
$LENSLENGTH
 40
50.0
  9
$CAMERAHEIGHT
 40
0.0
  9
$STEPSPERSEC
 40
2.0
  9
$STEPSIZE
 40
6.0
  9
$3DDWFPREC
 40
2.0
  9
$PSOLWIDTH
 40
0.25
  9
$PSOLHEIGHT
 40
4.0
  9
$LOFTANG1
 40
1.570796326794897
  9
$LOFTANG2
 40
1.570796326794897
  9
$LOFTMAG1
 40
0.0
  9
$LOFTMAG2
 40
0.0
  9
$LOFTPARAM
 70
     7
  9
$LOFTNORMALS
280
     1
  9
$LATITUDE
 40
37.795
  9
$LONGITUDE
 40
-122.394
  9
$NORTHDIRECTION
 40
0.0
  9
$TIMEZONE
 70
 -8000
  9
$LIGHTGLYPHDISPLAY
280
     1
  9
$TILEMODELIGHTSYNCH
280
     1
  9
$CMATERIAL
347
3C
  9
$SOLIDHIST
280
     1
  9
$SHOWHIST
280
     1
  9
$DWFFRAME
280
     2
  9
$DGNFRAME
280
     2
  9
$REALWORLDSCALE
290
     1
  9
$INTERFERECOLOR
 62
   256
  9
$CSHADOW
280
     0
  9
$SHADOWPLANELOCATION
 40
0.0
  0
ENDSEC
  0
SECTION
  2
CLASSES
  0
CLASS
  1
ACDBDICTIONARYWDFLT
  2
AcDbDictionaryWithDefault
  3
ObjectDBX Classes
 90
        0
 91
        4
280
     0
281
     0
  0
CLASS
  1
VISUALSTYLE
  2
AcDbVisualStyle
  3
ObjectDBX Classes
 90
     4095
 91
        4
280
     0
281
     0
  0
CLASS
  1
MATERIAL
  2
AcDbMaterial
  3
ObjectDBX Classes
 90
     1153
 91
        4
280
     0
281
     0
  0
CLASS
  1
SUN
  2
AcDbSun
  3
SCENEOE
 90
     1024
 91
        4
280
     0
281
     0
  0
ENDSEC
  0
SECTION
  2
TABLES
  0
TABLE
  2
VPORT
  5
8
330
0
100
AcDbSymbolTable
 70
     1
  0
VPORT
  5
29
330
8
100
AcDbSymbolTableRecord
100
AcDbViewportTableRecord
  2
*Active
 70
     0
 10
0.0
 20
0.0
 11
1.0
 21
1.0
 12
0.0
 22
0.0
 13
0.0
 23
0.0
 14
0.5
 24
0.5
 15
0.5
 25
0.5
 16
0.0
 26
0.0
 36
1.0
 17
91.00082462281999
 27
-128.4993055234307
 37
0.0
 40
256.9986110468615
 41
0.7081814508812795
 42
50.0
 43
0.0
 44
0.0
 50
0.0
 51
0.0
 71
     0
 72
   100
 73
     1
 74
     3
 75
     0
 76
     0
 77
     0
 78
     0
281
     0
 65
     1
110
0.0
120
0.0
130
0.0
111
1.0
121
0.0
131
0.0
112
0.0
122
1.0
132
0.0
 79
     0
146
0.0
 60
     3
 61
     5
292
     1
282
     1
141
0.0
142
0.0
 63
   250
361
3F
  0
ENDTAB
  0
TABLE
  2
LTYPE
  5
5
330
0
100
AcDbSymbolTable
 70
     1
  0
LTYPE
  5
14
330
5
100
AcDbSymbolTableRecord
100
AcDbLinetypeTableRecord
  2
ByBlock
 70
     0
  3

 72
    65
 73
     0
 40
0.0
  0
LTYPE
  5
15
330
5
100
AcDbSymbolTableRecord
100
AcDbLinetypeTableRecord
  2
ByLayer
 70
     0
  3

 72
    65
 73
     0
 40
0.0
  0
LTYPE
  5
16
330
5
100
AcDbSymbolTableRecord
100
AcDbLinetypeTableRecord
  2
Continuous
 70
     0
  3
Solid line
 72
    65
 73
     0
 40
0.0
  0
ENDTAB
  0
TABLE
  2
LAYER
  5
2
330
0
100
AcDbSymbolTable
 70
     2
  0
LAYER
  5
10
330
2
100
AcDbSymbolTableRecord
100
AcDbLayerTableRecord
  2
0
 70
     0
 62
     7
  6
Continuous
370
    -3
390
F
347
3E
  0
LAYER
  5
40
330
2
100
AcDbSymbolTableRecord
100
AcDbLayerTableRecord
  2
_U+30EC_U+30A4_U+30E4_U+30FC 1
 70
     0
 62
     7
  6
Continuous
370
    -3
390
F
347
3E
  0
ENDTAB
  0
TABLE
  2
STYLE
  5
3
330
0
100
AcDbSymbolTable
 70
     1
  0
STYLE
  5
11
330
3
100
AcDbSymbolTableRecord
100
AcDbTextStyleTableRecord
  2
Standard
 70
     0
 40
0.0
 41
1.0
 50
0.0
 71
     0
 42
0.2
  3
txt
  4

  0
ENDTAB
  0
TABLE
  2
VIEW
  5
6
330
0
100
AcDbSymbolTable
 70
     0
  0
ENDTAB
  0
TABLE
  2
UCS
  5
7
330
0
100
AcDbSymbolTable
 70
     0
  0
ENDTAB
  0
TABLE
  2
APPID
  5
9
330
0
100
AcDbSymbolTable
 70
     1
  0
APPID
  5
12
330
9
100
AcDbSymbolTableRecord
100
AcDbRegAppTableRecord
  2
ACAD
 70
     0
  0
ENDTAB
  0
TABLE
  2
DIMSTYLE
  5
A
330
0
100
AcDbSymbolTable
 70
     1
100
AcDbDimStyleTable
  0
DIMSTYLE
105
27
330
A
100
AcDbSymbolTableRecord
100
AcDbDimStyleTableRecord
  2
Standard
 70
     0
178
     0
340
11
  0
ENDTAB
  0
TABLE
  2
BLOCK_RECORD
  5
1
330
0
100
AcDbSymbolTable
 70
     6
  0
BLOCK_RECORD
  5
1F
330
1
100
AcDbSymbolTableRecord
100
AcDbBlockTableRecord
  2
*Model_Space
340
22
 70
     0
280
     1
281
     0
  0
BLOCK_RECORD
  5
1B
330
1
100
AcDbSymbolTableRecord
100
AcDbBlockTableRecord
  2
*Paper_Space
340
1E
 70
     0
280
     1
281
     0
  0
BLOCK_RECORD
  5
23
330
1
100
AcDbSymbolTableRecord
100
AcDbBlockTableRecord
  2
*Paper_Space0
340
26
 70
     0
280
     1
281
     0
  0
BLOCK_RECORD
  5
7D
330
1
100
AcDbSymbolTableRecord
100
AcDbBlockTableRecord
  2
block 2
340
0
102
{BLKREFS
331
7E
102
}
 70
     0
280
     1
281
     0
  0
BLOCK_RECORD
  5
91
330
1
100
AcDbSymbolTableRecord
100
AcDbBlockTableRecord
  2
block 3
340
0
102
{BLKREFS
331
92
102
}
 70
     0
280
     1
281
     0
  0
BLOCK_RECORD
  5
A7
330
1
100
AcDbSymbolTableRecord
100
AcDbBlockTableRecord
  2
block 4
340
0
102
{BLKREFS
331
A8
102
}
 70
     0
280
     1
281
     0
  0
BLOCK_RECORD
  5
C1
330
1
100
AcDbSymbolTableRecord
100
AcDbBlockTableRecord
  2
block 5
340
0
102
{BLKREFS
331
C2
102
}
 70
     0
280
     1
281
     0
  0
BLOCK_RECORD
  5
C9
330
1
100
AcDbSymbolTableRecord
100
AcDbBlockTableRecord
  2
block 6
340
0
102
{BLKREFS
331
CA
102
}
 70
     0
280
     1
281
     0
  0
ENDTAB
  0
ENDSEC
  0
SECTION
  2
BLOCKS
  0
BLOCK
  5
20
330
1F
100
AcDbEntity
  8
0
100
AcDbBlockBegin
  2
*Model_Space
 70
     0
 10
0.0
 20
0.0
 30
0.0
  3
*Model_Space
  1

  0
ENDBLK
  5
21
330
1F
100
AcDbEntity
  8
0
100
AcDbBlockEnd
  0
BLOCK
  5
1C
330
1B
100
AcDbEntity
 67
     1
  8
0
100
AcDbBlockBegin
  2
*Paper_Space
 70
     0
 10
0.0
 20
0.0
 30
0.0
  3
*Paper_Space
  1

  0
ENDBLK
  5
1D
330
1B
100
AcDbEntity
 67
     1
  8
0
100
AcDbBlockEnd
  0
BLOCK
  5
24
330
23
100
AcDbEntity
  8
0
100
AcDbBlockBegin
  2
*Paper_Space0
 70
     0
 10
0.0
 20
0.0
 30
0.0
  3
*Paper_Space0
  1

  0
ENDBLK
  5
25
330
23
100
AcDbEntity
  8
0
100
AcDbBlockEnd
  0
BLOCK
  5
7F
330
7D
100
AcDbEntity
  8
0
100
AcDbBlockBegin
  2
block 2
 70
     0
 10
0.0
 20
0.0
 30
0.0
  3
block 2
  1

  0
SPLINE
  5
81
330
7D
100
AcDbEntity
  8
_U+30EC_U+30A4_U+30E4_U+30FC 1
370
     0
100
AcDbSpline
210
0.0
220
0.0
230
1.0
 70
    11
 71
     3
 72
    29
 73
    25
 74
     0
 42
0.0000000001
 43
0.0000000001
 12
1.0
 22
0.0
 32
0.0
 13
1.0
 23
0.0
 33
0.0
 40
0.0
 40
0.0
 40
0.0
 40
0.0
 40
1.0
 40
1.0
 40
1.0
 40
2.0
 40
2.0
 40
2.0
 40
3.0
 40
3.0
 40
3.0
 40
4.0
 40
4.0
 40
4.0
 40
5.0
 40
5.0
 40
5.0
 40
6.0
 40
6.0
 40
6.0
 40
7.0
 40
7.0
 40
7.0
 40
8.0
 40
8.0
 40
8.0
 40
8.0
 10
84.36849363125162
 20
-120.4159057316148
 30
0.0
 10
84.08358423462147
 20
-120.4159057316148
 30
0.0
 10
83.81228296515805
 20
-120.278274166979
 30
0.0
 10
83.81228296515805
 20
-119.9292859943232
 30
0.0
 10
83.81228296515805
 20
-119.6733153997692
 30
0.0
 10
83.96369491173478
 20
-119.578058509602
 30
0.0
 10
84.07686629842523
 20
-119.5167358099646
 30
0.0
 10
83.9433688483718
 20
-119.4574801676183
 30
0.0
 10
83.8620645949199
 20
-119.3432752522822
 30
0.0
 10
83.8620645949199
 20
-119.1825615478953
 30
0.0
 10
83.8620645949199
 20
-118.9074706733981
 30
0.0
 10
84.07445473158556
 20
-118.7720784208278
 30
0.0
 10
84.36849363125162
 20
-118.7720784208278
 30
0.0
 10
84.67148977917935
 20
-118.7720784208278
 30
0.0
 10
84.87492266758336
 20
-118.915911157337
 30
0.0
 10
84.87492266758336
 20
-119.1825615478953
 30
0.0
 10
84.87492266758336
 20
-119.3432752522822
 30
0.0
 10
84.79120684729179
 20
-119.4574801676183
 30
0.0
 10
84.65788165201262
 20
-119.5167358099646
 30
0.0
 10
84.75279403263124
 20
-119.567550968372
 30
0.0
 10
84.92229273050555
 20
-119.6628078585392
 30
0.0
 10
84.92229273050555
 20
-119.9251518797409
 30
0.0
 10
84.92229273050555
 20
-120.2994615042133
 30
0.0
 10
84.6239474614829
 20
-120.4159057316148
 30
0.0
 10
84.36849363125162
 20
-120.4159057316148
 30
0.0
  0
SPLINE
  5
82
330
7D
100
AcDbEntity
  8
_U+30EC_U+30A4_U+30E4_U+30FC 1
370
     0
100
AcDbSpline
210
0.0
220
0.0
230
1.0
 70
    11
 71
     3
 72
    17
 73
    13
 74
     0
 42
0.0000000001
 43
0.0000000001
 12
1.0
 22
0.0
 32
0.0
 13
1.0
 23
0.0
 33
0.0
 40
0.0
 40
0.0
 40
0.0
 40
0.0
 40
1.0
 40
1.0
 40
1.0
 40
2.0
 40
2.0
 40
2.0
 40
3.0
 40
3.0
 40
3.0
 40
4.0
 40
4.0
 40
4.0
 40
4.0
 10
84.36849363125162
 20
-119.6247395534271
 30
0.0
 10
84.21467011783523
 20
-119.6247395534271
 30
0.0
 10
84.05188935615718
 20
-119.7113837048812
 30
0.0
 10
84.05188935615718
 20
-119.9144720837367
 30
0.0
 10
84.05188935615718
 20
-120.1196275198833
 30
0.0
 10
84.18762611827601
 20
-120.2212578366982
 30
0.0
 10
84.36849363125162
 20
-120.2212578366982
 30
0.0
 10
84.56744789552481
 20
-120.2212578366982
 30
0.0
 10
84.68492565157183
 20
-120.0986124374233
 30
0.0
 10
84.68492565157183
 20
-119.9208455103844
 30
0.0
 10
84.68492565157183
 20
-119.6986368515858
 30
0.0
 10
84.51094832956672
 20
-119.6247395534271
 30
0.0
 10
84.36849363125162
 20
-119.6247395534271
 30
0.0
  0
SPLINE
  5
83
330
7D
100
AcDbEntity
  8
_U+30EC_U+30A4_U+30E4_U+30FC 1
370
     0
100
AcDbSpline
210
0.0
220
0.0
230
1.0
 70
    11
 71
     3
 72
    17
 73
    13
 74
     0
 42
0.0000000001
 43
0.0000000001
 12
1.0
 22
0.0
 32
0.0
 13
1.0
 23
0.0
 33
0.0
 40
0.0
 40
0.0
 40
0.0
 40
0.0
 40
1.0
 40
1.0
 40
1.0
 40
2.0
 40
2.0
 40
2.0
 40
3.0
 40
3.0
 40
3.0
 40
4.0
 40
4.0
 40
4.0
 40
4.0
 10
84.36849363125162
 20
-118.9646592584533
 30
0.0
 10
84.19210474240684
 20
-118.9646592584533
 30
0.0
 10
84.10167098591903
 20
-119.0597438938462
 30
0.0
 10
84.10167098591903
 20
-119.1951361464165
 30
0.0
 10
84.10167098591903
 20
-119.3179538004657
 30
0.0
 10
84.1784966152401
 20
-119.4364650851582
 30
0.0
 10
84.36849363125162
 20
-119.4364650851582
 30
0.0
 10
84.5583183924889
 20
-119.4364650851582
 30
0.0
 10
84.63531627658423
 20
-119.3179538004657
 30
0.0
 10
84.63531627658423
 20
-119.1951361464165
 30
0.0
 10
84.63531627658423
 20
-119.0597438938462
 30
0.0
 10
84.54247095325675
 20
-118.9646592584533
 30
0.0
 10
84.36849363125162
 20
-118.9646592584533
 30
0.0
  0
HATCH
  5
84
330
7D
100
AcDbEntity
  8
_U+30EC_U+30A4_U+30E4_U+30FC 1
 62
   179
420
  2234388
100
AcDbHatch
 10
0.0
 20
0.0
 30
0.0
210
0.0
220
0.0
230
1.0
  2
SOLID
 70
     1
 71
     0
 91
        3
 92
        1
 93
        1
 72
     4
 94
        3
 73
     0
 74
     1
 95
       29
 96
       25
 40
0.0
 40
0.0
 40
0.0
 40
0.0
 40
1.0
 40
1.0
 40
1.0
 40
2.0
 40
2.0
 40
2.0
 40
3.0
 40
3.0
 40
3.0
 40
4.0
 40
4.0
 40
4.0
 40
5.0
 40
5.0
 40
5.0
 40
6.0
 40
6.0
 40
6.0
 40
7.0
 40
7.0
 40
7.0
 40
8.0
 40
8.0
 40
8.0
 40
8.0
 10
84.36849363125162
 20
-120.4159057316148
 10
84.08358423462147
 20
-120.4159057316148
 10
83.81228296515805
 20
-120.278274166979
 10
83.81228296515805
 20
-119.9292859943232
 10
83.81228296515805
 20
-119.6733153997692
 10
83.96369491173478
 20
-119.578058509602
 10
84.07686629842523
 20
-119.5167358099646
 10
83.9433688483718
 20
-119.4574801676183
 10
83.8620645949199
 20
-119.3432752522822
 10
83.8620645949199
 20
-119.1825615478953
 10
83.8620645949199
 20
-118.9074706733981
 10
84.07445473158556
 20
-118.7720784208278
 10
84.36849363125162
 20
-118.7720784208278
 10
84.67148977917935
 20
-118.7720784208278
 10
84.87492266758336
 20
-118.915911157337
 10
84.87492266758336
 20
-119.1825615478953
 10
84.87492266758336
 20
-119.3432752522822
 10
84.79120684729179
 20
-119.4574801676183
 10
84.65788165201262
 20
-119.5167358099646
 10
84.75279403263124
 20
-119.567550968372
 10
84.92229273050555
 20
-119.6628078585392
 10
84.92229273050555
 20
-119.9251518797409
 10
84.92229273050555
 20
-120.2994615042133
 10
84.6239474614829
 20
-120.4159057316148
 10
84.36849363125162
 20
-120.4159057316148
 97
        0
 97
        0
 92
        1
 93
        1
 72
     4
 94
        3
 73
     0
 74
     1
 95
       17
 96
       13
 40
0.0
 40
0.0
 40
0.0
 40
0.0
 40
1.0
 40
1.0
 40
1.0
 40
2.0
 40
2.0
 40
2.0
 40
3.0
 40
3.0
 40
3.0
 40
4.0
 40
4.0
 40
4.0
 40
4.0
 10
84.36849363125162
 20
-119.6247395534271
 10
84.21467011783523
 20
-119.6247395534271
 10
84.05188935615718
 20
-119.7113837048812
 10
84.05188935615718
 20
-119.9144720837367
 10
84.05188935615718
 20
-120.1196275198833
 10
84.18762611827601
 20
-120.2212578366982
 10
84.36849363125162
 20
-120.2212578366982
 10
84.56744789552481
 20
-120.2212578366982
 10
84.68492565157183
 20
-120.0986124374233
 10
84.68492565157183
 20
-119.9208455103844
 10
84.68492565157183
 20
-119.6986368515858
 10
84.51094832956672
 20
-119.6247395534271
 10
84.36849363125162
 20
-119.6247395534271
 97
        0
 97
        0
 92
        1
 93
        1
 72
     4
 94
        3
 73
     0
 74
     1
 95
       17
 96
       13
 40
0.0
 40
0.0
 40
0.0
 40
0.0
 40
1.0
 40
1.0
 40
1.0
 40
2.0
 40
2.0
 40
2.0
 40
3.0
 40
3.0
 40
3.0
 40
4.0
 40
4.0
 40
4.0
 40
4.0
 10
84.36849363125162
 20
-118.9646592584533
 10
84.19210474240684
 20
-118.9646592584533
 10
84.10167098591903
 20
-119.0597438938462
 10
84.10167098591903
 20
-119.1951361464165
 10
84.10167098591903
 20
-119.3179538004657
 10
84.1784966152401
 20
-119.4364650851582
 10
84.36849363125162
 20
-119.4364650851582
 10
84.5583183924889
 20
-119.4364650851582
 10
84.63531627658423
 20
-119.3179538004657
 10
84.63531627658423
 20
-119.1951361464165
 10
84.63531627658423
 20
-119.0597438938462
 10
84.54247095325675
 20
-118.9646592584533
 10
84.36849363125162
 20
-118.9646592584533
 97
        0
 97
        0
 75
     2
 76
     1
 98
        0
  0
ENDBLK
  5
80
330
7D
100
AcDbEntity
  8
0
100
AcDbBlockEnd
  0
BLOCK
  5
93
330
91
100
AcDbEntity
  8
0
100
AcDbBlockBegin
  2
block 3
 70
     0
 10
0.0
 20
0.0
 30
0.0
  3
block 3
  1

  0
SPLINE
  5
95
330
91
100
AcDbEntity
  8
_U+30EC_U+30A4_U+30E4_U+30FC 1
370
     0
100
AcDbSpline
210
0.0
220
0.0
230
1.0
 70
    11
 71
     3
 72
    26
 73
    22
 74
     0
 42
0.0000000001
 43
0.0000000001
 12
1.0
 22
0.0
 32
0.0
 13
1.0
 23
0.0
 33
0.0
 40
0.0
 40
0.0
 40
0.0
 40
0.0
 40
1.0
 40
1.0
 40
1.0
 40
2.0
 40
2.0
 40
2.0
 40
3.0
 40
3.0
 40
3.0
 40
4.0
 40
4.0
 40
4.0
 40
5.0
 40
5.0
 40
5.0
 40
6.0
 40
6.0
 40
6.0
 40
7.0
 40
7.0
 40
7.0
 40
7.0
 10
88.64954153599734
 20
-136.86571990936
 30
0.0
 10
88.64954153599734
 20
-136.86571990936
 30
0.0
 10
88.64954153599734
 20
-135.7615668063374
 30
0.0
 10
88.64954153599734
 20
-135.7615668063374
 30
0.0
 10
88.64954153599734
 20
-135.7615668063374
 30
0.0
 10
88.29710826785629
 20
-135.7615668063374
 30
0.0
 10
88.29710826785629
 20
-135.7615668063374
 30
0.0
 10
88.29710826785629
 20
-135.7615668063374
 30
0.0
 10
88.29710826785629
 20
-135.6134277004716
 30
0.0
 10
88.29710826785629
 20
-135.6134277004716
 30
0.0
 10
88.65195310283701
 20
-135.5986137898851
 30
0.0
 10
88.70156247782461
 20
-135.4356607734327
 30
0.0
 10
88.73325735628892
 20
-135.3212836033225
 30
0.0
 10
88.73325735628892
 20
-135.3212836033225
 30
0.0
 10
88.88932018177073
 20
-135.3212836033225
 30
0.0
 10
88.88932018177073
 20
-135.3212836033225
 30
0.0
 10
88.88932018177073
 20
-135.3212836033225
 30
0.0
 10
88.88932018177073
 20
-136.86571990936
 30
0.0
 10
88.88932018177073
 20
-136.86571990936
 30
0.0
 10
88.88932018177073
 20
-136.86571990936
 30
0.0
 10
88.64954153599734
 20
-136.86571990936
 30
0.0
 10
88.64954153599734
 20
-136.86571990936
 30
0.0
  0
HATCH
  5
96
330
91
100
AcDbEntity
  8
_U+30EC_U+30A4_U+30E4_U+30FC 1
 62
   179
420
  2234388
100
AcDbHatch
 10
0.0
 20
0.0
 30
0.0
210
0.0
220
0.0
230
1.0
  2
SOLID
 70
     1
 71
     0
 91
        1
 92
        1
 93
        1
 72
     4
 94
        3
 73
     0
 74
     1
 95
       26
 96
       22
 40
0.0
 40
0.0
 40
0.0
 40
0.0
 40
1.0
 40
1.0
 40
1.0
 40
2.0
 40
2.0
 40
2.0
 40
3.0
 40
3.0
 40
3.0
 40
4.0
 40
4.0
 40
4.0
 40
5.0
 40
5.0
 40
5.0
 40
6.0
 40
6.0
 40
6.0
 40
7.0
 40
7.0
 40
7.0
 40
7.0
 10
88.64954153599734
 20
-136.86571990936
 10
88.64954153599734
 20
-136.86571990936
 10
88.64954153599734
 20
-135.7615668063374
 10
88.64954153599734
 20
-135.7615668063374
 10
88.64954153599734
 20
-135.7615668063374
 10
88.29710826785629
 20
-135.7615668063374
 10
88.29710826785629
 20
-135.7615668063374
 10
88.29710826785629
 20
-135.7615668063374
 10
88.29710826785629
 20
-135.6134277004716
 10
88.29710826785629
 20
-135.6134277004716
 10
88.65195310283701
 20
-135.5986137898851
 10
88.70156247782461
 20
-135.4356607734327
 10
88.73325735628892
 20
-135.3212836033225
 10
88.73325735628892
 20
-135.3212836033225
 10
88.88932018177073
 20
-135.3212836033225
 10
88.88932018177073
 20
-135.3212836033225
 10
88.88932018177073
 20
-135.3212836033225
 10
88.88932018177073
 20
-136.86571990936
 10
88.88932018177073
 20
-136.86571990936
 10
88.88932018177073
 20
-136.86571990936
 10
88.64954153599734
 20
-136.86571990936
 10
88.64954153599734
 20
-136.86571990936
 97
        0
 97
        0
 75
     2
 76
     1
 98
        0
  0
SPLINE
  5
97
330
91
100
AcDbEntity
  8
_U+30EC_U+30A4_U+30E4_U+30FC 1
370
     0
100
AcDbSpline
210
0.0
220
0.0
230
1.0
 70
    11
 71
     3
 72
    29
 73
    25
 74
     0
 42
0.0000000001
 43
0.0000000001
 12
1.0
 22
0.0
 32
0.0
 13
1.0
 23
0.0
 33
0.0
 40
0.0
 40
0.0
 40
0.0
 40
0.0
 40
1.0
 40
1.0
 40
1.0
 40
2.0
 40
2.0
 40
2.0
 40
3.0
 40
3.0
 40
3.0
 40
4.0
 40
4.0
 40
4.0
 40
5.0
 40
5.0
 40
5.0
 40
6.0
 40
6.0
 40
6.0
 40
7.0
 40
7.0
 40
7.0
 40
8.0
 40
8.0
 40
8.0
 40
8.0
 10
89.95936683948933
 20
-136.9163628129931
 30
0.0
 10
89.67445744285916
 20
-136.9163628129931
 30
0.0
 10
89.40332842817
 20
-136.7789035031317
 30
0.0
 10
89.40332842817
 20
-136.4299153304759
 30
0.0
 10
89.40332842817
 20
-136.1739447359218
 30
0.0
 10
89.554912629521
 20
-136.0788601005289
 30
0.0
 10
89.6679117614372
 20
-136.0175374008915
 30
0.0
 10
89.53458656615803
 20
-135.9582817585452
 30
0.0
 10
89.4529378031576
 20
-135.8439045884349
 30
0.0
 10
89.4529378031576
 20
-135.6830186292737
 30
0.0
 10
89.4529378031576
 20
-135.4081000095508
 30
0.0
 10
89.66550019459751
 20
-135.2727077569805
 30
0.0
 10
89.95936683948933
 20
-135.2727077569805
 30
0.0
 10
90.26253524219132
 20
-135.2727077569805
 30
0.0
 10
90.46579587582106
 20
-135.4167127482639
 30
0.0
 10
90.46579587582106
 20
-135.6830186292737
 30
0.0
 10
90.46579587582106
 20
-135.8439045884349
 30
0.0
 10
90.38242456507801
 20
-135.9582817585452
 30
0.0
 10
90.24875486025032
 20
-136.0175374008915
 30
0.0
 10
90.34383949564321
 20
-136.0681803045246
 30
0.0
 10
90.5133381935175
 20
-136.1632649399175
 30
0.0
 10
90.5133381935175
 20
-136.4257812158936
 30
0.0
 10
90.5133381935175
 20
-136.8002630951402
 30
0.0
 10
90.21499292449487
 20
-136.9163628129931
 30
0.0
 10
89.95936683948933
 20
-136.9163628129931
 30
0.0
  0
SPLINE
  5
98
330
91
100
AcDbEntity
  8
_U+30EC_U+30A4_U+30E4_U+30FC 1
370
     0
100
AcDbSpline
210
0.0
220
0.0
230
1.0
 70
    11
 71
     3
 72
    17
 73
    13
 74
     0
 42
0.0000000001
 43
0.0000000001
 12
1.0
 22
0.0
 32
0.0
 13
1.0
 23
0.0
 33
0.0
 40
0.0
 40
0.0
 40
0.0
 40
0.0
 40
1.0
 40
1.0
 40
1.0
 40
2.0
 40
2.0
 40
2.0
 40
3.0
 40
3.0
 40
3.0
 40
4.0
 40
4.0
 40
4.0
 40
4.0
 10
89.95936683948933
 20
-136.1253688895798
 30
0.0
 10
89.80571558084719
 20
-136.1253688895798
 30
0.0
 10
89.6431070739434
 20
-136.2121852958081
 30
0.0
 10
89.6431070739434
 20
-136.4151014198893
 30
0.0
 10
89.6431070739434
 20
-136.6204291108102
 30
0.0
 10
89.77849932651371
 20
-136.7217149180765
 30
0.0
 10
89.95936683948933
 20
-136.7217149180765
 30
0.0
 10
90.15849335853677
 20
-136.7217149180765
 30
0.0
 10
90.27597111458378
 20
-136.5990695188016
 30
0.0
 10
90.27597111458378
 20
-136.4213025917627
 30
0.0
 10
90.27597111458378
 20
-136.1994384425126
 30
0.0
 10
90.10199379257867
 20
-136.1253688895798
 30
0.0
 10
89.95936683948933
 20
-136.1253688895798
 30
0.0
  0
SPLINE
  5
99
330
91
100
AcDbEntity
  8
_U+30EC_U+30A4_U+30E4_U+30FC 1
370
     0
100
AcDbSpline
210
0.0
220
0.0
230
1.0
 70
    11
 71
     3
 72
    17
 73
    13
 74
     0
 42
0.0000000001
 43
0.0000000001
 12
1.0
 22
0.0
 32
0.0
 13
1.0
 23
0.0
 33
0.0
 40
0.0
 40
0.0
 40
0.0
 40
0.0
 40
1.0
 40
1.0
 40
1.0
 40
2.0
 40
2.0
 40
2.0
 40
3.0
 40
3.0
 40
3.0
 40
4.0
 40
4.0
 40
4.0
 40
4.0
 10
89.95936683948933
 20
-135.4652885946059
 30
0.0
 10
89.78332246019306
 20
-135.4652885946059
 30
0.0
 10
89.692716448931
 20
-135.5603732299988
 30
0.0
 10
89.692716448931
 20
-135.6957654825691
 30
0.0
 10
89.692716448931
 20
-135.818410881844
 30
0.0
 10
89.76954207825206
 20
-135.9369221665366
 30
0.0
 10
89.95936683948933
 20
-135.9369221665366
 30
0.0
 10
90.14953611027512
 20
-135.9369221665366
 30
0.0
 10
90.22636173959619
 20
-135.818410881844
 30
0.0
 10
90.22636173959619
 20
-135.6957654825691
 30
0.0
 10
90.22636173959619
 20
-135.5603732299988
 30
0.0
 10
90.13368867104298
 20
-135.4652885946059
 30
0.0
 10
89.95936683948933
 20
-135.4652885946059
 30
0.0
  0
HATCH
  5
9A
330
91
100
AcDbEntity
  8
_U+30EC_U+30A4_U+30E4_U+30FC 1
 62
   179
420
  2234388
100
AcDbHatch
 10
0.0
 20
0.0
 30
0.0
210
0.0
220
0.0
230
1.0
  2
SOLID
 70
     1
 71
     0
 91
        3
 92
        1
 93
        1
 72
     4
 94
        3
 73
     0
 74
     1
 95
       29
 96
       25
 40
0.0
 40
0.0
 40
0.0
 40
0.0
 40
1.0
 40
1.0
 40
1.0
 40
2.0
 40
2.0
 40
2.0
 40
3.0
 40
3.0
 40
3.0
 40
4.0
 40
4.0
 40
4.0
 40
5.0
 40
5.0
 40
5.0
 40
6.0
 40
6.0
 40
6.0
 40
7.0
 40
7.0
 40
7.0
 40
8.0
 40
8.0
 40
8.0
 40
8.0
 10
89.95936683948933
 20
-136.9163628129931
 10
89.67445744285916
 20
-136.9163628129931
 10
89.40332842817
 20
-136.7789035031317
 10
89.40332842817
 20
-136.4299153304759
 10
89.40332842817
 20
-136.1739447359218
 10
89.554912629521
 20
-136.0788601005289
 10
89.6679117614372
 20
-136.0175374008915
 10
89.53458656615803
 20
-135.9582817585452
 10
89.4529378031576
 20
-135.8439045884349
 10
89.4529378031576
 20
-135.6830186292737
 10
89.4529378031576
 20
-135.4081000095508
 10
89.66550019459751
 20
-135.2727077569805
 10
89.95936683948933
 20
-135.2727077569805
 10
90.26253524219132
 20
-135.2727077569805
 10
90.46579587582106
 20
-135.4167127482639
 10
90.46579587582106
 20
-135.6830186292737
 10
90.46579587582106
 20
-135.8439045884349
 10
90.38242456507801
 20
-135.9582817585452
 10
90.24875486025032
 20
-136.0175374008915
 10
90.34383949564321
 20
-136.0681803045246
 10
90.5133381935175
 20
-136.1632649399175
 10
90.5133381935175
 20
-136.4257812158936
 10
90.5133381935175
 20
-136.8002630951402
 10
90.21499292449487
 20
-136.9163628129931
 10
89.95936683948933
 20
-136.9163628129931
 97
        0
 97
        0
 92
        1
 93
        1
 72
     4
 94
        3
 73
     0
 74
     1
 95
       17
 96
       13
 40
0.0
 40
0.0
 40
0.0
 40
0.0
 40
1.0
 40
1.0
 40
1.0
 40
2.0
 40
2.0
 40
2.0
 40
3.0
 40
3.0
 40
3.0
 40
4.0
 40
4.0
 40
4.0
 40
4.0
 10
89.95936683948933
 20
-136.1253688895798
 10
89.80571558084719
 20
-136.1253688895798
 10
89.6431070739434
 20
-136.2121852958081
 10
89.6431070739434
 20
-136.4151014198893
 10
89.6431070739434
 20
-136.6204291108102
 10
89.77849932651371
 20
-136.7217149180765
 10
89.95936683948933
 20
-136.7217149180765
 10
90.15849335853677
 20
-136.7217149180765
 10
90.27597111458378
 20
-136.5990695188016
 10
90.27597111458378
 20
-136.4213025917627
 10
90.27597111458378
 20
-136.1994384425126
 10
90.10199379257867
 20
-136.1253688895798
 10
89.95936683948933
 20
-136.1253688895798
 97
        0
 97
        0
 92
        1
 93
        1
 72
     4
 94
        3
 73
     0
 74
     1
 95
       17
 96
       13
 40
0.0
 40
0.0
 40
0.0
 40
0.0
 40
1.0
 40
1.0
 40
1.0
 40
2.0
 40
2.0
 40
2.0
 40
3.0
 40
3.0
 40
3.0
 40
4.0
 40
4.0
 40
4.0
 40
4.0
 10
89.95936683948933
 20
-135.4652885946059
 10
89.78332246019306
 20
-135.4652885946059
 10
89.692716448931
 20
-135.5603732299988
 10
89.692716448931
 20
-135.6957654825691
 10
89.692716448931
 20
-135.818410881844
 10
89.76954207825206
 20
-135.9369221665366
 10
89.95936683948933
 20
-135.9369221665366
 10
90.14953611027512
 20
-135.9369221665366
 10
90.22636173959619
 20
-135.818410881844
 10
90.22636173959619
 20
-135.6957654825691
 10
90.22636173959619
 20
-135.5603732299988
 10
90.13368867104298
 20
-135.4652885946059
 10
89.95936683948933
 20
-135.4652885946059
 97
        0
 97
        0
 75
     2
 76
     1
 98
        0
  0
ENDBLK
  5
94
330
91
100
AcDbEntity
  8
0
100
AcDbBlockEnd
  0
BLOCK
  5
A9
330
A7
100
AcDbEntity
  8
0
100
AcDbBlockBegin
  2
block 4
 70
     0
 10
0.0
 20
0.0
 30
0.0
  3
block 4
  1

  0
SPLINE
  5
AB
330
A7
100
AcDbEntity
  8
_U+30EC_U+30A4_U+30E4_U+30FC 1
370
     0
100
AcDbSpline
210
0.0
220
0.0
230
1.0
 70
    11
 71
     3
 72
    32
 73
    28
 74
     0
 42
0.0000000001
 43
0.0000000001
 12
1.0
 22
0.0
 32
0.0
 13
1.0
 23
0.0
 33
0.0
 40
0.0
 40
0.0
 40
0.0
 40
0.0
 40
1.0
 40
1.0
 40
1.0
 40
2.0
 40
2.0
 40
2.0
 40
3.0
 40
3.0
 40
3.0
 40
4.0
 40
4.0
 40
4.0
 40
5.0
 40
5.0
 40
5.0
 40
6.0
 40
6.0
 40
6.0
 40
7.0
 40
7.0
 40
7.0
 40
8.0
 40
8.0
 40
8.0
 40
9.0
 40
9.0
 40
9.0
 40
9.0
 10
100.8930663810267
 20
-129.9817301107337
 30
0.0
 10
100.8930663810267
 20
-130.5336344074708
 30
0.0
 10
100.3390950269986
 20
-130.5425916557324
 30
0.0
 10
100.1251545973646
 20
-130.5425916557324
 30
0.0
 10
99.89467770940134
 20
-130.5425916557324
 30
0.0
 10
99.2473442677229
 20
-130.5222655923695
 30
0.0
 10
99.2473442677229
 20
-129.9410779840078
 30
0.0
 10
99.2473442677229
 20
-129.7557318469013
 30
0.0
 10
99.31727970607346
 20
-129.4935600804738
 30
0.0
 10
99.64938691085155
 20
-129.4529079537479
 30
0.0
 10
99.64938691085155
 20
-129.4529079537479
 30
0.0
 10
99.64938691085155
 20
-129.6813177844199
 30
0.0
 10
99.64938691085155
 20
-129.6813177844199
 30
0.0
 10
99.5921983257964
 20
-129.6923420899728
 30
0.0
 10
99.44405921993065
 20
-129.7264485352767
 30
0.0
 10
99.44405921993065
 20
-129.9434895508475
 30
0.0
 10
99.44405921993065
 20
-130.2556152018111
 30
0.0
 10
99.77203231012643
 20
-130.2983343858282
 30
0.0
 10
99.9770154914988
 20
-130.3121147677692
 30
0.0
 10
99.89881182398364
 20
-130.2125515082455
 30
0.0
 10
99.83955618163733
 20
-130.1402045030552
 30
0.0
 10
99.83955618163733
 20
-129.9459011176871
 30
0.0
 10
99.83955618163733
 20
-129.7536647896102
 30
0.0
 10
99.94773217987418
 20
-129.4301703235452
 30
0.0
 10
100.3539089375851
 20
-129.4301703235452
 30
0.0
 10
100.6732692890678
 20
-129.4301703235452
 30
0.0
 10
100.8930663810267
 20
-129.6427327149852
 30
0.0
 10
100.8930663810267
 20
-129.9817301107337
 30
0.0
  0
SPLINE
  5
AC
330
A7
100
AcDbEntity
  8
_U+30EC_U+30A4_U+30E4_U+30FC 1
370
     0
100
AcDbSpline
210
0.0
220
0.0
230
1.0
 70
    11
 71
     3
 72
    17
 73
    13
 74
     0
 42
0.0000000001
 43
0.0000000001
 12
1.0
 22
0.0
 32
0.0
 13
1.0
 23
0.0
 33
0.0
 40
0.0
 40
0.0
 40
0.0
 40
0.0
 40
1.0
 40
1.0
 40
1.0
 40
2.0
 40
2.0
 40
2.0
 40
3.0
 40
3.0
 40
3.0
 40
4.0
 40
4.0
 40
4.0
 40
4.0
 10
100.0342040765539
 20
-129.9638156142104
 30
0.0
 10
100.0342040765539
 20
-130.2442463867098
 30
0.0
 10
100.2457329393483
 20
-130.2848985134357
 30
0.0
 10
100.3621771667497
 20
-130.2848985134357
 30
0.0
 10
100.5378770364975
 20
-130.2848985134357
 30
0.0
 10
100.7008300529498
 20
-130.1832681966208
 30
0.0
 10
100.7008300529498
 20
-129.9865532444131
 30
0.0
 10
100.7008300529498
 20
-129.8577066732647
 30
0.0
 10
100.6415744106035
 20
-129.6699489693186
 30
0.0
 10
100.3559759948763
 20
-129.6699489693186
 30
0.0
 10
100.1317002787865
 20
-129.6699489693186
 30
0.0
 10
100.0342040765539
 20
-129.81912160383
 30
0.0
 10
100.0342040765539
 20
-129.9638156142104
 30
0.0
  0
HATCH
  5
AD
330
A7
100
AcDbEntity
  8
_U+30EC_U+30A4_U+30E4_U+30FC 1
 62
   179
420
  2234388
100
AcDbHatch
 10
0.0
 20
0.0
 30
0.0
210
0.0
220
0.0
230
1.0
  2
SOLID
 70
     1
 71
     0
 91
        2
 92
        1
 93
        1
 72
     4
 94
        3
 73
     0
 74
     1
 95
       32
 96
       28
 40
0.0
 40
0.0
 40
0.0
 40
0.0
 40
1.0
 40
1.0
 40
1.0
 40
2.0
 40
2.0
 40
2.0
 40
3.0
 40
3.0
 40
3.0
 40
4.0
 40
4.0
 40
4.0
 40
5.0
 40
5.0
 40
5.0
 40
6.0
 40
6.0
 40
6.0
 40
7.0
 40
7.0
 40
7.0
 40
8.0
 40
8.0
 40
8.0
 40
9.0
 40
9.0
 40
9.0
 40
9.0
 10
100.8930663810267
 20
-129.9817301107337
 10
100.8930663810267
 20
-130.5336344074708
 10
100.3390950269986
 20
-130.5425916557324
 10
100.1251545973646
 20
-130.5425916557324
 10
99.89467770940134
 20
-130.5425916557324
 10
99.2473442677229
 20
-130.5222655923695
 10
99.2473442677229
 20
-129.9410779840078
 10
99.2473442677229
 20
-129.7557318469013
 10
99.31727970607346
 20
-129.4935600804738
 10
99.64938691085155
 20
-129.4529079537479
 10
99.64938691085155
 20
-129.4529079537479
 10
99.64938691085155
 20
-129.6813177844199
 10
99.64938691085155
 20
-129.6813177844199
 10
99.5921983257964
 20
-129.6923420899728
 10
99.44405921993065
 20
-129.7264485352767
 10
99.44405921993065
 20
-129.9434895508475
 10
99.44405921993065
 20
-130.2556152018111
 10
99.77203231012643
 20
-130.2983343858282
 10
99.9770154914988
 20
-130.3121147677692
 10
99.89881182398364
 20
-130.2125515082455
 10
99.83955618163733
 20
-130.1402045030552
 10
99.83955618163733
 20
-129.9459011176871
 10
99.83955618163733
 20
-129.7536647896102
 10
99.94773217987418
 20
-129.4301703235452
 10
100.3539089375851
 20
-129.4301703235452
 10
100.6732692890678
 20
-129.4301703235452
 10
100.8930663810267
 20
-129.6427327149852
 10
100.8930663810267
 20
-129.9817301107337
 97
        0
 97
        0
 92
        1
 93
        1
 72
     4
 94
        3
 73
     0
 74
     1
 95
       17
 96
       13
 40
0.0
 40
0.0
 40
0.0
 40
0.0
 40
1.0
 40
1.0
 40
1.0
 40
2.0
 40
2.0
 40
2.0
 40
3.0
 40
3.0
 40
3.0
 40
4.0
 40
4.0
 40
4.0
 40
4.0
 10
100.0342040765539
 20
-129.9638156142104
 10
100.0342040765539
 20
-130.2442463867098
 10
100.2457329393483
 20
-130.2848985134357
 10
100.3621771667497
 20
-130.2848985134357
 10
100.5378770364975
 20
-130.2848985134357
 10
100.7008300529498
 20
-130.1832681966208
 10
100.7008300529498
 20
-129.9865532444131
 10
100.7008300529498
 20
-129.8577066732647
 10
100.6415744106035
 20
-129.6699489693186
 10
100.3559759948763
 20
-129.6699489693186
 10
100.1317002787865
 20
-129.6699489693186
 10
100.0342040765539
 20
-129.81912160383
 10
100.0342040765539
 20
-129.9638156142104
 97
        0
 97
        0
 75
     2
 76
     1
 98
        0
  0
POLYLINE
  5
AE
330
A7
100
AcDbEntity
  8
_U+30EC_U+30A4_U+30E4_U+30FC 1
370
     0
100
AcDb2dPolyline
 66
     1
 10
0.0
 20
0.0
 30
0.0
  0
VERTEX
  5
AF
330
AE
100
AcDbEntity
  8
_U+30EC_U+30A4_U+30E4_U+30FC 1
370
     0
100
AcDbVertex
100
AcDb2dVertex
 10
100.8424234773936
 20
-129.199004416485
 30
0.0
  0
VERTEX
  5
B0
330
AE
100
AcDbEntity
  8
_U+30EC_U+30A4_U+30E4_U+30FC 1
370
     0
100
AcDbVertex
100
AcDb2dVertex
 10
100.5905869974218
 20
-129.199004416485
 30
0.0
  0
VERTEX
  5
B1
330
AE
100
AcDbEntity
  8
_U+30EC_U+30A4_U+30E4_U+30FC 1
370
     0
100
AcDbVertex
100
AcDb2dVertex
 10
100.5905869974218
 20
-128.929942459087
 30
0.0
  0
VERTEX
  5
B2
330
AE
100
AcDbEntity
  8
_U+30EC_U+30A4_U+30E4_U+30FC 1
370
     0
100
AcDbVertex
100
AcDb2dVertex
 10
100.8424234773936
 20
-128.929942459087
 30
0.0
  0
VERTEX
  5
B3
330
AE
100
AcDbEntity
  8
_U+30EC_U+30A4_U+30E4_U+30FC 1
370
     0
100
AcDbVertex
100
AcDb2dVertex
 10
100.8424234773936
 20
-129.199004416485
 30
0.0
  0
SEQEND
  5
B4
330
AE
100
AcDbEntity
  8
_U+30EC_U+30A4_U+30E4_U+30FC 1
370
     0
  0
HATCH
  5
B5
330
A7
100
AcDbEntity
  8
_U+30EC_U+30A4_U+30E4_U+30FC 1
 62
   179
420
  2234388
100
AcDbHatch
 10
0.0
 20
0.0
 30
0.0
210
0.0
220
0.0
230
1.0
  2
SOLID
 70
     1
 71
     0
 91
        1
 92
        1
 93
        4
 72
     1
 10
100.8424234773936
 20
-129.199004416485
 11
100.5905869974218
 21
-129.199004416485
 72
     1
 10
100.5905869974218
 20
-129.199004416485
 11
100.5905869974218
 21
-128.929942459087
 72
     1
 10
100.5905869974218
 20
-128.929942459087
 11
100.8424234773936
 21
-128.929942459087
 72
     1
 10
100.8424234773936
 20
-128.929942459087
 11
100.8424234773936
 21
-129.199004416485
 97
        0
 75
     2
 76
     1
 98
        0
  0
SPLINE
  5
B6
330
A7
100
AcDbEntity
  8
_U+30EC_U+30A4_U+30E4_U+30FC 1
370
     0
100
AcDbSpline
210
0.0
220
0.0
230
1.0
 70
    11
 71
     3
 72
    53
 73
    49
 74
     0
 42
0.0000000001
 43
0.0000000001
 12
1.0
 22
0.0
 32
0.0
 13
1.0
 23
0.0
 33
0.0
 40
0.0
 40
0.0
 40
0.0
 40
0.0
 40
1.0
 40
1.0
 40
1.0
 40
2.0
 40
2.0
 40
2.0
 40
3.0
 40
3.0
 40
3.0
 40
4.0
 40
4.0
 40
4.0
 40
5.0
 40
5.0
 40
5.0
 40
6.0
 40
6.0
 40
6.0
 40
7.0
 40
7.0
 40
7.0
 40
8.0
 40
8.0
 40
8.0
 40
9.0
 40
9.0
 40
9.0
 40
10.0
 40
10.0
 40
10.0
 40
11.0
 40
11.0
 40
11.0
 40
12.0
 40
12.0
 40
12.0
 40
13.0
 40
13.0
 40
13.0
 40
14.0
 40
14.0
 40
14.0
 40
15.0
 40
15.0
 40
15.0
 40
16.0
 40
16.0
 40
16.0
 40
16.0
 10
100.8930663810267
 20
-128.1630642040703
 30
0.0
 10
100.8930663810267
 20
-128.2467800243619
 30
0.0
 10
100.876185413149
 20
-128.3549560225988
 30
0.0
 10
100.8127956562204
 20
-128.4638210399327
 30
0.0
 10
100.7028971102409
 20
-128.6491671770391
 30
0.0
 10
100.5716389722529
 20
-128.6715602976932
 30
0.0
 10
100.4638074835646
 20
-128.6918863610562
 30
0.0
 10
100.4638074835646
 20
-128.6918863610562
 30
0.0
 10
100.4638074835646
 20
-128.4545192821225
 30
0.0
 10
100.4638074835646
 20
-128.4545192821225
 30
0.0
 10
100.6625894930635
 20
-128.3959526588732
 30
0.0
 10
100.6922173142367
 20
-128.2602158967544
 30
0.0
 10
100.6922173142367
 20
-128.1606526372307
 30
0.0
 10
100.6922173142367
 20
-128.0114800027194
 30
0.0
 10
100.592654054713
 20
-127.848526986267
 30
0.0
 10
100.3601101094586
 20
-127.848526986267
 30
0.0
 10
100.1041395149045
 20
-127.848526986267
 30
0.0
 10
100.0342040765539
 20
-128.040763314344
 30
0.0
 10
100.0342040765539
 20
-128.1696098854923
 30
0.0
 10
100.0342040765539
 20
-128.2037163307963
 30
0.0
 10
100.0342040765539
 20
-128.3549560225988
 30
0.0
 10
100.1633951572508
 20
-128.4500406579917
 30
0.0
 10
100.1633951572508
 20
-128.4500406579917
 30
0.0
 10
100.144447132082
 20
-128.6377983619378
 30
0.0
 10
100.144447132082
 20
-128.6377983619378
 30
0.0
 10
100.144447132082
 20
-128.6377983619378
 30
0.0
 10
99.29798717135607
 20
-128.5089517907894
 30
0.0
 10
99.29798717135607
 20
-128.5089517907894
 30
0.0
 10
99.29798717135607
 20
-128.5089517907894
 30
0.0
 10
99.29798717135607
 20
-127.6769612311016
 30
0.0
 10
99.29798717135607
 20
-127.6769612311016
 30
0.0
 10
99.29798717135607
 20
-127.6769612311016
 30
0.0
 10
99.49263506627268
 20
-127.6769612311016
 30
0.0
 10
99.49263506627268
 20
-127.6769612311016
 30
0.0
 10
99.49263506627268
 20
-127.6769612311016
 30
0.0
 10
99.49263506627268
 20
-128.3346299592358
 30
0.0
 10
99.49263506627268
 20
-128.3346299592358
 30
0.0
 10
99.49263506627268
 20
-128.3346299592358
 30
0.0
 10
99.91569279186136
 20
-128.4049099071349
 30
0.0
 10
99.91569279186136
 20
-128.4049099071349
 30
0.0
 10
99.88193085610591
 20
-128.3394530929151
 30
0.0
 10
99.84162323892849
 20
-128.2512586484928
 30
0.0
 10
99.84162323892849
 20
-128.1244791346355
 30
0.0
 10
99.84162323892849
 20
-127.8533501199464
 30
0.0
 10
100.0280029046805
 20
-127.6001356017805
 30
0.0
 10
100.3411620842897
 20
-127.6001356017805
 30
0.0
 10
100.6584553784812
 20
-127.6001356017805
 30
0.0
 10
100.8930663810267
 20
-127.8395697380054
 30
0.0
 10
100.8930663810267
 20
-128.1630642040703
 30
0.0
  0
HATCH
  5
B7
330
A7
100
AcDbEntity
  8
_U+30EC_U+30A4_U+30E4_U+30FC 1
 62
   179
420
  2234388
100
AcDbHatch
 10
0.0
 20
0.0
 30
0.0
210
0.0
220
0.0
230
1.0
  2
SOLID
 70
     1
 71
     0
 91
        1
 92
        1
 93
        1
 72
     4
 94
        3
 73
     0
 74
     1
 95
       53
 96
       49
 40
0.0
 40
0.0
 40
0.0
 40
0.0
 40
1.0
 40
1.0
 40
1.0
 40
2.0
 40
2.0
 40
2.0
 40
3.0
 40
3.0
 40
3.0
 40
4.0
 40
4.0
 40
4.0
 40
5.0
 40
5.0
 40
5.0
 40
6.0
 40
6.0
 40
6.0
 40
7.0
 40
7.0
 40
7.0
 40
8.0
 40
8.0
 40
8.0
 40
9.0
 40
9.0
 40
9.0
 40
10.0
 40
10.0
 40
10.0
 40
11.0
 40
11.0
 40
11.0
 40
12.0
 40
12.0
 40
12.0
 40
13.0
 40
13.0
 40
13.0
 40
14.0
 40
14.0
 40
14.0
 40
15.0
 40
15.0
 40
15.0
 40
16.0
 40
16.0
 40
16.0
 40
16.0
 10
100.8930663810267
 20
-128.1630642040703
 10
100.8930663810267
 20
-128.2467800243619
 10
100.876185413149
 20
-128.3549560225988
 10
100.8127956562204
 20
-128.4638210399327
 10
100.7028971102409
 20
-128.6491671770391
 10
100.5716389722529
 20
-128.6715602976932
 10
100.4638074835646
 20
-128.6918863610562
 10
100.4638074835646
 20
-128.6918863610562
 10
100.4638074835646
 20
-128.4545192821225
 10
100.4638074835646
 20
-128.4545192821225
 10
100.6625894930635
 20
-128.3959526588732
 10
100.6922173142367
 20
-128.2602158967544
 10
100.6922173142367
 20
-128.1606526372307
 10
100.6922173142367
 20
-128.0114800027194
 10
100.592654054713
 20
-127.848526986267
 10
100.3601101094586
 20
-127.848526986267
 10
100.1041395149045
 20
-127.848526986267
 10
100.0342040765539
 20
-128.040763314344
 10
100.0342040765539
 20
-128.1696098854923
 10
100.0342040765539
 20
-128.2037163307963
 10
100.0342040765539
 20
-128.3549560225988
 10
100.1633951572508
 20
-128.4500406579917
 10
100.1633951572508
 20
-128.4500406579917
 10
100.144447132082
 20
-128.6377983619378
 10
100.144447132082
 20
-128.6377983619378
 10
100.144447132082
 20
-128.6377983619378
 10
99.29798717135607
 20
-128.5089517907894
 10
99.29798717135607
 20
-128.5089517907894
 10
99.29798717135607
 20
-128.5089517907894
 10
99.29798717135607
 20
-127.6769612311016
 10
99.29798717135607
 20
-127.6769612311016
 10
99.29798717135607
 20
-127.6769612311016
 10
99.49263506627268
 20
-127.6769612311016
 10
99.49263506627268
 20
-127.6769612311016
 10
99.49263506627268
 20
-127.6769612311016
 10
99.49263506627268
 20
-128.3346299592358
 10
99.49263506627268
 20
-128.3346299592358
 10
99.49263506627268
 20
-128.3346299592358
 10
99.91569279186136
 20
-128.4049099071349
 10
99.91569279186136
 20
-128.4049099071349
 10
99.88193085610591
 20
-128.3394530929151
 10
99.84162323892849
 20
-128.2512586484928
 10
99.84162323892849
 20
-128.1244791346355
 10
99.84162323892849
 20
-127.8533501199464
 10
100.0280029046805
 20
-127.6001356017805
 10
100.3411620842897
 20
-127.6001356017805
 10
100.6584553784812
 20
-127.6001356017805
 10
100.8930663810267
 20
-127.8395697380054
 10
100.8930663810267
 20
-128.1630642040703
 97
        0
 97
        0
 75
     2
 76
     1
 98
        0
  0
ENDBLK
  5
AA
330
A7
100
AcDbEntity
  8
0
100
AcDbBlockEnd
  0
BLOCK
  5
C3
330
C1
100
AcDbEntity
  8
0
100
AcDbBlockBegin
  2
block 5
 70
     0
 10
0.0
 20
0.0
 30
0.0
  3
block 5
  1

  0
SPLINE
  5
C5
330
C1
100
AcDbEntity
  8
_U+30EC_U+30A4_U+30E4_U+30FC 1
370
     0
100
AcDbSpline
210
0.0
220
0.0
230
1.0
 70
    11
 71
     3
 72
    26
 73
    22
 74
     0
 42
0.0000000001
 43
0.0000000001
 12
1.0
 22
0.0
 32
0.0
 13
1.0
 23
0.0
 33
0.0
 40
0.0
 40
0.0
 40
0.0
 40
0.0
 40
1.0
 40
1.0
 40
1.0
 40
2.0
 40
2.0
 40
2.0
 40
3.0
 40
3.0
 40
3.0
 40
4.0
 40
4.0
 40
4.0
 40
5.0
 40
5.0
 40
5.0
 40
6.0
 40
6.0
 40
6.0
 40
7.0
 40
7.0
 40
7.0
 40
7.0
 10
100.8424234773936
 20
-132.9772406351585
 30
0.0
 10
100.8424234773936
 20
-132.9772406351585
 30
0.0
 10
99.738270374371
 20
-132.9772406351585
 30
0.0
 10
99.738270374371
 20
-132.9772406351585
 30
0.0
 10
99.738270374371
 20
-132.9772406351585
 30
0.0
 10
99.738270374371
 20
-133.3296739032995
 30
0.0
 10
99.738270374371
 20
-133.3296739032995
 30
0.0
 10
99.738270374371
 20
-133.3296739032995
 30
0.0
 10
99.59013126850525
 20
-133.3296739032995
 30
0.0
 10
99.59013126850525
 20
-133.3296739032995
 30
0.0
 10
99.57531735791868
 20
-132.9748290683188
 30
0.0
 10
99.41236434146636
 20
-132.9252196933312
 30
0.0
 10
99.29798717135607
 20
-132.8935248148669
 30
0.0
 10
99.29798717135607
 20
-132.8935248148669
 30
0.0
 10
99.29798717135607
 20
-132.7374619893851
 30
0.0
 10
99.29798717135607
 20
-132.7374619893851
 30
0.0
 10
99.29798717135607
 20
-132.7374619893851
 30
0.0
 10
100.8424234773936
 20
-132.7374619893851
 30
0.0
 10
100.8424234773936
 20
-132.7374619893851
 30
0.0
 10
100.8424234773936
 20
-132.7374619893851
 30
0.0
 10
100.8424234773936
 20
-132.9772406351585
 30
0.0
 10
100.8424234773936
 20
-132.9772406351585
 30
0.0
  0
HATCH
  5
C6
330
C1
100
AcDbEntity
  8
_U+30EC_U+30A4_U+30E4_U+30FC 1
 62
   179
420
  2234388
100
AcDbHatch
 10
0.0
 20
0.0
 30
0.0
210
0.0
220
0.0
230
1.0
  2
SOLID
 70
     1
 71
     0
 91
        1
 92
        1
 93
        1
 72
     4
 94
        3
 73
     0
 74
     1
 95
       26
 96
       22
 40
0.0
 40
0.0
 40
0.0
 40
0.0
 40
1.0
 40
1.0
 40
1.0
 40
2.0
 40
2.0
 40
2.0
 40
3.0
 40
3.0
 40
3.0
 40
4.0
 40
4.0
 40
4.0
 40
5.0
 40
5.0
 40
5.0
 40
6.0
 40
6.0
 40
6.0
 40
7.0
 40
7.0
 40
7.0
 40
7.0
 10
100.8424234773936
 20
-132.9772406351585
 10
100.8424234773936
 20
-132.9772406351585
 10
99.738270374371
 20
-132.9772406351585
 10
99.738270374371
 20
-132.9772406351585
 10
99.738270374371
 20
-132.9772406351585
 10
99.738270374371
 20
-133.3296739032995
 10
99.738270374371
 20
-133.3296739032995
 10
99.738270374371
 20
-133.3296739032995
 10
99.59013126850525
 20
-133.3296739032995
 10
99.59013126850525
 20
-133.3296739032995
 10
99.57531735791868
 20
-132.9748290683188
 10
99.41236434146636
 20
-132.9252196933312
 10
99.29798717135607
 20
-132.8935248148669
 10
99.29798717135607
 20
-132.8935248148669
 10
99.29798717135607
 20
-132.7374619893851
 10
99.29798717135607
 20
-132.7374619893851
 10
99.29798717135607
 20
-132.7374619893851
 10
100.8424234773936
 20
-132.7374619893851
 10
100.8424234773936
 20
-132.7374619893851
 10
100.8424234773936
 20
-132.7374619893851
 10
100.8424234773936
 20
-132.9772406351585
 10
100.8424234773936
 20
-132.9772406351585
 97
        0
 97
        0
 75
     2
 76
     1
 98
        0
  0
ENDBLK
  5
C4
330
C1
100
AcDbEntity
  8
0
100
AcDbBlockEnd
  0
BLOCK
  5
CB
330
C9
100
AcDbEntity
  8
0
100
AcDbBlockBegin
  2
block 6
 70
     0
 10
0.0
 20
0.0
 30
0.0
  3
block 6
  1

  0
SPLINE
  5
CD
330
C9
100
AcDbEntity
  8
_U+30EC_U+30A4_U+30E4_U+30FC 1
370
     0
100
AcDbSpline
210
0.0
220
0.0
230
1.0
 70
    11
 71
     3
 72
    26
 73
    22
 74
     0
 42
0.0000000001
 43
0.0000000001
 12
1.0
 22
0.0
 32
0.0
 13
1.0
 23
0.0
 33
0.0
 40
0.0
 40
0.0
 40
0.0
 40
0.0
 40
1.0
 40
1.0
 40
1.0
 40
2.0
 40
2.0
 40
2.0
 40
3.0
 40
3.0
 40
3.0
 40
4.0
 40
4.0
 40
4.0
 40
5.0
 40
5.0
 40
5.0
 40
6.0
 40
6.0
 40
6.0
 40
7.0
 40
7.0
 40
7.0
 40
7.0
 10
79.1598537671024
 20
-128.8165988176222
 30
0.0
 10
79.1598537671024
 20
-128.8165988176222
 30
0.0
 10
79.1598537671024
 20
-127.7121012050511
 30
0.0
 10
79.1598537671024
 20
-127.7121012050511
 30
0.0
 10
79.1598537671024
 20
-127.7121012050511
 30
0.0
 10
78.82981361961546
 20
-127.7121012050511
 30
0.0
 10
78.82981361961546
 20
-127.7121012050511
 30
0.0
 10
78.82981361961546
 20
-127.7121012050511
 30
0.0
 10
78.82981361961546
 20
-127.5639620991854
 30
0.0
 10
78.82981361961546
 20
-127.5639620991854
 30
0.0
 10
79.16192082439355
 20
-127.5493204433731
 30
0.0
 10
79.20842961344442
 20
-127.3863674269208
 30
0.0
 10
79.23805743461757
 20
-127.2721625115847
 30
0.0
 10
79.23805743461757
 20
-127.2721625115847
 30
0.0
 10
79.38412948319217
 20
-127.2721625115847
 30
0.0
 10
79.38412948319217
 20
-127.2721625115847
 30
0.0
 10
79.38412948319217
 20
-127.2721625115847
 30
0.0
 10
79.38412948319217
 20
-128.8165988176222
 30
0.0
 10
79.38412948319217
 20
-128.8165988176222
 30
0.0
 10
79.38412948319217
 20
-128.8165988176222
 30
0.0
 10
79.1598537671024
 20
-128.8165988176222
 30
0.0
 10
79.1598537671024
 20
-128.8165988176222
 30
0.0
  0
HATCH
  5
CE
330
C9
100
AcDbEntity
  8
_U+30EC_U+30A4_U+30E4_U+30FC 1
 62
   179
420
  2234388
100
AcDbHatch
 10
0.0
 20
0.0
 30
0.0
210
0.0
220
0.0
230
1.0
  2
SOLID
 70
     1
 71
     0
 91
        1
 92
        1
 93
        1
 72
     4
 94
        3
 73
     0
 74
     1
 95
       26
 96
       22
 40
0.0
 40
0.0
 40
0.0
 40
0.0
 40
1.0
 40
1.0
 40
1.0
 40
2.0
 40
2.0
 40
2.0
 40
3.0
 40
3.0
 40
3.0
 40
4.0
 40
4.0
 40
4.0
 40
5.0
 40
5.0
 40
5.0
 40
6.0
 40
6.0
 40
6.0
 40
7.0
 40
7.0
 40
7.0
 40
7.0
 10
79.1598537671024
 20
-128.8165988176222
 10
79.1598537671024
 20
-128.8165988176222
 10
79.1598537671024
 20
-127.7121012050511
 10
79.1598537671024
 20
-127.7121012050511
 10
79.1598537671024
 20
-127.7121012050511
 10
78.82981361961546
 20
-127.7121012050511
 10
78.82981361961546
 20
-127.7121012050511
 10
78.82981361961546
 20
-127.7121012050511
 10
78.82981361961546
 20
-127.5639620991854
 10
78.82981361961546
 20
-127.5639620991854
 10
79.16192082439355
 20
-127.5493204433731
 10
79.20842961344442
 20
-127.3863674269208
 10
79.23805743461757
 20
-127.2721625115847
 10
79.23805743461757
 20
-127.2721625115847
 10
79.38412948319217
 20
-127.2721625115847
 10
79.38412948319217
 20
-127.2721625115847
 10
79.38412948319217
 20
-127.2721625115847
 10
79.38412948319217
 20
-128.8165988176222
 10
79.38412948319217
 20
-128.8165988176222
 10
79.38412948319217
 20
-128.8165988176222
 10
79.1598537671024
 20
-128.8165988176222
 10
79.1598537671024
 20
-128.8165988176222
 97
        0
 97
        0
 75
     2
 76
     1
 98
        0
  0
ENDBLK
  5
CC
330
C9
100
AcDbEntity
  8
0
100
AcDbBlockEnd
  0
ENDSEC
  0
SECTION
  2
ENTITIES
  0
SPLINE
  5
41
330
1F
100
AcDbEntity
  8
_U+30EC_U+30A4_U+30E4_U+30FC 1
370
     0
100
AcDbSpline
210
0.0
220
0.0
230
1.0
 70
    11
 71
     3
 72
    44
 73
    40
 74
     0
 42
0.0000000001
 43
0.0000000001
 12
1.0
 22
0.0
 32
0.0
 13
1.0
 23
0.0
 33
0.0
 40
0.0
 40
0.0
 40
0.0
 40
0.0
 40
1.0
 40
1.0
 40
1.0
 40
2.0
 40
2.0
 40
2.0
 40
3.0
 40
3.0
 40
3.0
 40
4.0
 40
4.0
 40
4.0
 40
5.0
 40
5.0
 40
5.0
 40
6.0
 40
6.0
 40
6.0
 40
7.0
 40
7.0
 40
7.0
 40
8.0
 40
8.0
 40
8.0
 40
9.0
 40
9.0
 40
9.0
 40
10.0
 40
10.0
 40
10.0
 40
11.0
 40
11.0
 40
11.0
 40
12.0
 40
12.0
 40
12.0
 40
13.0
 40
13.0
 40
13.0
 40
13.0
 10
97.82555750426211
 20
-132.9610624667594
 30
0.0
 10
97.82555750426211
 20
-132.9610624667594
 30
0.0
 10
88.32535802441016
 20
-132.9610624667594
 30
0.0
 10
88.32535802441016
 20
-132.9610624667594
 30
0.0
 10
88.14688775118555
 20
-132.6516763557262
 30
0.0
 10
87.81686414849403
 20
-132.4614938557737
 30
0.0
 10
87.45996108924601
 20
-132.4614938557737
 30
0.0
 10
87.45996108924601
 20
-132.4614938557737
 30
0.0
 10
81.32561209187745
 20
-132.4614938557737
 30
0.0
 10
81.32561209187745
 20
-132.4614938557737
 30
0.0
 10
81.32561209187745
 20
-132.4614938557737
 30
0.0
 10
81.32561209187745
 20
-125.9613163573985
 30
0.0
 10
81.32561209187745
 20
-125.9613163573985
 30
0.0
 10
81.32561209187745
 20
-125.9613163573985
 30
0.0
 10
88.32535802441016
 20
-125.9613163573985
 30
0.0
 10
88.32535802441016
 20
-125.9613163573985
 30
0.0
 10
88.32535802441016
 20
-125.9613163573985
 30
0.0
 10
88.32535802441016
 20
-125.3611708019932
 30
0.0
 10
88.32535802441016
 20
-125.3611708019932
 30
0.0
 10
88.32535802441016
 20
-125.3611708019932
 30
0.0
 10
86.31547724235317
 20
-125.1606519131544
 30
0.0
 10
86.31547724235317
 20
-125.1606519131544
 30
0.0
 10
84.98981108986372
 20
-125.0276899687431
 30
0.0
 10
83.65793175459724
 20
-124.9615441354263
 30
0.0
 10
82.32605456635403
 20
-124.9615441354263
 30
0.0
 10
82.32605456635403
 20
-124.9615441354263
 30
0.0
 10
80.32583989516154
 20
-124.9615441354263
 30
0.0
 10
80.32583989516154
 20
-124.9615441354263
 30
0.0
 10
80.32583989516154
 20
-124.9615441354263
 30
0.0
 10
80.32583989516154
 20
-132.6613424668345
 30
0.0
 10
80.32583989516154
 20
-132.6613424668345
 30
0.0
 10
80.32583989516154
 20
-133.1029849667245
 30
0.0
 10
80.68412099713214
 20
-133.4612660777456
 30
0.0
 10
81.12579876364178
 20
-133.4612660777456
 30
0.0
 10
81.12579876364178
 20
-133.4612660777456
 30
0.0
 10
98.32579638038884
 20
-133.4612660777456
 30
0.0
 10
98.32579638038884
 20
-133.4612660777456
 30
0.0
 10
98.32579638038884
 20
-133.1849705222592
 30
0.0
 10
98.10185553103035
 20
-132.9610624667594
 30
0.0
 10
97.82555750426211
 20
-132.9610624667594
 30
0.0
  0
HATCH
  5
42
330
1F
100
AcDbEntity
  8
_U+30EC_U+30A4_U+30E4_U+30FC 1
 62
   253
420
 11711154
100
AcDbHatch
 10
0.0
 20
0.0
 30
0.0
210
0.0
220
0.0
230
1.0
  2
SOLID
 70
     1
 71
     0
 91
        1
 92
        1
 93
        1
 72
     4
 94
        3
 73
     0
 74
     1
 95
       44
 96
       40
 40
0.0
 40
0.0
 40
0.0
 40
0.0
 40
1.0
 40
1.0
 40
1.0
 40
2.0
 40
2.0
 40
2.0
 40
3.0
 40
3.0
 40
3.0
 40
4.0
 40
4.0
 40
4.0
 40
5.0
 40
5.0
 40
5.0
 40
6.0
 40
6.0
 40
6.0
 40
7.0
 40
7.0
 40
7.0
 40
8.0
 40
8.0
 40
8.0
 40
9.0
 40
9.0
 40
9.0
 40
10.0
 40
10.0
 40
10.0
 40
11.0
 40
11.0
 40
11.0
 40
12.0
 40
12.0
 40
12.0
 40
13.0
 40
13.0
 40
13.0
 40
13.0
 10
97.82555750426211
 20
-132.9610624667594
 10
97.82555750426211
 20
-132.9610624667594
 10
88.32535802441016
 20
-132.9610624667594
 10
88.32535802441016
 20
-132.9610624667594
 10
88.14688775118555
 20
-132.6516763557262
 10
87.81686414849403
 20
-132.4614938557737
 10
87.45996108924601
 20
-132.4614938557737
 10
87.45996108924601
 20
-132.4614938557737
 10
81.32561209187745
 20
-132.4614938557737
 10
81.32561209187745
 20
-132.4614938557737
 10
81.32561209187745
 20
-132.4614938557737
 10
81.32561209187745
 20
-125.9613163573985
 10
81.32561209187745
 20
-125.9613163573985
 10
81.32561209187745
 20
-125.9613163573985
 10
88.32535802441016
 20
-125.9613163573985
 10
88.32535802441016
 20
-125.9613163573985
 10
88.32535802441016
 20
-125.9613163573985
 10
88.32535802441016
 20
-125.3611708019932
 10
88.32535802441016
 20
-125.3611708019932
 10
88.32535802441016
 20
-125.3611708019932
 10
86.31547724235317
 20
-125.1606519131544
 10
86.31547724235317
 20
-125.1606519131544
 10
84.98981108986372
 20
-125.0276899687431
 10
83.65793175459724
 20
-124.9615441354263
 10
82.32605456635403
 20
-124.9615441354263
 10
82.32605456635403
 20
-124.9615441354263
 10
80.32583989516154
 20
-124.9615441354263
 10
80.32583989516154
 20
-124.9615441354263
 10
80.32583989516154
 20
-124.9615441354263
 10
80.32583989516154
 20
-132.6613424668345
 10
80.32583989516154
 20
-132.6613424668345
 10
80.32583989516154
 20
-133.1029849667245
 10
80.68412099713214
 20
-133.4612660777456
 10
81.12579876364178
 20
-133.4612660777456
 10
81.12579876364178
 20
-133.4612660777456
 10
98.32579638038884
 20
-133.4612660777456
 10
98.32579638038884
 20
-133.4612660777456
 10
98.32579638038884
 20
-133.1849705222592
 10
98.10185553103035
 20
-132.9610624667594
 10
97.82555750426211
 20
-132.9610624667594
 97
        0
 97
        0
 75
     2
 76
     1
 98
        0
  0
POLYLINE
  5
43
330
1F
100
AcDbEntity
  8
_U+30EC_U+30A4_U+30E4_U+30FC 1
 62
   179
420
  2234388
370
    25
100
AcDb2dPolyline
 66
     1
 10
0.0
 20
0.0
 30
0.0
  0
VERTEX
  5
44
330
43
100
AcDbEntity
  8
_U+30EC_U+30A4_U+30E4_U+30FC 1
 62
   179
420
  2234388
370
    25
100
AcDbVertex
100
AcDb2dVertex
 10
81.32561209187745
 20
-125.9613163573985
 30
0.0
  0
VERTEX
  5
45
330
43
100
AcDbEntity
  8
_U+30EC_U+30A4_U+30E4_U+30FC 1
 62
   179
420
  2234388
370
    25
100
AcDbVertex
100
AcDb2dVertex
 10
88.32535802441016
 20
-125.9613163573985
 30
0.0
  0
SEQEND
  5
46
330
43
100
AcDbEntity
  8
_U+30EC_U+30A4_U+30E4_U+30FC 1
 62
   179
420
  2234388
370
    25
  0
POLYLINE
  5
47
330
1F
100
AcDbEntity
  8
_U+30EC_U+30A4_U+30E4_U+30FC 1
 62
   179
420
  2234388
370
    25
100
AcDb2dPolyline
 66
     1
 10
0.0
 20
0.0
 30
0.0
  0
VERTEX
  5
48
330
47
100
AcDbEntity
  8
_U+30EC_U+30A4_U+30E4_U+30FC 1
 62
   179
420
  2234388
370
    25
100
AcDbVertex
100
AcDb2dVertex
 10
80.32583989516154
 20
-124.9615441354263
 30
0.0
  0
VERTEX
  5
49
330
47
100
AcDbEntity
  8
_U+30EC_U+30A4_U+30E4_U+30FC 1
 62
   179
420
  2234388
370
    25
100
AcDbVertex
100
AcDb2dVertex
 10
82.32605456635403
 20
-124.9615441354263
 30
0.0
  0
SEQEND
  5
4A
330
47
100
AcDbEntity
  8
_U+30EC_U+30A4_U+30E4_U+30FC 1
 62
   179
420
  2234388
370
    25
  0
POLYLINE
  5
4B
330
1F
100
AcDbEntity
  8
_U+30EC_U+30A4_U+30E4_U+30FC 1
 62
   179
420
  2234388
370
    25
100
AcDb2dPolyline
 66
     1
 10
0.0
 20
0.0
 30
0.0
  0
VERTEX
  5
4C
330
4B
100
AcDbEntity
  8
_U+30EC_U+30A4_U+30E4_U+30FC 1
 62
   179
420
  2234388
370
    25
100
AcDbVertex
100
AcDb2dVertex
 10
81.32561209187745
 20
-132.4614938557737
 30
0.0
  0
VERTEX
  5
4D
330
4B
100
AcDbEntity
  8
_U+30EC_U+30A4_U+30E4_U+30FC 1
 62
   179
420
  2234388
370
    25
100
AcDbVertex
100
AcDb2dVertex
 10
87.45996108924601
 20
-132.4614938557737
 30
0.0
  0
SEQEND
  5
4E
330
4B
100
AcDbEntity
  8
_U+30EC_U+30A4_U+30E4_U+30FC 1
 62
   179
420
  2234388
370
    25
  0
POLYLINE
  5
4F
330
1F
100
AcDbEntity
  8
_U+30EC_U+30A4_U+30E4_U+30FC 1
 62
   179
420
  2234388
370
    25
100
AcDb2dPolyline
 66
     1
 10
0.0
 20
0.0
 30
0.0
  0
VERTEX
  5
50
330
4F
100
AcDbEntity
  8
_U+30EC_U+30A4_U+30E4_U+30FC 1
 62
   179
420
  2234388
370
    25
100
AcDbVertex
100
AcDb2dVertex
 10
81.12579876364178
 20
-133.4612660777456
 30
0.0
  0
VERTEX
  5
51
330
4F
100
AcDbEntity
  8
_U+30EC_U+30A4_U+30E4_U+30FC 1
 62
   179
420
  2234388
370
    25
100
AcDbVertex
100
AcDb2dVertex
 10
98.32579638038884
 20
-133.4612660777456
 30
0.0
  0
SEQEND
  5
52
330
4F
100
AcDbEntity
  8
_U+30EC_U+30A4_U+30E4_U+30FC 1
 62
   179
420
  2234388
370
    25
  0
POLYLINE
  5
53
330
1F
100
AcDbEntity
  8
_U+30EC_U+30A4_U+30E4_U+30FC 1
 62
   179
420
  2234388
370
    25
100
AcDb2dPolyline
 66
     1
 10
0.0
 20
0.0
 30
0.0
  0
VERTEX
  5
54
330
53
100
AcDbEntity
  8
_U+30EC_U+30A4_U+30E4_U+30FC 1
 62
   179
420
  2234388
370
    25
100
AcDbVertex
100
AcDb2dVertex
 10
88.32535802441016
 20
-125.3611708019932
 30
0.0
  0
VERTEX
  5
55
330
53
100
AcDbEntity
  8
_U+30EC_U+30A4_U+30E4_U+30FC 1
 62
   179
420
  2234388
370
    25
100
AcDbVertex
100
AcDb2dVertex
 10
88.32535802441016
 20
-125.9613163573985
 30
0.0
  0
SEQEND
  5
56
330
53
100
AcDbEntity
  8
_U+30EC_U+30A4_U+30E4_U+30FC 1
 62
   179
420
  2234388
370
    25
  0
POLYLINE
  5
57
330
1F
100
AcDbEntity
  8
_U+30EC_U+30A4_U+30E4_U+30FC 1
 62
   179
420
  2234388
370
    25
100
AcDb2dPolyline
 66
     1
 10
0.0
 20
0.0
 30
0.0
  0
VERTEX
  5
58
330
57
100
AcDbEntity
  8
_U+30EC_U+30A4_U+30E4_U+30FC 1
 62
   179
420
  2234388
370
    25
100
AcDbVertex
100
AcDb2dVertex
 10
80.32583989516154
 20
-124.9615441354263
 30
0.0
  0
VERTEX
  5
59
330
57
100
AcDbEntity
  8
_U+30EC_U+30A4_U+30E4_U+30FC 1
 62
   179
420
  2234388
370
    25
100
AcDbVertex
100
AcDb2dVertex
 10
80.32583989516154
 20
-132.6613424668345
 30
0.0
  0
SEQEND
  5
5A
330
57
100
AcDbEntity
  8
_U+30EC_U+30A4_U+30E4_U+30FC 1
 62
   179
420
  2234388
370
    25
  0
POLYLINE
  5
5B
330
1F
100
AcDbEntity
  8
_U+30EC_U+30A4_U+30E4_U+30FC 1
 62
   179
420
  2234388
370
    25
100
AcDb2dPolyline
 66
     1
 10
0.0
 20
0.0
 30
0.0
  0
VERTEX
  5
5C
330
5B
100
AcDbEntity
  8
_U+30EC_U+30A4_U+30E4_U+30FC 1
 62
   179
420
  2234388
370
    25
100
AcDbVertex
100
AcDb2dVertex
 10
81.32561209187745
 20
-125.9613163573985
 30
0.0
  0
VERTEX
  5
5D
330
5B
100
AcDbEntity
  8
_U+30EC_U+30A4_U+30E4_U+30FC 1
 62
   179
420
  2234388
370
    25
100
AcDbVertex
100
AcDb2dVertex
 10
81.32561209187745
 20
-132.4614938557737
 30
0.0
  0
SEQEND
  5
5E
330
5B
100
AcDbEntity
  8
_U+30EC_U+30A4_U+30E4_U+30FC 1
 62
   179
420
  2234388
370
    25
  0
POLYLINE
  5
5F
330
1F
100
AcDbEntity
  8
_U+30EC_U+30A4_U+30E4_U+30FC 1
 62
   179
420
  2234388
370
    25
100
AcDb2dPolyline
 66
     1
 10
0.0
 20
0.0
 30
0.0
  0
VERTEX
  5
60
330
5F
100
AcDbEntity
  8
_U+30EC_U+30A4_U+30E4_U+30FC 1
 62
   179
420
  2234388
370
    25
100
AcDbVertex
100
AcDb2dVertex
 10
86.31547724235317
 20
-125.1606519131544
 30
0.0
  0
VERTEX
  5
61
330
5F
100
AcDbEntity
  8
_U+30EC_U+30A4_U+30E4_U+30FC 1
 62
   179
420
  2234388
370
    25
100
AcDbVertex
100
AcDb2dVertex
 10
88.32535802441016
 20
-125.3611708019932
 30
0.0
  0
SEQEND
  5
62
330
5F
100
AcDbEntity
  8
_U+30EC_U+30A4_U+30E4_U+30FC 1
 62
   179
420
  2234388
370
    25
  0
POLYLINE
  5
63
330
1F
100
AcDbEntity
  8
_U+30EC_U+30A4_U+30E4_U+30FC 1
 62
   179
420
  2234388
370
    25
100
AcDb2dPolyline
 66
     1
 10
0.0
 20
0.0
 30
0.0
  0
VERTEX
  5
64
330
63
100
AcDbEntity
  8
_U+30EC_U+30A4_U+30E4_U+30FC 1
 62
   179
420
  2234388
370
    25
100
AcDbVertex
100
AcDb2dVertex
 10
88.32535802441016
 20
-132.9610624667594
 30
0.0
  0
VERTEX
  5
65
330
63
100
AcDbEntity
  8
_U+30EC_U+30A4_U+30E4_U+30FC 1
 62
   179
420
  2234388
370
    25
100
AcDbVertex
100
AcDb2dVertex
 10
97.82555750426211
 20
-132.9610624667594
 30
0.0
  0
SEQEND
  5
66
330
63
100
AcDbEntity
  8
_U+30EC_U+30A4_U+30E4_U+30FC 1
 62
   179
420
  2234388
370
    25
  0
SPLINE
  5
67
330
1F
100
AcDbEntity
  8
_U+30EC_U+30A4_U+30E4_U+30FC 1
 62
   179
420
  2234388
370
    25
100
AcDbSpline
210
0.0
220
0.0
230
1.0
 70
     8
 71
     3
 72
     8
 73
     4
 74
     0
 42
0.0000000001
 43
0.0000000001
 12
1.0
 22
0.0
 32
0.0
 13
1.0
 23
0.0
 33
0.0
 40
0.0
 40
0.0
 40
0.0
 40
0.0
 40
1.0
 40
1.0
 40
1.0
 40
1.0
 10
80.32583989516154
 20
-132.6613424668345
 30
0.0
 10
80.32583989516154
 20
-133.1029849667245
 30
0.0
 10
80.68412099713214
 20
-133.4612660777456
 30
0.0
 10
81.12579876364178
 20
-133.4612660777456
 30
0.0
  0
SPLINE
  5
68
330
1F
100
AcDbEntity
  8
_U+30EC_U+30A4_U+30E4_U+30FC 1
 62
   179
420
  2234388
370
    25
100
AcDbSpline
210
0.0
220
0.0
230
1.0
 70
     8
 71
     3
 72
     8
 73
     4
 74
     0
 42
0.0000000001
 43
0.0000000001
 12
1.0
 22
0.0
 32
0.0
 13
1.0
 23
0.0
 33
0.0
 40
0.0
 40
0.0
 40
0.0
 40
0.0
 40
1.0
 40
1.0
 40
1.0
 40
1.0
 10
98.32579638038884
 20
-133.4612660777456
 30
0.0
 10
98.32579638038884
 20
-133.1849705222592
 30
0.0
 10
98.10185553103035
 20
-132.9610624667594
 30
0.0
 10
97.82555750426211
 20
-132.9610624667594
 30
0.0
  0
SPLINE
  5
69
330
1F
100
AcDbEntity
  8
_U+30EC_U+30A4_U+30E4_U+30FC 1
 62
   179
420
  2234388
370
    25
100
AcDbSpline
210
0.0
220
0.0
230
1.0
 70
     8
 71
     3
 72
     8
 73
     4
 74
     0
 42
0.0000000001
 43
0.0000000001
 12
1.0
 22
0.0
 32
0.0
 13
1.0
 23
0.0
 33
0.0
 40
0.0
 40
0.0
 40
0.0
 40
0.0
 40
1.0
 40
1.0
 40
1.0
 40
1.0
 10
88.32535802441016
 20
-132.9610624667594
 30
0.0
 10
88.14688775118555
 20
-132.6516763557262
 30
0.0
 10
87.81686414849403
 20
-132.4614938557737
 30
0.0
 10
87.45996108924601
 20
-132.4614938557737
 30
0.0
  0
SPLINE
  5
6A
330
1F
100
AcDbEntity
  8
_U+30EC_U+30A4_U+30E4_U+30FC 1
 62
   179
420
  2234388
370
    25
100
AcDbSpline
210
0.0
220
0.0
230
1.0
 70
     8
 71
     3
 72
     8
 73
     4
 74
     0
 42
0.0000000001
 43
0.0000000001
 12
1.0
 22
0.0
 32
0.0
 13
1.0
 23
0.0
 33
0.0
 40
0.0
 40
0.0
 40
0.0
 40
0.0
 40
1.0
 40
1.0
 40
1.0
 40
1.0
 10
86.31547724235317
 20
-125.1606519131544
 30
0.0
 10
84.98981108986372
 20
-125.0276899687431
 30
0.0
 10
83.65793175459724
 20
-124.9615441354263
 30
0.0
 10
82.32605456635403
 20
-124.9615441354263
 30
0.0
  0
SPLINE
  5
6B
330
1F
100
AcDbEntity
  8
_U+30EC_U+30A4_U+30E4_U+30FC 1
 62
   179
420
  2234388
370
     9
100
AcDbSpline
210
0.0
220
0.0
230
1.0
 70
    11
 71
     3
 72
    17
 73
    13
 74
     0
 42
0.0000000001
 43
0.0000000001
 12
1.0
 22
0.0
 32
0.0
 13
1.0
 23
0.0
 33
0.0
 40
0.0
 40
0.0
 40
0.0
 40
0.0
 40
1.0
 40
1.0
 40
1.0
 40
2.0
 40
2.0
 40
2.0
 40
3.0
 40
3.0
 40
3.0
 40
4.0
 40
4.0
 40
4.0
 40
4.0
 10
80.42574655927937
 20
-120.9610794142042
 30
0.0
 10
80.42574655927937
 20
-120.905975525329
 30
0.0
 10
80.3809790604215
 20
-120.8611727475626
 30
0.0
 10
80.32583989516154
 20
-120.8611727475626
 30
0.0
 10
80.27073600767847
 20
-120.8611727475626
 30
0.0
 10
80.22593323104371
 20
-120.905975525329
 30
0.0
 10
80.22593323104371
 20
-120.9610794142042
 30
0.0
 10
80.22593323104371
 20
-121.0168888586347
 30
0.0
 10
80.27073600767847
 20
-121.0616916364014
 30
0.0
 10
80.32583989516154
 20
-121.0616916364014
 30
0.0
 10
80.3809790604215
 20
-121.0616916364014
 30
0.0
 10
80.42574655927937
 20
-121.0168888586347
 30
0.0
 10
80.42574655927937
 20
-120.9610794142042
 30
0.0
  0
SPLINE
  5
6C
330
1F
100
AcDbEntity
  8
_U+30EC_U+30A4_U+30E4_U+30FC 1
 62
   179
420
  2234388
370
     9
100
AcDbSpline
210
0.0
220
0.0
230
1.0
 70
    11
 71
     3
 72
    17
 73
    13
 74
     0
 42
0.0000000001
 43
0.0000000001
 12
1.0
 22
0.0
 32
0.0
 13
1.0
 23
0.0
 33
0.0
 40
0.0
 40
0.0
 40
0.0
 40
0.0
 40
1.0
 40
1.0
 40
1.0
 40
2.0
 40
2.0
 40
2.0
 40
3.0
 40
3.0
 40
3.0
 40
4.0
 40
4.0
 40
4.0
 40
4.0
 10
88.42597024406555
 20
-120.9610794142042
 30
0.0
 10
88.42597024406555
 20
-120.905975525329
 30
0.0
 10
88.38116746743079
 20
-120.8611727475626
 30
0.0
 10
88.32535802441016
 20
-120.8611727475626
 30
0.0
 10
88.27021885915022
 20
-120.8611727475626
 30
0.0
 10
88.22545136029233
 20
-120.905975525329
 30
0.0
 10
88.22545136029233
 20
-120.9610794142042
 30
0.0
 10
88.22545136029233
 20
-121.0168888586347
 30
0.0
 10
88.27021885915022
 20
-121.0616916364014
 30
0.0
 10
88.32535802441016
 20
-121.0616916364014
 30
0.0
 10
88.38116746743079
 20
-121.0616916364014
 30
0.0
 10
88.42597024406555
 20
-121.0168888586347
 30
0.0
 10
88.42597024406555
 20
-120.9610794142042
 30
0.0
  0
SPLINE
  5
6D
330
1F
100
AcDbEntity
  8
_U+30EC_U+30A4_U+30E4_U+30FC 1
 62
   179
420
  2234388
370
     9
100
AcDbSpline
210
0.0
220
0.0
230
1.0
 70
    11
 71
     3
 72
    17
 73
    13
 74
     0
 42
0.0000000001
 43
0.0000000001
 12
1.0
 22
0.0
 32
0.0
 13
1.0
 23
0.0
 33
0.0
 40
0.0
 40
0.0
 40
0.0
 40
0.0
 40
1.0
 40
1.0
 40
1.0
 40
2.0
 40
2.0
 40
2.0
 40
3.0
 40
3.0
 40
3.0
 40
4.0
 40
4.0
 40
4.0
 40
4.0
 10
102.2442401693099
 20
-125.9613163573985
 30
0.0
 10
102.2442401693099
 20
-125.9061771907458
 30
0.0
 10
102.1994373926751
 20
-125.8614096907569
 30
0.0
 10
102.1443360855749
 20
-125.8614096907569
 30
0.0
 10
102.0891943399321
 20
-125.8614096907569
 30
0.0
 10
102.0444268410742
 20
-125.9061771907458
 30
0.0
 10
102.0444268410742
 20
-125.9613163573985
 30
0.0
 10
102.0444268410742
 20
-126.0164202462738
 30
0.0
 10
102.0891943399321
 20
-126.0612230240402
 30
0.0
 10
102.1443360855749
 20
-126.0612230240402
 30
0.0
 10
102.1994373926751
 20
-126.0612230240402
 30
0.0
 10
102.2442401693099
 20
-126.0164202462738
 30
0.0
 10
102.2442401693099
 20
-125.9613163573985
 30
0.0
  0
SPLINE
  5
6E
330
1F
100
AcDbEntity
  8
_U+30EC_U+30A4_U+30E4_U+30FC 1
 62
   179
420
  2234388
370
     9
100
AcDbSpline
210
0.0
220
0.0
230
1.0
 70
    11
 71
     3
 72
    17
 73
    13
 74
     0
 42
0.0000000001
 43
0.0000000001
 12
1.0
 22
0.0
 32
0.0
 13
1.0
 23
0.0
 33
0.0
 40
0.0
 40
0.0
 40
0.0
 40
0.0
 40
1.0
 40
1.0
 40
1.0
 40
2.0
 40
2.0
 40
2.0
 40
3.0
 40
3.0
 40
3.0
 40
4.0
 40
4.0
 40
4.0
 40
4.0
 10
102.2442401693099
 20
-132.4614938557737
 30
0.0
 10
102.2442401693099
 20
-132.4063899668982
 30
0.0
 10
102.1994373926751
 20
-132.3615871891321
 30
0.0
 10
102.1443360855749
 20
-132.3615871891321
 30
0.0
 10
102.0891943399321
 20
-132.3615871891321
 30
0.0
 10
102.0444268410742
 20
-132.4063899668982
 30
0.0
 10
102.0444268410742
 20
-132.4614938557737
 30
0.0
 10
102.0444268410742
 20
-132.5166330224262
 30
0.0
 10
102.0891943399321
 20
-132.5614005224154
 30
0.0
 10
102.1443360855749
 20
-132.5614005224154
 30
0.0
 10
102.1994373926751
 20
-132.5614005224154
 30
0.0
 10
102.2442401693099
 20
-132.5166330224262
 30
0.0
 10
102.2442401693099
 20
-132.4614938557737
 30
0.0
  0
SPLINE
  5
6F
330
1F
100
AcDbEntity
  8
_U+30EC_U+30A4_U+30E4_U+30FC 1
 62
   179
420
  2234388
370
     9
100
AcDbSpline
210
0.0
220
0.0
230
1.0
 70
    11
 71
     3
 72
    17
 73
    13
 74
     0
 42
0.0000000001
 43
0.0000000001
 12
1.0
 22
0.0
 32
0.0
 13
1.0
 23
0.0
 33
0.0
 40
0.0
 40
0.0
 40
0.0
 40
0.0
 40
1.0
 40
1.0
 40
1.0
 40
2.0
 40
2.0
 40
2.0
 40
3.0
 40
3.0
 40
3.0
 40
4.0
 40
4.0
 40
4.0
 40
4.0
 10
80.42574655927937
 20
-137.4620835767458
 30
0.0
 10
80.42574655927937
 20
-137.406591632315
 30
0.0
 10
80.3809790604215
 20
-137.3618241323264
 30
0.0
 10
80.32583989516154
 20
-137.3618241323264
 30
0.0
 10
80.27073600767847
 20
-137.3618241323264
 30
0.0
 10
80.22593323104371
 20
-137.406591632315
 30
0.0
 10
80.22593323104371
 20
-137.4620835767458
 30
0.0
 10
80.22593323104371
 20
-137.5171874656207
 30
0.0
 10
80.27073600767847
 20
-137.5619902433874
 30
0.0
 10
80.32583989516154
 20
-137.5619902433874
 30
0.0
 10
80.3809790604215
 20
-137.5619902433874
 30
0.0
 10
80.42574655927937
 20
-137.5171874656207
 30
0.0
 10
80.42574655927937
 20
-137.4620835767458
 30
0.0
  0
SPLINE
  5
70
330
1F
100
AcDbEntity
  8
_U+30EC_U+30A4_U+30E4_U+30FC 1
 62
   179
420
  2234388
370
     9
100
AcDbSpline
210
0.0
220
0.0
230
1.0
 70
    11
 71
     3
 72
    17
 73
    13
 74
     0
 42
0.0000000001
 43
0.0000000001
 12
1.0
 22
0.0
 32
0.0
 13
1.0
 23
0.0
 33
0.0
 40
0.0
 40
0.0
 40
0.0
 40
0.0
 40
1.0
 40
1.0
 40
1.0
 40
2.0
 40
2.0
 40
2.0
 40
3.0
 40
3.0
 40
3.0
 40
4.0
 40
4.0
 40
4.0
 40
4.0
 10
98.42570553094927
 20
-137.4620835767458
 30
0.0
 10
98.42570553094927
 20
-137.406591632315
 30
0.0
 10
98.38090275318255
 20
-137.3618241323264
 30
0.0
 10
98.32579638038884
 20
-137.3618241323264
 30
0.0
 10
98.27065721512889
 20
-137.3618241323264
 30
0.0
 10
98.22585443849412
 20
-137.406591632315
 30
0.0
 10
98.22585443849412
 20
-137.4620835767458
 30
0.0
 10
98.22585443849412
 20
-137.5171874656207
 30
0.0
 10
98.27065721512889
 20
-137.5619902433874
 30
0.0
 10
98.32579638038884
 20
-137.5619902433874
 30
0.0
 10
98.38090275318255
 20
-137.5619902433874
 30
0.0
 10
98.42570553094927
 20
-137.5171874656207
 30
0.0
 10
98.42570553094927
 20
-137.4620835767458
 30
0.0
  0
POLYLINE
  5
71
330
1F
100
AcDbEntity
  8
_U+30EC_U+30A4_U+30E4_U+30FC 1
 62
   179
420
  2234388
370
     9
100
AcDb2dPolyline
 66
     1
 10
0.0
 20
0.0
 30
0.0
  0
VERTEX
  5
72
330
71
100
AcDbEntity
  8
_U+30EC_U+30A4_U+30E4_U+30FC 1
 62
   179
420
  2234388
370
     9
100
AcDbVertex
100
AcDb2dVertex
 10
80.32583989516154
 20
-120.9610794142042
 30
0.0
  0
VERTEX
  5
73
330
71
100
AcDbEntity
  8
_U+30EC_U+30A4_U+30E4_U+30FC 1
 62
   179
420
  2234388
370
     9
100
AcDbVertex
100
AcDb2dVertex
 10
88.32535802441016
 20
-120.9610794142042
 30
0.0
  0
SEQEND
  5
74
330
71
100
AcDbEntity
  8
_U+30EC_U+30A4_U+30E4_U+30FC 1
 62
   179
420
  2234388
370
     9
  0
POLYLINE
  5
75
330
1F
100
AcDbEntity
  8
_U+30EC_U+30A4_U+30E4_U+30FC 1
 62
   179
420
  2234388
370
     9
100
AcDb2dPolyline
 66
     1
 10
0.0
 20
0.0
 30
0.0
  0
VERTEX
  5
76
330
75
100
AcDbEntity
  8
_U+30EC_U+30A4_U+30E4_U+30FC 1
 62
   179
420
  2234388
370
     9
100
AcDbVertex
100
AcDb2dVertex
 10
80.32583989516154
 20
-122.4211208027279
 30
0.0
  0
VERTEX
  5
77
330
75
100
AcDbEntity
  8
_U+30EC_U+30A4_U+30E4_U+30FC 1
 62
   179
420
  2234388
370
     9
100
AcDbVertex
100
AcDb2dVertex
 10
80.32583989516154
 20
-119.9613424700095
 30
0.0
  0
SEQEND
  5
78
330
75
100
AcDbEntity
  8
_U+30EC_U+30A4_U+30E4_U+30FC 1
 62
   179
420
  2234388
370
     9
  0
POLYLINE
  5
79
330
1F
100
AcDbEntity
  8
_U+30EC_U+30A4_U+30E4_U+30FC 1
 62
   179
420
  2234388
370
     9
100
AcDb2dPolyline
 66
     1
 10
0.0
 20
0.0
 30
0.0
  0
VERTEX
  5
7A
330
79
100
AcDbEntity
  8
_U+30EC_U+30A4_U+30E4_U+30FC 1
 62
   179
420
  2234388
370
     9
100
AcDbVertex
100
AcDb2dVertex
 10
88.32535802441016
 20
-122.8214530248503
 30
0.0
  0
VERTEX
  5
7B
330
79
100
AcDbEntity
  8
_U+30EC_U+30A4_U+30E4_U+30FC 1
 62
   179
420
  2234388
370
     9
100
AcDbVertex
100
AcDb2dVertex
 10
88.32535802441016
 20
-119.9613424700095
 30
0.0
  0
SEQEND
  5
7C
330
79
100
AcDbEntity
  8
_U+30EC_U+30A4_U+30E4_U+30FC 1
 62
   179
420
  2234388
370
     9
  0
INSERT
  5
7E
330
1F
100
AcDbEntity
  8
_U+30EC_U+30A4_U+30E4_U+30FC 1
100
AcDbBlockReference
  2
block 2
 10
0.0
 20
0.0
 30
0.0
  0
POLYLINE
  5
85
330
1F
100
AcDbEntity
  8
_U+30EC_U+30A4_U+30E4_U+30FC 1
 62
   179
420
  2234388
370
     9
100
AcDb2dPolyline
 66
     1
 10
0.0
 20
0.0
 30
0.0
  0
VERTEX
  5
86
330
85
100
AcDbEntity
  8
_U+30EC_U+30A4_U+30E4_U+30FC 1
 62
   179
420
  2234388
370
     9
100
AcDbVertex
100
AcDb2dVertex
 10
80.32583989516154
 20
-137.4620835767458
 30
0.0
  0
VERTEX
  5
87
330
85
100
AcDbEntity
  8
_U+30EC_U+30A4_U+30E4_U+30FC 1
 62
   179
420
  2234388
370
     9
100
AcDbVertex
100
AcDb2dVertex
 10
98.32579638038884
 20
-137.4620835767458
 30
0.0
  0
SEQEND
  5
88
330
85
100
AcDbEntity
  8
_U+30EC_U+30A4_U+30E4_U+30FC 1
 62
   179
420
  2234388
370
     9
  0
POLYLINE
  5
89
330
1F
100
AcDbEntity
  8
_U+30EC_U+30A4_U+30E4_U+30FC 1
 62
   179
420
  2234388
370
     9
100
AcDb2dPolyline
 66
     1
 10
0.0
 20
0.0
 30
0.0
  0
VERTEX
  5
8A
330
89
100
AcDbEntity
  8
_U+30EC_U+30A4_U+30E4_U+30FC 1
 62
   179
420
  2234388
370
     9
100
AcDbVertex
100
AcDb2dVertex
 10
80.32583989516154
 20
-135.2010602439777
 30
0.0
  0
VERTEX
  5
8B
330
89
100
AcDbEntity
  8
_U+30EC_U+30A4_U+30E4_U+30FC 1
 62
   179
420
  2234388
370
     9
100
AcDbVertex
100
AcDb2dVertex
 10
80.32583989516154
 20
-138.4618205209402
 30
0.0
  0
SEQEND
  5
8C
330
89
100
AcDbEntity
  8
_U+30EC_U+30A4_U+30E4_U+30FC 1
 62
   179
420
  2234388
370
     9
  0
POLYLINE
  5
8D
330
1F
100
AcDbEntity
  8
_U+30EC_U+30A4_U+30E4_U+30FC 1
 62
   179
420
  2234388
370
     9
100
AcDb2dPolyline
 66
     1
 10
0.0
 20
0.0
 30
0.0
  0
VERTEX
  5
8E
330
8D
100
AcDbEntity
  8
_U+30EC_U+30A4_U+30E4_U+30FC 1
 62
   179
420
  2234388
370
     9
100
AcDbVertex
100
AcDb2dVertex
 10
98.32579638038884
 20
-136.0016894104443
 30
0.0
  0
VERTEX
  5
8F
330
8D
100
AcDbEntity
  8
_U+30EC_U+30A4_U+30E4_U+30FC 1
 62
   179
420
  2234388
370
     9
100
AcDbVertex
100
AcDb2dVertex
 10
98.32579638038884
 20
-138.4618205209402
 30
0.0
  0
SEQEND
  5
90
330
8D
100
AcDbEntity
  8
_U+30EC_U+30A4_U+30E4_U+30FC 1
 62
   179
420
  2234388
370
     9
  0
INSERT
  5
92
330
1F
100
AcDbEntity
  8
_U+30EC_U+30A4_U+30E4_U+30FC 1
100
AcDbBlockReference
  2
block 3
 10
0.0
 20
0.0
 30
0.0
  0
POLYLINE
  5
9B
330
1F
100
AcDbEntity
  8
_U+30EC_U+30A4_U+30E4_U+30FC 1
 62
   179
420
  2234388
370
     9
100
AcDb2dPolyline
 66
     1
 10
0.0
 20
0.0
 30
0.0
  0
VERTEX
  5
9C
330
9B
100
AcDbEntity
  8
_U+30EC_U+30A4_U+30E4_U+30FC 1
 62
   179
420
  2234388
370
     9
100
AcDbVertex
100
AcDb2dVertex
 10
102.1443360855749
 20
-132.4614938557737
 30
0.0
  0
VERTEX
  5
9D
330
9B
100
AcDbEntity
  8
_U+30EC_U+30A4_U+30E4_U+30FC 1
 62
   179
420
  2234388
370
     9
100
AcDbVertex
100
AcDb2dVertex
 10
102.1443360855749
 20
-125.9613163573985
 30
0.0
  0
SEQEND
  5
9E
330
9B
100
AcDbEntity
  8
_U+30EC_U+30A4_U+30E4_U+30FC 1
 62
   179
420
  2234388
370
     9
  0
POLYLINE
  5
9F
330
1F
100
AcDbEntity
  8
_U+30EC_U+30A4_U+30E4_U+30FC 1
 62
   179
420
  2234388
370
     9
100
AcDb2dPolyline
 66
     1
 10
0.0
 20
0.0
 30
0.0
  0
VERTEX
  5
A0
330
9F
100
AcDbEntity
  8
_U+30EC_U+30A4_U+30E4_U+30FC 1
 62
   179
420
  2234388
370
     9
100
AcDbVertex
100
AcDb2dVertex
 10
101.0115666414139
 20
-132.464280800217
 30
0.0
  0
VERTEX
  5
A1
330
9F
100
AcDbEntity
  8
_U+30EC_U+30A4_U+30E4_U+30FC 1
 62
   179
420
  2234388
370
     9
100
AcDbVertex
100
AcDb2dVertex
 10
103.1441083075475
 20
-132.4614938557737
 30
0.0
  0
SEQEND
  5
A2
330
9F
100
AcDbEntity
  8
_U+30EC_U+30A4_U+30E4_U+30FC 1
 62
   179
420
  2234388
370
     9
  0
POLYLINE
  5
A3
330
1F
100
AcDbEntity
  8
_U+30EC_U+30A4_U+30E4_U+30FC 1
 62
   179
420
  2234388
370
     9
100
AcDb2dPolyline
 66
     1
 10
0.0
 20
0.0
 30
0.0
  0
VERTEX
  5
A4
330
A3
100
AcDbEntity
  8
_U+30EC_U+30A4_U+30E4_U+30FC 1
 62
   179
420
  2234388
370
     9
100
AcDbVertex
100
AcDb2dVertex
 10
101.0370699223296
 20
-125.9613163573985
 30
0.0
  0
VERTEX
  5
A5
330
A3
100
AcDbEntity
  8
_U+30EC_U+30A4_U+30E4_U+30FC 1
 62
   179
420
  2234388
370
     9
100
AcDbVertex
100
AcDb2dVertex
 10
103.1441083075475
 20
-125.9613163573985
 30
0.0
  0
SEQEND
  5
A6
330
A3
100
AcDbEntity
  8
_U+30EC_U+30A4_U+30E4_U+30FC 1
 62
   179
420
  2234388
370
     9
  0
INSERT
  5
A8
330
1F
100
AcDbEntity
  8
_U+30EC_U+30A4_U+30E4_U+30FC 1
100
AcDbBlockReference
  2
block 4
 10
0.0
 20
0.0
 30
0.0
  0
SPLINE
  5
B8
330
1F
100
AcDbEntity
  8
_U+30EC_U+30A4_U+30E4_U+30FC 1
 62
   179
420
  2234388
370
     9
100
AcDbSpline
210
0.0
220
0.0
230
1.0
 70
    11
 71
     3
 72
    17
 73
    13
 74
     0
 42
0.0000000001
 43
0.0000000001
 12
1.0
 22
0.0
 32
0.0
 13
1.0
 23
0.0
 33
0.0
 40
0.0
 40
0.0
 40
0.0
 40
0.0
 40
1.0
 40
1.0
 40
1.0
 40
2.0
 40
2.0
 40
2.0
 40
3.0
 40
3.0
 40
3.0
 40
4.0
 40
4.0
 40
4.0
 40
4.0
 10
102.2442401693099
 20
-133.4533638555254
 30
0.0
 10
102.2442401693099
 20
-133.397554411095
 30
0.0
 10
102.1994373926751
 20
-133.3527516333283
 30
0.0
 10
102.1443360855749
 20
-133.3527516333283
 30
0.0
 10
102.0891943399321
 20
-133.3527516333283
 30
0.0
 10
102.0444268410742
 20
-133.397554411095
 30
0.0
 10
102.0444268410742
 20
-133.4533638555254
 30
0.0
 10
102.0444268410742
 20
-133.5084677444003
 30
0.0
 10
102.0891943399321
 20
-133.5532705221671
 30
0.0
 10
102.1443360855749
 20
-133.5532705221671
 30
0.0
 10
102.1994373926751
 20
-133.5532705221671
 30
0.0
 10
102.2442401693099
 20
-133.5084677444003
 30
0.0
 10
102.2442401693099
 20
-133.4533638555254
 30
0.0
  0
POLYLINE
  5
B9
330
1F
100
AcDbEntity
  8
_U+30EC_U+30A4_U+30E4_U+30FC 1
 62
   179
420
  2234388
370
     9
100
AcDb2dPolyline
 66
     1
 10
0.0
 20
0.0
 30
0.0
  0
VERTEX
  5
BA
330
B9
100
AcDbEntity
  8
_U+30EC_U+30A4_U+30E4_U+30FC 1
 62
   179
420
  2234388
370
     9
100
AcDbVertex
100
AcDb2dVertex
 10
102.1443360855749
 20
-133.4530110777477
 30
0.0
  0
VERTEX
  5
BB
330
B9
100
AcDbEntity
  8
_U+30EC_U+30A4_U+30E4_U+30FC 1
 62
   179
420
  2234388
370
     9
100
AcDbVertex
100
AcDb2dVertex
 10
102.1443360855749
 20
-131.0380002450181
 30
0.0
  0
SEQEND
  5
BC
330
B9
100
AcDbEntity
  8
_U+30EC_U+30A4_U+30E4_U+30FC 1
 62
   179
420
  2234388
370
     9
  0
POLYLINE
  5
BD
330
1F
100
AcDbEntity
  8
_U+30EC_U+30A4_U+30E4_U+30FC 1
 62
   179
420
  2234388
370
     9
100
AcDb2dPolyline
 66
     1
 10
0.0
 20
0.0
 30
0.0
  0
VERTEX
  5
BE
330
BD
100
AcDbEntity
  8
_U+30EC_U+30A4_U+30E4_U+30FC 1
 62
   179
420
  2234388
370
     9
100
AcDbVertex
100
AcDb2dVertex
 10
101.0163971450792
 20
-133.4530110777477
 30
0.0
  0
VERTEX
  5
BF
330
BD
100
AcDbEntity
  8
_U+30EC_U+30A4_U+30E4_U+30FC 1
 62
   179
420
  2234388
370
     9
100
AcDbVertex
100
AcDb2dVertex
 10
103.1441083075475
 20
-133.4530110777477
 30
0.0
  0
SEQEND
  5
C0
330
BD
100
AcDbEntity
  8
_U+30EC_U+30A4_U+30E4_U+30FC 1
 62
   179
420
  2234388
370
     9
  0
INSERT
  5
C2
330
1F
100
AcDbEntity
  8
_U+30EC_U+30A4_U+30E4_U+30FC 1
100
AcDbBlockReference
  2
block 5
 10
0.0
 20
0.0
 30
0.0
  0
SPLINE
  5
C7
330
1F
100
AcDbEntity
  8
_U+30EC_U+30A4_U+30E4_U+30FC 1
 62
   179
420
  2234388
370
     9
100
AcDbSpline
210
0.0
220
0.0
230
1.0
 70
    11
 71
     3
 72
    17
 73
    13
 74
     0
 42
0.0000000001
 43
0.0000000001
 12
1.0
 22
0.0
 32
0.0
 13
1.0
 23
0.0
 33
0.0
 40
0.0
 40
0.0
 40
0.0
 40
0.0
 40
1.0
 40
1.0
 40
1.0
 40
2.0
 40
2.0
 40
2.0
 40
3.0
 40
3.0
 40
3.0
 40
4.0
 40
4.0
 40
4.0
 40
4.0
 10
80.43608294790457
 20
-129.4043216343154
 30
0.0
 10
80.43608294790457
 20
-129.3492177454405
 30
0.0
 10
80.39131544904667
 20
-129.3044149676738
 30
0.0
 10
80.33617628378673
 20
-129.3044149676738
 30
0.0
 10
80.28107239630366
 20
-129.3044149676738
 30
0.0
 10
80.23626961966889
 20
-129.3492177454405
 30
0.0
 10
80.23626961966889
 20
-129.4043216343154
 30
0.0
 10
80.23626961966889
 20
-129.4594608009685
 30
0.0
 10
80.28107239630366
 20
-129.5042283009571
 30
0.0
 10
80.33617628378673
 20
-129.5042283009571
 30
0.0
 10
80.39131544904667
 20
-129.5042283009571
 30
0.0
 10
80.43608294790457
 20
-129.4594608009685
 30
0.0
 10
80.43608294790457
 20
-129.4043216343154
 30
0.0
  0
SPLINE
  5
C8
330
1F
100
AcDbEntity
  8
_U+30EC_U+30A4_U+30E4_U+30FC 1
 62
   179
420
  2234388
370
     9
100
AcDbSpline
210
0.0
220
0.0
230
1.0
 70
    11
 71
     3
 72
    17
 73
    13
 74
     0
 42
0.0000000001
 43
0.0000000001
 12
1.0
 22
0.0
 32
0.0
 13
1.0
 23
0.0
 33
0.0
 40
0.0
 40
0.0
 40
0.0
 40
0.0
 40
1.0
 40
1.0
 40
1.0
 40
2.0
 40
2.0
 40
2.0
 40
3.0
 40
3.0
 40
3.0
 40
4.0
 40
4.0
 40
4.0
 40
4.0
 10
81.43585514462048
 20
-129.4043216343154
 30
0.0
 10
81.43585514462048
 20
-129.3492177454405
 30
0.0
 10
81.39105236798571
 20
-129.3044149676738
 30
0.0
 10
81.33594848050264
 20
-129.3044149676738
 30
0.0
 10
81.28080931524269
 20
-129.3044149676738
 30
0.0
 10
81.2360418163848
 20
-129.3492177454405
 30
0.0
 10
81.2360418163848
 20
-129.4043216343154
 30
0.0
 10
81.2360418163848
 20
-129.4594608009685
 30
0.0
 10
81.28080931524269
 20
-129.5042283009571
 30
0.0
 10
81.33594848050264
 20
-129.5042283009571
 30
0.0
 10
81.39105236798571
 20
-129.5042283009571
 30
0.0
 10
81.43585514462048
 20
-129.4594608009685
 30
0.0
 10
81.43585514462048
 20
-129.4043216343154
 30
0.0
  0
INSERT
  5
CA
330
1F
100
AcDbEntity
  8
_U+30EC_U+30A4_U+30E4_U+30FC 1
100
AcDbBlockReference
  2
block 6
 10
0.0
 20
0.0
 30
0.0
  0
POLYLINE
  5
CF
330
1F
100
AcDbEntity
  8
_U+30EC_U+30A4_U+30E4_U+30FC 1
 62
   179
420
  2234388
370
     9
100
AcDb2dPolyline
 66
     1
 10
0.0
 20
0.0
 30
0.0
  0
VERTEX
  5
D0
330
CF
100
AcDbEntity
  8
_U+30EC_U+30A4_U+30E4_U+30FC 1
 62
   179
420
  2234388
370
     9
100
AcDbVertex
100
AcDb2dVertex
 10
82.19722220167291
 20
-129.4043216343154
 30
0.0
  0
VERTEX
  5
D1
330
CF
100
AcDbEntity
  8
_U+30EC_U+30A4_U+30E4_U+30FC 1
 62
   179
420
  2234388
370
     9
100
AcDbVertex
100
AcDb2dVertex
 10
78.35868050090352
 20
-129.4043216343154
 30
0.0
  0
SEQEND
  5
D2
330
CF
100
AcDbEntity
  8
_U+30EC_U+30A4_U+30E4_U+30FC 1
 62
   179
420
  2234388
370
     9
  0
ENDSEC
  0
SECTION
  2
OBJECTS
  0
DICTIONARY
  5
C
330
0
100
AcDbDictionary
281
     1
  3
ACAD_GROUP
350
D
  3
ACAD_LAYOUT
350
1A
  3
ACAD_MATERIAL
350
3B
  3
ACAD_MLEADERSTYLE
350
D4
  3
ACAD_MLINESTYLE
350
17
  3
ACAD_PLOTSETTINGS
350
19
  3
ACAD_PLOTSTYLENAME
350
E
  3
ACAD_TABLESTYLE
350
D3
  3
ACAD_VISUALSTYLE
350
2A
  0
SUN
  5
3F
330
29
100
AcDbSun
 90
        1
290
     0
 63
     7
421
 16777215
 40
1.0
291
     1
 91
  2455826
 92
 54000000
292
     0
 70
     2
 71
   256
280
     1
  0
DICTIONARY
  5
D
102
{ACAD_REACTORS
330
C
102
}
330
C
100
AcDbDictionary
281
     1
  0
DICTIONARY
  5
1A
102
{ACAD_REACTORS
330
C
102
}
330
C
100
AcDbDictionary
281
     1
  3
Layout1
350
1E
  3
Layout2
350
26
  3
Model
350
22
  0
DICTIONARY
  5
3B
102
{ACAD_REACTORS
330
C
102
}
330
C
100
AcDbDictionary
281
     1
  3
ByBlock
350
3D
  3
ByLayer
350
3C
  3
Global
350
3E
  0
DICTIONARY
  5
D4
102
{ACAD_REACTORS
330
C
102
}
330
C
100
AcDbDictionary
281
     1
  0
DICTIONARY
  5
17
102
{ACAD_REACTORS
330
C
102
}
330
C
100
AcDbDictionary
281
     1
  3
Standard
350
18
  0
DICTIONARY
  5
19
102
{ACAD_REACTORS
330
C
102
}
330
C
100
AcDbDictionary
281
     1
  0
ACDBDICTIONARYWDFLT
  5
E
102
{ACAD_REACTORS
330
C
102
}
330
C
100
AcDbDictionary
281
     1
  3
Normal
350
F
100
AcDbDictionaryWithDefault
340
F
  0
DICTIONARY
  5
D3
102
{ACAD_REACTORS
330
C
102
}
330
C
100
AcDbDictionary
281
     1
  0
DICTIONARY
  5
2A
102
{ACAD_REACTORS
330
C
102
}
330
C
100
AcDbDictionary
281
     1
  3
2dWireframe
350
2F
  3
3D Hidden
350
31
  3
3dWireframe
350
30
  3
Basic
350
32
  3
Brighten
350
36
  3
ColorChange
350
3A
  3
Conceptual
350
34
  3
Dim
350
35
  3
Facepattern
350
39
  3
Flat
350
2B
  3
FlatWithEdges
350
2C
  3
Gouraud
350
2D
  3
GouraudWithEdges
350
2E
  3
Linepattern
350
38
  3
Realistic
350
33
  3
Thicken
350
37
  0
LAYOUT
  5
1E
102
{ACAD_REACTORS
330
1A
102
}
330
1A
100
AcDbPlotSettings
  1

  2
none_device
  4

  6

 40
0.0
 41
0.0
 42
0.0
 43
0.0
 44
0.0
 45
0.0
 46
0.0
 47
0.0
 48
0.0
 49
0.0
140
0.0
141
0.0
142
1.0
143
1.0
 70
   688
 72
     0
 73
     0
 74
     5
  7

 75
    16
 76
     0
 77
     2
 78
   300
147
1.0
148
0.0
149
0.0
100
AcDbLayout
  1
Layout1
 70
     1
 71
     1
 10
0.0
 20
0.0
 11
12.0
 21
9.0
 12
0.0
 22
0.0
 32
0.0
 14
1.000000000000000E+20
 24
1.000000000000000E+20
 34
1.000000000000000E+20
 15
-1.000000000000000E+20
 25
-1.000000000000000E+20
 35
-1.000000000000000E+20
146
0.0
 13
0.0
 23
0.0
 33
0.0
 16
1.0
 26
0.0
 36
0.0
 17
0.0
 27
1.0
 37
0.0
 76
     0
330
1B
  0
LAYOUT
  5
26
102
{ACAD_REACTORS
330
1A
102
}
330
1A
100
AcDbPlotSettings
  1

  2
none_device
  4

  6

 40
0.0
 41
0.0
 42
0.0
 43
0.0
 44
0.0
 45
0.0
 46
0.0
 47
0.0
 48
0.0
 49
0.0
140
0.0
141
0.0
142
1.0
143
1.0
 70
   688
 72
     0
 73
     0
 74
     5
  7

 75
    16
 76
     0
 77
     2
 78
   300
147
1.0
148
0.0
149
0.0
100
AcDbLayout
  1
Layout2
 70
     1
 71
     2
 10
0.0
 20
0.0
 11
0.0
 21
0.0
 12
0.0
 22
0.0
 32
0.0
 14
0.0
 24
0.0
 34
0.0
 15
0.0
 25
0.0
 35
0.0
146
0.0
 13
0.0
 23
0.0
 33
0.0
 16
1.0
 26
0.0
 36
0.0
 17
0.0
 27
1.0
 37
0.0
 76
     0
330
23
  0
LAYOUT
  5
22
102
{ACAD_REACTORS
330
1A
102
}
330
1A
100
AcDbPlotSettings
  1

  2
none_device
  4

  6

 40
0.0
 41
0.0
 42
0.0
 43
0.0
 44
0.0
 45
0.0
 46
0.0
 47
0.0
 48
0.0
 49
0.0
140
0.0
141
0.0
142
1.0
143
1.0
 70
  1712
 72
     0
 73
     0
 74
     0
  7

 75
     0
 76
     0
 77
     2
 78
   300
147
1.0
148
0.0
149
0.0
100
AcDbLayout
  1
Model
 70
     1
 71
     0
 10
0.0
 20
0.0
 11
12.0
 21
9.0
 12
0.0
 22
0.0
 32
0.0
 14
1.000000000000000E+20
 24
1.000000000000000E+20
 34
1.000000000000000E+20
 15
-1.000000000000000E+20
 25
-1.000000000000000E+20
 35
-1.000000000000000E+20
146
0.0
 13
0.0
 23
0.0
 33
0.0
 16
1.0
 26
0.0
 36
0.0
 17
0.0
 27
1.0
 37
0.0
 76
     0
330
1F
331
29
  0
MATERIAL
  5
3D
102
{ACAD_REACTORS
330
3B
102
}
330
3B
100
AcDbMaterial
  1
ByBlock
 72
     1
 94
      127
  0
MATERIAL
  5
3C
102
{ACAD_REACTORS
330
3B
102
}
330
3B
100
AcDbMaterial
  1
ByLayer
 72
     1
 94
      127
  0
MATERIAL
  5
3E
102
{ACAD_REACTORS
330
3B
102
}
330
3B
100
AcDbMaterial
  1
Global
 72
     1
 94
      127
  0
MLINESTYLE
  5
18
102
{ACAD_REACTORS
330
17
102
}
330
17
100
AcDbMlineStyle
  2
Standard
 70
     0
  3

 62
   256
 51
90.0
 52
90.0
 71
     2
 49
0.5
 62
   256
  6
BYLAYER
 49
-0.5
 62
   256
  6
BYLAYER
  0
ACDBPLACEHOLDER
  5
F
102
{ACAD_REACTORS
330
E
102
}
330
E
  0
VISUALSTYLE
  5
2F
102
{ACAD_REACTORS
330
2A
102
}
330
2A
100
AcDbVisualStyle
  2
2dWireframe
 70
     4
177
     2
291
     0
 71
     0
176
     1
 72
     2
176
     1
 73
     0
176
     1
 90
        0
176
     1
 40
-0.6
176
     1
 41
-30.0
176
     1
 62
     5
 63
     7
421
 16777215
176
     1
 74
     1
176
     1
 91
        4
176
     1
 64
     7
176
     1
 65
   257
176
     1
 75
     1
176
     1
175
     1
176
     1
 42
1.0
176
     1
 92
        0
176
     1
 66
   257
176
     1
 43
1.0
176
     1
 76
     1
176
     1
 77
     6
176
     1
 78
     2
176
     1
 67
     7
176
     1
 79
     5
176
     1
170
     0
176
     1
171
     0
176
     1
290
     0
176
     1
 93
        1
176
     1
 44
0.0
176
     1
173
     0
176
     1
  0
VISUALSTYLE
  5
31
102
{ACAD_REACTORS
330
2A
102
}
330
2A
100
AcDbVisualStyle
  2
3D Hidden
 70
     6
177
     2
291
     0
 71
     1
176
     1
 72
     2
176
     1
 73
     2
176
     1
 90
        0
176
     1
 40
-0.6
176
     1
 41
-30.0
176
     1
 62
     5
 63
     7
421
 16777215
176
     1
 74
     2
176
     1
 91
        2
176
     1
 64
     7
176
     1
 65
   257
176
     1
 75
     2
176
     1
175
     1
176
     1
 42
40.0
176
     1
 92
        0
176
     1
 66
   257
176
     1
 43
1.0
176
     1
 76
     1
176
     1
 77
     6
176
     1
 78
     2
176
     1
 67
     7
176
     1
 79
     3
176
     1
170
     0
176
     1
171
     0
176
     1
290
     0
176
     1
 93
        1
176
     1
 44
0.0
176
     1
173
     0
176
     1
  0
VISUALSTYLE
  5
30
102
{ACAD_REACTORS
330
2A
102
}
330
2A
100
AcDbVisualStyle
  2
3dWireframe
 70
     5
177
     2
291
     0
 71
     0
176
     1
 72
     2
176
     1
 73
     0
176
     1
 90
        0
176
     1
 40
-0.6
176
     1
 41
-30.0
176
     1
 62
     5
 63
     7
421
 16777215
176
     1
 74
     1
176
     1
 91
        4
176
     1
 64
     7
176
     1
 65
   257
176
     1
 75
     1
176
     1
175
     1
176
     1
 42
1.0
176
     1
 92
        0
176
     1
 66
   257
176
     1
 43
1.0
176
     1
 76
     1
176
     1
 77
     6
176
     1
 78
     2
176
     1
 67
     7
176
     1
 79
     5
176
     1
170
     0
176
     1
171
     0
176
     1
290
     0
176
     1
 93
        1
176
     1
 44
0.0
176
     1
173
     0
176
     1
  0
VISUALSTYLE
  5
32
102
{ACAD_REACTORS
330
2A
102
}
330
2A
100
AcDbVisualStyle
  2
Basic
 70
     7
177
     2
291
     1
 71
     1
176
     1
 72
     0
176
     1
 73
     1
176
     1
 90
        0
176
     1
 40
-0.6
176
     1
 41
-30.0
176
     1
 62
     5
 63
     7
421
 16777215
176
     1
 74
     0
176
     1
 91
        4
176
     1
 64
     7
176
     1
 65
   257
176
     1
 75
     1
176
     1
175
     1
176
     1
 42
1.0
176
     1
 92
        8
176
     1
 66
     7
176
     1
 43
1.0
176
     1
 76
     1
176
     1
 77
     6
176
     1
 78
     2
176
     1
 67
     7
176
     1
 79
     5
176
     1
170
     0
176
     1
171
     0
176
     1
290
     0
176
     1
 93
        1
176
     1
 44
0.0
176
     1
173
     0
176
     1
  0
VISUALSTYLE
  5
36
102
{ACAD_REACTORS
330
2A
102
}
330
2A
100
AcDbVisualStyle
  2
Brighten
 70
    12
177
     2
291
     1
 71
     2
176
     1
 72
     2
176
     1
 73
     0
176
     1
 90
        0
176
     1
 40
-0.6
176
     1
 41
-30.0
176
     1
 62
     5
 63
     7
421
 16777215
176
     1
 74
     1
176
     1
 91
        4
176
     1
 64
     7
176
     1
 65
   257
176
     1
 75
     1
176
     1
175
     1
176
     1
 42
1.0
176
     1
 92
        8
176
     1
 66
     7
176
     1
 43
1.0
176
     1
 76
     1
176
     1
 77
     6
176
     1
 78
     2
176
     1
 67
     7
176
     1
 79
     5
176
     1
170
     0
176
     1
171
     0
176
     1
290
     0
176
     1
 93
        1
176
     1
 44
50.0
176
     1
173
     0
176
     1
  0
VISUALSTYLE
  5
3A
102
{ACAD_REACTORS
330
2A
102
}
330
2A
100
AcDbVisualStyle
  2
ColorChange
 70
    16
177
     2
291
     1
 71
     2
176
     1
 72
     2
176
     1
 73
     3
176
     1
 90
        0
176
     1
 40
-0.6
176
     1
 41
-30.0
176
     1
 62
     5
 63
     8
421
  8421504
176
     1
 74
     1
176
     1
 91
        4
176
     1
 64
     7
176
     1
 65
   257
176
     1
 75
     1
176
     1
175
     1
176
     1
 42
1.0
176
     1
 92
        8
176
     1
 66
     8
424
  8421504
176
     1
 43
1.0
176
     1
 76
     1
176
     1
 77
     6
176
     1
 78
     2
176
     1
 67
     7
176
     1
 79
     5
176
     1
170
     0
176
     1
171
     0
176
     1
290
     0
176
     1
 93
        1
176
     1
 44
0.0
176
     1
173
     0
176
     1
  0
VISUALSTYLE
  5
34
102
{ACAD_REACTORS
330
2A
102
}
330
2A
100
AcDbVisualStyle
  2
Conceptual
 70
     9
177
     2
291
     0
 71
     3
176
     1
 72
     2
176
     1
 73
     0
176
     1
 90
        0
176
     1
 40
-0.6
176
     1
 41
-30.0
176
     1
 62
     5
 63
     7
421
 16777215
176
     1
 74
     2
176
     1
 91
        2
176
     1
 64
     7
176
     1
 65
   257
176
     1
 75
     1
176
     1
175
     1
176
     1
 42
40.0
176
     1
 92
        8
176
     1
 66
     7
176
     1
 43
1.0
176
     1
 76
     1
176
     1
 77
     6
176
     1
 78
     2
176
     1
 67
     7
176
     1
 79
     3
176
     1
170
     0
176
     1
171
     0
176
     1
290
     0
176
     1
 93
        1
176
     1
 44
0.0
176
     1
173
     0
176
     1
  0
VISUALSTYLE
  5
35
102
{ACAD_REACTORS
330
2A
102
}
330
2A
100
AcDbVisualStyle
  2
Dim
 70
    11
177
     2
291
     1
 71
     2
176
     1
 72
     2
176
     1
 73
     0
176
     1
 90
        0
176
     1
 40
-0.6
176
     1
 41
-30.0
176
     1
 62
     5
 63
     7
421
 16777215
176
     1
 74
     1
176
     1
 91
        4
176
     1
 64
     7
176
     1
 65
   257
176
     1
 75
     1
176
     1
175
     1
176
     1
 42
1.0
176
     1
 92
        8
176
     1
 66
     7
176
     1
 43
1.0
176
     1
 76
     1
176
     1
 77
     6
176
     1
 78
     2
176
     1
 67
     7
176
     1
 79
     5
176
     1
170
     0
176
     1
171
     0
176
     1
290
     0
176
     1
 93
        1
176
     1
 44
-50.0
176
     1
173
     0
176
     1
  0
VISUALSTYLE
  5
39
102
{ACAD_REACTORS
330
2A
102
}
330
2A
100
AcDbVisualStyle
  2
Facepattern
 70
    15
177
     2
291
     1
 71
     2
176
     1
 72
     2
176
     1
 73
     0
176
     1
 90
        0
176
     1
 40
-0.6
176
     1
 41
-30.0
176
     1
 62
     5
 63
     7
421
 16777215
176
     1
 74
     1
176
     1
 91
        4
176
     1
 64
     7
176
     1
 65
   257
176
     1
 75
     1
176
     1
175
     1
176
     1
 42
1.0
176
     1
 92
        8
176
     1
 66
     7
176
     1
 43
1.0
176
     1
 76
     1
176
     1
 77
     6
176
     1
 78
     2
176
     1
 67
     7
176
     1
 79
     5
176
     1
170
     0
176
     1
171
     0
176
     1
290
     0
176
     1
 93
        1
176
     1
 44
0.0
176
     1
173
     0
176
     1
  0
VISUALSTYLE
  5
2B
102
{ACAD_REACTORS
330
2A
102
}
330
2A
100
AcDbVisualStyle
  2
Flat
 70
     0
177
     2
291
     1
 71
     2
176
     1
 72
     1
176
     1
 73
     1
176
     1
 90
        2
176
     1
 40
-0.6
176
     1
 41
30.0
176
     1
 62
     5
 63
     7
421
 16777215
176
     1
 74
     0
176
     1
 91
        4
176
     1
 64
     7
176
     1
 65
   257
176
     1
 75
     1
176
     1
175
     1
176
     1
 42
1.0
176
     1
 92
        8
176
     1
 66
     7
176
     1
 43
1.0
176
     1
 76
     1
176
     1
 77
     6
176
     1
 78
     2
176
     1
 67
     7
176
     1
 79
     5
176
     1
170
     0
176
     1
171
     0
176
     1
290
     0
176
     1
 93
       13
176
     1
 44
0.0
176
     1
173
     0
176
     1
  0
VISUALSTYLE
  5
2C
102
{ACAD_REACTORS
330
2A
102
}
330
2A
100
AcDbVisualStyle
  2
FlatWithEdges
 70
     1
177
     2
291
     1
 71
     2
176
     1
 72
     1
176
     1
 73
     1
176
     1
 90
        2
176
     1
 40
-0.6
176
     1
 41
30.0
176
     1
 62
     5
 63
     7
421
 16777215
176
     1
 74
     1
176
     1
 91
        4
176
     1
 64
     7
176
     1
 65
   257
176
     1
 75
     1
176
     1
175
     1
176
     1
 42
1.0
176
     1
 92
        0
176
     1
 66
   257
176
     1
 43
1.0
176
     1
 76
     1
176
     1
 77
     6
176
     1
 78
     2
176
     1
 67
     7
176
     1
 79
     5
176
     1
170
     0
176
     1
171
     0
176
     1
290
     0
176
     1
 93
       13
176
     1
 44
0.0
176
     1
173
     0
176
     1
  0
VISUALSTYLE
  5
2D
102
{ACAD_REACTORS
330
2A
102
}
330
2A
100
AcDbVisualStyle
  2
Gouraud
 70
     2
177
     2
291
     1
 71
     2
176
     1
 72
     2
176
     1
 73
     1
176
     1
 90
        2
176
     1
 40
-0.6
176
     1
 41
30.0
176
     1
 62
     5
 63
     7
421
 16777215
176
     1
 74
     0
176
     1
 91
        4
176
     1
 64
     7
176
     1
 65
   257
176
     1
 75
     1
176
     1
175
     1
176
     1
 42
1.0
176
     1
 92
        0
176
     1
 66
     7
176
     1
 43
1.0
176
     1
 76
     1
176
     1
 77
     6
176
     1
 78
     2
176
     1
 67
     7
176
     1
 79
     5
176
     1
170
     0
176
     1
171
     0
176
     1
290
     0
176
     1
 93
       13
176
     1
 44
0.0
176
     1
173
     0
176
     1
  0
VISUALSTYLE
  5
2E
102
{ACAD_REACTORS
330
2A
102
}
330
2A
100
AcDbVisualStyle
  2
GouraudWithEdges
 70
     3
177
     2
291
     1
 71
     2
176
     1
 72
     2
176
     1
 73
     1
176
     1
 90
        2
176
     1
 40
-0.6
176
     1
 41
30.0
176
     1
 62
     5
 63
     7
421
 16777215
176
     1
 74
     1
176
     1
 91
        4
176
     1
 64
     7
176
     1
 65
   257
176
     1
 75
     1
176
     1
175
     1
176
     1
 42
1.0
176
     1
 92
        0
176
     1
 66
   257
176
     1
 43
1.0
176
     1
 76
     1
176
     1
 77
     6
176
     1
 78
     2
176
     1
 67
     7
176
     1
 79
     5
176
     1
170
     0
176
     1
171
     0
176
     1
290
     0
176
     1
 93
       13
176
     1
 44
0.0
176
     1
173
     0
176
     1
  0
VISUALSTYLE
  5
38
102
{ACAD_REACTORS
330
2A
102
}
330
2A
100
AcDbVisualStyle
  2
Linepattern
 70
    14
177
     2
291
     1
 71
     2
176
     1
 72
     2
176
     1
 73
     0
176
     1
 90
        0
176
     1
 40
-0.6
176
     1
 41
-30.0
176
     1
 62
     5
 63
     7
421
 16777215
176
     1
 74
     1
176
     1
 91
        4
176
     1
 64
     7
176
     1
 65
   257
176
     1
 75
     7
176
     1
175
     7
176
     1
 42
1.0
176
     1
 92
        8
176
     1
 66
     7
176
     1
 43
1.0
176
     1
 76
     1
176
     1
 77
     6
176
     1
 78
     2
176
     1
 67
     7
176
     1
 79
     5
176
     1
170
     0
176
     1
171
     0
176
     1
290
     0
176
     1
 93
        1
176
     1
 44
0.0
176
     1
173
     0
176
     1
  0
VISUALSTYLE
  5
33
102
{ACAD_REACTORS
330
2A
102
}
330
2A
100
AcDbVisualStyle
  2
Realistic
 70
     8
177
     2
291
     0
 71
     2
176
     1
 72
     2
176
     1
 73
     0
176
     1
 90
        0
176
     1
 40
-0.6
176
     1
 41
-30.0
176
     1
 62
     5
 63
     7
421
 16777215
176
     1
 74
     1
176
     1
 91
        0
176
     1
 64
     7
176
     1
 65
   257
176
     1
 75
     1
176
     1
175
     1
176
     1
 42
1.0
176
     1
 92
        8
176
     1
 66
     8
424
  7895160
176
     1
 43
1.0
176
     1
 76
     1
176
     1
 77
     6
176
     1
 78
     2
176
     1
 67
     7
176
     1
 79
     5
176
     1
170
     0
176
     1
171
     0
176
     1
290
     0
176
     1
 93
       13
176
     1
 44
0.0
176
     1
173
     0
176
     1
  0
VISUALSTYLE
  5
37
102
{ACAD_REACTORS
330
2A
102
}
330
2A
100
AcDbVisualStyle
  2
Thicken
 70
    13
177
     2
291
     1
 71
     2
176
     1
 72
     2
176
     1
 73
     0
176
     1
 90
        0
176
     1
 40
-0.6
176
     1
 41
-30.0
176
     1
 62
     5
 63
     7
421
 16777215
176
     1
 74
     1
176
     1
 91
        4
176
     1
 64
     7
176
     1
 65
   257
176
     1
 75
     1
176
     1
175
     1
176
     1
 42
1.0
176
     1
 92
       12
176
     1
 66
     7
176
     1
 43
1.0
176
     1
 76
     1
176
     1
 77
     6
176
     1
 78
     2
176
     1
 67
     7
176
     1
 79
     5
176
     1
170
     0
176
     1
171
     0
176
     1
290
     0
176
     1
 93
        1
176
     1
 44
0.0
176
     1
173
     0
176
     1
  0
ENDSEC
  0
EOF
