  0
SECTION
  2
HEADER
  9
$ACADVER
  1
AC1024
  9
$ACADMAINTVER
 70
     6
  9
$DWGCODEPAGE
  3
UNDEFINED
  9
$INSBASE
 10
0.0
 20
0.0
 30
0.0
  9
$EXTMIN
 10
1.000000000000000E+20
 20
1.000000000000000E+20
 30
1.000000000000000E+20
  9
$EXTMAX
 10
-1.000000000000000E+20
 20
-1.000000000000000E+20
 30
-1.000000000000000E+20
  9
$LIMMIN
 10
0.0
 20
0.0
  9
$LIMMAX
 10
12.0
 20
9.0
  9
$ORTHOMODE
 70
     0
  9
$REGENMODE
 70
     1
  9
$FILLMODE
 70
     1
  9
$QTEXTMODE
 70
     0
  9
$MIRRTEXT
 70
     1
  9
$LTSCALE
 40
1.0
  9
$ATTMODE
 70
     1
  9
$TEXTSIZE
 40
0.2
  9
$TRACEWID
 40
0.05
  9
$TEXTSTYLE
  7
Standard
  9
$CLAYER
  8
0
  9
$CELTYPE
  6
ByLayer
  9
$CECOLOR
 62
   256
  9
$CELTSCALE
 40
1.0
  9
$DISPSILH
 70
     0
  9
$DIMSCALE
 40
1.0
  9
$DIMASZ
 40
0.18
  9
$DIMEXO
 40
0.0625
  9
$DIMDLI
 40
0.38
  9
$DIMRND
 40
0.0
  9
$DIMDLE
 40
0.0
  9
$DIMEXE
 40
0.18
  9
$DIMTP
 40
0.0
  9
$DIMTM
 40
0.0
  9
$DIMTXT
 40
0.18
  9
$DIMCEN
 40
0.09
  9
$DIMTSZ
 40
0.0
  9
$DIMTOL
 70
     0
  9
$DIMLIM
 70
     0
  9
$DIMTIH
 70
     1
  9
$DIMTOH
 70
     1
  9
$DIMSE1
 70
     0
  9
$DIMSE2
 70
     0
  9
$DIMTAD
 70
     0
  9
$DIMZIN
 70
     0
  9
$DIMBLK
  1

  9
$DIMASO
 70
     1
  9
$DIMSHO
 70
     1
  9
$DIMPOST
  1

  9
$DIMAPOST
  1

  9
$DIMALT
 70
     0
  9
$DIMALTD
 70
     2
  9
$DIMALTF
 40
25.4
  9
$DIMLFAC
 40
1.0
  9
$DIMTOFL
 70
     0
  9
$DIMTVP
 40
0.0
  9
$DIMTIX
 70
     0
  9
$DIMSOXD
 70
     0
  9
$DIMSAH
 70
     0
  9
$DIMBLK1
  1

  9
$DIMBLK2
  1

  9
$DIMSTYLE
  2
Standard
  9
$DIMCLRD
 70
     0
  9
$DIMCLRE
 70
     0
  9
$DIMCLRT
 70
     0
  9
$DIMTFAC
 40
1.0
  9
$DIMGAP
 40
0.09
  9
$DIMJUST
 70
     0
  9
$DIMSD1
 70
     0
  9
$DIMSD2
 70
     0
  9
$DIMTOLJ
 70
     1
  9
$DIMTZIN
 70
     0
  9
$DIMALTZ
 70
     0
  9
$DIMALTTZ
 70
     0
  9
$DIMUPT
 70
     0
  9
$DIMDEC
 70
     4
  9
$DIMTDEC
 70
     4
  9
$DIMALTU
 70
     2
  9
$DIMALTTD
 70
     2
  9
$DIMTXSTY
  7
Standard
  9
$DIMAUNIT
 70
     0
  9
$DIMADEC
 70
     0
  9
$DIMALTRND
 40
0.0
  9
$DIMAZIN
 70
     0
  9
$DIMDSEP
 70
    46
  9
$DIMATFIT
 70
     3
  9
$DIMFRAC
 70
     0
  9
$DIMLDRBLK
  1

  9
$DIMLUNIT
 70
     2
  9
$DIMLWD
 70
    -2
  9
$DIMLWE
 70
    -2
  9
$DIMTMOVE
 70
     0
  9
$DIMFXL
 40
1.0
  9
$DIMFXLON
 70
     0
  9
$DIMJOGANG
 40
0.7853981633974483
  9
$DIMTFILL
 70
     0
  9
$DIMTFILLCLR
 70
     0
  9
$DIMARCSYM
 70
     0
  9
$DIMLTYPE
  6

  9
$DIMLTEX1
  6

  9
$DIMLTEX2
  6

  9
$DIMTXTDIRECTION
 70
     0
  9
$LUNITS
 70
     2
  9
$LUPREC
 70
     4
  9
$SKETCHINC
 40
0.1
  9
$FILLETRAD
 40
0.5
  9
$AUNITS
 70
     0
  9
$AUPREC
 70
     0
  9
$MENU
  1
.
  9
$ELEVATION
 40
0.0
  9
$PELEVATION
 40
0.0
  9
$THICKNESS
 40
0.0
  9
$LIMCHECK
 70
     0
  9
$CHAMFERA
 40
0.5
  9
$CHAMFERB
 40
0.5
  9
$CHAMFERC
 40
1.0
  9
$CHAMFERD
 40
0.0
  9
$SKPOLY
 70
     0
  9
$TDCREATE
 40
2457917.617743044
  9
$TDUCREATE
 40
2457917.242743055
  9
$TDUPDATE
 40
2457917.617743044
  9
$TDUUPDATE
 40
2457917.242743055
  9
$TDINDWG
 40
0.0000000116
  9
$TDUSRTIMER
 40
0.0000000116
  9
$USRTIMER
 70
     1
  9
$ANGBASE
 50
0.0
  9
$ANGDIR
 70
     0
  9
$PDMODE
 70
     0
  9
$PDSIZE
 40
0.0
  9
$PLINEWID
 40
0.0
  9
$SPLFRAME
 70
     0
  9
$SPLINETYPE
 70
     6
  9
$SPLINESEGS
 70
     8
  9
$HANDSEED
  5
D8
  9
$SURFTAB1
 70
     6
  9
$SURFTAB2
 70
     6
  9
$SURFTYPE
 70
     6
  9
$SURFU
 70
     6
  9
$SURFV
 70
     6
  9
$UCSBASE
  2

  9
$UCSNAME
  2

  9
$UCSORG
 10
0.0
 20
0.0
 30
0.0
  9
$UCSXDIR
 10
1.0
 20
0.0
 30
0.0
  9
$UCSYDIR
 10
0.0
 20
1.0
 30
0.0
  9
$UCSORTHOREF
  2

  9
$UCSORTHOVIEW
 70
     0
  9
$UCSORGTOP
 10
0.0
 20
0.0
 30
0.0
  9
$UCSORGBOTTOM
 10
0.0
 20
0.0
 30
0.0
  9
$UCSORGLEFT
 10
0.0
 20
0.0
 30
0.0
  9
$UCSORGRIGHT
 10
0.0
 20
0.0
 30
0.0
  9
$UCSORGFRONT
 10
0.0
 20
0.0
 30
0.0
  9
$UCSORGBACK
 10
0.0
 20
0.0
 30
0.0
  9
$PUCSBASE
  2

  9
$PUCSNAME
  2

  9
$PUCSORG
 10
0.0
 20
0.0
 30
0.0
  9
$PUCSXDIR
 10
1.0
 20
0.0
 30
0.0
  9
$PUCSYDIR
 10
0.0
 20
1.0
 30
0.0
  9
$PUCSORTHOREF
  2

  9
$PUCSORTHOVIEW
 70
     0
  9
$PUCSORGTOP
 10
0.0
 20
0.0
 30
0.0
  9
$PUCSORGBOTTOM
 10
0.0
 20
0.0
 30
0.0
  9
$PUCSORGLEFT
 10
0.0
 20
0.0
 30
0.0
  9
$PUCSORGRIGHT
 10
0.0
 20
0.0
 30
0.0
  9
$PUCSORGFRONT
 10
0.0
 20
0.0
 30
0.0
  9
$PUCSORGBACK
 10
0.0
 20
0.0
 30
0.0
  9
$USERI1
 70
     0
  9
$USERI2
 70
     0
  9
$USERI3
 70
     0
  9
$USERI4
 70
     0
  9
$USERI5
 70
     0
  9
$USERR1
 40
0.0
  9
$USERR2
 40
0.0
  9
$USERR3
 40
0.0
  9
$USERR4
 40
0.0
  9
$USERR5
 40
0.0
  9
$WORLDVIEW
 70
     1
  9
$SHADEDGE
 70
     3
  9
$SHADEDIF
 70
    70
  9
$TILEMODE
 70
     1
  9
$MAXACTVP
 70
    64
  9
$PINSBASE
 10
0.0
 20
0.0
 30
0.0
  9
$PLIMCHECK
 70
     0
  9
$PEXTMIN
 10
1.000000000000000E+20
 20
1.000000000000000E+20
 30
1.000000000000000E+20
  9
$PEXTMAX
 10
-1.000000000000000E+20
 20
-1.000000000000000E+20
 30
-1.000000000000000E+20
  9
$PLIMMIN
 10
0.0
 20
0.0
  9
$PLIMMAX
 10
12.0
 20
9.0
  9
$UNITMODE
 70
     0
  9
$VISRETAIN
 70
     1
  9
$PLINEGEN
 70
     0
  9
$PSLTSCALE
 70
     1
  9
$TREEDEPTH
 70
  3020
  9
$CMLSTYLE
  2
Standard
  9
$CMLJUST
 70
     0
  9
$CMLSCALE
 40
1.0
  9
$PROXYGRAPHICS
 70
     1
  9
$MEASUREMENT
 70
     0
  9
$CELWEIGHT
370
    -1
  9
$ENDCAPS
280
     0
  9
$JOINSTYLE
280
     0
  9
$LWDISPLAY
290
     1
  9
$INSUNITS
 70
     1
  9
$HYPERLINKBASE
  1

  9
$STYLESHEET
  1

  9
$XEDIT
290
     1
  9
$CEPSNTYPE
380
     0
  9
$PSTYLEMODE
290
     1
  9
$FINGERPRINTGUID
  2
{C5D1206C-AD6D-90BD-9ABA-C976176C1257}
  9
$VERSIONGUID
  2
{FAEB1C32-E019-11D5-929B-00C0DF256EC4}
  9
$EXTNAMES
290
     1
  9
$PSVPSCALE
 40
0.0
  9
$OLESTARTUP
290
     0
  9
$SORTENTS
280
   127
  9
$INDEXCTL
280
     0
  9
$HIDETEXT
280
     1
  9
$XCLIPFRAME
280
     2
  9
$HALOGAP
280
     0
  9
$OBSCOLOR
 70
   257
  9
$OBSLTYPE
280
     0
  9
$INTERSECTIONDISPLAY
280
     0
  9
$INTERSECTIONCOLOR
 70
   257
  9
$DIMASSOC
280
     2
  9
$PROJECTNAME
  1

  9
$CAMERADISPLAY
290
     0
  9
$LENSLENGTH
 40
50.0
  9
$CAMERAHEIGHT
 40
0.0
  9
$STEPSPERSEC
 40
2.0
  9
$STEPSIZE
 40
6.0
  9
$3DDWFPREC
 40
2.0
  9
$PSOLWIDTH
 40
0.25
  9
$PSOLHEIGHT
 40
4.0
  9
$LOFTANG1
 40
1.570796326794897
  9
$LOFTANG2
 40
1.570796326794897
  9
$LOFTMAG1
 40
0.0
  9
$LOFTMAG2
 40
0.0
  9
$LOFTPARAM
 70
     7
  9
$LOFTNORMALS
280
     1
  9
$LATITUDE
 40
37.795
  9
$LONGITUDE
 40
-122.394
  9
$NORTHDIRECTION
 40
0.0
  9
$TIMEZONE
 70
 -8000
  9
$LIGHTGLYPHDISPLAY
280
     1
  9
$TILEMODELIGHTSYNCH
280
     1
  9
$CMATERIAL
347
3C
  9
$SOLIDHIST
280
     1
  9
$SHOWHIST
280
     1
  9
$DWFFRAME
280
     2
  9
$DGNFRAME
280
     2
  9
$REALWORLDSCALE
290
     1
  9
$INTERFERECOLOR
 62
   256
  9
$CSHADOW
280
     0
  9
$SHADOWPLANELOCATION
 40
0.0
  0
ENDSEC
  0
SECTION
  2
CLASSES
  0
CLASS
  1
ACDBDICTIONARYWDFLT
  2
AcDbDictionaryWithDefault
  3
ObjectDBX Classes
 90
        0
 91
        4
280
     0
281
     0
  0
CLASS
  1
VISUALSTYLE
  2
AcDbVisualStyle
  3
ObjectDBX Classes
 90
     4095
 91
        4
280
     0
281
     0
  0
CLASS
  1
MATERIAL
  2
AcDbMaterial
  3
ObjectDBX Classes
 90
     1153
 91
        4
280
     0
281
     0
  0
CLASS
  1
SUN
  2
AcDbSun
  3
SCENEOE
 90
     1024
 91
        4
280
     0
281
     0
  0
ENDSEC
  0
SECTION
  2
TABLES
  0
TABLE
  2
VPORT
  5
8
330
0
100
AcDbSymbolTable
 70
     1
  0
VPORT
  5
29
330
8
100
AcDbSymbolTableRecord
100
AcDbViewportTableRecord
  2
*Active
 70
     0
 10
0.0
 20
0.0
 11
1.0
 21
1.0
 12
0.0
 22
0.0
 13
0.0
 23
0.0
 14
0.5
 24
0.5
 15
0.5
 25
0.5
 16
0.0
 26
0.0
 36
1.0
 17
91.00082462281999
 27
-128.4993055234307
 37
0.0
 40
256.9986110468615
 41
0.7081814508812795
 42
50.0
 43
0.0
 44
0.0
 50
0.0
 51
0.0
 71
     0
 72
   100
 73
     1
 74
     3
 75
     0
 76
     0
 77
     0
 78
     0
281
     0
 65
     1
110
0.0
120
0.0
130
0.0
111
1.0
121
0.0
131
0.0
112
0.0
122
1.0
132
0.0
 79
     0
146
0.0
 60
     3
 61
     5
292
     1
282
     1
141
0.0
142
0.0
 63
   250
361
3F
  0
ENDTAB
  0
TABLE
  2
LTYPE
  5
5
330
0
100
AcDbSymbolTable
 70
     1
  0
LTYPE
  5
14
330
5
100
AcDbSymbolTableRecord
100
AcDbLinetypeTableRecord
  2
ByBlock
 70
     0
  3

 72
    65
 73
     0
 40
0.0
  0
LTYPE
  5
15
330
5
100
AcDbSymbolTableRecord
100
AcDbLinetypeTableRecord
  2
ByLayer
 70
     0
  3

 72
    65
 73
     0
 40
0.0
  0
LTYPE
  5
16
330
5
100
AcDbSymbolTableRecord
100
AcDbLinetypeTableRecord
  2
Continuous
 70
     0
  3
Solid line
 72
    65
 73
     0
 40
0.0
  0
ENDTAB
  0
TABLE
  2
LAYER
  5
2
330
0
100
AcDbSymbolTable
 70
     2
  0
LAYER
  5
10
330
2
100
AcDbSymbolTableRecord
100
AcDbLayerTableRecord
  2
0
 70
     0
 62
     7
  6
Continuous
370
    -3
390
F
347
3E
  0
LAYER
  5
40
330
2
100
AcDbSymbolTableRecord
100
AcDbLayerTableRecord
  2
_U+30EC_U+30A4_U+30E4_U+30FC 1
 70
     0
 62
     7
  6
Continuous
370
    -3
390
F
347
3E
  0
ENDTAB
  0
TABLE
  2
STYLE
  5
3
330
0
100
AcDbSymbolTable
 70
     1
  0
STYLE
  5
11
330
3
100
AcDbSymbolTableRecord
100
AcDbTextStyleTableRecord
  2
Standard
 70
     0
 40
0.0
 41
1.0
 50
0.0
 71
     0
 42
0.2
  3
txt
  4

  0
ENDTAB
  0
TABLE
  2
VIEW
  5
6
330
0
100
AcDbSymbolTable
 70
     0
  0
ENDTAB
  0
TABLE
  2
UCS
  5
7
330
0
100
AcDbSymbolTable
 70
     0
  0
ENDTAB
  0
TABLE
  2
APPID
  5
9
330
0
100
AcDbSymbolTable
 70
     1
  0
APPID
  5
12
330
9
100
AcDbSymbolTableRecord
100
AcDbRegAppTableRecord
  2
ACAD
 70
     0
  0
ENDTAB
  0
TABLE
  2
DIMSTYLE
  5
A
330
0
100
AcDbSymbolTable
 70
     1
100
AcDbDimStyleTable
  0
DIMSTYLE
105
27
330
A
100
AcDbSymbolTableRecord
100
AcDbDimStyleTableRecord
  2
Standard
 70
     0
178
     0
340
11
  0
ENDTAB
  0
TABLE
  2
BLOCK_RECORD
  5
1
330
0
100
AcDbSymbolTable
 70
     6
  0
BLOCK_RECORD
  5
1F
330
1
100
AcDbSymbolTableRecord
100
AcDbBlockTableRecord
  2
*Model_Space
340
22
 70
     0
280
     1
281
     0
  0
BLOCK_RECORD
  5
1B
330
1
100
AcDbSymbolTableRecord
100
AcDbBlockTableRecord
  2
*Paper_Space
340
1E
 70
     0
280
     1
281
     0
  0
BLOCK_RECORD
  5
23
330
1
100
AcDbSymbolTableRecord
100
AcDbBlockTableRecord
  2
*Paper_Space0
340
26
 70
     0
280
     1
281
     0
  0
BLOCK_RECORD
  5
7D
330
1
100
AcDbSymbolTableRecord
100
AcDbBlockTableRecord
  2
block 2
340
0
102
{BLKREFS
331
7E
102
}
 70
     0
280
     1
281
     0
  0
BLOCK_RECORD
  5
91
330
1
100
AcDbSymbolTableRecord
100
AcDbBlockTableRecord
  2
block 3
340
0
102
{BLKREFS
331
92
102
}
 70
     0
280
     1
281
     0
  0
BLOCK_RECORD
  5
A7
330
1
100
AcDbSymbolTableRecord
100
AcDbBlockTableRecord
  2
block 4
340
0
102
{BLKREFS
331
A8
102
}
 70
     0
280
     1
281
     0
  0
BLOCK_RECORD
  5
C4
330
1
100
AcDbSymbolTableRecord
100
AcDbBlockTableRecord
  2
block 5
340
0
102
{BLKREFS
331
C5
102
}
 70
     0
280
     1
281
     0
  0
BLOCK_RECORD
  5
CC
330
1
100
AcDbSymbolTableRecord
100
AcDbBlockTableRecord
  2
block 6
340
0
102
{BLKREFS
331
CD
102
}
 70
     0
280
     1
281
     0
  0
ENDTAB
  0
ENDSEC
  0
SECTION
  2
BLOCKS
  0
BLOCK
  5
20
330
1F
100
AcDbEntity
  8
0
100
AcDbBlockBegin
  2
*Model_Space
 70
     0
 10
0.0
 20
0.0
 30
0.0
  3
*Model_Space
  1

  0
ENDBLK
  5
21
330
1F
100
AcDbEntity
  8
0
100
AcDbBlockEnd
  0
BLOCK
  5
1C
330
1B
100
AcDbEntity
 67
     1
  8
0
100
AcDbBlockBegin
  2
*Paper_Space
 70
     0
 10
0.0
 20
0.0
 30
0.0
  3
*Paper_Space
  1

  0
ENDBLK
  5
1D
330
1B
100
AcDbEntity
 67
     1
  8
0
100
AcDbBlockEnd
  0
BLOCK
  5
24
330
23
100
AcDbEntity
  8
0
100
AcDbBlockBegin
  2
*Paper_Space0
 70
     0
 10
0.0
 20
0.0
 30
0.0
  3
*Paper_Space0
  1

  0
ENDBLK
  5
25
330
23
100
AcDbEntity
  8
0
100
AcDbBlockEnd
  0
BLOCK
  5
7F
330
7D
100
AcDbEntity
  8
0
100
AcDbBlockBegin
  2
block 2
 70
     0
 10
0.0
 20
0.0
 30
0.0
  3
block 2
  1

  0
SPLINE
  5
81
330
7D
100
AcDbEntity
  8
_U+30EC_U+30A4_U+30E4_U+30FC 1
370
     0
100
AcDbSpline
210
0.0
220
0.0
230
1.0
 70
    11
 71
     3
 72
    29
 73
    25
 74
     0
 42
0.0000000001
 43
0.0000000001
 12
1.0
 22
0.0
 32
0.0
 13
1.0
 23
0.0
 33
0.0
 40
0.0
 40
0.0
 40
0.0
 40
0.0
 40
1.0
 40
1.0
 40
1.0
 40
2.0
 40
2.0
 40
2.0
 40
3.0
 40
3.0
 40
3.0
 40
4.0
 40
4.0
 40
4.0
 40
5.0
 40
5.0
 40
5.0
 40
6.0
 40
6.0
 40
6.0
 40
7.0
 40
7.0
 40
7.0
 40
8.0
 40
8.0
 40
8.0
 40
8.0
 10
84.3783121533846
 20
-121.1007907140824
 30
0.0
 10
84.09340275675443
 20
-121.1007907140824
 30
0.0
 10
83.82210148729101
 20
-120.9631591494467
 30
0.0
 10
83.82210148729101
 20
-120.6141709767909
 30
0.0
 10
83.82210148729101
 20
-120.3582003822368
 30
0.0
 10
83.97351343386774
 20
-120.2629434920697
 30
0.0
 10
84.08668482055819
 20
-120.2016207924322
 30
0.0
 10
83.95318737050476
 20
-120.1423651500859
 30
0.0
 10
83.87188311705286
 20
-120.0281602347499
 30
0.0
 10
83.87188311705286
 20
-119.867446530363
 30
0.0
 10
83.87188311705286
 20
-119.5923556558658
 30
0.0
 10
84.08444550849278
 20
-119.4569634032955
 30
0.0
 10
84.3783121533846
 20
-119.4569634032955
 30
0.0
 10
84.68113604653806
 20
-119.4569634032955
 30
0.0
 10
84.88474118971632
 20
-119.6007961398047
 30
0.0
 10
84.88474118971632
 20
-119.867446530363
 30
0.0
 10
84.88474118971632
 20
-120.0281602347499
 30
0.0
 10
84.80102536942475
 20
-120.1423651500859
 30
0.0
 10
84.66770017414558
 20
-120.2016207924322
 30
0.0
 10
84.76261255476422
 20
-120.2524359508397
 30
0.0
 10
84.9321112526385
 20
-120.3476928410068
 30
0.0
 10
84.9321112526385
 20
-120.6100368622086
 30
0.0
 10
84.9321112526385
 20
-120.984346486681
 30
0.0
 10
84.63376598361587
 20
-121.1007907140824
 30
0.0
 10
84.3783121533846
 20
-121.1007907140824
 30
0.0
  0
SPLINE
  5
82
330
7D
100
AcDbEntity
  8
_U+30EC_U+30A4_U+30E4_U+30FC 1
370
     0
100
AcDbSpline
210
0.0
220
0.0
230
1.0
 70
    11
 71
     3
 72
    17
 73
    13
 74
     0
 42
0.0000000001
 43
0.0000000001
 12
1.0
 22
0.0
 32
0.0
 13
1.0
 23
0.0
 33
0.0
 40
0.0
 40
0.0
 40
0.0
 40
0.0
 40
1.0
 40
1.0
 40
1.0
 40
2.0
 40
2.0
 40
2.0
 40
3.0
 40
3.0
 40
3.0
 40
4.0
 40
4.0
 40
4.0
 40
4.0
 10
84.3783121533846
 20
-120.3096245358948
 30
0.0
 10
84.22448863996819
 20
-120.3096245358948
 30
0.0
 10
84.06170787829014
 20
-120.3962686873489
 30
0.0
 10
84.06170787829014
 20
-120.5993570662043
 30
0.0
 10
84.06170787829014
 20
-120.804512502351
 30
0.0
 10
84.19744464040897
 20
-120.9061428191658
 30
0.0
 10
84.3783121533846
 20
-120.9061428191658
 30
0.0
 10
84.57726641765777
 20
-120.9061428191658
 30
0.0
 10
84.69474417370479
 20
-120.7834974198909
 30
0.0
 10
84.69474417370479
 20
-120.605730492852
 30
0.0
 10
84.69474417370479
 20
-120.3835218340534
 30
0.0
 10
84.52076685169968
 20
-120.3096245358948
 30
0.0
 10
84.3783121533846
 20
-120.3096245358948
 30
0.0
  0
SPLINE
  5
83
330
7D
100
AcDbEntity
  8
_U+30EC_U+30A4_U+30E4_U+30FC 1
370
     0
100
AcDbSpline
210
0.0
220
0.0
230
1.0
 70
    11
 71
     3
 72
    17
 73
    13
 74
     0
 42
0.0000000001
 43
0.0000000001
 12
1.0
 22
0.0
 32
0.0
 13
1.0
 23
0.0
 33
0.0
 40
0.0
 40
0.0
 40
0.0
 40
0.0
 40
1.0
 40
1.0
 40
1.0
 40
2.0
 40
2.0
 40
2.0
 40
3.0
 40
3.0
 40
3.0
 40
4.0
 40
4.0
 40
4.0
 40
4.0
 10
84.3783121533846
 20
-119.6495442409209
 30
0.0
 10
84.2019232645398
 20
-119.6495442409209
 30
0.0
 10
84.11148950805199
 20
-119.7446288763139
 30
0.0
 10
84.11148950805199
 20
-119.8800211288842
 30
0.0
 10
84.11148950805199
 20
-120.0028387829333
 30
0.0
 10
84.18831513737307
 20
-120.1213500676259
 30
0.0
 10
84.3783121533846
 20
-120.1213500676259
 30
0.0
 10
84.56813691462186
 20
-120.1213500676259
 30
0.0
 10
84.64496254394292
 20
-120.0028387829333
 30
0.0
 10
84.64496254394292
 20
-119.8800211288842
 30
0.0
 10
84.64496254394292
 20
-119.7446288763139
 30
0.0
 10
84.55228947538971
 20
-119.6495442409209
 30
0.0
 10
84.3783121533846
 20
-119.6495442409209
 30
0.0
  0
HATCH
  5
84
330
7D
100
AcDbEntity
  8
_U+30EC_U+30A4_U+30E4_U+30FC 1
 62
   179
420
  2234388
100
AcDbHatch
 10
0.0
 20
0.0
 30
0.0
210
0.0
220
0.0
230
1.0
  2
SOLID
 70
     1
 71
     0
 91
        3
 92
        1
 93
        1
 72
     4
 94
        3
 73
     0
 74
     1
 95
       29
 96
       25
 40
0.0
 40
0.0
 40
0.0
 40
0.0
 40
1.0
 40
1.0
 40
1.0
 40
2.0
 40
2.0
 40
2.0
 40
3.0
 40
3.0
 40
3.0
 40
4.0
 40
4.0
 40
4.0
 40
5.0
 40
5.0
 40
5.0
 40
6.0
 40
6.0
 40
6.0
 40
7.0
 40
7.0
 40
7.0
 40
8.0
 40
8.0
 40
8.0
 40
8.0
 10
84.3783121533846
 20
-121.1007907140824
 10
84.09340275675443
 20
-121.1007907140824
 10
83.82210148729101
 20
-120.9631591494467
 10
83.82210148729101
 20
-120.6141709767909
 10
83.82210148729101
 20
-120.3582003822368
 10
83.97351343386774
 20
-120.2629434920697
 10
84.08668482055819
 20
-120.2016207924322
 10
83.95318737050476
 20
-120.1423651500859
 10
83.87188311705286
 20
-120.0281602347499
 10
83.87188311705286
 20
-119.867446530363
 10
83.87188311705286
 20
-119.5923556558658
 10
84.08444550849278
 20
-119.4569634032955
 10
84.3783121533846
 20
-119.4569634032955
 10
84.68113604653806
 20
-119.4569634032955
 10
84.88474118971632
 20
-119.6007961398047
 10
84.88474118971632
 20
-119.867446530363
 10
84.88474118971632
 20
-120.0281602347499
 10
84.80102536942475
 20
-120.1423651500859
 10
84.66770017414558
 20
-120.2016207924322
 10
84.76261255476422
 20
-120.2524359508397
 10
84.9321112526385
 20
-120.3476928410068
 10
84.9321112526385
 20
-120.6100368622086
 10
84.9321112526385
 20
-120.984346486681
 10
84.63376598361587
 20
-121.1007907140824
 10
84.3783121533846
 20
-121.1007907140824
 97
        0
 97
        0
 92
        1
 93
        1
 72
     4
 94
        3
 73
     0
 74
     1
 95
       17
 96
       13
 40
0.0
 40
0.0
 40
0.0
 40
0.0
 40
1.0
 40
1.0
 40
1.0
 40
2.0
 40
2.0
 40
2.0
 40
3.0
 40
3.0
 40
3.0
 40
4.0
 40
4.0
 40
4.0
 40
4.0
 10
84.3783121533846
 20
-120.3096245358948
 10
84.22448863996819
 20
-120.3096245358948
 10
84.06170787829014
 20
-120.3962686873489
 10
84.06170787829014
 20
-120.5993570662043
 10
84.06170787829014
 20
-120.804512502351
 10
84.19744464040897
 20
-120.9061428191658
 10
84.3783121533846
 20
-120.9061428191658
 10
84.57726641765777
 20
-120.9061428191658
 10
84.69474417370479
 20
-120.7834974198909
 10
84.69474417370479
 20
-120.605730492852
 10
84.69474417370479
 20
-120.3835218340534
 10
84.52076685169968
 20
-120.3096245358948
 10
84.3783121533846
 20
-120.3096245358948
 97
        0
 97
        0
 92
        1
 93
        1
 72
     4
 94
        3
 73
     0
 74
     1
 95
       17
 96
       13
 40
0.0
 40
0.0
 40
0.0
 40
0.0
 40
1.0
 40
1.0
 40
1.0
 40
2.0
 40
2.0
 40
2.0
 40
3.0
 40
3.0
 40
3.0
 40
4.0
 40
4.0
 40
4.0
 40
4.0
 10
84.3783121533846
 20
-119.6495442409209
 10
84.2019232645398
 20
-119.6495442409209
 10
84.11148950805199
 20
-119.7446288763139
 10
84.11148950805199
 20
-119.8800211288842
 10
84.11148950805199
 20
-120.0028387829333
 10
84.18831513737307
 20
-120.1213500676259
 10
84.3783121533846
 20
-120.1213500676259
 10
84.56813691462186
 20
-120.1213500676259
 10
84.64496254394292
 20
-120.0028387829333
 10
84.64496254394292
 20
-119.8800211288842
 10
84.64496254394292
 20
-119.7446288763139
 10
84.55228947538971
 20
-119.6495442409209
 10
84.3783121533846
 20
-119.6495442409209
 97
        0
 97
        0
 75
     2
 76
     1
 98
        0
  0
ENDBLK
  5
80
330
7D
100
AcDbEntity
  8
0
100
AcDbBlockEnd
  0
BLOCK
  5
93
330
91
100
AcDbEntity
  8
0
100
AcDbBlockBegin
  2
block 3
 70
     0
 10
0.0
 20
0.0
 30
0.0
  3
block 3
  1

  0
SPLINE
  5
95
330
91
100
AcDbEntity
  8
_U+30EC_U+30A4_U+30E4_U+30FC 1
370
     0
100
AcDbSpline
210
0.0
220
0.0
230
1.0
 70
    11
 71
     3
 72
    26
 73
    22
 74
     0
 42
0.0000000001
 43
0.0000000001
 12
1.0
 22
0.0
 32
0.0
 13
1.0
 23
0.0
 33
0.0
 40
0.0
 40
0.0
 40
0.0
 40
0.0
 40
1.0
 40
1.0
 40
1.0
 40
2.0
 40
2.0
 40
2.0
 40
3.0
 40
3.0
 40
3.0
 40
4.0
 40
4.0
 40
4.0
 40
5.0
 40
5.0
 40
5.0
 40
6.0
 40
6.0
 40
6.0
 40
7.0
 40
7.0
 40
7.0
 40
7.0
 10
88.6593600581303
 20
-136.5508381820081
 30
0.0
 10
88.6593600581303
 20
-136.5508381820081
 30
0.0
 10
88.6593600581303
 20
-135.4466850789856
 30
0.0
 10
88.6593600581303
 20
-135.4466850789856
 30
0.0
 10
88.6593600581303
 20
-135.4466850789856
 30
0.0
 10
88.30692678998925
 20
-135.4466850789856
 30
0.0
 10
88.30692678998925
 20
-135.4466850789856
 30
0.0
 10
88.30692678998925
 20
-135.4466850789856
 30
0.0
 10
88.30692678998925
 20
-135.2985459731198
 30
0.0
 10
88.30692678998925
 20
-135.2985459731198
 30
0.0
 10
88.66177162496997
 20
-135.2837320625332
 30
0.0
 10
88.71138099995757
 20
-135.1207790460809
 30
0.0
 10
88.74307587842188
 20
-135.0064018759706
 30
0.0
 10
88.74307587842188
 20
-135.0064018759706
 30
0.0
 10
88.89913870390369
 20
-135.0064018759706
 30
0.0
 10
88.89913870390369
 20
-135.0064018759706
 30
0.0
 10
88.89913870390369
 20
-135.0064018759706
 30
0.0
 10
88.89913870390369
 20
-136.5508381820081
 30
0.0
 10
88.89913870390369
 20
-136.5508381820081
 30
0.0
 10
88.89913870390369
 20
-136.5508381820081
 30
0.0
 10
88.6593600581303
 20
-136.5508381820081
 30
0.0
 10
88.6593600581303
 20
-136.5508381820081
 30
0.0
  0
HATCH
  5
96
330
91
100
AcDbEntity
  8
_U+30EC_U+30A4_U+30E4_U+30FC 1
 62
   179
420
  2234388
100
AcDbHatch
 10
0.0
 20
0.0
 30
0.0
210
0.0
220
0.0
230
1.0
  2
SOLID
 70
     1
 71
     0
 91
        1
 92
        1
 93
        1
 72
     4
 94
        3
 73
     0
 74
     1
 95
       26
 96
       22
 40
0.0
 40
0.0
 40
0.0
 40
0.0
 40
1.0
 40
1.0
 40
1.0
 40
2.0
 40
2.0
 40
2.0
 40
3.0
 40
3.0
 40
3.0
 40
4.0
 40
4.0
 40
4.0
 40
5.0
 40
5.0
 40
5.0
 40
6.0
 40
6.0
 40
6.0
 40
7.0
 40
7.0
 40
7.0
 40
7.0
 10
88.6593600581303
 20
-136.5508381820081
 10
88.6593600581303
 20
-136.5508381820081
 10
88.6593600581303
 20
-135.4466850789856
 10
88.6593600581303
 20
-135.4466850789856
 10
88.6593600581303
 20
-135.4466850789856
 10
88.30692678998925
 20
-135.4466850789856
 10
88.30692678998925
 20
-135.4466850789856
 10
88.30692678998925
 20
-135.4466850789856
 10
88.30692678998925
 20
-135.2985459731198
 10
88.30692678998925
 20
-135.2985459731198
 10
88.66177162496997
 20
-135.2837320625332
 10
88.71138099995757
 20
-135.1207790460809
 10
88.74307587842188
 20
-135.0064018759706
 10
88.74307587842188
 20
-135.0064018759706
 10
88.89913870390369
 20
-135.0064018759706
 10
88.89913870390369
 20
-135.0064018759706
 10
88.89913870390369
 20
-135.0064018759706
 10
88.89913870390369
 20
-136.5508381820081
 10
88.89913870390369
 20
-136.5508381820081
 10
88.89913870390369
 20
-136.5508381820081
 10
88.6593600581303
 20
-136.5508381820081
 10
88.6593600581303
 20
-136.5508381820081
 97
        0
 97
        0
 75
     2
 76
     1
 98
        0
  0
SPLINE
  5
97
330
91
100
AcDbEntity
  8
_U+30EC_U+30A4_U+30E4_U+30FC 1
370
     0
100
AcDbSpline
210
0.0
220
0.0
230
1.0
 70
    11
 71
     3
 72
    29
 73
    25
 74
     0
 42
0.0000000001
 43
0.0000000001
 12
1.0
 22
0.0
 32
0.0
 13
1.0
 23
0.0
 33
0.0
 40
0.0
 40
0.0
 40
0.0
 40
0.0
 40
1.0
 40
1.0
 40
1.0
 40
2.0
 40
2.0
 40
2.0
 40
3.0
 40
3.0
 40
3.0
 40
4.0
 40
4.0
 40
4.0
 40
5.0
 40
5.0
 40
5.0
 40
6.0
 40
6.0
 40
6.0
 40
7.0
 40
7.0
 40
7.0
 40
8.0
 40
8.0
 40
8.0
 40
8.0
 10
89.9691853616223
 20
-136.6014810856413
 30
0.0
 10
89.68427596499212
 20
-136.6014810856413
 30
0.0
 10
89.41314695030297
 20
-136.4640217757798
 30
0.0
 10
89.41314695030297
 20
-136.115033603124
 30
0.0
 10
89.41314695030297
 20
-135.85906300857
 30
0.0
 10
89.56473115165396
 20
-135.7639783731771
 30
0.0
 10
89.67773028357016
 20
-135.7026556735396
 30
0.0
 10
89.54440508829099
 20
-135.6434000311933
 30
0.0
 10
89.46275632529057
 20
-135.529022861083
 30
0.0
 10
89.46275632529057
 20
-135.3681369019219
 30
0.0
 10
89.46275632529057
 20
-135.0932182821989
 30
0.0
 10
89.67531871673047
 20
-134.9578260296286
 30
0.0
 10
89.9691853616223
 20
-134.9578260296286
 30
0.0
 10
90.27235376432428
 20
-134.9578260296286
 30
0.0
 10
90.47561439795402
 20
-135.101831020912
 30
0.0
 10
90.47561439795402
 20
-135.3681369019219
 30
0.0
 10
90.47561439795402
 20
-135.529022861083
 30
0.0
 10
90.39224308721097
 20
-135.6434000311933
 30
0.0
 10
90.25857338238328
 20
-135.7026556735396
 30
0.0
 10
90.35365801777617
 20
-135.7532985771728
 30
0.0
 10
90.52315671565046
 20
-135.8483832125657
 30
0.0
 10
90.52315671565046
 20
-136.1108994885417
 30
0.0
 10
90.52315671565046
 20
-136.4853813677884
 30
0.0
 10
90.22481144662783
 20
-136.6014810856413
 30
0.0
 10
89.9691853616223
 20
-136.6014810856413
 30
0.0
  0
SPLINE
  5
98
330
91
100
AcDbEntity
  8
_U+30EC_U+30A4_U+30E4_U+30FC 1
370
     0
100
AcDbSpline
210
0.0
220
0.0
230
1.0
 70
    11
 71
     3
 72
    17
 73
    13
 74
     0
 42
0.0000000001
 43
0.0000000001
 12
1.0
 22
0.0
 32
0.0
 13
1.0
 23
0.0
 33
0.0
 40
0.0
 40
0.0
 40
0.0
 40
0.0
 40
1.0
 40
1.0
 40
1.0
 40
2.0
 40
2.0
 40
2.0
 40
3.0
 40
3.0
 40
3.0
 40
4.0
 40
4.0
 40
4.0
 40
4.0
 10
89.9691853616223
 20
-135.8104871622279
 30
0.0
 10
89.81553410298015
 20
-135.8104871622279
 30
0.0
 10
89.65292559607636
 20
-135.8973035684562
 30
0.0
 10
89.65292559607636
 20
-136.1002196925375
 30
0.0
 10
89.65292559607636
 20
-136.3055473834583
 30
0.0
 10
89.78831784864667
 20
-136.4068331907247
 30
0.0
 10
89.9691853616223
 20
-136.4068331907247
 30
0.0
 10
90.16831188066973
 20
-136.4068331907247
 30
0.0
 10
90.28578963671676
 20
-136.2841877914498
 30
0.0
 10
90.28578963671676
 20
-136.1064208644109
 30
0.0
 10
90.28578963671676
 20
-135.8845567151608
 30
0.0
 10
90.11181231471163
 20
-135.8104871622279
 30
0.0
 10
89.9691853616223
 20
-135.8104871622279
 30
0.0
  0
SPLINE
  5
99
330
91
100
AcDbEntity
  8
_U+30EC_U+30A4_U+30E4_U+30FC 1
370
     0
100
AcDbSpline
210
0.0
220
0.0
230
1.0
 70
    11
 71
     3
 72
    17
 73
    13
 74
     0
 42
0.0000000001
 43
0.0000000001
 12
1.0
 22
0.0
 32
0.0
 13
1.0
 23
0.0
 33
0.0
 40
0.0
 40
0.0
 40
0.0
 40
0.0
 40
1.0
 40
1.0
 40
1.0
 40
2.0
 40
2.0
 40
2.0
 40
3.0
 40
3.0
 40
3.0
 40
4.0
 40
4.0
 40
4.0
 40
4.0
 10
89.9691853616223
 20
-135.1504068672541
 30
0.0
 10
89.79314098232602
 20
-135.1504068672541
 30
0.0
 10
89.70253497106395
 20
-135.245491502647
 30
0.0
 10
89.70253497106395
 20
-135.3808837552173
 30
0.0
 10
89.70253497106395
 20
-135.5035291544922
 30
0.0
 10
89.77936060038502
 20
-135.6220404391848
 30
0.0
 10
89.9691853616223
 20
-135.6220404391848
 30
0.0
 10
90.15935463240808
 20
-135.6220404391848
 30
0.0
 10
90.23618026172916
 20
-135.5035291544922
 30
0.0
 10
90.23618026172916
 20
-135.3808837552173
 30
0.0
 10
90.23618026172916
 20
-135.245491502647
 30
0.0
 10
90.14350719317594
 20
-135.1504068672541
 30
0.0
 10
89.9691853616223
 20
-135.1504068672541
 30
0.0
  0
HATCH
  5
9A
330
91
100
AcDbEntity
  8
_U+30EC_U+30A4_U+30E4_U+30FC 1
 62
   179
420
  2234388
100
AcDbHatch
 10
0.0
 20
0.0
 30
0.0
210
0.0
220
0.0
230
1.0
  2
SOLID
 70
     1
 71
     0
 91
        3
 92
        1
 93
        1
 72
     4
 94
        3
 73
     0
 74
     1
 95
       29
 96
       25
 40
0.0
 40
0.0
 40
0.0
 40
0.0
 40
1.0
 40
1.0
 40
1.0
 40
2.0
 40
2.0
 40
2.0
 40
3.0
 40
3.0
 40
3.0
 40
4.0
 40
4.0
 40
4.0
 40
5.0
 40
5.0
 40
5.0
 40
6.0
 40
6.0
 40
6.0
 40
7.0
 40
7.0
 40
7.0
 40
8.0
 40
8.0
 40
8.0
 40
8.0
 10
89.9691853616223
 20
-136.6014810856413
 10
89.68427596499212
 20
-136.6014810856413
 10
89.41314695030297
 20
-136.4640217757798
 10
89.41314695030297
 20
-136.115033603124
 10
89.41314695030297
 20
-135.85906300857
 10
89.56473115165396
 20
-135.7639783731771
 10
89.67773028357016
 20
-135.7026556735396
 10
89.54440508829099
 20
-135.6434000311933
 10
89.46275632529057
 20
-135.529022861083
 10
89.46275632529057
 20
-135.3681369019219
 10
89.46275632529057
 20
-135.0932182821989
 10
89.67531871673047
 20
-134.9578260296286
 10
89.9691853616223
 20
-134.9578260296286
 10
90.27235376432428
 20
-134.9578260296286
 10
90.47561439795402
 20
-135.101831020912
 10
90.47561439795402
 20
-135.3681369019219
 10
90.47561439795402
 20
-135.529022861083
 10
90.39224308721097
 20
-135.6434000311933
 10
90.25857338238328
 20
-135.7026556735396
 10
90.35365801777617
 20
-135.7532985771728
 10
90.52315671565046
 20
-135.8483832125657
 10
90.52315671565046
 20
-136.1108994885417
 10
90.52315671565046
 20
-136.4853813677884
 10
90.22481144662783
 20
-136.6014810856413
 10
89.9691853616223
 20
-136.6014810856413
 97
        0
 97
        0
 92
        1
 93
        1
 72
     4
 94
        3
 73
     0
 74
     1
 95
       17
 96
       13
 40
0.0
 40
0.0
 40
0.0
 40
0.0
 40
1.0
 40
1.0
 40
1.0
 40
2.0
 40
2.0
 40
2.0
 40
3.0
 40
3.0
 40
3.0
 40
4.0
 40
4.0
 40
4.0
 40
4.0
 10
89.9691853616223
 20
-135.8104871622279
 10
89.81553410298015
 20
-135.8104871622279
 10
89.65292559607636
 20
-135.8973035684562
 10
89.65292559607636
 20
-136.1002196925375
 10
89.65292559607636
 20
-136.3055473834583
 10
89.78831784864667
 20
-136.4068331907247
 10
89.9691853616223
 20
-136.4068331907247
 10
90.16831188066973
 20
-136.4068331907247
 10
90.28578963671676
 20
-136.2841877914498
 10
90.28578963671676
 20
-136.1064208644109
 10
90.28578963671676
 20
-135.8845567151608
 10
90.11181231471163
 20
-135.8104871622279
 10
89.9691853616223
 20
-135.8104871622279
 97
        0
 97
        0
 92
        1
 93
        1
 72
     4
 94
        3
 73
     0
 74
     1
 95
       17
 96
       13
 40
0.0
 40
0.0
 40
0.0
 40
0.0
 40
1.0
 40
1.0
 40
1.0
 40
2.0
 40
2.0
 40
2.0
 40
3.0
 40
3.0
 40
3.0
 40
4.0
 40
4.0
 40
4.0
 40
4.0
 10
89.9691853616223
 20
-135.1504068672541
 10
89.79314098232602
 20
-135.1504068672541
 10
89.70253497106395
 20
-135.245491502647
 10
89.70253497106395
 20
-135.3808837552173
 10
89.70253497106395
 20
-135.5035291544922
 10
89.77936060038502
 20
-135.6220404391848
 10
89.9691853616223
 20
-135.6220404391848
 10
90.15935463240808
 20
-135.6220404391848
 10
90.23618026172916
 20
-135.5035291544922
 10
90.23618026172916
 20
-135.3808837552173
 10
90.23618026172916
 20
-135.245491502647
 10
90.14350719317594
 20
-135.1504068672541
 10
89.9691853616223
 20
-135.1504068672541
 97
        0
 97
        0
 75
     2
 76
     1
 98
        0
  0
ENDBLK
  5
94
330
91
100
AcDbEntity
  8
0
100
AcDbBlockEnd
  0
BLOCK
  5
A9
330
A7
100
AcDbEntity
  8
0
100
AcDbBlockBegin
  2
block 4
 70
     0
 10
0.0
 20
0.0
 30
0.0
  3
block 4
  1

  0
SPLINE
  5
AB
330
A7
100
AcDbEntity
  8
_U+30EC_U+30A4_U+30E4_U+30FC 1
370
     0
100
AcDbSpline
210
0.0
220
0.0
230
1.0
 70
    11
 71
     3
 72
    53
 73
    49
 74
     0
 42
0.0000000001
 43
0.0000000001
 12
1.0
 22
0.0
 32
0.0
 13
1.0
 23
0.0
 33
0.0
 40
0.0
 40
0.0
 40
0.0
 40
0.0
 40
1.0
 40
1.0
 40
1.0
 40
2.0
 40
2.0
 40
2.0
 40
3.0
 40
3.0
 40
3.0
 40
4.0
 40
4.0
 40
4.0
 40
5.0
 40
5.0
 40
5.0
 40
6.0
 40
6.0
 40
6.0
 40
7.0
 40
7.0
 40
7.0
 40
8.0
 40
8.0
 40
8.0
 40
9.0
 40
9.0
 40
9.0
 40
10.0
 40
10.0
 40
10.0
 40
11.0
 40
11.0
 40
11.0
 40
12.0
 40
12.0
 40
12.0
 40
13.0
 40
13.0
 40
13.0
 40
14.0
 40
14.0
 40
14.0
 40
15.0
 40
15.0
 40
15.0
 40
16.0
 40
16.0
 40
16.0
 40
16.0
 10
100.9619682907317
 20
-130.1922254448825
 30
0.0
 10
100.9619682907317
 20
-130.2759412651741
 30
0.0
 10
100.945087322854
 20
-130.3841172634109
 30
0.0
 10
100.8816975659254
 20
-130.4929822807448
 30
0.0
 10
100.7717990199459
 20
-130.6783284178512
 30
0.0
 10
100.6405408819579
 20
-130.7007215385054
 30
0.0
 10
100.5327093932696
 20
-130.7210476018683
 30
0.0
 10
100.5327093932696
 20
-130.7210476018683
 30
0.0
 10
100.5327093932696
 20
-130.4836805229346
 30
0.0
 10
100.5327093932696
 20
-130.4836805229346
 30
0.0
 10
100.7314914027685
 20
-130.4251138996854
 30
0.0
 10
100.7611192239417
 20
-130.2893771375666
 30
0.0
 10
100.7611192239417
 20
-130.1898138780428
 30
0.0
 10
100.7611192239417
 20
-130.0406412435315
 30
0.0
 10
100.6615559644179
 20
-129.8776882270792
 30
0.0
 10
100.4290120191636
 20
-129.8776882270792
 30
0.0
 10
100.1730414246095
 20
-129.8776882270792
 30
0.0
 10
100.103105986259
 20
-130.0699245551561
 30
0.0
 10
100.103105986259
 20
-130.1987711263045
 30
0.0
 10
100.103105986259
 20
-130.2328775716084
 30
0.0
 10
100.103105986259
 20
-130.3841172634109
 30
0.0
 10
100.2322970669558
 20
-130.4792018988038
 30
0.0
 10
100.2322970669558
 20
-130.4792018988038
 30
0.0
 10
100.2133490417869
 20
-130.6669596027499
 30
0.0
 10
100.2133490417869
 20
-130.6669596027499
 30
0.0
 10
100.2133490417869
 20
-130.6669596027499
 30
0.0
 10
99.36688908106106
 20
-130.5381130316016
 30
0.0
 10
99.36688908106106
 20
-130.5381130316016
 30
0.0
 10
99.36688908106106
 20
-130.5381130316016
 30
0.0
 10
99.36688908106106
 20
-129.7061224719137
 30
0.0
 10
99.36688908106106
 20
-129.7061224719137
 30
0.0
 10
99.36688908106106
 20
-129.7061224719137
 30
0.0
 10
99.56153697597767
 20
-129.7061224719137
 30
0.0
 10
99.56153697597767
 20
-129.7061224719137
 30
0.0
 10
99.56153697597767
 20
-129.7061224719137
 30
0.0
 10
99.56153697597767
 20
-130.363791200048
 30
0.0
 10
99.56153697597767
 20
-130.363791200048
 30
0.0
 10
99.56153697597767
 20
-130.363791200048
 30
0.0
 10
99.98459470156635
 20
-130.434071147947
 30
0.0
 10
99.98459470156635
 20
-130.434071147947
 30
0.0
 10
99.9508327658109
 20
-130.3686143337273
 30
0.0
 10
99.91052514863348
 20
-130.2804198893049
 30
0.0
 10
99.91052514863348
 20
-130.1536403754477
 30
0.0
 10
99.91052514863348
 20
-129.8825113607585
 30
0.0
 10
100.0969048143855
 20
-129.6292968425927
 30
0.0
 10
100.4100639939947
 20
-129.6292968425927
 30
0.0
 10
100.7273572881862
 20
-129.6292968425927
 30
0.0
 10
100.9619682907317
 20
-129.8687309788176
 30
0.0
 10
100.9619682907317
 20
-130.1922254448825
 30
0.0
  0
HATCH
  5
AC
330
A7
100
AcDbEntity
  8
_U+30EC_U+30A4_U+30E4_U+30FC 1
 62
   179
420
  2234388
100
AcDbHatch
 10
0.0
 20
0.0
 30
0.0
210
0.0
220
0.0
230
1.0
  2
SOLID
 70
     1
 71
     0
 91
        1
 92
        1
 93
        1
 72
     4
 94
        3
 73
     0
 74
     1
 95
       53
 96
       49
 40
0.0
 40
0.0
 40
0.0
 40
0.0
 40
1.0
 40
1.0
 40
1.0
 40
2.0
 40
2.0
 40
2.0
 40
3.0
 40
3.0
 40
3.0
 40
4.0
 40
4.0
 40
4.0
 40
5.0
 40
5.0
 40
5.0
 40
6.0
 40
6.0
 40
6.0
 40
7.0
 40
7.0
 40
7.0
 40
8.0
 40
8.0
 40
8.0
 40
9.0
 40
9.0
 40
9.0
 40
10.0
 40
10.0
 40
10.0
 40
11.0
 40
11.0
 40
11.0
 40
12.0
 40
12.0
 40
12.0
 40
13.0
 40
13.0
 40
13.0
 40
14.0
 40
14.0
 40
14.0
 40
15.0
 40
15.0
 40
15.0
 40
16.0
 40
16.0
 40
16.0
 40
16.0
 10
100.9619682907317
 20
-130.1922254448825
 10
100.9619682907317
 20
-130.2759412651741
 10
100.945087322854
 20
-130.3841172634109
 10
100.8816975659254
 20
-130.4929822807448
 10
100.7717990199459
 20
-130.6783284178512
 10
100.6405408819579
 20
-130.7007215385054
 10
100.5327093932696
 20
-130.7210476018683
 10
100.5327093932696
 20
-130.7210476018683
 10
100.5327093932696
 20
-130.4836805229346
 10
100.5327093932696
 20
-130.4836805229346
 10
100.7314914027685
 20
-130.4251138996854
 10
100.7611192239417
 20
-130.2893771375666
 10
100.7611192239417
 20
-130.1898138780428
 10
100.7611192239417
 20
-130.0406412435315
 10
100.6615559644179
 20
-129.8776882270792
 10
100.4290120191636
 20
-129.8776882270792
 10
100.1730414246095
 20
-129.8776882270792
 10
100.103105986259
 20
-130.0699245551561
 10
100.103105986259
 20
-130.1987711263045
 10
100.103105986259
 20
-130.2328775716084
 10
100.103105986259
 20
-130.3841172634109
 10
100.2322970669558
 20
-130.4792018988038
 10
100.2322970669558
 20
-130.4792018988038
 10
100.2133490417869
 20
-130.6669596027499
 10
100.2133490417869
 20
-130.6669596027499
 10
100.2133490417869
 20
-130.6669596027499
 10
99.36688908106106
 20
-130.5381130316016
 10
99.36688908106106
 20
-130.5381130316016
 10
99.36688908106106
 20
-130.5381130316016
 10
99.36688908106106
 20
-129.7061224719137
 10
99.36688908106106
 20
-129.7061224719137
 10
99.36688908106106
 20
-129.7061224719137
 10
99.56153697597767
 20
-129.7061224719137
 10
99.56153697597767
 20
-129.7061224719137
 10
99.56153697597767
 20
-129.7061224719137
 10
99.56153697597767
 20
-130.363791200048
 10
99.56153697597767
 20
-130.363791200048
 10
99.56153697597767
 20
-130.363791200048
 10
99.98459470156635
 20
-130.434071147947
 10
99.98459470156635
 20
-130.434071147947
 10
99.9508327658109
 20
-130.3686143337273
 10
99.91052514863348
 20
-130.2804198893049
 10
99.91052514863348
 20
-130.1536403754477
 10
99.91052514863348
 20
-129.8825113607585
 10
100.0969048143855
 20
-129.6292968425927
 10
100.4100639939947
 20
-129.6292968425927
 10
100.7273572881862
 20
-129.6292968425927
 10
100.9619682907317
 20
-129.8687309788176
 10
100.9619682907317
 20
-130.1922254448825
 97
        0
 97
        0
 75
     2
 76
     1
 98
        0
  0
POLYLINE
  5
AD
330
A7
100
AcDbEntity
  8
_U+30EC_U+30A4_U+30E4_U+30FC 1
370
     0
100
AcDb2dPolyline
 66
     1
 10
0.0
 20
0.0
 30
0.0
  0
VERTEX
  5
AE
330
AD
100
AcDbEntity
  8
_U+30EC_U+30A4_U+30E4_U+30FC 1
370
     0
100
AcDbVertex
100
AcDb2dVertex
 10
100.9113253870986
 20
-129.3843505535914
 30
0.0
  0
VERTEX
  5
AF
330
AD
100
AcDbEntity
  8
_U+30EC_U+30A4_U+30E4_U+30FC 1
370
     0
100
AcDbVertex
100
AcDb2dVertex
 10
100.6594889071268
 20
-129.3843505535914
 30
0.0
  0
VERTEX
  5
B0
330
AD
100
AcDbEntity
  8
_U+30EC_U+30A4_U+30E4_U+30FC 1
370
     0
100
AcDbVertex
100
AcDb2dVertex
 10
100.6594889071268
 20
-129.1152885961934
 30
0.0
  0
VERTEX
  5
B1
330
AD
100
AcDbEntity
  8
_U+30EC_U+30A4_U+30E4_U+30FC 1
370
     0
100
AcDbVertex
100
AcDb2dVertex
 10
100.9113253870986
 20
-129.1152885961934
 30
0.0
  0
VERTEX
  5
B2
330
AD
100
AcDbEntity
  8
_U+30EC_U+30A4_U+30E4_U+30FC 1
370
     0
100
AcDbVertex
100
AcDb2dVertex
 10
100.9113253870986
 20
-129.3843505535914
 30
0.0
  0
SEQEND
  5
B3
330
AD
100
AcDbEntity
  8
_U+30EC_U+30A4_U+30E4_U+30FC 1
370
     0
  0
HATCH
  5
B4
330
A7
100
AcDbEntity
  8
_U+30EC_U+30A4_U+30E4_U+30FC 1
 62
   179
420
  2234388
100
AcDbHatch
 10
0.0
 20
0.0
 30
0.0
210
0.0
220
0.0
230
1.0
  2
SOLID
 70
     1
 71
     0
 91
        1
 92
        1
 93
        4
 72
     1
 10
100.9113253870986
 20
-129.3843505535914
 11
100.6594889071268
 21
-129.3843505535914
 72
     1
 10
100.6594889071268
 20
-129.3843505535914
 11
100.6594889071268
 21
-129.1152885961934
 72
     1
 10
100.6594889071268
 20
-129.1152885961934
 11
100.9113253870986
 21
-129.1152885961934
 72
     1
 10
100.9113253870986
 20
-129.1152885961934
 11
100.9113253870986
 21
-129.3843505535914
 97
        0
 75
     2
 76
     1
 98
        0
  0
SPLINE
  5
B5
330
A7
100
AcDbEntity
  8
_U+30EC_U+30A4_U+30E4_U+30FC 1
370
     0
100
AcDbSpline
210
0.0
220
0.0
230
1.0
 70
    11
 71
     3
 72
    53
 73
    49
 74
     0
 42
0.0000000001
 43
0.0000000001
 12
1.0
 22
0.0
 32
0.0
 13
1.0
 23
0.0
 33
0.0
 40
0.0
 40
0.0
 40
0.0
 40
0.0
 40
1.0
 40
1.0
 40
1.0
 40
2.0
 40
2.0
 40
2.0
 40
3.0
 40
3.0
 40
3.0
 40
4.0
 40
4.0
 40
4.0
 40
5.0
 40
5.0
 40
5.0
 40
6.0
 40
6.0
 40
6.0
 40
7.0
 40
7.0
 40
7.0
 40
8.0
 40
8.0
 40
8.0
 40
9.0
 40
9.0
 40
9.0
 40
10.0
 40
10.0
 40
10.0
 40
11.0
 40
11.0
 40
11.0
 40
12.0
 40
12.0
 40
12.0
 40
13.0
 40
13.0
 40
13.0
 40
14.0
 40
14.0
 40
14.0
 40
15.0
 40
15.0
 40
15.0
 40
16.0
 40
16.0
 40
16.0
 40
16.0
 10
100.9619682907317
 20
-128.3484103411768
 30
0.0
 10
100.9619682907317
 20
-128.4321261614684
 30
0.0
 10
100.945087322854
 20
-128.5403021597052
 30
0.0
 10
100.8816975659254
 20
-128.6491671770391
 30
0.0
 10
100.7717990199459
 20
-128.8345133141455
 30
0.0
 10
100.6405408819579
 20
-128.8569064347997
 30
0.0
 10
100.5327093932696
 20
-128.8772324981626
 30
0.0
 10
100.5327093932696
 20
-128.8772324981626
 30
0.0
 10
100.5327093932696
 20
-128.6398654192289
 30
0.0
 10
100.5327093932696
 20
-128.6398654192289
 30
0.0
 10
100.7314914027685
 20
-128.5812987959797
 30
0.0
 10
100.7611192239417
 20
-128.4455620338608
 30
0.0
 10
100.7611192239417
 20
-128.3459987743371
 30
0.0
 10
100.7611192239417
 20
-128.1968261398258
 30
0.0
 10
100.6615559644179
 20
-128.0338731233735
 30
0.0
 10
100.4290120191636
 20
-128.0338731233735
 30
0.0
 10
100.1730414246095
 20
-128.0338731233735
 30
0.0
 10
100.103105986259
 20
-128.2261094514504
 30
0.0
 10
100.103105986259
 20
-128.3549560225988
 30
0.0
 10
100.103105986259
 20
-128.3890624679027
 30
0.0
 10
100.103105986259
 20
-128.5403021597052
 30
0.0
 10
100.2322970669558
 20
-128.6353867950981
 30
0.0
 10
100.2322970669558
 20
-128.6353867950981
 30
0.0
 10
100.2133490417869
 20
-128.8231444990442
 30
0.0
 10
100.2133490417869
 20
-128.8231444990442
 30
0.0
 10
100.2133490417869
 20
-128.8231444990442
 30
0.0
 10
99.36688908106106
 20
-128.6942979278959
 30
0.0
 10
99.36688908106106
 20
-128.6942979278959
 30
0.0
 10
99.36688908106106
 20
-128.6942979278959
 30
0.0
 10
99.36688908106106
 20
-127.862307368208
 30
0.0
 10
99.36688908106106
 20
-127.862307368208
 30
0.0
 10
99.36688908106106
 20
-127.862307368208
 30
0.0
 10
99.56153697597767
 20
-127.862307368208
 30
0.0
 10
99.56153697597767
 20
-127.862307368208
 30
0.0
 10
99.56153697597767
 20
-127.862307368208
 30
0.0
 10
99.56153697597767
 20
-128.5199760963422
 30
0.0
 10
99.56153697597767
 20
-128.5199760963422
 30
0.0
 10
99.56153697597767
 20
-128.5199760963422
 30
0.0
 10
99.98459470156635
 20
-128.5902560442413
 30
0.0
 10
99.98459470156635
 20
-128.5902560442413
 30
0.0
 10
99.9508327658109
 20
-128.5247992300216
 30
0.0
 10
99.91052514863348
 20
-128.4366047855992
 30
0.0
 10
99.91052514863348
 20
-128.309825271742
 30
0.0
 10
99.91052514863348
 20
-128.0386962570528
 30
0.0
 10
100.0969048143855
 20
-127.785481738887
 30
0.0
 10
100.4100639939947
 20
-127.785481738887
 30
0.0
 10
100.7273572881862
 20
-127.785481738887
 30
0.0
 10
100.9619682907317
 20
-128.0249158751118
 30
0.0
 10
100.9619682907317
 20
-128.3484103411768
 30
0.0
  0
HATCH
  5
B6
330
A7
100
AcDbEntity
  8
_U+30EC_U+30A4_U+30E4_U+30FC 1
 62
   179
420
  2234388
100
AcDbHatch
 10
0.0
 20
0.0
 30
0.0
210
0.0
220
0.0
230
1.0
  2
SOLID
 70
     1
 71
     0
 91
        1
 92
        1
 93
        1
 72
     4
 94
        3
 73
     0
 74
     1
 95
       53
 96
       49
 40
0.0
 40
0.0
 40
0.0
 40
0.0
 40
1.0
 40
1.0
 40
1.0
 40
2.0
 40
2.0
 40
2.0
 40
3.0
 40
3.0
 40
3.0
 40
4.0
 40
4.0
 40
4.0
 40
5.0
 40
5.0
 40
5.0
 40
6.0
 40
6.0
 40
6.0
 40
7.0
 40
7.0
 40
7.0
 40
8.0
 40
8.0
 40
8.0
 40
9.0
 40
9.0
 40
9.0
 40
10.0
 40
10.0
 40
10.0
 40
11.0
 40
11.0
 40
11.0
 40
12.0
 40
12.0
 40
12.0
 40
13.0
 40
13.0
 40
13.0
 40
14.0
 40
14.0
 40
14.0
 40
15.0
 40
15.0
 40
15.0
 40
16.0
 40
16.0
 40
16.0
 40
16.0
 10
100.9619682907317
 20
-128.3484103411768
 10
100.9619682907317
 20
-128.4321261614684
 10
100.945087322854
 20
-128.5403021597052
 10
100.8816975659254
 20
-128.6491671770391
 10
100.7717990199459
 20
-128.8345133141455
 10
100.6405408819579
 20
-128.8569064347997
 10
100.5327093932696
 20
-128.8772324981626
 10
100.5327093932696
 20
-128.8772324981626
 10
100.5327093932696
 20
-128.6398654192289
 10
100.5327093932696
 20
-128.6398654192289
 10
100.7314914027685
 20
-128.5812987959797
 10
100.7611192239417
 20
-128.4455620338608
 10
100.7611192239417
 20
-128.3459987743371
 10
100.7611192239417
 20
-128.1968261398258
 10
100.6615559644179
 20
-128.0338731233735
 10
100.4290120191636
 20
-128.0338731233735
 10
100.1730414246095
 20
-128.0338731233735
 10
100.103105986259
 20
-128.2261094514504
 10
100.103105986259
 20
-128.3549560225988
 10
100.103105986259
 20
-128.3890624679027
 10
100.103105986259
 20
-128.5403021597052
 10
100.2322970669558
 20
-128.6353867950981
 10
100.2322970669558
 20
-128.6353867950981
 10
100.2133490417869
 20
-128.8231444990442
 10
100.2133490417869
 20
-128.8231444990442
 10
100.2133490417869
 20
-128.8231444990442
 10
99.36688908106106
 20
-128.6942979278959
 10
99.36688908106106
 20
-128.6942979278959
 10
99.36688908106106
 20
-128.6942979278959
 10
99.36688908106106
 20
-127.862307368208
 10
99.36688908106106
 20
-127.862307368208
 10
99.36688908106106
 20
-127.862307368208
 10
99.56153697597767
 20
-127.862307368208
 10
99.56153697597767
 20
-127.862307368208
 10
99.56153697597767
 20
-127.862307368208
 10
99.56153697597767
 20
-128.5199760963422
 10
99.56153697597767
 20
-128.5199760963422
 10
99.56153697597767
 20
-128.5199760963422
 10
99.98459470156635
 20
-128.5902560442413
 10
99.98459470156635
 20
-128.5902560442413
 10
99.9508327658109
 20
-128.5247992300216
 10
99.91052514863348
 20
-128.4366047855992
 10
99.91052514863348
 20
-128.309825271742
 10
99.91052514863348
 20
-128.0386962570528
 10
100.0969048143855
 20
-127.785481738887
 10
100.4100639939947
 20
-127.785481738887
 10
100.7273572881862
 20
-127.785481738887
 10
100.9619682907317
 20
-128.0249158751118
 10
100.9619682907317
 20
-128.3484103411768
 97
        0
 97
        0
 75
     2
 76
     1
 98
        0
  0
ENDBLK
  5
AA
330
A7
100
AcDbEntity
  8
0
100
AcDbBlockEnd
  0
BLOCK
  5
C6
330
C4
100
AcDbEntity
  8
0
100
AcDbBlockBegin
  2
block 5
 70
     0
 10
0.0
 20
0.0
 30
0.0
  3
block 5
  1

  0
SPLINE
  5
C8
330
C4
100
AcDbEntity
  8
_U+30EC_U+30A4_U+30E4_U+30FC 1
370
     0
100
AcDbSpline
210
0.0
220
0.0
230
1.0
 70
    11
 71
     3
 72
    26
 73
    22
 74
     0
 42
0.0000000001
 43
0.0000000001
 12
1.0
 22
0.0
 32
0.0
 13
1.0
 23
0.0
 33
0.0
 40
0.0
 40
0.0
 40
0.0
 40
0.0
 40
1.0
 40
1.0
 40
1.0
 40
2.0
 40
2.0
 40
2.0
 40
3.0
 40
3.0
 40
3.0
 40
4.0
 40
4.0
 40
4.0
 40
5.0
 40
5.0
 40
5.0
 40
6.0
 40
6.0
 40
6.0
 40
7.0
 40
7.0
 40
7.0
 40
7.0
 10
100.9113253870986
 20
-132.6609808696125
 30
0.0
 10
100.9113253870986
 20
-132.6609808696125
 30
0.0
 10
99.80717228407599
 20
-132.6609808696125
 30
0.0
 10
99.80717228407599
 20
-132.6609808696125
 30
0.0
 10
99.80717228407599
 20
-132.6609808696125
 30
0.0
 10
99.80717228407599
 20
-133.0134141377536
 30
0.0
 10
99.80717228407599
 20
-133.0134141377536
 30
0.0
 10
99.80717228407599
 20
-133.0134141377536
 30
0.0
 10
99.65903317821025
 20
-133.0134141377536
 30
0.0
 10
99.65903317821025
 20
-133.0134141377536
 30
0.0
 10
99.64421926762367
 20
-132.6585693027729
 30
0.0
 10
99.48126625117135
 20
-132.6089599277853
 30
0.0
 10
99.36688908106106
 20
-132.577265049321
 30
0.0
 10
99.36688908106106
 20
-132.577265049321
 30
0.0
 10
99.36688908106106
 20
-132.4212022238391
 30
0.0
 10
99.36688908106106
 20
-132.4212022238391
 30
0.0
 10
99.36688908106106
 20
-132.4212022238391
 30
0.0
 10
100.9113253870986
 20
-132.4212022238391
 30
0.0
 10
100.9113253870986
 20
-132.4212022238391
 30
0.0
 10
100.9113253870986
 20
-132.4212022238391
 30
0.0
 10
100.9113253870986
 20
-132.6609808696125
 30
0.0
 10
100.9113253870986
 20
-132.6609808696125
 30
0.0
  0
HATCH
  5
C9
330
C4
100
AcDbEntity
  8
_U+30EC_U+30A4_U+30E4_U+30FC 1
 62
   179
420
  2234388
100
AcDbHatch
 10
0.0
 20
0.0
 30
0.0
210
0.0
220
0.0
230
1.0
  2
SOLID
 70
     1
 71
     0
 91
        1
 92
        1
 93
        1
 72
     4
 94
        3
 73
     0
 74
     1
 95
       26
 96
       22
 40
0.0
 40
0.0
 40
0.0
 40
0.0
 40
1.0
 40
1.0
 40
1.0
 40
2.0
 40
2.0
 40
2.0
 40
3.0
 40
3.0
 40
3.0
 40
4.0
 40
4.0
 40
4.0
 40
5.0
 40
5.0
 40
5.0
 40
6.0
 40
6.0
 40
6.0
 40
7.0
 40
7.0
 40
7.0
 40
7.0
 10
100.9113253870986
 20
-132.6609808696125
 10
100.9113253870986
 20
-132.6609808696125
 10
99.80717228407599
 20
-132.6609808696125
 10
99.80717228407599
 20
-132.6609808696125
 10
99.80717228407599
 20
-132.6609808696125
 10
99.80717228407599
 20
-133.0134141377536
 10
99.80717228407599
 20
-133.0134141377536
 10
99.80717228407599
 20
-133.0134141377536
 10
99.65903317821025
 20
-133.0134141377536
 10
99.65903317821025
 20
-133.0134141377536
 10
99.64421926762367
 20
-132.6585693027729
 10
99.48126625117135
 20
-132.6089599277853
 10
99.36688908106106
 20
-132.577265049321
 10
99.36688908106106
 20
-132.577265049321
 10
99.36688908106106
 20
-132.4212022238391
 10
99.36688908106106
 20
-132.4212022238391
 10
99.36688908106106
 20
-132.4212022238391
 10
100.9113253870986
 20
-132.4212022238391
 10
100.9113253870986
 20
-132.4212022238391
 10
100.9113253870986
 20
-132.4212022238391
 10
100.9113253870986
 20
-132.6609808696125
 10
100.9113253870986
 20
-132.6609808696125
 97
        0
 97
        0
 75
     2
 76
     1
 98
        0
  0
ENDBLK
  5
C7
330
C4
100
AcDbEntity
  8
0
100
AcDbBlockEnd
  0
BLOCK
  5
CE
330
CC
100
AcDbEntity
  8
0
100
AcDbBlockBegin
  2
block 6
 70
     0
 10
0.0
 20
0.0
 30
0.0
  3
block 6
  1

  0
SPLINE
  5
D0
330
CC
100
AcDbEntity
  8
_U+30EC_U+30A4_U+30E4_U+30FC 1
370
     0
100
AcDbSpline
210
0.0
220
0.0
230
1.0
 70
    11
 71
     3
 72
    26
 73
    22
 74
     0
 42
0.0000000001
 43
0.0000000001
 12
1.0
 22
0.0
 32
0.0
 13
1.0
 23
0.0
 33
0.0
 40
0.0
 40
0.0
 40
0.0
 40
0.0
 40
1.0
 40
1.0
 40
1.0
 40
2.0
 40
2.0
 40
2.0
 40
3.0
 40
3.0
 40
3.0
 40
4.0
 40
4.0
 40
4.0
 40
5.0
 40
5.0
 40
5.0
 40
6.0
 40
6.0
 40
6.0
 40
7.0
 40
7.0
 40
7.0
 40
7.0
 10
79.17673473498013
 20
-128.6593302087206
 30
0.0
 10
79.17673473498013
 20
-128.6593302087206
 30
0.0
 10
79.17673473498013
 20
-127.5550048509238
 30
0.0
 10
79.17673473498013
 20
-127.5550048509238
 30
0.0
 10
79.17673473498013
 20
-127.5550048509238
 30
0.0
 10
78.84669458749319
 20
-127.5550048509238
 30
0.0
 10
78.84669458749319
 20
-127.5550048509238
 30
0.0
 10
78.84669458749319
 20
-127.5550048509238
 30
0.0
 10
78.84669458749319
 20
-127.406865745058
 30
0.0
 10
78.84669458749319
 20
-127.406865745058
 30
0.0
 10
79.17880179227127
 20
-127.3922240892457
 30
0.0
 10
79.22531058132215
 20
-127.2292710727934
 30
0.0
 10
79.2549384024953
 20
-127.1150661574573
 30
0.0
 10
79.2549384024953
 20
-127.1150661574573
 30
0.0
 10
79.4010104510699
 20
-127.1150661574573
 30
0.0
 10
79.4010104510699
 20
-127.1150661574573
 30
0.0
 10
79.4010104510699
 20
-127.1150661574573
 30
0.0
 10
79.4010104510699
 20
-128.6593302087206
 30
0.0
 10
79.4010104510699
 20
-128.6593302087206
 30
0.0
 10
79.4010104510699
 20
-128.6593302087206
 30
0.0
 10
79.17673473498013
 20
-128.6593302087206
 30
0.0
 10
79.17673473498013
 20
-128.6593302087206
 30
0.0
  0
HATCH
  5
D1
330
CC
100
AcDbEntity
  8
_U+30EC_U+30A4_U+30E4_U+30FC 1
 62
   179
420
  2234388
100
AcDbHatch
 10
0.0
 20
0.0
 30
0.0
210
0.0
220
0.0
230
1.0
  2
SOLID
 70
     1
 71
     0
 91
        1
 92
        1
 93
        1
 72
     4
 94
        3
 73
     0
 74
     1
 95
       26
 96
       22
 40
0.0
 40
0.0
 40
0.0
 40
0.0
 40
1.0
 40
1.0
 40
1.0
 40
2.0
 40
2.0
 40
2.0
 40
3.0
 40
3.0
 40
3.0
 40
4.0
 40
4.0
 40
4.0
 40
5.0
 40
5.0
 40
5.0
 40
6.0
 40
6.0
 40
6.0
 40
7.0
 40
7.0
 40
7.0
 40
7.0
 10
79.17673473498013
 20
-128.6593302087206
 10
79.17673473498013
 20
-128.6593302087206
 10
79.17673473498013
 20
-127.5550048509238
 10
79.17673473498013
 20
-127.5550048509238
 10
79.17673473498013
 20
-127.5550048509238
 10
78.84669458749319
 20
-127.5550048509238
 10
78.84669458749319
 20
-127.5550048509238
 10
78.84669458749319
 20
-127.5550048509238
 10
78.84669458749319
 20
-127.406865745058
 10
78.84669458749319
 20
-127.406865745058
 10
79.17880179227127
 20
-127.3922240892457
 10
79.22531058132215
 20
-127.2292710727934
 10
79.2549384024953
 20
-127.1150661574573
 10
79.2549384024953
 20
-127.1150661574573
 10
79.4010104510699
 20
-127.1150661574573
 10
79.4010104510699
 20
-127.1150661574573
 10
79.4010104510699
 20
-127.1150661574573
 10
79.4010104510699
 20
-128.6593302087206
 10
79.4010104510699
 20
-128.6593302087206
 10
79.4010104510699
 20
-128.6593302087206
 10
79.17673473498013
 20
-128.6593302087206
 10
79.17673473498013
 20
-128.6593302087206
 97
        0
 97
        0
 75
     2
 76
     1
 98
        0
  0
ENDBLK
  5
CF
330
CC
100
AcDbEntity
  8
0
100
AcDbBlockEnd
  0
ENDSEC
  0
SECTION
  2
ENTITIES
  0
SPLINE
  5
41
330
1F
100
AcDbEntity
  8
_U+30EC_U+30A4_U+30E4_U+30FC 1
370
     0
100
AcDbSpline
210
0.0
220
0.0
230
1.0
 70
    11
 71
     3
 72
    44
 73
    40
 74
     0
 42
0.0000000001
 43
0.0000000001
 12
1.0
 22
0.0
 32
0.0
 13
1.0
 23
0.0
 33
0.0
 40
0.0
 40
0.0
 40
0.0
 40
0.0
 40
1.0
 40
1.0
 40
1.0
 40
2.0
 40
2.0
 40
2.0
 40
3.0
 40
3.0
 40
3.0
 40
4.0
 40
4.0
 40
4.0
 40
5.0
 40
5.0
 40
5.0
 40
6.0
 40
6.0
 40
6.0
 40
7.0
 40
7.0
 40
7.0
 40
8.0
 40
8.0
 40
8.0
 40
9.0
 40
9.0
 40
9.0
 40
10.0
 40
10.0
 40
10.0
 40
11.0
 40
11.0
 40
11.0
 40
12.0
 40
12.0
 40
12.0
 40
13.0
 40
13.0
 40
13.0
 40
13.0
 10
97.8358938928873
 20
-132.646173022394
 30
0.0
 10
97.8358938928873
 20
-132.646173022394
 30
0.0
 10
88.33551802415096
 20
-132.646173022394
 30
0.0
 10
88.33551802415096
 20
-132.646173022394
 30
0.0
 10
88.15704997796082
 20
-132.3367869113601
 30
0.0
 10
87.82702414823483
 20
-132.1466396891858
 30
0.0
 10
87.4697661017937
 20
-132.1466396891858
 30
0.0
 10
87.4697661017937
 20
-132.1466396891858
 30
0.0
 10
81.33541931384947
 20
-132.1466396891858
 30
0.0
 10
81.33541931384947
 20
-132.1466396891858
 30
0.0
 10
81.33541931384947
 20
-132.1466396891858
 30
0.0
 10
81.33541931384947
 20
-126.646199135005
 30
0.0
 10
81.33541931384947
 20
-126.646199135005
 30
0.0
 10
81.33541931384947
 20
-126.646199135005
 30
0.0
 10
88.33551802415096
 20
-126.646199135005
 30
0.0
 10
88.33551802415096
 20
-126.646199135005
 30
0.0
 10
88.33551802415096
 20
-126.646199135005
 30
0.0
 10
88.33551802415096
 20
-126.0464063573774
 30
0.0
 10
88.33551802415096
 20
-126.0464063573774
 30
0.0
 10
88.33551802415096
 20
-126.0464063573774
 30
0.0
 10
86.32563724209396
 20
-125.8455346907608
 30
0.0
 10
86.32563724209396
 20
-125.8455346907608
 30
0.0
 10
84.99961616481247
 20
-125.7125727463496
 30
0.0
 10
83.66809175433804
 20
-125.6464269130328
 30
0.0
 10
82.33589706610293
 20
-125.6464269130328
 30
0.0
 10
82.33589706610293
 20
-125.6464269130328
 30
0.0
 10
80.33564711713356
 20
-125.6464269130328
 30
0.0
 10
80.33564711713356
 20
-125.6464269130328
 30
0.0
 10
80.33564711713356
 20
-125.6464269130328
 30
0.0
 10
80.33564711713356
 20
-132.3464530224691
 30
0.0
 10
80.33564711713356
 20
-132.3464530224691
 30
0.0
 10
80.33564711713356
 20
-132.7880955223584
 30
0.0
 10
80.69396349688104
 20
-133.1464119111577
 30
0.0
 10
81.1356059856138
 20
-133.1464119111577
 30
0.0
 10
81.1356059856138
 20
-133.1464119111577
 30
0.0
 10
98.33542721347646
 20
-133.1464119111577
 30
0.0
 10
98.33542721347646
 20
-133.1464119111577
 30
0.0
 10
98.33542721347646
 20
-132.8700810778938
 30
0.0
 10
98.1114838858564
 20
-132.646173022394
 30
0.0
 10
97.8358938928873
 20
-132.646173022394
 30
0.0
  0
HATCH
  5
42
330
1F
100
AcDbEntity
  8
_U+30EC_U+30A4_U+30E4_U+30FC 1
 62
   253
420
 11711154
100
AcDbHatch
 10
0.0
 20
0.0
 30
0.0
210
0.0
220
0.0
230
1.0
  2
SOLID
 70
     1
 71
     0
 91
        1
 92
        1
 93
        1
 72
     4
 94
        3
 73
     0
 74
     1
 95
       44
 96
       40
 40
0.0
 40
0.0
 40
0.0
 40
0.0
 40
1.0
 40
1.0
 40
1.0
 40
2.0
 40
2.0
 40
2.0
 40
3.0
 40
3.0
 40
3.0
 40
4.0
 40
4.0
 40
4.0
 40
5.0
 40
5.0
 40
5.0
 40
6.0
 40
6.0
 40
6.0
 40
7.0
 40
7.0
 40
7.0
 40
8.0
 40
8.0
 40
8.0
 40
9.0
 40
9.0
 40
9.0
 40
10.0
 40
10.0
 40
10.0
 40
11.0
 40
11.0
 40
11.0
 40
12.0
 40
12.0
 40
12.0
 40
13.0
 40
13.0
 40
13.0
 40
13.0
 10
97.8358938928873
 20
-132.646173022394
 10
97.8358938928873
 20
-132.646173022394
 10
88.33551802415096
 20
-132.646173022394
 10
88.33551802415096
 20
-132.646173022394
 10
88.15704997796082
 20
-132.3367869113601
 10
87.82702414823483
 20
-132.1466396891858
 10
87.4697661017937
 20
-132.1466396891858
 10
87.4697661017937
 20
-132.1466396891858
 10
81.33541931384947
 20
-132.1466396891858
 10
81.33541931384947
 20
-132.1466396891858
 10
81.33541931384947
 20
-132.1466396891858
 10
81.33541931384947
 20
-126.646199135005
 10
81.33541931384947
 20
-126.646199135005
 10
81.33541931384947
 20
-126.646199135005
 10
88.33551802415096
 20
-126.646199135005
 10
88.33551802415096
 20
-126.646199135005
 10
88.33551802415096
 20
-126.646199135005
 10
88.33551802415096
 20
-126.0464063573774
 10
88.33551802415096
 20
-126.0464063573774
 10
88.33551802415096
 20
-126.0464063573774
 10
86.32563724209396
 20
-125.8455346907608
 10
86.32563724209396
 20
-125.8455346907608
 10
84.99961616481247
 20
-125.7125727463496
 10
83.66809175433804
 20
-125.6464269130328
 10
82.33589706610293
 20
-125.6464269130328
 10
82.33589706610293
 20
-125.6464269130328
 10
80.33564711713356
 20
-125.6464269130328
 10
80.33564711713356
 20
-125.6464269130328
 10
80.33564711713356
 20
-125.6464269130328
 10
80.33564711713356
 20
-132.3464530224691
 10
80.33564711713356
 20
-132.3464530224691
 10
80.33564711713356
 20
-132.7880955223584
 10
80.69396349688104
 20
-133.1464119111577
 10
81.1356059856138
 20
-133.1464119111577
 10
81.1356059856138
 20
-133.1464119111577
 10
98.33542721347646
 20
-133.1464119111577
 10
98.33542721347646
 20
-133.1464119111577
 10
98.33542721347646
 20
-132.8700810778938
 10
98.1114838858564
 20
-132.646173022394
 10
97.8358938928873
 20
-132.646173022394
 97
        0
 97
        0
 75
     2
 76
     1
 98
        0
  0
POLYLINE
  5
43
330
1F
100
AcDbEntity
  8
_U+30EC_U+30A4_U+30E4_U+30FC 1
 62
   179
420
  2234388
370
    25
100
AcDb2dPolyline
 66
     1
 10
0.0
 20
0.0
 30
0.0
  0
VERTEX
  5
44
330
43
100
AcDbEntity
  8
_U+30EC_U+30A4_U+30E4_U+30FC 1
 62
   179
420
  2234388
370
    25
100
AcDbVertex
100
AcDb2dVertex
 10
81.33541931384947
 20
-126.646199135005
 30
0.0
  0
VERTEX
  5
45
330
43
100
AcDbEntity
  8
_U+30EC_U+30A4_U+30E4_U+30FC 1
 62
   179
420
  2234388
370
    25
100
AcDbVertex
100
AcDb2dVertex
 10
88.33551802415096
 20
-126.646199135005
 30
0.0
  0
SEQEND
  5
46
330
43
100
AcDbEntity
  8
_U+30EC_U+30A4_U+30E4_U+30FC 1
 62
   179
420
  2234388
370
    25
  0
POLYLINE
  5
47
330
1F
100
AcDbEntity
  8
_U+30EC_U+30A4_U+30E4_U+30FC 1
 62
   179
420
  2234388
370
    25
100
AcDb2dPolyline
 66
     1
 10
0.0
 20
0.0
 30
0.0
  0
VERTEX
  5
48
330
47
100
AcDbEntity
  8
_U+30EC_U+30A4_U+30E4_U+30FC 1
 62
   179
420
  2234388
370
    25
100
AcDbVertex
100
AcDb2dVertex
 10
80.33564711713356
 20
-125.6464269130328
 30
0.0
  0
VERTEX
  5
49
330
47
100
AcDbEntity
  8
_U+30EC_U+30A4_U+30E4_U+30FC 1
 62
   179
420
  2234388
370
    25
100
AcDbVertex
100
AcDb2dVertex
 10
82.33589706610293
 20
-125.6464269130328
 30
0.0
  0
SEQEND
  5
4A
330
47
100
AcDbEntity
  8
_U+30EC_U+30A4_U+30E4_U+30FC 1
 62
   179
420
  2234388
370
    25
  0
POLYLINE
  5
4B
330
1F
100
AcDbEntity
  8
_U+30EC_U+30A4_U+30E4_U+30FC 1
 62
   179
420
  2234388
370
    25
100
AcDb2dPolyline
 66
     1
 10
0.0
 20
0.0
 30
0.0
  0
VERTEX
  5
4C
330
4B
100
AcDbEntity
  8
_U+30EC_U+30A4_U+30E4_U+30FC 1
 62
   179
420
  2234388
370
    25
100
AcDbVertex
100
AcDb2dVertex
 10
81.33541931384947
 20
-132.1466396891858
 30
0.0
  0
VERTEX
  5
4D
330
4B
100
AcDbEntity
  8
_U+30EC_U+30A4_U+30E4_U+30FC 1
 62
   179
420
  2234388
370
    25
100
AcDbVertex
100
AcDb2dVertex
 10
87.4697661017937
 20
-132.1466396891858
 30
0.0
  0
SEQEND
  5
4E
330
4B
100
AcDbEntity
  8
_U+30EC_U+30A4_U+30E4_U+30FC 1
 62
   179
420
  2234388
370
    25
  0
POLYLINE
  5
4F
330
1F
100
AcDbEntity
  8
_U+30EC_U+30A4_U+30E4_U+30FC 1
 62
   179
420
  2234388
370
    25
100
AcDb2dPolyline
 66
     1
 10
0.0
 20
0.0
 30
0.0
  0
VERTEX
  5
50
330
4F
100
AcDbEntity
  8
_U+30EC_U+30A4_U+30E4_U+30FC 1
 62
   179
420
  2234388
370
    25
100
AcDbVertex
100
AcDb2dVertex
 10
81.1356059856138
 20
-133.1464119111577
 30
0.0
  0
VERTEX
  5
51
330
4F
100
AcDbEntity
  8
_U+30EC_U+30A4_U+30E4_U+30FC 1
 62
   179
420
  2234388
370
    25
100
AcDbVertex
100
AcDb2dVertex
 10
98.33542721347646
 20
-133.1464119111577
 30
0.0
  0
SEQEND
  5
52
330
4F
100
AcDbEntity
  8
_U+30EC_U+30A4_U+30E4_U+30FC 1
 62
   179
420
  2234388
370
    25
  0
POLYLINE
  5
53
330
1F
100
AcDbEntity
  8
_U+30EC_U+30A4_U+30E4_U+30FC 1
 62
   179
420
  2234388
370
    25
100
AcDb2dPolyline
 66
     1
 10
0.0
 20
0.0
 30
0.0
  0
VERTEX
  5
54
330
53
100
AcDbEntity
  8
_U+30EC_U+30A4_U+30E4_U+30FC 1
 62
   179
420
  2234388
370
    25
100
AcDbVertex
100
AcDb2dVertex
 10
88.33551802415096
 20
-126.0464063573774
 30
0.0
  0
VERTEX
  5
55
330
53
100
AcDbEntity
  8
_U+30EC_U+30A4_U+30E4_U+30FC 1
 62
   179
420
  2234388
370
    25
100
AcDbVertex
100
AcDb2dVertex
 10
88.33551802415096
 20
-126.646199135005
 30
0.0
  0
SEQEND
  5
56
330
53
100
AcDbEntity
  8
_U+30EC_U+30A4_U+30E4_U+30FC 1
 62
   179
420
  2234388
370
    25
  0
POLYLINE
  5
57
330
1F
100
AcDbEntity
  8
_U+30EC_U+30A4_U+30E4_U+30FC 1
 62
   179
420
  2234388
370
    25
100
AcDb2dPolyline
 66
     1
 10
0.0
 20
0.0
 30
0.0
  0
VERTEX
  5
58
330
57
100
AcDbEntity
  8
_U+30EC_U+30A4_U+30E4_U+30FC 1
 62
   179
420
  2234388
370
    25
100
AcDbVertex
100
AcDb2dVertex
 10
80.33564711713356
 20
-125.6464269130328
 30
0.0
  0
VERTEX
  5
59
330
57
100
AcDbEntity
  8
_U+30EC_U+30A4_U+30E4_U+30FC 1
 62
   179
420
  2234388
370
    25
100
AcDbVertex
100
AcDb2dVertex
 10
80.33564711713356
 20
-132.3464530224691
 30
0.0
  0
SEQEND
  5
5A
330
57
100
AcDbEntity
  8
_U+30EC_U+30A4_U+30E4_U+30FC 1
 62
   179
420
  2234388
370
    25
  0
POLYLINE
  5
5B
330
1F
100
AcDbEntity
  8
_U+30EC_U+30A4_U+30E4_U+30FC 1
 62
   179
420
  2234388
370
    25
100
AcDb2dPolyline
 66
     1
 10
0.0
 20
0.0
 30
0.0
  0
VERTEX
  5
5C
330
5B
100
AcDbEntity
  8
_U+30EC_U+30A4_U+30E4_U+30FC 1
 62
   179
420
  2234388
370
    25
100
AcDbVertex
100
AcDb2dVertex
 10
81.33541931384947
 20
-126.646199135005
 30
0.0
  0
VERTEX
  5
5D
330
5B
100
AcDbEntity
  8
_U+30EC_U+30A4_U+30E4_U+30FC 1
 62
   179
420
  2234388
370
    25
100
AcDbVertex
100
AcDb2dVertex
 10
81.33541931384947
 20
-132.1466396891858
 30
0.0
  0
SEQEND
  5
5E
330
5B
100
AcDbEntity
  8
_U+30EC_U+30A4_U+30E4_U+30FC 1
 62
   179
420
  2234388
370
    25
  0
POLYLINE
  5
5F
330
1F
100
AcDbEntity
  8
_U+30EC_U+30A4_U+30E4_U+30FC 1
 62
   179
420
  2234388
370
    25
100
AcDb2dPolyline
 66
     1
 10
0.0
 20
0.0
 30
0.0
  0
VERTEX
  5
60
330
5F
100
AcDbEntity
  8
_U+30EC_U+30A4_U+30E4_U+30FC 1
 62
   179
420
  2234388
370
    25
100
AcDbVertex
100
AcDb2dVertex
 10
86.32563724209396
 20
-125.8455346907608
 30
0.0
  0
VERTEX
  5
61
330
5F
100
AcDbEntity
  8
_U+30EC_U+30A4_U+30E4_U+30FC 1
 62
   179
420
  2234388
370
    25
100
AcDbVertex
100
AcDb2dVertex
 10
88.33551802415096
 20
-126.0464063573774
 30
0.0
  0
SEQEND
  5
62
330
5F
100
AcDbEntity
  8
_U+30EC_U+30A4_U+30E4_U+30FC 1
 62
   179
420
  2234388
370
    25
  0
POLYLINE
  5
63
330
1F
100
AcDbEntity
  8
_U+30EC_U+30A4_U+30E4_U+30FC 1
 62
   179
420
  2234388
370
    25
100
AcDb2dPolyline
 66
     1
 10
0.0
 20
0.0
 30
0.0
  0
VERTEX
  5
64
330
63
100
AcDbEntity
  8
_U+30EC_U+30A4_U+30E4_U+30FC 1
 62
   179
420
  2234388
370
    25
100
AcDbVertex
100
AcDb2dVertex
 10
88.33551802415096
 20
-132.646173022394
 30
0.0
  0
VERTEX
  5
65
330
63
100
AcDbEntity
  8
_U+30EC_U+30A4_U+30E4_U+30FC 1
 62
   179
420
  2234388
370
    25
100
AcDbVertex
100
AcDb2dVertex
 10
97.8358938928873
 20
-132.646173022394
 30
0.0
  0
SEQEND
  5
66
330
63
100
AcDbEntity
  8
_U+30EC_U+30A4_U+30E4_U+30FC 1
 62
   179
420
  2234388
370
    25
  0
SPLINE
  5
67
330
1F
100
AcDbEntity
  8
_U+30EC_U+30A4_U+30E4_U+30FC 1
 62
   179
420
  2234388
370
    25
100
AcDbSpline
210
0.0
220
0.0
230
1.0
 70
     8
 71
     3
 72
     8
 73
     4
 74
     0
 42
0.0000000001
 43
0.0000000001
 12
1.0
 22
0.0
 32
0.0
 13
1.0
 23
0.0
 33
0.0
 40
0.0
 40
0.0
 40
0.0
 40
0.0
 40
1.0
 40
1.0
 40
1.0
 40
1.0
 10
80.33564711713356
 20
-132.3464530224691
 30
0.0
 10
80.33564711713356
 20
-132.7880955223584
 30
0.0
 10
80.69396349688104
 20
-133.1464119111577
 30
0.0
 10
81.1356059856138
 20
-133.1464119111577
 30
0.0
  0
SPLINE
  5
68
330
1F
100
AcDbEntity
  8
_U+30EC_U+30A4_U+30E4_U+30FC 1
 62
   179
420
  2234388
370
    25
100
AcDbSpline
210
0.0
220
0.0
230
1.0
 70
     8
 71
     3
 72
     8
 73
     4
 74
     0
 42
0.0000000001
 43
0.0000000001
 12
1.0
 22
0.0
 32
0.0
 13
1.0
 23
0.0
 33
0.0
 40
0.0
 40
0.0
 40
0.0
 40
0.0
 40
1.0
 40
1.0
 40
1.0
 40
1.0
 10
98.33542721347646
 20
-133.1464119111577
 30
0.0
 10
98.33542721347646
 20
-132.8700810778938
 30
0.0
 10
98.1114838858564
 20
-132.646173022394
 30
0.0
 10
97.8358938928873
 20
-132.646173022394
 30
0.0
  0
SPLINE
  5
69
330
1F
100
AcDbEntity
  8
_U+30EC_U+30A4_U+30E4_U+30FC 1
 62
   179
420
  2234388
370
    25
100
AcDbSpline
210
0.0
220
0.0
230
1.0
 70
     8
 71
     3
 72
     8
 73
     4
 74
     0
 42
0.0000000001
 43
0.0000000001
 12
1.0
 22
0.0
 32
0.0
 13
1.0
 23
0.0
 33
0.0
 40
0.0
 40
0.0
 40
0.0
 40
0.0
 40
1.0
 40
1.0
 40
1.0
 40
1.0
 10
88.33551802415096
 20
-132.646173022394
 30
0.0
 10
88.15704997796082
 20
-132.3367869113601
 30
0.0
 10
87.82702414823483
 20
-132.1466396891858
 30
0.0
 10
87.4697661017937
 20
-132.1466396891858
 30
0.0
  0
SPLINE
  5
6A
330
1F
100
AcDbEntity
  8
_U+30EC_U+30A4_U+30E4_U+30FC 1
 62
   179
420
  2234388
370
    25
100
AcDbSpline
210
0.0
220
0.0
230
1.0
 70
     8
 71
     3
 72
     8
 73
     4
 74
     0
 42
0.0000000001
 43
0.0000000001
 12
1.0
 22
0.0
 32
0.0
 13
1.0
 23
0.0
 33
0.0
 40
0.0
 40
0.0
 40
0.0
 40
0.0
 40
1.0
 40
1.0
 40
1.0
 40
1.0
 10
86.32563724209396
 20
-125.8455346907608
 30
0.0
 10
84.99961616481247
 20
-125.7125727463496
 30
0.0
 10
83.66809175433804
 20
-125.6464269130328
 30
0.0
 10
82.33589706610293
 20
-125.6464269130328
 30
0.0
  0
SPLINE
  5
6B
330
1F
100
AcDbEntity
  8
_U+30EC_U+30A4_U+30E4_U+30FC 1
 62
   179
420
  2234388
370
     9
100
AcDbSpline
210
0.0
220
0.0
230
1.0
 70
    11
 71
     3
 72
    17
 73
    13
 74
     0
 42
0.0000000001
 43
0.0000000001
 12
1.0
 22
0.0
 32
0.0
 13
1.0
 23
0.0
 33
0.0
 40
0.0
 40
0.0
 40
0.0
 40
0.0
 40
1.0
 40
1.0
 40
1.0
 40
2.0
 40
2.0
 40
2.0
 40
3.0
 40
3.0
 40
3.0
 40
4.0
 40
4.0
 40
4.0
 40
4.0
 10
80.4355537812514
 20
-121.6463149695884
 30
0.0
 10
80.4355537812514
 20
-121.5912110807132
 30
0.0
 10
80.3907862823935
 20
-121.5464083029468
 30
0.0
 10
80.33564711713356
 20
-121.5464083029468
 30
0.0
 10
80.28054322965049
 20
-121.5464083029468
 30
0.0
 10
80.23574045301572
 20
-121.5912110807132
 30
0.0
 10
80.23574045301572
 20
-121.6463149695884
 30
0.0
 10
80.23574045301572
 20
-121.7017716362411
 30
0.0
 10
80.28054322965049
 20
-121.7465744140078
 30
0.0
 10
80.33564711713356
 20
-121.7465744140078
 30
0.0
 10
80.3907862823935
 20
-121.7465744140078
 30
0.0
 10
80.4355537812514
 20
-121.7017716362411
 30
0.0
 10
80.4355537812514
 20
-121.6463149695884
 30
0.0
  0
SPLINE
  5
6C
330
1F
100
AcDbEntity
  8
_U+30EC_U+30A4_U+30E4_U+30FC 1
 62
   179
420
  2234388
370
     9
100
AcDbSpline
210
0.0
220
0.0
230
1.0
 70
    11
 71
     3
 72
    17
 73
    13
 74
     0
 42
0.0000000001
 43
0.0000000001
 12
1.0
 22
0.0
 32
0.0
 13
1.0
 23
0.0
 33
0.0
 40
0.0
 40
0.0
 40
0.0
 40
0.0
 40
1.0
 40
1.0
 40
1.0
 40
2.0
 40
2.0
 40
2.0
 40
3.0
 40
3.0
 40
3.0
 40
4.0
 40
4.0
 40
4.0
 40
4.0
 10
88.43577746603758
 20
-121.6463149695884
 30
0.0
 10
88.43577746603758
 20
-121.5912110807132
 30
0.0
 10
88.39097468940281
 20
-121.5464083029468
 30
0.0
 10
88.33551802415096
 20
-121.5464083029468
 30
0.0
 10
88.28041413666789
 20
-121.5464083029468
 30
0.0
 10
88.23561136003313
 20
-121.5912110807132
 30
0.0
 10
88.23561136003313
 20
-121.6463149695884
 30
0.0
 10
88.23561136003313
 20
-121.7017716362411
 30
0.0
 10
88.28041413666789
 20
-121.7465744140078
 30
0.0
 10
88.33551802415096
 20
-121.7465744140078
 30
0.0
 10
88.39097468940281
 20
-121.7465744140078
 30
0.0
 10
88.43577746603758
 20
-121.7017716362411
 30
0.0
 10
88.43577746603758
 20
-121.6463149695884
 30
0.0
  0
SPLINE
  5
6D
330
1F
100
AcDbEntity
  8
_U+30EC_U+30A4_U+30E4_U+30FC 1
 62
   179
420
  2234388
370
     9
100
AcDbSpline
210
0.0
220
0.0
230
1.0
 70
    11
 71
     3
 72
    17
 73
    13
 74
     0
 42
0.0000000001
 43
0.0000000001
 12
1.0
 22
0.0
 32
0.0
 13
1.0
 23
0.0
 33
0.0
 40
0.0
 40
0.0
 40
0.0
 40
0.0
 40
1.0
 40
1.0
 40
1.0
 40
2.0
 40
2.0
 40
2.0
 40
3.0
 40
3.0
 40
3.0
 40
4.0
 40
4.0
 40
4.0
 40
4.0
 10
102.3131376675522
 20
-126.646199135005
 30
0.0
 10
102.3131376675522
 20
-126.5910599683522
 30
0.0
 10
102.2683348909174
 20
-126.5462924683633
 30
0.0
 10
102.2132310034343
 20
-126.5462924683633
 30
0.0
 10
102.158094418905
 20
-126.5462924683633
 30
0.0
 10
102.1133243393165
 20
-126.5910599683522
 30
0.0
 10
102.1133243393165
 20
-126.646199135005
 30
0.0
 10
102.1133243393165
 20
-126.701655801658
 30
0.0
 10
102.158094418905
 20
-126.7464585794244
 30
0.0
 10
102.2132310034343
 20
-126.7464585794244
 30
0.0
 10
102.2683348909174
 20
-126.7464585794244
 30
0.0
 10
102.3131376675522
 20
-126.701655801658
 30
0.0
 10
102.3131376675522
 20
-126.646199135005
 30
0.0
  0
SPLINE
  5
6E
330
1F
100
AcDbEntity
  8
_U+30EC_U+30A4_U+30E4_U+30FC 1
 62
   179
420
  2234388
370
     9
100
AcDbSpline
210
0.0
220
0.0
230
1.0
 70
    11
 71
     3
 72
    17
 73
    13
 74
     0
 42
0.0000000001
 43
0.0000000001
 12
1.0
 22
0.0
 32
0.0
 13
1.0
 23
0.0
 33
0.0
 40
0.0
 40
0.0
 40
0.0
 40
0.0
 40
1.0
 40
1.0
 40
1.0
 40
2.0
 40
2.0
 40
2.0
 40
3.0
 40
3.0
 40
3.0
 40
4.0
 40
4.0
 40
4.0
 40
4.0
 10
102.3131376675522
 20
-132.1466396891858
 30
0.0
 10
102.3131376675522
 20
-132.0911477447549
 30
0.0
 10
102.2683348909174
 20
-132.0463802447664
 30
0.0
 10
102.2132310034343
 20
-132.0463802447664
 30
0.0
 10
102.158094418905
 20
-132.0463802447664
 30
0.0
 10
102.1133243393165
 20
-132.0911477447549
 30
0.0
 10
102.1133243393165
 20
-132.1466396891858
 30
0.0
 10
102.1133243393165
 20
-132.2017435780607
 30
0.0
 10
102.158094418905
 20
-132.2465463558274
 30
0.0
 10
102.2132310034343
 20
-132.2465463558274
 30
0.0
 10
102.2683348909174
 20
-132.2465463558274
 30
0.0
 10
102.3131376675522
 20
-132.2017435780607
 30
0.0
 10
102.3131376675522
 20
-132.1466396891858
 30
0.0
  0
SPLINE
  5
6F
330
1F
100
AcDbEntity
  8
_U+30EC_U+30A4_U+30E4_U+30FC 1
 62
   179
420
  2234388
370
     9
100
AcDbSpline
210
0.0
220
0.0
230
1.0
 70
    11
 71
     3
 72
    17
 73
    13
 74
     0
 42
0.0000000001
 43
0.0000000001
 12
1.0
 22
0.0
 32
0.0
 13
1.0
 23
0.0
 33
0.0
 40
0.0
 40
0.0
 40
0.0
 40
0.0
 40
1.0
 40
1.0
 40
1.0
 40
2.0
 40
2.0
 40
2.0
 40
3.0
 40
3.0
 40
3.0
 40
4.0
 40
4.0
 40
4.0
 40
4.0
 10
80.4355537812514
 20
-137.1471941323797
 30
0.0
 10
80.4355537812514
 20
-137.0913846879493
 30
0.0
 10
80.3907862823935
 20
-137.0465819101825
 30
0.0
 10
80.33564711713356
 20
-137.0465819101825
 30
0.0
 10
80.28054322965049
 20
-137.0465819101825
 30
0.0
 10
80.23574045301572
 20
-137.0913846879493
 30
0.0
 10
80.23574045301572
 20
-137.1471941323797
 30
0.0
 10
80.23574045301572
 20
-137.2022980212553
 30
0.0
 10
80.28054322965049
 20
-137.2471007990214
 30
0.0
 10
80.33564711713356
 20
-137.2471007990214
 30
0.0
 10
80.3907862823935
 20
-137.2471007990214
 30
0.0
 10
80.4355537812514
 20
-137.2022980212553
 30
0.0
 10
80.4355537812514
 20
-137.1471941323797
 30
0.0
  0
SPLINE
  5
70
330
1F
100
AcDbEntity
  8
_U+30EC_U+30A4_U+30E4_U+30FC 1
 62
   179
420
  2234388
370
     9
100
AcDbSpline
210
0.0
220
0.0
230
1.0
 70
    11
 71
     3
 72
    17
 73
    13
 74
     0
 42
0.0000000001
 43
0.0000000001
 12
1.0
 22
0.0
 32
0.0
 13
1.0
 23
0.0
 33
0.0
 40
0.0
 40
0.0
 40
0.0
 40
0.0
 40
1.0
 40
1.0
 40
1.0
 40
2.0
 40
2.0
 40
2.0
 40
3.0
 40
3.0
 40
3.0
 40
4.0
 40
4.0
 40
4.0
 40
4.0
 10
98.4353338775943
 20
-137.1471941323797
 30
0.0
 10
98.4353338775943
 20
-137.0913846879493
 30
0.0
 10
98.39053110095954
 20
-137.0465819101825
 30
0.0
 10
98.33542721347646
 20
-137.0465819101825
 30
0.0
 10
98.28028804821652
 20
-137.0465819101825
 30
0.0
 10
98.23552054935864
 20
-137.0913846879493
 30
0.0
 10
98.23552054935864
 20
-137.1471941323797
 30
0.0
 10
98.23552054935864
 20
-137.2022980212553
 30
0.0
 10
98.28028804821652
 20
-137.2471007990214
 30
0.0
 10
98.33542721347646
 20
-137.2471007990214
 30
0.0
 10
98.39053110095954
 20
-137.2471007990214
 30
0.0
 10
98.4353338775943
 20
-137.2022980212553
 30
0.0
 10
98.4353338775943
 20
-137.1471941323797
 30
0.0
  0
POLYLINE
  5
71
330
1F
100
AcDbEntity
  8
_U+30EC_U+30A4_U+30E4_U+30FC 1
 62
   179
420
  2234388
370
     9
100
AcDb2dPolyline
 66
     1
 10
0.0
 20
0.0
 30
0.0
  0
VERTEX
  5
72
330
71
100
AcDbEntity
  8
_U+30EC_U+30A4_U+30E4_U+30FC 1
 62
   179
420
  2234388
370
     9
100
AcDbVertex
100
AcDb2dVertex
 10
80.33564711713356
 20
-121.6463149695884
 30
0.0
  0
VERTEX
  5
73
330
71
100
AcDbEntity
  8
_U+30EC_U+30A4_U+30E4_U+30FC 1
 62
   179
420
  2234388
370
     9
100
AcDbVertex
100
AcDb2dVertex
 10
88.33551802415096
 20
-121.6463149695884
 30
0.0
  0
SEQEND
  5
74
330
71
100
AcDbEntity
  8
_U+30EC_U+30A4_U+30E4_U+30FC 1
 62
   179
420
  2234388
370
     9
  0
POLYLINE
  5
75
330
1F
100
AcDbEntity
  8
_U+30EC_U+30A4_U+30E4_U+30FC 1
 62
   179
420
  2234388
370
     9
100
AcDb2dPolyline
 66
     1
 10
0.0
 20
0.0
 30
0.0
  0
VERTEX
  5
76
330
75
100
AcDbEntity
  8
_U+30EC_U+30A4_U+30E4_U+30FC 1
 62
   179
420
  2234388
370
     9
100
AcDbVertex
100
AcDb2dVertex
 10
80.33564711713356
 20
-123.1063563581125
 30
0.0
  0
VERTEX
  5
77
330
75
100
AcDbEntity
  8
_U+30EC_U+30A4_U+30E4_U+30FC 1
 62
   179
420
  2234388
370
     9
100
AcDbVertex
100
AcDb2dVertex
 10
80.33564711713356
 20
-120.6462252476163
 30
0.0
  0
SEQEND
  5
78
330
75
100
AcDbEntity
  8
_U+30EC_U+30A4_U+30E4_U+30FC 1
 62
   179
420
  2234388
370
     9
  0
POLYLINE
  5
79
330
1F
100
AcDbEntity
  8
_U+30EC_U+30A4_U+30E4_U+30FC 1
 62
   179
420
  2234388
370
     9
100
AcDb2dPolyline
 66
     1
 10
0.0
 20
0.0
 30
0.0
  0
VERTEX
  5
7A
330
79
100
AcDbEntity
  8
_U+30EC_U+30A4_U+30E4_U+30FC 1
 62
   179
420
  2234388
370
     9
100
AcDbVertex
100
AcDb2dVertex
 10
88.33551802415096
 20
-123.5063358024568
 30
0.0
  0
VERTEX
  5
7B
330
79
100
AcDbEntity
  8
_U+30EC_U+30A4_U+30E4_U+30FC 1
 62
   179
420
  2234388
370
     9
100
AcDbVertex
100
AcDb2dVertex
 10
88.33551802415096
 20
-120.6462252476163
 30
0.0
  0
SEQEND
  5
7C
330
79
100
AcDbEntity
  8
_U+30EC_U+30A4_U+30E4_U+30FC 1
 62
   179
420
  2234388
370
     9
  0
INSERT
  5
7E
330
1F
100
AcDbEntity
  8
_U+30EC_U+30A4_U+30E4_U+30FC 1
100
AcDbBlockReference
  2
block 2
 10
0.0
 20
0.0
 30
0.0
  0
POLYLINE
  5
85
330
1F
100
AcDbEntity
  8
_U+30EC_U+30A4_U+30E4_U+30FC 1
 62
   179
420
  2234388
370
     9
100
AcDb2dPolyline
 66
     1
 10
0.0
 20
0.0
 30
0.0
  0
VERTEX
  5
86
330
85
100
AcDbEntity
  8
_U+30EC_U+30A4_U+30E4_U+30FC 1
 62
   179
420
  2234388
370
     9
100
AcDbVertex
100
AcDb2dVertex
 10
80.33564711713356
 20
-137.1471941323797
 30
0.0
  0
VERTEX
  5
87
330
85
100
AcDbEntity
  8
_U+30EC_U+30A4_U+30E4_U+30FC 1
 62
   179
420
  2234388
370
     9
100
AcDbVertex
100
AcDb2dVertex
 10
98.33542721347646
 20
-137.1471941323797
 30
0.0
  0
SEQEND
  5
88
330
85
100
AcDbEntity
  8
_U+30EC_U+30A4_U+30E4_U+30FC 1
 62
   179
420
  2234388
370
     9
  0
POLYLINE
  5
89
330
1F
100
AcDbEntity
  8
_U+30EC_U+30A4_U+30E4_U+30FC 1
 62
   179
420
  2234388
370
     9
100
AcDb2dPolyline
 66
     1
 10
0.0
 20
0.0
 30
0.0
  0
VERTEX
  5
8A
330
89
100
AcDbEntity
  8
_U+30EC_U+30A4_U+30E4_U+30FC 1
 62
   179
420
  2234388
370
     9
100
AcDbVertex
100
AcDb2dVertex
 10
80.33564711713356
 20
-134.8861707996116
 30
0.0
  0
VERTEX
  5
8B
330
89
100
AcDbEntity
  8
_U+30EC_U+30A4_U+30E4_U+30FC 1
 62
   179
420
  2234388
370
     9
100
AcDbVertex
100
AcDb2dVertex
 10
80.33564711713356
 20
-138.1469663543523
 30
0.0
  0
SEQEND
  5
8C
330
89
100
AcDbEntity
  8
_U+30EC_U+30A4_U+30E4_U+30FC 1
 62
   179
420
  2234388
370
     9
  0
POLYLINE
  5
8D
330
1F
100
AcDbEntity
  8
_U+30EC_U+30A4_U+30E4_U+30FC 1
 62
   179
420
  2234388
370
     9
100
AcDb2dPolyline
 66
     1
 10
0.0
 20
0.0
 30
0.0
  0
VERTEX
  5
8E
330
8D
100
AcDbEntity
  8
_U+30EC_U+30A4_U+30E4_U+30FC 1
 62
   179
420
  2234388
370
     9
100
AcDbVertex
100
AcDb2dVertex
 10
98.33542721347646
 20
-135.6867999660782
 30
0.0
  0
VERTEX
  5
8F
330
8D
100
AcDbEntity
  8
_U+30EC_U+30A4_U+30E4_U+30FC 1
 62
   179
420
  2234388
370
     9
100
AcDbVertex
100
AcDb2dVertex
 10
98.33542721347646
 20
-138.1469663543523
 30
0.0
  0
SEQEND
  5
90
330
8D
100
AcDbEntity
  8
_U+30EC_U+30A4_U+30E4_U+30FC 1
 62
   179
420
  2234388
370
     9
  0
INSERT
  5
92
330
1F
100
AcDbEntity
  8
_U+30EC_U+30A4_U+30E4_U+30FC 1
100
AcDbBlockReference
  2
block 3
 10
0.0
 20
0.0
 30
0.0
  0
POLYLINE
  5
9B
330
1F
100
AcDbEntity
  8
_U+30EC_U+30A4_U+30E4_U+30FC 1
 62
   179
420
  2234388
370
     9
100
AcDb2dPolyline
 66
     1
 10
0.0
 20
0.0
 30
0.0
  0
VERTEX
  5
9C
330
9B
100
AcDbEntity
  8
_U+30EC_U+30A4_U+30E4_U+30FC 1
 62
   179
420
  2234388
370
     9
100
AcDbVertex
100
AcDb2dVertex
 10
102.2132310034343
 20
-132.1466396891858
 30
0.0
  0
VERTEX
  5
9D
330
9B
100
AcDbEntity
  8
_U+30EC_U+30A4_U+30E4_U+30FC 1
 62
   179
420
  2234388
370
     9
100
AcDbVertex
100
AcDb2dVertex
 10
102.2132310034343
 20
-126.646199135005
 30
0.0
  0
SEQEND
  5
9E
330
9B
100
AcDbEntity
  8
_U+30EC_U+30A4_U+30E4_U+30FC 1
 62
   179
420
  2234388
370
     9
  0
POLYLINE
  5
9F
330
1F
100
AcDbEntity
  8
_U+30EC_U+30A4_U+30E4_U+30FC 1
 62
   179
420
  2234388
370
     9
100
AcDb2dPolyline
 66
     1
 10
0.0
 20
0.0
 30
0.0
  0
VERTEX
  5
A0
330
9F
100
AcDbEntity
  8
_U+30EC_U+30A4_U+30E4_U+30FC 1
 62
   179
420
  2234388
370
     9
100
AcDbVertex
100
AcDb2dVertex
 10
101.0852971969506
 20
-132.1387021891875
 30
0.0
  0
VERTEX
  5
A1
330
9F
100
AcDbEntity
  8
_U+30EC_U+30A4_U+30E4_U+30FC 1
 62
   179
420
  2234388
370
     9
100
AcDbVertex
100
AcDb2dVertex
 10
103.2136734779109
 20
-132.1466396891858
 30
0.0
  0
SEQEND
  5
A2
330
9F
100
AcDbEntity
  8
_U+30EC_U+30A4_U+30E4_U+30FC 1
 62
   179
420
  2234388
370
     9
  0
POLYLINE
  5
A3
330
1F
100
AcDbEntity
  8
_U+30EC_U+30A4_U+30E4_U+30FC 1
 62
   179
420
  2234388
370
     9
100
AcDb2dPolyline
 66
     1
 10
0.0
 20
0.0
 30
0.0
  0
VERTEX
  5
A4
330
A3
100
AcDbEntity
  8
_U+30EC_U+30A4_U+30E4_U+30FC 1
 62
   179
420
  2234388
370
     9
100
AcDbVertex
100
AcDb2dVertex
 10
101.0852971969506
 20
-126.646199135005
 30
0.0
  0
VERTEX
  5
A5
330
A3
100
AcDbEntity
  8
_U+30EC_U+30A4_U+30E4_U+30FC 1
 62
   179
420
  2234388
370
     9
100
AcDbVertex
100
AcDb2dVertex
 10
103.2136734779109
 20
-126.646199135005
 30
0.0
  0
SEQEND
  5
A6
330
A3
100
AcDbEntity
  8
_U+30EC_U+30A4_U+30E4_U+30FC 1
 62
   179
420
  2234388
370
     9
  0
INSERT
  5
A8
330
1F
100
AcDbEntity
  8
_U+30EC_U+30A4_U+30E4_U+30FC 1
100
AcDbBlockReference
  2
block 4
 10
0.0
 20
0.0
 30
0.0
  0
POLYLINE
  5
B7
330
1F
100
AcDbEntity
  8
_U+30EC_U+30A4_U+30E4_U+30FC 1
 62
   179
420
  2234388
370
     9
100
AcDb2dPolyline
 66
     1
 10
0.0
 20
0.0
 30
0.0
  0
VERTEX
  5
B8
330
B7
100
AcDbEntity
  8
_U+30EC_U+30A4_U+30E4_U+30FC 1
 62
   179
420
  2234388
370
     9
100
AcDbVertex
100
AcDb2dVertex
 10
102.2132310034343
 20
-132.1387021891875
 30
0.0
  0
VERTEX
  5
B9
330
B7
100
AcDbEntity
  8
_U+30EC_U+30A4_U+30E4_U+30FC 1
 62
   179
420
  2234388
370
     9
100
AcDbVertex
100
AcDb2dVertex
 10
102.2132310034343
 20
-129.6382485787013
 30
0.0
  0
SEQEND
  5
BA
330
B7
100
AcDbEntity
  8
_U+30EC_U+30A4_U+30E4_U+30FC 1
 62
   179
420
  2234388
370
     9
  0
SPLINE
  5
BB
330
1F
100
AcDbEntity
  8
_U+30EC_U+30A4_U+30E4_U+30FC 1
 62
   179
420
  2234388
370
     9
100
AcDbSpline
210
0.0
220
0.0
230
1.0
 70
    11
 71
     3
 72
    17
 73
    13
 74
     0
 42
0.0000000001
 43
0.0000000001
 12
1.0
 22
0.0
 32
0.0
 13
1.0
 23
0.0
 33
0.0
 40
0.0
 40
0.0
 40
0.0
 40
0.0
 40
1.0
 40
1.0
 40
1.0
 40
2.0
 40
2.0
 40
2.0
 40
3.0
 40
3.0
 40
3.0
 40
4.0
 40
4.0
 40
4.0
 40
4.0
 10
102.3131376675522
 20
-133.1374513556042
 30
0.0
 10
102.3131376675522
 20
-133.0816419111738
 30
0.0
 10
102.2683348909174
 20
-133.0368391334077
 30
0.0
 10
102.2132310034343
 20
-133.0368391334077
 30
0.0
 10
102.158094418905
 20
-133.0368391334077
 30
0.0
 10
102.1133243393165
 20
-133.0816419111738
 30
0.0
 10
102.1133243393165
 20
-133.1374513556042
 30
0.0
 10
102.1133243393165
 20
-133.1925552444798
 30
0.0
 10
102.158094418905
 20
-133.2373580222465
 30
0.0
 10
102.2132310034343
 20
-133.2373580222465
 30
0.0
 10
102.2683348909174
 20
-133.2373580222465
 30
0.0
 10
102.3131376675522
 20
-133.1925552444798
 30
0.0
 10
102.3131376675522
 20
-133.1374513556042
 30
0.0
  0
POLYLINE
  5
BC
330
1F
100
AcDbEntity
  8
_U+30EC_U+30A4_U+30E4_U+30FC 1
 62
   179
420
  2234388
370
     9
100
AcDb2dPolyline
 66
     1
 10
0.0
 20
0.0
 30
0.0
  0
VERTEX
  5
BD
330
BC
100
AcDbEntity
  8
_U+30EC_U+30A4_U+30E4_U+30FC 1
 62
   179
420
  2234388
370
     9
100
AcDbVertex
100
AcDb2dVertex
 10
102.2132310034343
 20
-133.1367458000493
 30
0.0
  0
VERTEX
  5
BE
330
BC
100
AcDbEntity
  8
_U+30EC_U+30A4_U+30E4_U+30FC 1
 62
   179
420
  2234388
370
     9
100
AcDbVertex
100
AcDb2dVertex
 10
102.2132310034343
 20
-129.1969235788122
 30
0.0
  0
SEQEND
  5
BF
330
BC
100
AcDbEntity
  8
_U+30EC_U+30A4_U+30E4_U+30FC 1
 62
   179
420
  2234388
370
     9
  0
POLYLINE
  5
C0
330
1F
100
AcDbEntity
  8
_U+30EC_U+30A4_U+30E4_U+30FC 1
 62
   179
420
  2234388
370
     9
100
AcDb2dPolyline
 66
     1
 10
0.0
 20
0.0
 30
0.0
  0
VERTEX
  5
C1
330
C0
100
AcDbEntity
  8
_U+30EC_U+30A4_U+30E4_U+30FC 1
 62
   179
420
  2234388
370
     9
100
AcDbVertex
100
AcDb2dVertex
 10
101.0852971969506
 20
-133.1367458000493
 30
0.0
  0
VERTEX
  5
C2
330
C0
100
AcDbEntity
  8
_U+30EC_U+30A4_U+30E4_U+30FC 1
 62
   179
420
  2234388
370
     9
100
AcDbVertex
100
AcDb2dVertex
 10
103.2136734779109
 20
-133.1367458000493
 30
0.0
  0
SEQEND
  5
C3
330
C0
100
AcDbEntity
  8
_U+30EC_U+30A4_U+30E4_U+30FC 1
 62
   179
420
  2234388
370
     9
  0
INSERT
  5
C5
330
1F
100
AcDbEntity
  8
_U+30EC_U+30A4_U+30E4_U+30FC 1
100
AcDbBlockReference
  2
block 5
 10
0.0
 20
0.0
 30
0.0
  0
SPLINE
  5
CA
330
1F
100
AcDbEntity
  8
_U+30EC_U+30A4_U+30E4_U+30FC 1
 62
   179
420
  2234388
370
     9
100
AcDbSpline
210
0.0
220
0.0
230
1.0
 70
    11
 71
     3
 72
    17
 73
    13
 74
     0
 42
0.0000000001
 43
0.0000000001
 12
1.0
 22
0.0
 32
0.0
 13
1.0
 23
0.0
 33
0.0
 40
0.0
 40
0.0
 40
0.0
 40
0.0
 40
1.0
 40
1.0
 40
1.0
 40
2.0
 40
2.0
 40
2.0
 40
3.0
 40
3.0
 40
3.0
 40
4.0
 40
4.0
 40
4.0
 40
4.0
 10
80.45262822526024
 20
-129.2472296899105
 30
0.0
 10
80.45262822526024
 20
-129.1921258010355
 30
0.0
 10
80.40782544862547
 20
-129.1473230232688
 30
0.0
 10
80.35254720213399
 20
-129.1473230232688
 30
0.0
 10
80.29740600699806
 20
-129.1473230232688
 30
0.0
 10
80.25263850814018
 20
-129.1921258010355
 30
0.0
 10
80.25263850814018
 20
-129.2472296899105
 30
0.0
 10
80.25263850814018
 20
-129.3023688565635
 30
0.0
 10
80.29740600699806
 20
-129.3471363565521
 30
0.0
 10
80.35254720213399
 20
-129.3471363565521
 30
0.0
 10
80.40782544862547
 20
-129.3471363565521
 30
0.0
 10
80.45262822526024
 20
-129.3023688565635
 30
0.0
 10
80.45262822526024
 20
-129.2472296899105
 30
0.0
  0
SPLINE
  5
CB
330
1F
100
AcDbEntity
  8
_U+30EC_U+30A4_U+30E4_U+30FC 1
 62
   179
420
  2234388
370
     9
100
AcDbSpline
210
0.0
220
0.0
230
1.0
 70
    11
 71
     3
 72
    17
 73
    13
 74
     0
 42
0.0000000001
 43
0.0000000001
 12
1.0
 22
0.0
 32
0.0
 13
1.0
 23
0.0
 33
0.0
 40
0.0
 40
0.0
 40
0.0
 40
0.0
 40
1.0
 40
1.0
 40
1.0
 40
2.0
 40
2.0
 40
2.0
 40
3.0
 40
3.0
 40
3.0
 40
4.0
 40
4.0
 40
4.0
 40
4.0
 10
81.45240042197614
 20
-129.2472296899105
 30
0.0
 10
81.45240042197614
 20
-129.1921258010355
 30
0.0
 10
81.40759764534138
 20
-129.1473230232688
 30
0.0
 10
81.35231942410621
 20
-129.1473230232688
 30
0.0
 10
81.29717820371397
 20
-129.1473230232688
 30
0.0
 10
81.25241070485609
 20
-129.1921258010355
 30
0.0
 10
81.25241070485609
 20
-129.2472296899105
 30
0.0
 10
81.25241070485609
 20
-129.3023688565635
 30
0.0
 10
81.29717820371397
 20
-129.3471363565521
 30
0.0
 10
81.35231942410621
 20
-129.3471363565521
 30
0.0
 10
81.40759764534138
 20
-129.3471363565521
 30
0.0
 10
81.45240042197614
 20
-129.3023688565635
 30
0.0
 10
81.45240042197614
 20
-129.2472296899105
 30
0.0
  0
INSERT
  5
CD
330
1F
100
AcDbEntity
  8
_U+30EC_U+30A4_U+30E4_U+30FC 1
100
AcDbBlockReference
  2
block 6
 10
0.0
 20
0.0
 30
0.0
  0
POLYLINE
  5
D2
330
1F
100
AcDbEntity
  8
_U+30EC_U+30A4_U+30E4_U+30FC 1
 62
   179
420
  2234388
370
     9
100
AcDb2dPolyline
 66
     1
 10
0.0
 20
0.0
 30
0.0
  0
VERTEX
  5
D3
330
D2
100
AcDbEntity
  8
_U+30EC_U+30A4_U+30E4_U+30FC 1
 62
   179
420
  2234388
370
     9
100
AcDbVertex
100
AcDb2dVertex
 10
82.2137654025521
 20
-129.2472296899105
 30
0.0
  0
VERTEX
  5
D4
330
D2
100
AcDbEntity
  8
_U+30EC_U+30A4_U+30E4_U+30FC 1
 62
   179
420
  2234388
370
     9
100
AcDbVertex
100
AcDb2dVertex
 10
78.3747318893829
 20
-129.2472296899105
 30
0.0
  0
SEQEND
  5
D5
330
D2
100
AcDbEntity
  8
_U+30EC_U+30A4_U+30E4_U+30FC 1
 62
   179
420
  2234388
370
     9
  0
ENDSEC
  0
SECTION
  2
OBJECTS
  0
DICTIONARY
  5
C
330
0
100
AcDbDictionary
281
     1
  3
ACAD_GROUP
350
D
  3
ACAD_LAYOUT
350
1A
  3
ACAD_MATERIAL
350
3B
  3
ACAD_MLEADERSTYLE
350
D7
  3
ACAD_MLINESTYLE
350
17
  3
ACAD_PLOTSETTINGS
350
19
  3
ACAD_PLOTSTYLENAME
350
E
  3
ACAD_TABLESTYLE
350
D6
  3
ACAD_VISUALSTYLE
350
2A
  0
SUN
  5
3F
330
29
100
AcDbSun
 90
        1
290
     0
 63
     7
421
 16777215
 40
1.0
291
     1
 91
  2455826
 92
 54000000
292
     0
 70
     2
 71
   256
280
     1
  0
DICTIONARY
  5
D
102
{ACAD_REACTORS
330
C
102
}
330
C
100
AcDbDictionary
281
     1
  0
DICTIONARY
  5
1A
102
{ACAD_REACTORS
330
C
102
}
330
C
100
AcDbDictionary
281
     1
  3
Layout1
350
1E
  3
Layout2
350
26
  3
Model
350
22
  0
DICTIONARY
  5
3B
102
{ACAD_REACTORS
330
C
102
}
330
C
100
AcDbDictionary
281
     1
  3
ByBlock
350
3D
  3
ByLayer
350
3C
  3
Global
350
3E
  0
DICTIONARY
  5
D7
102
{ACAD_REACTORS
330
C
102
}
330
C
100
AcDbDictionary
281
     1
  0
DICTIONARY
  5
17
102
{ACAD_REACTORS
330
C
102
}
330
C
100
AcDbDictionary
281
     1
  3
Standard
350
18
  0
DICTIONARY
  5
19
102
{ACAD_REACTORS
330
C
102
}
330
C
100
AcDbDictionary
281
     1
  0
ACDBDICTIONARYWDFLT
  5
E
102
{ACAD_REACTORS
330
C
102
}
330
C
100
AcDbDictionary
281
     1
  3
Normal
350
F
100
AcDbDictionaryWithDefault
340
F
  0
DICTIONARY
  5
D6
102
{ACAD_REACTORS
330
C
102
}
330
C
100
AcDbDictionary
281
     1
  0
DICTIONARY
  5
2A
102
{ACAD_REACTORS
330
C
102
}
330
C
100
AcDbDictionary
281
     1
  3
2dWireframe
350
2F
  3
3D Hidden
350
31
  3
3dWireframe
350
30
  3
Basic
350
32
  3
Brighten
350
36
  3
ColorChange
350
3A
  3
Conceptual
350
34
  3
Dim
350
35
  3
Facepattern
350
39
  3
Flat
350
2B
  3
FlatWithEdges
350
2C
  3
Gouraud
350
2D
  3
GouraudWithEdges
350
2E
  3
Linepattern
350
38
  3
Realistic
350
33
  3
Thicken
350
37
  0
LAYOUT
  5
1E
102
{ACAD_REACTORS
330
1A
102
}
330
1A
100
AcDbPlotSettings
  1

  2
none_device
  4

  6

 40
0.0
 41
0.0
 42
0.0
 43
0.0
 44
0.0
 45
0.0
 46
0.0
 47
0.0
 48
0.0
 49
0.0
140
0.0
141
0.0
142
1.0
143
1.0
 70
   688
 72
     0
 73
     0
 74
     5
  7

 75
    16
 76
     0
 77
     2
 78
   300
147
1.0
148
0.0
149
0.0
100
AcDbLayout
  1
Layout1
 70
     1
 71
     1
 10
0.0
 20
0.0
 11
12.0
 21
9.0
 12
0.0
 22
0.0
 32
0.0
 14
1.000000000000000E+20
 24
1.000000000000000E+20
 34
1.000000000000000E+20
 15
-1.000000000000000E+20
 25
-1.000000000000000E+20
 35
-1.000000000000000E+20
146
0.0
 13
0.0
 23
0.0
 33
0.0
 16
1.0
 26
0.0
 36
0.0
 17
0.0
 27
1.0
 37
0.0
 76
     0
330
1B
  0
LAYOUT
  5
26
102
{ACAD_REACTORS
330
1A
102
}
330
1A
100
AcDbPlotSettings
  1

  2
none_device
  4

  6

 40
0.0
 41
0.0
 42
0.0
 43
0.0
 44
0.0
 45
0.0
 46
0.0
 47
0.0
 48
0.0
 49
0.0
140
0.0
141
0.0
142
1.0
143
1.0
 70
   688
 72
     0
 73
     0
 74
     5
  7

 75
    16
 76
     0
 77
     2
 78
   300
147
1.0
148
0.0
149
0.0
100
AcDbLayout
  1
Layout2
 70
     1
 71
     2
 10
0.0
 20
0.0
 11
0.0
 21
0.0
 12
0.0
 22
0.0
 32
0.0
 14
0.0
 24
0.0
 34
0.0
 15
0.0
 25
0.0
 35
0.0
146
0.0
 13
0.0
 23
0.0
 33
0.0
 16
1.0
 26
0.0
 36
0.0
 17
0.0
 27
1.0
 37
0.0
 76
     0
330
23
  0
LAYOUT
  5
22
102
{ACAD_REACTORS
330
1A
102
}
330
1A
100
AcDbPlotSettings
  1

  2
none_device
  4

  6

 40
0.0
 41
0.0
 42
0.0
 43
0.0
 44
0.0
 45
0.0
 46
0.0
 47
0.0
 48
0.0
 49
0.0
140
0.0
141
0.0
142
1.0
143
1.0
 70
  1712
 72
     0
 73
     0
 74
     0
  7

 75
     0
 76
     0
 77
     2
 78
   300
147
1.0
148
0.0
149
0.0
100
AcDbLayout
  1
Model
 70
     1
 71
     0
 10
0.0
 20
0.0
 11
12.0
 21
9.0
 12
0.0
 22
0.0
 32
0.0
 14
1.000000000000000E+20
 24
1.000000000000000E+20
 34
1.000000000000000E+20
 15
-1.000000000000000E+20
 25
-1.000000000000000E+20
 35
-1.000000000000000E+20
146
0.0
 13
0.0
 23
0.0
 33
0.0
 16
1.0
 26
0.0
 36
0.0
 17
0.0
 27
1.0
 37
0.0
 76
     0
330
1F
331
29
  0
MATERIAL
  5
3D
102
{ACAD_REACTORS
330
3B
102
}
330
3B
100
AcDbMaterial
  1
ByBlock
 72
     1
 94
      127
  0
MATERIAL
  5
3C
102
{ACAD_REACTORS
330
3B
102
}
330
3B
100
AcDbMaterial
  1
ByLayer
 72
     1
 94
      127
  0
MATERIAL
  5
3E
102
{ACAD_REACTORS
330
3B
102
}
330
3B
100
AcDbMaterial
  1
Global
 72
     1
 94
      127
  0
MLINESTYLE
  5
18
102
{ACAD_REACTORS
330
17
102
}
330
17
100
AcDbMlineStyle
  2
Standard
 70
     0
  3

 62
   256
 51
90.0
 52
90.0
 71
     2
 49
0.5
 62
   256
  6
BYLAYER
 49
-0.5
 62
   256
  6
BYLAYER
  0
ACDBPLACEHOLDER
  5
F
102
{ACAD_REACTORS
330
E
102
}
330
E
  0
VISUALSTYLE
  5
2F
102
{ACAD_REACTORS
330
2A
102
}
330
2A
100
AcDbVisualStyle
  2
2dWireframe
 70
     4
177
     2
291
     0
 71
     0
176
     1
 72
     2
176
     1
 73
     0
176
     1
 90
        0
176
     1
 40
-0.6
176
     1
 41
-30.0
176
     1
 62
     5
 63
     7
421
 16777215
176
     1
 74
     1
176
     1
 91
        4
176
     1
 64
     7
176
     1
 65
   257
176
     1
 75
     1
176
     1
175
     1
176
     1
 42
1.0
176
     1
 92
        0
176
     1
 66
   257
176
     1
 43
1.0
176
     1
 76
     1
176
     1
 77
     6
176
     1
 78
     2
176
     1
 67
     7
176
     1
 79
     5
176
     1
170
     0
176
     1
171
     0
176
     1
290
     0
176
     1
 93
        1
176
     1
 44
0.0
176
     1
173
     0
176
     1
  0
VISUALSTYLE
  5
31
102
{ACAD_REACTORS
330
2A
102
}
330
2A
100
AcDbVisualStyle
  2
3D Hidden
 70
     6
177
     2
291
     0
 71
     1
176
     1
 72
     2
176
     1
 73
     2
176
     1
 90
        0
176
     1
 40
-0.6
176
     1
 41
-30.0
176
     1
 62
     5
 63
     7
421
 16777215
176
     1
 74
     2
176
     1
 91
        2
176
     1
 64
     7
176
     1
 65
   257
176
     1
 75
     2
176
     1
175
     1
176
     1
 42
40.0
176
     1
 92
        0
176
     1
 66
   257
176
     1
 43
1.0
176
     1
 76
     1
176
     1
 77
     6
176
     1
 78
     2
176
     1
 67
     7
176
     1
 79
     3
176
     1
170
     0
176
     1
171
     0
176
     1
290
     0
176
     1
 93
        1
176
     1
 44
0.0
176
     1
173
     0
176
     1
  0
VISUALSTYLE
  5
30
102
{ACAD_REACTORS
330
2A
102
}
330
2A
100
AcDbVisualStyle
  2
3dWireframe
 70
     5
177
     2
291
     0
 71
     0
176
     1
 72
     2
176
     1
 73
     0
176
     1
 90
        0
176
     1
 40
-0.6
176
     1
 41
-30.0
176
     1
 62
     5
 63
     7
421
 16777215
176
     1
 74
     1
176
     1
 91
        4
176
     1
 64
     7
176
     1
 65
   257
176
     1
 75
     1
176
     1
175
     1
176
     1
 42
1.0
176
     1
 92
        0
176
     1
 66
   257
176
     1
 43
1.0
176
     1
 76
     1
176
     1
 77
     6
176
     1
 78
     2
176
     1
 67
     7
176
     1
 79
     5
176
     1
170
     0
176
     1
171
     0
176
     1
290
     0
176
     1
 93
        1
176
     1
 44
0.0
176
     1
173
     0
176
     1
  0
VISUALSTYLE
  5
32
102
{ACAD_REACTORS
330
2A
102
}
330
2A
100
AcDbVisualStyle
  2
Basic
 70
     7
177
     2
291
     1
 71
     1
176
     1
 72
     0
176
     1
 73
     1
176
     1
 90
        0
176
     1
 40
-0.6
176
     1
 41
-30.0
176
     1
 62
     5
 63
     7
421
 16777215
176
     1
 74
     0
176
     1
 91
        4
176
     1
 64
     7
176
     1
 65
   257
176
     1
 75
     1
176
     1
175
     1
176
     1
 42
1.0
176
     1
 92
        8
176
     1
 66
     7
176
     1
 43
1.0
176
     1
 76
     1
176
     1
 77
     6
176
     1
 78
     2
176
     1
 67
     7
176
     1
 79
     5
176
     1
170
     0
176
     1
171
     0
176
     1
290
     0
176
     1
 93
        1
176
     1
 44
0.0
176
     1
173
     0
176
     1
  0
VISUALSTYLE
  5
36
102
{ACAD_REACTORS
330
2A
102
}
330
2A
100
AcDbVisualStyle
  2
Brighten
 70
    12
177
     2
291
     1
 71
     2
176
     1
 72
     2
176
     1
 73
     0
176
     1
 90
        0
176
     1
 40
-0.6
176
     1
 41
-30.0
176
     1
 62
     5
 63
     7
421
 16777215
176
     1
 74
     1
176
     1
 91
        4
176
     1
 64
     7
176
     1
 65
   257
176
     1
 75
     1
176
     1
175
     1
176
     1
 42
1.0
176
     1
 92
        8
176
     1
 66
     7
176
     1
 43
1.0
176
     1
 76
     1
176
     1
 77
     6
176
     1
 78
     2
176
     1
 67
     7
176
     1
 79
     5
176
     1
170
     0
176
     1
171
     0
176
     1
290
     0
176
     1
 93
        1
176
     1
 44
50.0
176
     1
173
     0
176
     1
  0
VISUALSTYLE
  5
3A
102
{ACAD_REACTORS
330
2A
102
}
330
2A
100
AcDbVisualStyle
  2
ColorChange
 70
    16
177
     2
291
     1
 71
     2
176
     1
 72
     2
176
     1
 73
     3
176
     1
 90
        0
176
     1
 40
-0.6
176
     1
 41
-30.0
176
     1
 62
     5
 63
     8
421
  8421504
176
     1
 74
     1
176
     1
 91
        4
176
     1
 64
     7
176
     1
 65
   257
176
     1
 75
     1
176
     1
175
     1
176
     1
 42
1.0
176
     1
 92
        8
176
     1
 66
     8
424
  8421504
176
     1
 43
1.0
176
     1
 76
     1
176
     1
 77
     6
176
     1
 78
     2
176
     1
 67
     7
176
     1
 79
     5
176
     1
170
     0
176
     1
171
     0
176
     1
290
     0
176
     1
 93
        1
176
     1
 44
0.0
176
     1
173
     0
176
     1
  0
VISUALSTYLE
  5
34
102
{ACAD_REACTORS
330
2A
102
}
330
2A
100
AcDbVisualStyle
  2
Conceptual
 70
     9
177
     2
291
     0
 71
     3
176
     1
 72
     2
176
     1
 73
     0
176
     1
 90
        0
176
     1
 40
-0.6
176
     1
 41
-30.0
176
     1
 62
     5
 63
     7
421
 16777215
176
     1
 74
     2
176
     1
 91
        2
176
     1
 64
     7
176
     1
 65
   257
176
     1
 75
     1
176
     1
175
     1
176
     1
 42
40.0
176
     1
 92
        8
176
     1
 66
     7
176
     1
 43
1.0
176
     1
 76
     1
176
     1
 77
     6
176
     1
 78
     2
176
     1
 67
     7
176
     1
 79
     3
176
     1
170
     0
176
     1
171
     0
176
     1
290
     0
176
     1
 93
        1
176
     1
 44
0.0
176
     1
173
     0
176
     1
  0
VISUALSTYLE
  5
35
102
{ACAD_REACTORS
330
2A
102
}
330
2A
100
AcDbVisualStyle
  2
Dim
 70
    11
177
     2
291
     1
 71
     2
176
     1
 72
     2
176
     1
 73
     0
176
     1
 90
        0
176
     1
 40
-0.6
176
     1
 41
-30.0
176
     1
 62
     5
 63
     7
421
 16777215
176
     1
 74
     1
176
     1
 91
        4
176
     1
 64
     7
176
     1
 65
   257
176
     1
 75
     1
176
     1
175
     1
176
     1
 42
1.0
176
     1
 92
        8
176
     1
 66
     7
176
     1
 43
1.0
176
     1
 76
     1
176
     1
 77
     6
176
     1
 78
     2
176
     1
 67
     7
176
     1
 79
     5
176
     1
170
     0
176
     1
171
     0
176
     1
290
     0
176
     1
 93
        1
176
     1
 44
-50.0
176
     1
173
     0
176
     1
  0
VISUALSTYLE
  5
39
102
{ACAD_REACTORS
330
2A
102
}
330
2A
100
AcDbVisualStyle
  2
Facepattern
 70
    15
177
     2
291
     1
 71
     2
176
     1
 72
     2
176
     1
 73
     0
176
     1
 90
        0
176
     1
 40
-0.6
176
     1
 41
-30.0
176
     1
 62
     5
 63
     7
421
 16777215
176
     1
 74
     1
176
     1
 91
        4
176
     1
 64
     7
176
     1
 65
   257
176
     1
 75
     1
176
     1
175
     1
176
     1
 42
1.0
176
     1
 92
        8
176
     1
 66
     7
176
     1
 43
1.0
176
     1
 76
     1
176
     1
 77
     6
176
     1
 78
     2
176
     1
 67
     7
176
     1
 79
     5
176
     1
170
     0
176
     1
171
     0
176
     1
290
     0
176
     1
 93
        1
176
     1
 44
0.0
176
     1
173
     0
176
     1
  0
VISUALSTYLE
  5
2B
102
{ACAD_REACTORS
330
2A
102
}
330
2A
100
AcDbVisualStyle
  2
Flat
 70
     0
177
     2
291
     1
 71
     2
176
     1
 72
     1
176
     1
 73
     1
176
     1
 90
        2
176
     1
 40
-0.6
176
     1
 41
30.0
176
     1
 62
     5
 63
     7
421
 16777215
176
     1
 74
     0
176
     1
 91
        4
176
     1
 64
     7
176
     1
 65
   257
176
     1
 75
     1
176
     1
175
     1
176
     1
 42
1.0
176
     1
 92
        8
176
     1
 66
     7
176
     1
 43
1.0
176
     1
 76
     1
176
     1
 77
     6
176
     1
 78
     2
176
     1
 67
     7
176
     1
 79
     5
176
     1
170
     0
176
     1
171
     0
176
     1
290
     0
176
     1
 93
       13
176
     1
 44
0.0
176
     1
173
     0
176
     1
  0
VISUALSTYLE
  5
2C
102
{ACAD_REACTORS
330
2A
102
}
330
2A
100
AcDbVisualStyle
  2
FlatWithEdges
 70
     1
177
     2
291
     1
 71
     2
176
     1
 72
     1
176
     1
 73
     1
176
     1
 90
        2
176
     1
 40
-0.6
176
     1
 41
30.0
176
     1
 62
     5
 63
     7
421
 16777215
176
     1
 74
     1
176
     1
 91
        4
176
     1
 64
     7
176
     1
 65
   257
176
     1
 75
     1
176
     1
175
     1
176
     1
 42
1.0
176
     1
 92
        0
176
     1
 66
   257
176
     1
 43
1.0
176
     1
 76
     1
176
     1
 77
     6
176
     1
 78
     2
176
     1
 67
     7
176
     1
 79
     5
176
     1
170
     0
176
     1
171
     0
176
     1
290
     0
176
     1
 93
       13
176
     1
 44
0.0
176
     1
173
     0
176
     1
  0
VISUALSTYLE
  5
2D
102
{ACAD_REACTORS
330
2A
102
}
330
2A
100
AcDbVisualStyle
  2
Gouraud
 70
     2
177
     2
291
     1
 71
     2
176
     1
 72
     2
176
     1
 73
     1
176
     1
 90
        2
176
     1
 40
-0.6
176
     1
 41
30.0
176
     1
 62
     5
 63
     7
421
 16777215
176
     1
 74
     0
176
     1
 91
        4
176
     1
 64
     7
176
     1
 65
   257
176
     1
 75
     1
176
     1
175
     1
176
     1
 42
1.0
176
     1
 92
        0
176
     1
 66
     7
176
     1
 43
1.0
176
     1
 76
     1
176
     1
 77
     6
176
     1
 78
     2
176
     1
 67
     7
176
     1
 79
     5
176
     1
170
     0
176
     1
171
     0
176
     1
290
     0
176
     1
 93
       13
176
     1
 44
0.0
176
     1
173
     0
176
     1
  0
VISUALSTYLE
  5
2E
102
{ACAD_REACTORS
330
2A
102
}
330
2A
100
AcDbVisualStyle
  2
GouraudWithEdges
 70
     3
177
     2
291
     1
 71
     2
176
     1
 72
     2
176
     1
 73
     1
176
     1
 90
        2
176
     1
 40
-0.6
176
     1
 41
30.0
176
     1
 62
     5
 63
     7
421
 16777215
176
     1
 74
     1
176
     1
 91
        4
176
     1
 64
     7
176
     1
 65
   257
176
     1
 75
     1
176
     1
175
     1
176
     1
 42
1.0
176
     1
 92
        0
176
     1
 66
   257
176
     1
 43
1.0
176
     1
 76
     1
176
     1
 77
     6
176
     1
 78
     2
176
     1
 67
     7
176
     1
 79
     5
176
     1
170
     0
176
     1
171
     0
176
     1
290
     0
176
     1
 93
       13
176
     1
 44
0.0
176
     1
173
     0
176
     1
  0
VISUALSTYLE
  5
38
102
{ACAD_REACTORS
330
2A
102
}
330
2A
100
AcDbVisualStyle
  2
Linepattern
 70
    14
177
     2
291
     1
 71
     2
176
     1
 72
     2
176
     1
 73
     0
176
     1
 90
        0
176
     1
 40
-0.6
176
     1
 41
-30.0
176
     1
 62
     5
 63
     7
421
 16777215
176
     1
 74
     1
176
     1
 91
        4
176
     1
 64
     7
176
     1
 65
   257
176
     1
 75
     7
176
     1
175
     7
176
     1
 42
1.0
176
     1
 92
        8
176
     1
 66
     7
176
     1
 43
1.0
176
     1
 76
     1
176
     1
 77
     6
176
     1
 78
     2
176
     1
 67
     7
176
     1
 79
     5
176
     1
170
     0
176
     1
171
     0
176
     1
290
     0
176
     1
 93
        1
176
     1
 44
0.0
176
     1
173
     0
176
     1
  0
VISUALSTYLE
  5
33
102
{ACAD_REACTORS
330
2A
102
}
330
2A
100
AcDbVisualStyle
  2
Realistic
 70
     8
177
     2
291
     0
 71
     2
176
     1
 72
     2
176
     1
 73
     0
176
     1
 90
        0
176
     1
 40
-0.6
176
     1
 41
-30.0
176
     1
 62
     5
 63
     7
421
 16777215
176
     1
 74
     1
176
     1
 91
        0
176
     1
 64
     7
176
     1
 65
   257
176
     1
 75
     1
176
     1
175
     1
176
     1
 42
1.0
176
     1
 92
        8
176
     1
 66
     8
424
  7895160
176
     1
 43
1.0
176
     1
 76
     1
176
     1
 77
     6
176
     1
 78
     2
176
     1
 67
     7
176
     1
 79
     5
176
     1
170
     0
176
     1
171
     0
176
     1
290
     0
176
     1
 93
       13
176
     1
 44
0.0
176
     1
173
     0
176
     1
  0
VISUALSTYLE
  5
37
102
{ACAD_REACTORS
330
2A
102
}
330
2A
100
AcDbVisualStyle
  2
Thicken
 70
    13
177
     2
291
     1
 71
     2
176
     1
 72
     2
176
     1
 73
     0
176
     1
 90
        0
176
     1
 40
-0.6
176
     1
 41
-30.0
176
     1
 62
     5
 63
     7
421
 16777215
176
     1
 74
     1
176
     1
 91
        4
176
     1
 64
     7
176
     1
 65
   257
176
     1
 75
     1
176
     1
175
     1
176
     1
 42
1.0
176
     1
 92
       12
176
     1
 66
     7
176
     1
 43
1.0
176
     1
 76
     1
176
     1
 77
     6
176
     1
 78
     2
176
     1
 67
     7
176
     1
 79
     5
176
     1
170
     0
176
     1
171
     0
176
     1
290
     0
176
     1
 93
        1
176
     1
 44
0.0
176
     1
173
     0
176
     1
  0
ENDSEC
  0
EOF
