  0
SECTION
  2
HEADER
  9
$ACADVER
  1
AC1024
  9
$ACADMAINTVER
 70
     6
  9
$DWGCODEPAGE
  3
UNDEFINED
  9
$INSBASE
 10
0.0
 20
0.0
 30
0.0
  9
$EXTMIN
 10
1.000000000000000E+20
 20
1.000000000000000E+20
 30
1.000000000000000E+20
  9
$EXTMAX
 10
-1.000000000000000E+20
 20
-1.000000000000000E+20
 30
-1.000000000000000E+20
  9
$LIMMIN
 10
0.0
 20
0.0
  9
$LIMMAX
 10
12.0
 20
9.0
  9
$ORTHOMODE
 70
     0
  9
$REGENMODE
 70
     1
  9
$FILLMODE
 70
     1
  9
$QTEXTMODE
 70
     0
  9
$MIRRTEXT
 70
     1
  9
$LTSCALE
 40
1.0
  9
$ATTMODE
 70
     1
  9
$TEXTSIZE
 40
0.2
  9
$TRACEWID
 40
0.05
  9
$TEXTSTYLE
  7
Standard
  9
$CLAYER
  8
0
  9
$CELTYPE
  6
ByLayer
  9
$CECOLOR
 62
   256
  9
$CELTSCALE
 40
1.0
  9
$DISPSILH
 70
     0
  9
$DIMSCALE
 40
1.0
  9
$DIMASZ
 40
0.18
  9
$DIMEXO
 40
0.0625
  9
$DIMDLI
 40
0.38
  9
$DIMRND
 40
0.0
  9
$DIMDLE
 40
0.0
  9
$DIMEXE
 40
0.18
  9
$DIMTP
 40
0.0
  9
$DIMTM
 40
0.0
  9
$DIMTXT
 40
0.18
  9
$DIMCEN
 40
0.09
  9
$DIMTSZ
 40
0.0
  9
$DIMTOL
 70
     0
  9
$DIMLIM
 70
     0
  9
$DIMTIH
 70
     1
  9
$DIMTOH
 70
     1
  9
$DIMSE1
 70
     0
  9
$DIMSE2
 70
     0
  9
$DIMTAD
 70
     0
  9
$DIMZIN
 70
     0
  9
$DIMBLK
  1

  9
$DIMASO
 70
     1
  9
$DIMSHO
 70
     1
  9
$DIMPOST
  1

  9
$DIMAPOST
  1

  9
$DIMALT
 70
     0
  9
$DIMALTD
 70
     2
  9
$DIMALTF
 40
25.4
  9
$DIMLFAC
 40
1.0
  9
$DIMTOFL
 70
     0
  9
$DIMTVP
 40
0.0
  9
$DIMTIX
 70
     0
  9
$DIMSOXD
 70
     0
  9
$DIMSAH
 70
     0
  9
$DIMBLK1
  1

  9
$DIMBLK2
  1

  9
$DIMSTYLE
  2
Standard
  9
$DIMCLRD
 70
     0
  9
$DIMCLRE
 70
     0
  9
$DIMCLRT
 70
     0
  9
$DIMTFAC
 40
1.0
  9
$DIMGAP
 40
0.09
  9
$DIMJUST
 70
     0
  9
$DIMSD1
 70
     0
  9
$DIMSD2
 70
     0
  9
$DIMTOLJ
 70
     1
  9
$DIMTZIN
 70
     0
  9
$DIMALTZ
 70
     0
  9
$DIMALTTZ
 70
     0
  9
$DIMUPT
 70
     0
  9
$DIMDEC
 70
     4
  9
$DIMTDEC
 70
     4
  9
$DIMALTU
 70
     2
  9
$DIMALTTD
 70
     2
  9
$DIMTXSTY
  7
Standard
  9
$DIMAUNIT
 70
     0
  9
$DIMADEC
 70
     0
  9
$DIMALTRND
 40
0.0
  9
$DIMAZIN
 70
     0
  9
$DIMDSEP
 70
    46
  9
$DIMATFIT
 70
     3
  9
$DIMFRAC
 70
     0
  9
$DIMLDRBLK
  1

  9
$DIMLUNIT
 70
     2
  9
$DIMLWD
 70
    -2
  9
$DIMLWE
 70
    -2
  9
$DIMTMOVE
 70
     0
  9
$DIMFXL
 40
1.0
  9
$DIMFXLON
 70
     0
  9
$DIMJOGANG
 40
0.7853981633974483
  9
$DIMTFILL
 70
     0
  9
$DIMTFILLCLR
 70
     0
  9
$DIMARCSYM
 70
     0
  9
$DIMLTYPE
  6

  9
$DIMLTEX1
  6

  9
$DIMLTEX2
  6

  9
$DIMTXTDIRECTION
 70
     0
  9
$LUNITS
 70
     2
  9
$LUPREC
 70
     4
  9
$SKETCHINC
 40
0.1
  9
$FILLETRAD
 40
0.5
  9
$AUNITS
 70
     0
  9
$AUPREC
 70
     0
  9
$MENU
  1
.
  9
$ELEVATION
 40
0.0
  9
$PELEVATION
 40
0.0
  9
$THICKNESS
 40
0.0
  9
$LIMCHECK
 70
     0
  9
$CHAMFERA
 40
0.5
  9
$CHAMFERB
 40
0.5
  9
$CHAMFERC
 40
1.0
  9
$CHAMFERD
 40
0.0
  9
$SKPOLY
 70
     0
  9
$TDCREATE
 40
2457917.617708322
  9
$TDUCREATE
 40
2457917.242708333
  9
$TDUPDATE
 40
2457917.617708322
  9
$TDUUPDATE
 40
2457917.242708333
  9
$TDINDWG
 40
0.0000000116
  9
$TDUSRTIMER
 40
0.0000000116
  9
$USRTIMER
 70
     1
  9
$ANGBASE
 50
0.0
  9
$ANGDIR
 70
     0
  9
$PDMODE
 70
     0
  9
$PDSIZE
 40
0.0
  9
$PLINEWID
 40
0.0
  9
$SPLFRAME
 70
     0
  9
$SPLINETYPE
 70
     6
  9
$SPLINESEGS
 70
     8
  9
$HANDSEED
  5
EB
  9
$SURFTAB1
 70
     6
  9
$SURFTAB2
 70
     6
  9
$SURFTYPE
 70
     6
  9
$SURFU
 70
     6
  9
$SURFV
 70
     6
  9
$UCSBASE
  2

  9
$UCSNAME
  2

  9
$UCSORG
 10
0.0
 20
0.0
 30
0.0
  9
$UCSXDIR
 10
1.0
 20
0.0
 30
0.0
  9
$UCSYDIR
 10
0.0
 20
1.0
 30
0.0
  9
$UCSORTHOREF
  2

  9
$UCSORTHOVIEW
 70
     0
  9
$UCSORGTOP
 10
0.0
 20
0.0
 30
0.0
  9
$UCSORGBOTTOM
 10
0.0
 20
0.0
 30
0.0
  9
$UCSORGLEFT
 10
0.0
 20
0.0
 30
0.0
  9
$UCSORGRIGHT
 10
0.0
 20
0.0
 30
0.0
  9
$UCSORGFRONT
 10
0.0
 20
0.0
 30
0.0
  9
$UCSORGBACK
 10
0.0
 20
0.0
 30
0.0
  9
$PUCSBASE
  2

  9
$PUCSNAME
  2

  9
$PUCSORG
 10
0.0
 20
0.0
 30
0.0
  9
$PUCSXDIR
 10
1.0
 20
0.0
 30
0.0
  9
$PUCSYDIR
 10
0.0
 20
1.0
 30
0.0
  9
$PUCSORTHOREF
  2

  9
$PUCSORTHOVIEW
 70
     0
  9
$PUCSORGTOP
 10
0.0
 20
0.0
 30
0.0
  9
$PUCSORGBOTTOM
 10
0.0
 20
0.0
 30
0.0
  9
$PUCSORGLEFT
 10
0.0
 20
0.0
 30
0.0
  9
$PUCSORGRIGHT
 10
0.0
 20
0.0
 30
0.0
  9
$PUCSORGFRONT
 10
0.0
 20
0.0
 30
0.0
  9
$PUCSORGBACK
 10
0.0
 20
0.0
 30
0.0
  9
$USERI1
 70
     0
  9
$USERI2
 70
     0
  9
$USERI3
 70
     0
  9
$USERI4
 70
     0
  9
$USERI5
 70
     0
  9
$USERR1
 40
0.0
  9
$USERR2
 40
0.0
  9
$USERR3
 40
0.0
  9
$USERR4
 40
0.0
  9
$USERR5
 40
0.0
  9
$WORLDVIEW
 70
     1
  9
$SHADEDGE
 70
     3
  9
$SHADEDIF
 70
    70
  9
$TILEMODE
 70
     1
  9
$MAXACTVP
 70
    64
  9
$PINSBASE
 10
0.0
 20
0.0
 30
0.0
  9
$PLIMCHECK
 70
     0
  9
$PEXTMIN
 10
1.000000000000000E+20
 20
1.000000000000000E+20
 30
1.000000000000000E+20
  9
$PEXTMAX
 10
-1.000000000000000E+20
 20
-1.000000000000000E+20
 30
-1.000000000000000E+20
  9
$PLIMMIN
 10
0.0
 20
0.0
  9
$PLIMMAX
 10
12.0
 20
9.0
  9
$UNITMODE
 70
     0
  9
$VISRETAIN
 70
     1
  9
$PLINEGEN
 70
     0
  9
$PSLTSCALE
 70
     1
  9
$TREEDEPTH
 70
  3020
  9
$CMLSTYLE
  2
Standard
  9
$CMLJUST
 70
     0
  9
$CMLSCALE
 40
1.0
  9
$PROXYGRAPHICS
 70
     1
  9
$MEASUREMENT
 70
     0
  9
$CELWEIGHT
370
    -1
  9
$ENDCAPS
280
     0
  9
$JOINSTYLE
280
     0
  9
$LWDISPLAY
290
     1
  9
$INSUNITS
 70
     1
  9
$HYPERLINKBASE
  1

  9
$STYLESHEET
  1

  9
$XEDIT
290
     1
  9
$CEPSNTYPE
380
     0
  9
$PSTYLEMODE
290
     1
  9
$FINGERPRINTGUID
  2
{0D495961-4E86-3F1B-4242-9647AEF1D456}
  9
$VERSIONGUID
  2
{FAEB1C32-E019-11D5-929B-00C0DF256EC4}
  9
$EXTNAMES
290
     1
  9
$PSVPSCALE
 40
0.0
  9
$OLESTARTUP
290
     0
  9
$SORTENTS
280
   127
  9
$INDEXCTL
280
     0
  9
$HIDETEXT
280
     1
  9
$XCLIPFRAME
280
     2
  9
$HALOGAP
280
     0
  9
$OBSCOLOR
 70
   257
  9
$OBSLTYPE
280
     0
  9
$INTERSECTIONDISPLAY
280
     0
  9
$INTERSECTIONCOLOR
 70
   257
  9
$DIMASSOC
280
     2
  9
$PROJECTNAME
  1

  9
$CAMERADISPLAY
290
     0
  9
$LENSLENGTH
 40
50.0
  9
$CAMERAHEIGHT
 40
0.0
  9
$STEPSPERSEC
 40
2.0
  9
$STEPSIZE
 40
6.0
  9
$3DDWFPREC
 40
2.0
  9
$PSOLWIDTH
 40
0.25
  9
$PSOLHEIGHT
 40
4.0
  9
$LOFTANG1
 40
1.570796326794897
  9
$LOFTANG2
 40
1.570796326794897
  9
$LOFTMAG1
 40
0.0
  9
$LOFTMAG2
 40
0.0
  9
$LOFTPARAM
 70
     7
  9
$LOFTNORMALS
280
     1
  9
$LATITUDE
 40
37.795
  9
$LONGITUDE
 40
-122.394
  9
$NORTHDIRECTION
 40
0.0
  9
$TIMEZONE
 70
 -8000
  9
$LIGHTGLYPHDISPLAY
280
     1
  9
$TILEMODELIGHTSYNCH
280
     1
  9
$CMATERIAL
347
3C
  9
$SOLIDHIST
280
     1
  9
$SHOWHIST
280
     1
  9
$DWFFRAME
280
     2
  9
$DGNFRAME
280
     2
  9
$REALWORLDSCALE
290
     1
  9
$INTERFERECOLOR
 62
   256
  9
$CSHADOW
280
     0
  9
$SHADOWPLANELOCATION
 40
0.0
  0
ENDSEC
  0
SECTION
  2
CLASSES
  0
CLASS
  1
ACDBDICTIONARYWDFLT
  2
AcDbDictionaryWithDefault
  3
ObjectDBX Classes
 90
        0
 91
        4
280
     0
281
     0
  0
CLASS
  1
VISUALSTYLE
  2
AcDbVisualStyle
  3
ObjectDBX Classes
 90
     4095
 91
        4
280
     0
281
     0
  0
CLASS
  1
MATERIAL
  2
AcDbMaterial
  3
ObjectDBX Classes
 90
     1153
 91
        4
280
     0
281
     0
  0
CLASS
  1
SUN
  2
AcDbSun
  3
SCENEOE
 90
     1024
 91
        4
280
     0
281
     0
  0
ENDSEC
  0
SECTION
  2
TABLES
  0
TABLE
  2
VPORT
  5
8
330
0
100
AcDbSymbolTable
 70
     1
  0
VPORT
  5
29
330
8
100
AcDbSymbolTableRecord
100
AcDbViewportTableRecord
  2
*Active
 70
     0
 10
0.0
 20
0.0
 11
1.0
 21
1.0
 12
0.0
 22
0.0
 13
0.0
 23
0.0
 14
0.5
 24
0.5
 15
0.5
 25
0.5
 16
0.0
 26
0.0
 36
1.0
 17
91.00082462281999
 27
-128.4993055234307
 37
0.0
 40
256.9986110468615
 41
0.7081814508812795
 42
50.0
 43
0.0
 44
0.0
 50
0.0
 51
0.0
 71
     0
 72
   100
 73
     1
 74
     3
 75
     0
 76
     0
 77
     0
 78
     0
281
     0
 65
     1
110
0.0
120
0.0
130
0.0
111
1.0
121
0.0
131
0.0
112
0.0
122
1.0
132
0.0
 79
     0
146
0.0
 60
     3
 61
     5
292
     1
282
     1
141
0.0
142
0.0
 63
   250
361
3F
  0
ENDTAB
  0
TABLE
  2
LTYPE
  5
5
330
0
100
AcDbSymbolTable
 70
     1
  0
LTYPE
  5
14
330
5
100
AcDbSymbolTableRecord
100
AcDbLinetypeTableRecord
  2
ByBlock
 70
     0
  3

 72
    65
 73
     0
 40
0.0
  0
LTYPE
  5
15
330
5
100
AcDbSymbolTableRecord
100
AcDbLinetypeTableRecord
  2
ByLayer
 70
     0
  3

 72
    65
 73
     0
 40
0.0
  0
LTYPE
  5
16
330
5
100
AcDbSymbolTableRecord
100
AcDbLinetypeTableRecord
  2
Continuous
 70
     0
  3
Solid line
 72
    65
 73
     0
 40
0.0
  0
ENDTAB
  0
TABLE
  2
LAYER
  5
2
330
0
100
AcDbSymbolTable
 70
     2
  0
LAYER
  5
10
330
2
100
AcDbSymbolTableRecord
100
AcDbLayerTableRecord
  2
0
 70
     0
 62
     7
  6
Continuous
370
    -3
390
F
347
3E
  0
LAYER
  5
40
330
2
100
AcDbSymbolTableRecord
100
AcDbLayerTableRecord
  2
_U+30EC_U+30A4_U+30E4_U+30FC 1
 70
     0
 62
     7
  6
Continuous
370
    -3
390
F
347
3E
  0
ENDTAB
  0
TABLE
  2
STYLE
  5
3
330
0
100
AcDbSymbolTable
 70
     1
  0
STYLE
  5
11
330
3
100
AcDbSymbolTableRecord
100
AcDbTextStyleTableRecord
  2
Standard
 70
     0
 40
0.0
 41
1.0
 50
0.0
 71
     0
 42
0.2
  3
txt
  4

  0
ENDTAB
  0
TABLE
  2
VIEW
  5
6
330
0
100
AcDbSymbolTable
 70
     0
  0
ENDTAB
  0
TABLE
  2
UCS
  5
7
330
0
100
AcDbSymbolTable
 70
     0
  0
ENDTAB
  0
TABLE
  2
APPID
  5
9
330
0
100
AcDbSymbolTable
 70
     1
  0
APPID
  5
12
330
9
100
AcDbSymbolTableRecord
100
AcDbRegAppTableRecord
  2
ACAD
 70
     0
  0
ENDTAB
  0
TABLE
  2
DIMSTYLE
  5
A
330
0
100
AcDbSymbolTable
 70
     1
100
AcDbDimStyleTable
  0
DIMSTYLE
105
27
330
A
100
AcDbSymbolTableRecord
100
AcDbDimStyleTableRecord
  2
Standard
 70
     0
178
     0
340
11
  0
ENDTAB
  0
TABLE
  2
BLOCK_RECORD
  5
1
330
0
100
AcDbSymbolTable
 70
     6
  0
BLOCK_RECORD
  5
1F
330
1
100
AcDbSymbolTableRecord
100
AcDbBlockTableRecord
  2
*Model_Space
340
22
 70
     0
280
     1
281
     0
  0
BLOCK_RECORD
  5
1B
330
1
100
AcDbSymbolTableRecord
100
AcDbBlockTableRecord
  2
*Paper_Space
340
1E
 70
     0
280
     1
281
     0
  0
BLOCK_RECORD
  5
23
330
1
100
AcDbSymbolTableRecord
100
AcDbBlockTableRecord
  2
*Paper_Space0
340
26
 70
     0
280
     1
281
     0
  0
BLOCK_RECORD
  5
7D
330
1
100
AcDbSymbolTableRecord
100
AcDbBlockTableRecord
  2
block 2
340
0
102
{BLKREFS
331
7E
102
}
 70
     0
280
     1
281
     0
  0
BLOCK_RECORD
  5
91
330
1
100
AcDbSymbolTableRecord
100
AcDbBlockTableRecord
  2
block 3
340
0
102
{BLKREFS
331
92
102
}
 70
     0
280
     1
281
     0
  0
BLOCK_RECORD
  5
AB
330
1
100
AcDbSymbolTableRecord
100
AcDbBlockTableRecord
  2
block 4
340
0
102
{BLKREFS
331
AC
102
}
 70
     0
280
     1
281
     0
  0
BLOCK_RECORD
  5
D7
330
1
100
AcDbSymbolTableRecord
100
AcDbBlockTableRecord
  2
block 5
340
0
102
{BLKREFS
331
D8
102
}
 70
     0
280
     1
281
     0
  0
BLOCK_RECORD
  5
DF
330
1
100
AcDbSymbolTableRecord
100
AcDbBlockTableRecord
  2
block 6
340
0
102
{BLKREFS
331
E0
102
}
 70
     0
280
     1
281
     0
  0
ENDTAB
  0
ENDSEC
  0
SECTION
  2
BLOCKS
  0
BLOCK
  5
20
330
1F
100
AcDbEntity
  8
0
100
AcDbBlockBegin
  2
*Model_Space
 70
     0
 10
0.0
 20
0.0
 30
0.0
  3
*Model_Space
  1

  0
ENDBLK
  5
21
330
1F
100
AcDbEntity
  8
0
100
AcDbBlockEnd
  0
BLOCK
  5
1C
330
1B
100
AcDbEntity
 67
     1
  8
0
100
AcDbBlockBegin
  2
*Paper_Space
 70
     0
 10
0.0
 20
0.0
 30
0.0
  3
*Paper_Space
  1

  0
ENDBLK
  5
1D
330
1B
100
AcDbEntity
 67
     1
  8
0
100
AcDbBlockEnd
  0
BLOCK
  5
24
330
23
100
AcDbEntity
  8
0
100
AcDbBlockBegin
  2
*Paper_Space0
 70
     0
 10
0.0
 20
0.0
 30
0.0
  3
*Paper_Space0
  1

  0
ENDBLK
  5
25
330
23
100
AcDbEntity
  8
0
100
AcDbBlockEnd
  0
BLOCK
  5
7F
330
7D
100
AcDbEntity
  8
0
100
AcDbBlockBegin
  2
block 2
 70
     0
 10
0.0
 20
0.0
 30
0.0
  3
block 2
  1

  0
SPLINE
  5
81
330
7D
100
AcDbEntity
  8
_U+30EC_U+30A4_U+30E4_U+30FC 1
370
     0
100
AcDbSpline
210
0.0
220
0.0
230
1.0
 70
    11
 71
     3
 72
    29
 73
    25
 74
     0
 42
0.0000000001
 43
0.0000000001
 12
1.0
 22
0.0
 32
0.0
 13
1.0
 23
0.0
 33
0.0
 40
0.0
 40
0.0
 40
0.0
 40
0.0
 40
1.0
 40
1.0
 40
1.0
 40
2.0
 40
2.0
 40
2.0
 40
3.0
 40
3.0
 40
3.0
 40
4.0
 40
4.0
 40
4.0
 40
5.0
 40
5.0
 40
5.0
 40
6.0
 40
6.0
 40
6.0
 40
7.0
 40
7.0
 40
7.0
 40
8.0
 40
8.0
 40
8.0
 40
8.0
 10
84.48459334910454
 20
-121.6206556228067
 30
0.0
 10
84.19968395247439
 20
-121.6206556228067
 30
0.0
 10
83.92838268301097
 20
-121.4830240581709
 30
0.0
 10
83.92838268301097
 20
-121.1340358855151
 30
0.0
 10
83.92838268301097
 20
-120.878065290961
 30
0.0
 10
84.0797946295877
 20
-120.7828084007939
 30
0.0
 10
84.19296601627815
 20
-120.7214857011564
 30
0.0
 10
84.05946856622472
 20
-120.6622300588101
 30
0.0
 10
83.97816431277282
 20
-120.5480251434741
 30
0.0
 10
83.97816431277282
 20
-120.3873114390872
 30
0.0
 10
83.97816431277282
 20
-120.11222056459
 30
0.0
 10
84.19055444943848
 20
-119.9768283120197
 30
0.0
 10
84.48459334910454
 20
-119.9768283120197
 30
0.0
 10
84.78758949703227
 20
-119.9768283120197
 30
0.0
 10
84.99102238543628
 20
-120.1206610485289
 30
0.0
 10
84.99102238543628
 20
-120.3873114390872
 30
0.0
 10
84.99102238543628
 20
-120.5480251434741
 30
0.0
 10
84.90730656514471
 20
-120.6622300588101
 30
0.0
 10
84.77398136986554
 20
-120.7214857011564
 30
0.0
 10
84.86889375048418
 20
-120.7723008595639
 30
0.0
 10
85.03839244835847
 20
-120.867557749731
 30
0.0
 10
85.03839244835847
 20
-121.1299017709328
 30
0.0
 10
85.03839244835847
 20
-121.5042113954052
 30
0.0
 10
84.74004717933583
 20
-121.6206556228067
 30
0.0
 10
84.48459334910454
 20
-121.6206556228067
 30
0.0
  0
SPLINE
  5
82
330
7D
100
AcDbEntity
  8
_U+30EC_U+30A4_U+30E4_U+30FC 1
370
     0
100
AcDbSpline
210
0.0
220
0.0
230
1.0
 70
    11
 71
     3
 72
    17
 73
    13
 74
     0
 42
0.0000000001
 43
0.0000000001
 12
1.0
 22
0.0
 32
0.0
 13
1.0
 23
0.0
 33
0.0
 40
0.0
 40
0.0
 40
0.0
 40
0.0
 40
1.0
 40
1.0
 40
1.0
 40
2.0
 40
2.0
 40
2.0
 40
3.0
 40
3.0
 40
3.0
 40
4.0
 40
4.0
 40
4.0
 40
4.0
 10
84.48459334910454
 20
-120.829489444619
 30
0.0
 10
84.33076983568814
 20
-120.829489444619
 30
0.0
 10
84.1679890740101
 20
-120.9161335960731
 30
0.0
 10
84.1679890740101
 20
-121.1192219749285
 30
0.0
 10
84.1679890740101
 20
-121.3243774110752
 30
0.0
 10
84.30372583612893
 20
-121.42600772789
 30
0.0
 10
84.48459334910454
 20
-121.42600772789
 30
0.0
 10
84.68354761337773
 20
-121.42600772789
 30
0.0
 10
84.80102536942475
 20
-121.3033623286151
 30
0.0
 10
84.80102536942475
 20
-121.1255954015762
 30
0.0
 10
84.80102536942475
 20
-120.9033867427776
 30
0.0
 10
84.62704804741963
 20
-120.829489444619
 30
0.0
 10
84.48459334910454
 20
-120.829489444619
 30
0.0
  0
SPLINE
  5
83
330
7D
100
AcDbEntity
  8
_U+30EC_U+30A4_U+30E4_U+30FC 1
370
     0
100
AcDbSpline
210
0.0
220
0.0
230
1.0
 70
    11
 71
     3
 72
    17
 73
    13
 74
     0
 42
0.0000000001
 43
0.0000000001
 12
1.0
 22
0.0
 32
0.0
 13
1.0
 23
0.0
 33
0.0
 40
0.0
 40
0.0
 40
0.0
 40
0.0
 40
1.0
 40
1.0
 40
1.0
 40
2.0
 40
2.0
 40
2.0
 40
3.0
 40
3.0
 40
3.0
 40
4.0
 40
4.0
 40
4.0
 40
4.0
 10
84.48459334910454
 20
-120.1694091496451
 30
0.0
 10
84.30820446025976
 20
-120.1694091496451
 30
0.0
 10
84.21777070377195
 20
-120.2644937850381
 30
0.0
 10
84.21777070377195
 20
-120.3998860376084
 30
0.0
 10
84.21777070377195
 20
-120.5227036916575
 30
0.0
 10
84.29459633309303
 20
-120.6412149763501
 30
0.0
 10
84.48459334910454
 20
-120.6412149763501
 30
0.0
 10
84.67441811034182
 20
-120.6412149763501
 30
0.0
 10
84.75141599443715
 20
-120.5227036916575
 30
0.0
 10
84.75141599443715
 20
-120.3998860376084
 30
0.0
 10
84.75141599443715
 20
-120.2644937850381
 30
0.0
 10
84.65857067110967
 20
-120.1694091496451
 30
0.0
 10
84.48459334910454
 20
-120.1694091496451
 30
0.0
  0
HATCH
  5
84
330
7D
100
AcDbEntity
  8
_U+30EC_U+30A4_U+30E4_U+30FC 1
 62
   179
420
  2234388
100
AcDbHatch
 10
0.0
 20
0.0
 30
0.0
210
0.0
220
0.0
230
1.0
  2
SOLID
 70
     1
 71
     0
 91
        3
 92
        1
 93
        1
 72
     4
 94
        3
 73
     0
 74
     1
 95
       29
 96
       25
 40
0.0
 40
0.0
 40
0.0
 40
0.0
 40
1.0
 40
1.0
 40
1.0
 40
2.0
 40
2.0
 40
2.0
 40
3.0
 40
3.0
 40
3.0
 40
4.0
 40
4.0
 40
4.0
 40
5.0
 40
5.0
 40
5.0
 40
6.0
 40
6.0
 40
6.0
 40
7.0
 40
7.0
 40
7.0
 40
8.0
 40
8.0
 40
8.0
 40
8.0
 10
84.48459334910454
 20
-121.6206556228067
 10
84.19968395247439
 20
-121.6206556228067
 10
83.92838268301097
 20
-121.4830240581709
 10
83.92838268301097
 20
-121.1340358855151
 10
83.92838268301097
 20
-120.878065290961
 10
84.0797946295877
 20
-120.7828084007939
 10
84.19296601627815
 20
-120.7214857011564
 10
84.05946856622472
 20
-120.6622300588101
 10
83.97816431277282
 20
-120.5480251434741
 10
83.97816431277282
 20
-120.3873114390872
 10
83.97816431277282
 20
-120.11222056459
 10
84.19055444943848
 20
-119.9768283120197
 10
84.48459334910454
 20
-119.9768283120197
 10
84.78758949703227
 20
-119.9768283120197
 10
84.99102238543628
 20
-120.1206610485289
 10
84.99102238543628
 20
-120.3873114390872
 10
84.99102238543628
 20
-120.5480251434741
 10
84.90730656514471
 20
-120.6622300588101
 10
84.77398136986554
 20
-120.7214857011564
 10
84.86889375048418
 20
-120.7723008595639
 10
85.03839244835847
 20
-120.867557749731
 10
85.03839244835847
 20
-121.1299017709328
 10
85.03839244835847
 20
-121.5042113954052
 10
84.74004717933583
 20
-121.6206556228067
 10
84.48459334910454
 20
-121.6206556228067
 97
        0
 97
        0
 92
        1
 93
        1
 72
     4
 94
        3
 73
     0
 74
     1
 95
       17
 96
       13
 40
0.0
 40
0.0
 40
0.0
 40
0.0
 40
1.0
 40
1.0
 40
1.0
 40
2.0
 40
2.0
 40
2.0
 40
3.0
 40
3.0
 40
3.0
 40
4.0
 40
4.0
 40
4.0
 40
4.0
 10
84.48459334910454
 20
-120.829489444619
 10
84.33076983568814
 20
-120.829489444619
 10
84.1679890740101
 20
-120.9161335960731
 10
84.1679890740101
 20
-121.1192219749285
 10
84.1679890740101
 20
-121.3243774110752
 10
84.30372583612893
 20
-121.42600772789
 10
84.48459334910454
 20
-121.42600772789
 10
84.68354761337773
 20
-121.42600772789
 10
84.80102536942475
 20
-121.3033623286151
 10
84.80102536942475
 20
-121.1255954015762
 10
84.80102536942475
 20
-120.9033867427776
 10
84.62704804741963
 20
-120.829489444619
 10
84.48459334910454
 20
-120.829489444619
 97
        0
 97
        0
 92
        1
 93
        1
 72
     4
 94
        3
 73
     0
 74
     1
 95
       17
 96
       13
 40
0.0
 40
0.0
 40
0.0
 40
0.0
 40
1.0
 40
1.0
 40
1.0
 40
2.0
 40
2.0
 40
2.0
 40
3.0
 40
3.0
 40
3.0
 40
4.0
 40
4.0
 40
4.0
 40
4.0
 10
84.48459334910454
 20
-120.1694091496451
 10
84.30820446025976
 20
-120.1694091496451
 10
84.21777070377195
 20
-120.2644937850381
 10
84.21777070377195
 20
-120.3998860376084
 10
84.21777070377195
 20
-120.5227036916575
 10
84.29459633309303
 20
-120.6412149763501
 10
84.48459334910454
 20
-120.6412149763501
 10
84.67441811034182
 20
-120.6412149763501
 10
84.75141599443715
 20
-120.5227036916575
 10
84.75141599443715
 20
-120.3998860376084
 10
84.75141599443715
 20
-120.2644937850381
 10
84.65857067110967
 20
-120.1694091496451
 10
84.48459334910454
 20
-120.1694091496451
 97
        0
 97
        0
 75
     2
 76
     1
 98
        0
  0
ENDBLK
  5
80
330
7D
100
AcDbEntity
  8
0
100
AcDbBlockEnd
  0
BLOCK
  5
93
330
91
100
AcDbEntity
  8
0
100
AcDbBlockBegin
  2
block 3
 70
     0
 10
0.0
 20
0.0
 30
0.0
  3
block 3
  1

  0
SPLINE
  5
95
330
91
100
AcDbEntity
  8
_U+30EC_U+30A4_U+30E4_U+30FC 1
370
     0
100
AcDbSpline
210
0.0
220
0.0
230
1.0
 70
    11
 71
     3
 72
    26
 73
    22
 74
     0
 42
0.0000000001
 43
0.0000000001
 12
1.0
 22
0.0
 32
0.0
 13
1.0
 23
0.0
 33
0.0
 40
0.0
 40
0.0
 40
0.0
 40
0.0
 40
1.0
 40
1.0
 40
1.0
 40
2.0
 40
2.0
 40
2.0
 40
3.0
 40
3.0
 40
3.0
 40
4.0
 40
4.0
 40
4.0
 40
5.0
 40
5.0
 40
5.0
 40
6.0
 40
6.0
 40
6.0
 40
7.0
 40
7.0
 40
7.0
 40
7.0
 10
88.76581350862452
 20
-136.0705918713643
 30
0.0
 10
88.76581350862452
 20
-136.0705918713643
 30
0.0
 10
88.76581350862452
 20
-134.9664387683417
 30
0.0
 10
88.76581350862452
 20
-134.9664387683417
 30
0.0
 10
88.76581350862452
 20
-134.9664387683417
 30
0.0
 10
88.41338024048346
 20
-134.9664387683417
 30
0.0
 10
88.41338024048346
 20
-134.9664387683417
 30
0.0
 10
88.41338024048346
 20
-134.9664387683417
 30
0.0
 10
88.41338024048346
 20
-134.818299662476
 30
0.0
 10
88.41338024048346
 20
-134.818299662476
 30
0.0
 10
88.7682250754642
 20
-134.8034857518894
 30
0.0
 10
88.8178344504518
 20
-134.6405327354371
 30
0.0
 10
88.84952932891609
 20
-134.5261555653268
 30
0.0
 10
88.84952932891609
 20
-134.5261555653268
 30
0.0
 10
89.00559215439792
 20
-134.5261555653268
 30
0.0
 10
89.00559215439792
 20
-134.5261555653268
 30
0.0
 10
89.00559215439792
 20
-134.5261555653268
 30
0.0
 10
89.00559215439792
 20
-136.0705918713643
 30
0.0
 10
89.00559215439792
 20
-136.0705918713643
 30
0.0
 10
89.00559215439792
 20
-136.0705918713643
 30
0.0
 10
88.76581350862452
 20
-136.0705918713643
 30
0.0
 10
88.76581350862452
 20
-136.0705918713643
 30
0.0
  0
HATCH
  5
96
330
91
100
AcDbEntity
  8
_U+30EC_U+30A4_U+30E4_U+30FC 1
 62
   179
420
  2234388
100
AcDbHatch
 10
0.0
 20
0.0
 30
0.0
210
0.0
220
0.0
230
1.0
  2
SOLID
 70
     1
 71
     0
 91
        1
 92
        1
 93
        1
 72
     4
 94
        3
 73
     0
 74
     1
 95
       26
 96
       22
 40
0.0
 40
0.0
 40
0.0
 40
0.0
 40
1.0
 40
1.0
 40
1.0
 40
2.0
 40
2.0
 40
2.0
 40
3.0
 40
3.0
 40
3.0
 40
4.0
 40
4.0
 40
4.0
 40
5.0
 40
5.0
 40
5.0
 40
6.0
 40
6.0
 40
6.0
 40
7.0
 40
7.0
 40
7.0
 40
7.0
 10
88.76581350862452
 20
-136.0705918713643
 10
88.76581350862452
 20
-136.0705918713643
 10
88.76581350862452
 20
-134.9664387683417
 10
88.76581350862452
 20
-134.9664387683417
 10
88.76581350862452
 20
-134.9664387683417
 10
88.41338024048346
 20
-134.9664387683417
 10
88.41338024048346
 20
-134.9664387683417
 10
88.41338024048346
 20
-134.9664387683417
 10
88.41338024048346
 20
-134.818299662476
 10
88.41338024048346
 20
-134.818299662476
 10
88.7682250754642
 20
-134.8034857518894
 10
88.8178344504518
 20
-134.6405327354371
 10
88.84952932891609
 20
-134.5261555653268
 10
88.84952932891609
 20
-134.5261555653268
 10
89.00559215439792
 20
-134.5261555653268
 10
89.00559215439792
 20
-134.5261555653268
 10
89.00559215439792
 20
-134.5261555653268
 10
89.00559215439792
 20
-136.0705918713643
 10
89.00559215439792
 20
-136.0705918713643
 10
89.00559215439792
 20
-136.0705918713643
 10
88.76581350862452
 20
-136.0705918713643
 10
88.76581350862452
 20
-136.0705918713643
 97
        0
 97
        0
 75
     2
 76
     1
 98
        0
  0
SPLINE
  5
97
330
91
100
AcDbEntity
  8
_U+30EC_U+30A4_U+30E4_U+30FC 1
370
     0
100
AcDbSpline
210
0.0
220
0.0
230
1.0
 70
    11
 71
     3
 72
    29
 73
    25
 74
     0
 42
0.0000000001
 43
0.0000000001
 12
1.0
 22
0.0
 32
0.0
 13
1.0
 23
0.0
 33
0.0
 40
0.0
 40
0.0
 40
0.0
 40
0.0
 40
1.0
 40
1.0
 40
1.0
 40
2.0
 40
2.0
 40
2.0
 40
3.0
 40
3.0
 40
3.0
 40
4.0
 40
4.0
 40
4.0
 40
5.0
 40
5.0
 40
5.0
 40
6.0
 40
6.0
 40
6.0
 40
7.0
 40
7.0
 40
7.0
 40
8.0
 40
8.0
 40
8.0
 40
8.0
 10
90.07563881211651
 20
-136.1212347749975
 30
0.0
 10
89.79072941548635
 20
-136.1212347749975
 30
0.0
 10
89.51960040079719
 20
-135.983775465136
 30
0.0
 10
89.51960040079719
 20
-135.6347872924802
 30
0.0
 10
89.51960040079719
 20
-135.3788166979261
 30
0.0
 10
89.67118460214817
 20
-135.2837320625332
 30
0.0
 10
89.78418373406437
 20
-135.2224093628958
 30
0.0
 10
89.6508585387852
 20
-135.1631537205495
 30
0.0
 10
89.56920977578478
 20
-135.0487765504392
 30
0.0
 10
89.56920977578478
 20
-134.887890591278
 30
0.0
 10
89.56920977578478
 20
-134.6129719715551
 30
0.0
 10
89.7817721672247
 20
-134.4775797189848
 30
0.0
 10
90.07563881211651
 20
-134.4775797189848
 30
0.0
 10
90.3788072148185
 20
-134.4775797189848
 30
0.0
 10
90.58206784844823
 20
-134.6215847102682
 30
0.0
 10
90.58206784844823
 20
-134.887890591278
 30
0.0
 10
90.58206784844823
 20
-135.0487765504392
 30
0.0
 10
90.49869653770519
 20
-135.1631537205495
 30
0.0
 10
90.3650268328775
 20
-135.2224093628958
 30
0.0
 10
90.4601114682704
 20
-135.273052266529
 30
0.0
 10
90.62961016614469
 20
-135.3681369019219
 30
0.0
 10
90.62961016614469
 20
-135.6306531778979
 30
0.0
 10
90.62961016614469
 20
-136.0051350571445
 30
0.0
 10
90.33126489712205
 20
-136.1212347749975
 30
0.0
 10
90.07563881211651
 20
-136.1212347749975
 30
0.0
  0
SPLINE
  5
98
330
91
100
AcDbEntity
  8
_U+30EC_U+30A4_U+30E4_U+30FC 1
370
     0
100
AcDbSpline
210
0.0
220
0.0
230
1.0
 70
    11
 71
     3
 72
    17
 73
    13
 74
     0
 42
0.0000000001
 43
0.0000000001
 12
1.0
 22
0.0
 32
0.0
 13
1.0
 23
0.0
 33
0.0
 40
0.0
 40
0.0
 40
0.0
 40
0.0
 40
1.0
 40
1.0
 40
1.0
 40
2.0
 40
2.0
 40
2.0
 40
3.0
 40
3.0
 40
3.0
 40
4.0
 40
4.0
 40
4.0
 40
4.0
 10
90.07563881211651
 20
-135.3302408515841
 30
0.0
 10
89.92198755347437
 20
-135.3302408515841
 30
0.0
 10
89.75937904657057
 20
-135.4170572578124
 30
0.0
 10
89.75937904657057
 20
-135.6199733818936
 30
0.0
 10
89.75937904657057
 20
-135.8253010728145
 30
0.0
 10
89.8947712991409
 20
-135.9265868800809
 30
0.0
 10
90.07563881211651
 20
-135.9265868800809
 30
0.0
 10
90.27476533116395
 20
-135.9265868800809
 30
0.0
 10
90.39224308721097
 20
-135.803941480806
 30
0.0
 10
90.39224308721097
 20
-135.6261745537671
 30
0.0
 10
90.39224308721097
 20
-135.404310404517
 30
0.0
 10
90.21826576520586
 20
-135.3302408515841
 30
0.0
 10
90.07563881211651
 20
-135.3302408515841
 30
0.0
  0
SPLINE
  5
99
330
91
100
AcDbEntity
  8
_U+30EC_U+30A4_U+30E4_U+30FC 1
370
     0
100
AcDbSpline
210
0.0
220
0.0
230
1.0
 70
    11
 71
     3
 72
    17
 73
    13
 74
     0
 42
0.0000000001
 43
0.0000000001
 12
1.0
 22
0.0
 32
0.0
 13
1.0
 23
0.0
 33
0.0
 40
0.0
 40
0.0
 40
0.0
 40
0.0
 40
1.0
 40
1.0
 40
1.0
 40
2.0
 40
2.0
 40
2.0
 40
3.0
 40
3.0
 40
3.0
 40
4.0
 40
4.0
 40
4.0
 40
4.0
 10
90.07563881211651
 20
-134.6701605566103
 30
0.0
 10
89.89959443282025
 20
-134.6701605566103
 30
0.0
 10
89.80898842155817
 20
-134.7652451920031
 30
0.0
 10
89.80898842155817
 20
-134.9006374445734
 30
0.0
 10
89.80898842155817
 20
-135.0232828438484
 30
0.0
 10
89.88581405087925
 20
-135.1417941285409
 30
0.0
 10
90.07563881211651
 20
-135.1417941285409
 30
0.0
 10
90.2658080829023
 20
-135.1417941285409
 30
0.0
 10
90.34263371222337
 20
-135.0232828438484
 30
0.0
 10
90.34263371222337
 20
-134.9006374445734
 30
0.0
 10
90.34263371222337
 20
-134.7652451920031
 30
0.0
 10
90.24996064367015
 20
-134.6701605566103
 30
0.0
 10
90.07563881211651
 20
-134.6701605566103
 30
0.0
  0
HATCH
  5
9A
330
91
100
AcDbEntity
  8
_U+30EC_U+30A4_U+30E4_U+30FC 1
 62
   179
420
  2234388
100
AcDbHatch
 10
0.0
 20
0.0
 30
0.0
210
0.0
220
0.0
230
1.0
  2
SOLID
 70
     1
 71
     0
 91
        3
 92
        1
 93
        1
 72
     4
 94
        3
 73
     0
 74
     1
 95
       29
 96
       25
 40
0.0
 40
0.0
 40
0.0
 40
0.0
 40
1.0
 40
1.0
 40
1.0
 40
2.0
 40
2.0
 40
2.0
 40
3.0
 40
3.0
 40
3.0
 40
4.0
 40
4.0
 40
4.0
 40
5.0
 40
5.0
 40
5.0
 40
6.0
 40
6.0
 40
6.0
 40
7.0
 40
7.0
 40
7.0
 40
8.0
 40
8.0
 40
8.0
 40
8.0
 10
90.07563881211651
 20
-136.1212347749975
 10
89.79072941548635
 20
-136.1212347749975
 10
89.51960040079719
 20
-135.983775465136
 10
89.51960040079719
 20
-135.6347872924802
 10
89.51960040079719
 20
-135.3788166979261
 10
89.67118460214817
 20
-135.2837320625332
 10
89.78418373406437
 20
-135.2224093628958
 10
89.6508585387852
 20
-135.1631537205495
 10
89.56920977578478
 20
-135.0487765504392
 10
89.56920977578478
 20
-134.887890591278
 10
89.56920977578478
 20
-134.6129719715551
 10
89.7817721672247
 20
-134.4775797189848
 10
90.07563881211651
 20
-134.4775797189848
 10
90.3788072148185
 20
-134.4775797189848
 10
90.58206784844823
 20
-134.6215847102682
 10
90.58206784844823
 20
-134.887890591278
 10
90.58206784844823
 20
-135.0487765504392
 10
90.49869653770519
 20
-135.1631537205495
 10
90.3650268328775
 20
-135.2224093628958
 10
90.4601114682704
 20
-135.273052266529
 10
90.62961016614469
 20
-135.3681369019219
 10
90.62961016614469
 20
-135.6306531778979
 10
90.62961016614469
 20
-136.0051350571445
 10
90.33126489712205
 20
-136.1212347749975
 10
90.07563881211651
 20
-136.1212347749975
 97
        0
 97
        0
 92
        1
 93
        1
 72
     4
 94
        3
 73
     0
 74
     1
 95
       17
 96
       13
 40
0.0
 40
0.0
 40
0.0
 40
0.0
 40
1.0
 40
1.0
 40
1.0
 40
2.0
 40
2.0
 40
2.0
 40
3.0
 40
3.0
 40
3.0
 40
4.0
 40
4.0
 40
4.0
 40
4.0
 10
90.07563881211651
 20
-135.3302408515841
 10
89.92198755347437
 20
-135.3302408515841
 10
89.75937904657057
 20
-135.4170572578124
 10
89.75937904657057
 20
-135.6199733818936
 10
89.75937904657057
 20
-135.8253010728145
 10
89.8947712991409
 20
-135.9265868800809
 10
90.07563881211651
 20
-135.9265868800809
 10
90.27476533116395
 20
-135.9265868800809
 10
90.39224308721097
 20
-135.803941480806
 10
90.39224308721097
 20
-135.6261745537671
 10
90.39224308721097
 20
-135.404310404517
 10
90.21826576520586
 20
-135.3302408515841
 10
90.07563881211651
 20
-135.3302408515841
 97
        0
 97
        0
 92
        1
 93
        1
 72
     4
 94
        3
 73
     0
 74
     1
 95
       17
 96
       13
 40
0.0
 40
0.0
 40
0.0
 40
0.0
 40
1.0
 40
1.0
 40
1.0
 40
2.0
 40
2.0
 40
2.0
 40
3.0
 40
3.0
 40
3.0
 40
4.0
 40
4.0
 40
4.0
 40
4.0
 10
90.07563881211651
 20
-134.6701605566103
 10
89.89959443282025
 20
-134.6701605566103
 10
89.80898842155817
 20
-134.7652451920031
 10
89.80898842155817
 20
-134.9006374445734
 10
89.80898842155817
 20
-135.0232828438484
 10
89.88581405087925
 20
-135.1417941285409
 10
90.07563881211651
 20
-135.1417941285409
 10
90.2658080829023
 20
-135.1417941285409
 10
90.34263371222337
 20
-135.0232828438484
 10
90.34263371222337
 20
-134.9006374445734
 10
90.34263371222337
 20
-134.7652451920031
 10
90.24996064367015
 20
-134.6701605566103
 10
90.07563881211651
 20
-134.6701605566103
 97
        0
 97
        0
 75
     2
 76
     1
 98
        0
  0
ENDBLK
  5
94
330
91
100
AcDbEntity
  8
0
100
AcDbBlockEnd
  0
BLOCK
  5
AD
330
AB
100
AcDbEntity
  8
0
100
AcDbBlockBegin
  2
block 4
 70
     0
 10
0.0
 20
0.0
 30
0.0
  3
block 4
  1

  0
POLYLINE
  5
AF
330
AB
100
AcDbEntity
  8
_U+30EC_U+30A4_U+30E4_U+30FC 1
370
     0
100
AcDb2dPolyline
 66
     1
 10
0.0
 20
0.0
 30
0.0
  0
VERTEX
  5
B0
330
AF
100
AcDbEntity
  8
_U+30EC_U+30A4_U+30E4_U+30FC 1
370
     0
100
AcDbVertex
100
AcDb2dVertex
 10
100.6708577222281
 20
-124.586366071284
 30
0.0
  0
VERTEX
  5
B1
330
AF
100
AcDbEntity
  8
_U+30EC_U+30A4_U+30E4_U+30FC 1
370
     0
100
AcDbVertex
100
AcDb2dVertex
 10
101.0177788375928
 20
-124.586366071284
 30
0.0
  0
VERTEX
  5
B2
330
AF
100
AcDbEntity
  8
_U+30EC_U+30A4_U+30E4_U+30FC 1
370
     0
100
AcDbVertex
100
AcDb2dVertex
 10
101.0177788375928
 20
-124.8192545260869
 30
0.0
  0
VERTEX
  5
B3
330
AF
100
AcDbEntity
  8
_U+30EC_U+30A4_U+30E4_U+30FC 1
370
     0
100
AcDbVertex
100
AcDb2dVertex
 10
100.6708577222281
 20
-124.8192545260869
 30
0.0
  0
VERTEX
  5
B4
330
AF
100
AcDbEntity
  8
_U+30EC_U+30A4_U+30E4_U+30FC 1
370
     0
100
AcDbVertex
100
AcDb2dVertex
 10
100.6708577222281
 20
-125.5203314573352
 30
0.0
  0
VERTEX
  5
B5
330
AF
100
AcDbEntity
  8
_U+30EC_U+30A4_U+30E4_U+30FC 1
370
     0
100
AcDbVertex
100
AcDb2dVertex
 10
100.4465820061384
 20
-125.5203314573352
 30
0.0
  0
VERTEX
  5
B6
330
AF
100
AcDbEntity
  8
_U+30EC_U+30A4_U+30E4_U+30FC 1
370
     0
100
AcDbVertex
100
AcDb2dVertex
 10
99.47334253155528
 20
-124.7944498385931
 30
0.0
  0
VERTEX
  5
B7
330
AF
100
AcDbEntity
  8
_U+30EC_U+30A4_U+30E4_U+30FC 1
370
     0
100
AcDbVertex
100
AcDb2dVertex
 10
99.47334253155528
 20
-124.586366071284
 30
0.0
  0
VERTEX
  5
B8
330
AF
100
AcDbEntity
  8
_U+30EC_U+30A4_U+30E4_U+30FC 1
370
     0
100
AcDbVertex
100
AcDb2dVertex
 10
100.4720757127292
 20
-124.586366071284
 30
0.0
  0
VERTEX
  5
B9
330
AF
100
AcDbEntity
  8
_U+30EC_U+30A4_U+30E4_U+30FC 1
370
     0
100
AcDbVertex
100
AcDb2dVertex
 10
100.4720757127292
 20
-124.3648464315824
 30
0.0
  0
VERTEX
  5
BA
330
AF
100
AcDbEntity
  8
_U+30EC_U+30A4_U+30E4_U+30FC 1
370
     0
100
AcDbVertex
100
AcDb2dVertex
 10
100.6708577222281
 20
-124.3648464315824
 30
0.0
  0
VERTEX
  5
BB
330
AF
100
AcDbEntity
  8
_U+30EC_U+30A4_U+30E4_U+30FC 1
370
     0
100
AcDbVertex
100
AcDb2dVertex
 10
100.6708577222281
 20
-124.586366071284
 30
0.0
  0
SEQEND
  5
BC
330
AF
100
AcDbEntity
  8
_U+30EC_U+30A4_U+30E4_U+30FC 1
370
     0
  0
POLYLINE
  5
BD
330
AB
100
AcDbEntity
  8
_U+30EC_U+30A4_U+30E4_U+30FC 1
370
     0
100
AcDb2dPolyline
 66
     1
 10
0.0
 20
0.0
 30
0.0
  0
VERTEX
  5
BE
330
BD
100
AcDbEntity
  8
_U+30EC_U+30A4_U+30E4_U+30FC 1
370
     0
100
AcDbVertex
100
AcDb2dVertex
 10
99.81612953233764
 20
-124.8192545260869
 30
0.0
  0
VERTEX
  5
BF
330
BD
100
AcDbEntity
  8
_U+30EC_U+30A4_U+30E4_U+30FC 1
370
     0
100
AcDbVertex
100
AcDb2dVertex
 10
100.4720757127292
 20
-125.3077690658953
 30
0.0
  0
VERTEX
  5
C0
330
BD
100
AcDbEntity
  8
_U+30EC_U+30A4_U+30E4_U+30FC 1
370
     0
100
AcDbVertex
100
AcDb2dVertex
 10
100.4720757127292
 20
-124.8192545260869
 30
0.0
  0
VERTEX
  5
C1
330
BD
100
AcDbEntity
  8
_U+30EC_U+30A4_U+30E4_U+30FC 1
370
     0
100
AcDbVertex
100
AcDb2dVertex
 10
99.81612953233764
 20
-124.8192545260869
 30
0.0
  0
SEQEND
  5
C2
330
BD
100
AcDbEntity
  8
_U+30EC_U+30A4_U+30E4_U+30FC 1
370
     0
  0
HATCH
  5
C3
330
AB
100
AcDbEntity
  8
_U+30EC_U+30A4_U+30E4_U+30FC 1
 62
   179
420
  2234388
100
AcDbHatch
 10
0.0
 20
0.0
 30
0.0
210
0.0
220
0.0
230
1.0
  2
SOLID
 70
     1
 71
     0
 91
        2
 92
        1
 93
       11
 72
     1
 10
100.6708577222281
 20
-124.586366071284
 11
101.0177788375928
 21
-124.586366071284
 72
     1
 10
101.0177788375928
 20
-124.586366071284
 11
101.0177788375928
 21
-124.8192545260869
 72
     1
 10
101.0177788375928
 20
-124.8192545260869
 11
100.6708577222281
 21
-124.8192545260869
 72
     1
 10
100.6708577222281
 20
-124.8192545260869
 11
100.6708577222281
 21
-125.5203314573352
 72
     1
 10
100.6708577222281
 20
-125.5203314573352
 11
100.4465820061384
 21
-125.5203314573352
 72
     1
 10
100.4465820061384
 20
-125.5203314573352
 11
99.47334253155528
 21
-124.7944498385931
 72
     1
 10
99.47334253155528
 20
-124.7944498385931
 11
99.47334253155528
 21
-124.586366071284
 72
     1
 10
99.47334253155528
 20
-124.586366071284
 11
100.4720757127292
 21
-124.586366071284
 72
     1
 10
100.4720757127292
 20
-124.586366071284
 11
100.4720757127292
 21
-124.3648464315824
 72
     1
 10
100.4720757127292
 20
-124.3648464315824
 11
100.6708577222281
 21
-124.3648464315824
 72
     1
 10
100.6708577222281
 20
-124.3648464315824
 11
100.6708577222281
 21
-124.586366071284
 97
        0
 92
        1
 93
        3
 72
     1
 10
99.81612953233764
 20
-124.8192545260869
 11
100.4720757127292
 21
-125.3077690658953
 72
     1
 10
100.4720757127292
 20
-125.3077690658953
 11
100.4720757127292
 21
-124.8192545260869
 72
     1
 10
100.4720757127292
 20
-124.8192545260869
 11
99.81612953233764
 21
-124.8192545260869
 97
        0
 75
     2
 76
     1
 98
        0
  0
POLYLINE
  5
C4
330
AB
100
AcDbEntity
  8
_U+30EC_U+30A4_U+30E4_U+30FC 1
370
     0
100
AcDb2dPolyline
 66
     1
 10
0.0
 20
0.0
 30
0.0
  0
VERTEX
  5
C5
330
C4
100
AcDbEntity
  8
_U+30EC_U+30A4_U+30E4_U+30FC 1
370
     0
100
AcDbVertex
100
AcDb2dVertex
 10
101.0177788375928
 20
-124.1540065878851
 30
0.0
  0
VERTEX
  5
C6
330
C4
100
AcDbEntity
  8
_U+30EC_U+30A4_U+30E4_U+30FC 1
370
     0
100
AcDbVertex
100
AcDb2dVertex
 10
100.765942357621
 20
-124.1540065878851
 30
0.0
  0
VERTEX
  5
C7
330
C4
100
AcDbEntity
  8
_U+30EC_U+30A4_U+30E4_U+30FC 1
370
     0
100
AcDbVertex
100
AcDb2dVertex
 10
100.765942357621
 20
-123.8849446304871
 30
0.0
  0
VERTEX
  5
C8
330
C4
100
AcDbEntity
  8
_U+30EC_U+30A4_U+30E4_U+30FC 1
370
     0
100
AcDbVertex
100
AcDb2dVertex
 10
101.0177788375928
 20
-123.8849446304871
 30
0.0
  0
VERTEX
  5
C9
330
C4
100
AcDbEntity
  8
_U+30EC_U+30A4_U+30E4_U+30FC 1
370
     0
100
AcDbVertex
100
AcDb2dVertex
 10
101.0177788375928
 20
-124.1540065878851
 30
0.0
  0
SEQEND
  5
CA
330
C4
100
AcDbEntity
  8
_U+30EC_U+30A4_U+30E4_U+30FC 1
370
     0
  0
HATCH
  5
CB
330
AB
100
AcDbEntity
  8
_U+30EC_U+30A4_U+30E4_U+30FC 1
 62
   179
420
  2234388
100
AcDbHatch
 10
0.0
 20
0.0
 30
0.0
210
0.0
220
0.0
230
1.0
  2
SOLID
 70
     1
 71
     0
 91
        1
 92
        1
 93
        4
 72
     1
 10
101.0177788375928
 20
-124.1540065878851
 11
100.765942357621
 21
-124.1540065878851
 72
     1
 10
100.765942357621
 20
-124.1540065878851
 11
100.765942357621
 21
-123.8849446304871
 72
     1
 10
100.765942357621
 20
-123.8849446304871
 11
101.0177788375928
 21
-123.8849446304871
 72
     1
 10
101.0177788375928
 20
-123.8849446304871
 11
101.0177788375928
 21
-124.1540065878851
 97
        0
 75
     2
 76
     1
 98
        0
  0
SPLINE
  5
CC
330
AB
100
AcDbEntity
  8
_U+30EC_U+30A4_U+30E4_U+30FC 1
370
     0
100
AcDbSpline
210
0.0
220
0.0
230
1.0
 70
    11
 71
     3
 72
    53
 73
    49
 74
     0
 42
0.0000000001
 43
0.0000000001
 12
1.0
 22
0.0
 32
0.0
 13
1.0
 23
0.0
 33
0.0
 40
0.0
 40
0.0
 40
0.0
 40
0.0
 40
1.0
 40
1.0
 40
1.0
 40
2.0
 40
2.0
 40
2.0
 40
3.0
 40
3.0
 40
3.0
 40
4.0
 40
4.0
 40
4.0
 40
5.0
 40
5.0
 40
5.0
 40
6.0
 40
6.0
 40
6.0
 40
7.0
 40
7.0
 40
7.0
 40
8.0
 40
8.0
 40
8.0
 40
9.0
 40
9.0
 40
9.0
 40
10.0
 40
10.0
 40
10.0
 40
11.0
 40
11.0
 40
11.0
 40
12.0
 40
12.0
 40
12.0
 40
13.0
 40
13.0
 40
13.0
 40
14.0
 40
14.0
 40
14.0
 40
15.0
 40
15.0
 40
15.0
 40
16.0
 40
16.0
 40
16.0
 40
16.0
 10
101.068421741226
 20
-123.1180663754705
 30
0.0
 10
101.068421741226
 20
-123.2017821957621
 30
0.0
 10
101.0515407733482
 20
-123.3099581939989
 30
0.0
 10
100.9881510164196
 20
-123.4188232113328
 30
0.0
 10
100.8782524704402
 20
-123.6041693484392
 30
0.0
 10
100.7469943324521
 20
-123.6265624690934
 30
0.0
 10
100.6391628437638
 20
-123.6468885324563
 30
0.0
 10
100.6391628437638
 20
-123.6468885324563
 30
0.0
 10
100.6391628437638
 20
-123.4095214535226
 30
0.0
 10
100.6391628437638
 20
-123.4095214535226
 30
0.0
 10
100.8379448532627
 20
-123.3509548302734
 30
0.0
 10
100.8675726744359
 20
-123.2152180681545
 30
0.0
 10
100.8675726744359
 20
-123.1156548086308
 30
0.0
 10
100.8675726744359
 20
-122.9664821741195
 30
0.0
 10
100.7680094149122
 20
-122.8035291576672
 30
0.0
 10
100.5354654696578
 20
-122.8035291576672
 30
0.0
 10
100.2794948751037
 20
-122.8035291576672
 30
0.0
 10
100.2095594367532
 20
-122.9957654857441
 30
0.0
 10
100.2095594367532
 20
-123.1246120568925
 30
0.0
 10
100.2095594367532
 20
-123.1587185021964
 30
0.0
 10
100.2095594367532
 20
-123.3099581939989
 30
0.0
 10
100.33875051745
 20
-123.4050428293918
 30
0.0
 10
100.33875051745
 20
-123.4050428293918
 30
0.0
 10
100.3198024922812
 20
-123.5928005333379
 30
0.0
 10
100.3198024922812
 20
-123.5928005333379
 30
0.0
 10
100.3198024922812
 20
-123.5928005333379
 30
0.0
 10
99.47334253155528
 20
-123.4639539621896
 30
0.0
 10
99.47334253155528
 20
-123.4639539621896
 30
0.0
 10
99.47334253155528
 20
-123.4639539621896
 30
0.0
 10
99.47334253155528
 20
-122.6319634025017
 30
0.0
 10
99.47334253155528
 20
-122.6319634025017
 30
0.0
 10
99.47334253155528
 20
-122.6319634025017
 30
0.0
 10
99.6679904264719
 20
-122.6319634025017
 30
0.0
 10
99.6679904264719
 20
-122.6319634025017
 30
0.0
 10
99.6679904264719
 20
-122.6319634025017
 30
0.0
 10
99.6679904264719
 20
-123.2896321306359
 30
0.0
 10
99.6679904264719
 20
-123.2896321306359
 30
0.0
 10
99.6679904264719
 20
-123.2896321306359
 30
0.0
 10
100.0910481520606
 20
-123.359912078535
 30
0.0
 10
100.0910481520606
 20
-123.359912078535
 30
0.0
 10
100.0572862163051
 20
-123.2944552643153
 30
0.0
 10
100.0169785991277
 20
-123.2062608198929
 30
0.0
 10
100.0169785991277
 20
-123.0794813060357
 30
0.0
 10
100.0169785991277
 20
-122.8083522913465
 30
0.0
 10
100.2033582648797
 20
-122.5551377731807
 30
0.0
 10
100.5165174444889
 20
-122.5551377731807
 30
0.0
 10
100.8338107386804
 20
-122.5551377731807
 30
0.0
 10
101.068421741226
 20
-122.7945719094055
 30
0.0
 10
101.068421741226
 20
-123.1180663754705
 30
0.0
  0
HATCH
  5
CD
330
AB
100
AcDbEntity
  8
_U+30EC_U+30A4_U+30E4_U+30FC 1
 62
   179
420
  2234388
100
AcDbHatch
 10
0.0
 20
0.0
 30
0.0
210
0.0
220
0.0
230
1.0
  2
SOLID
 70
     1
 71
     0
 91
        1
 92
        1
 93
        1
 72
     4
 94
        3
 73
     0
 74
     1
 95
       53
 96
       49
 40
0.0
 40
0.0
 40
0.0
 40
0.0
 40
1.0
 40
1.0
 40
1.0
 40
2.0
 40
2.0
 40
2.0
 40
3.0
 40
3.0
 40
3.0
 40
4.0
 40
4.0
 40
4.0
 40
5.0
 40
5.0
 40
5.0
 40
6.0
 40
6.0
 40
6.0
 40
7.0
 40
7.0
 40
7.0
 40
8.0
 40
8.0
 40
8.0
 40
9.0
 40
9.0
 40
9.0
 40
10.0
 40
10.0
 40
10.0
 40
11.0
 40
11.0
 40
11.0
 40
12.0
 40
12.0
 40
12.0
 40
13.0
 40
13.0
 40
13.0
 40
14.0
 40
14.0
 40
14.0
 40
15.0
 40
15.0
 40
15.0
 40
16.0
 40
16.0
 40
16.0
 40
16.0
 10
101.068421741226
 20
-123.1180663754705
 10
101.068421741226
 20
-123.2017821957621
 10
101.0515407733482
 20
-123.3099581939989
 10
100.9881510164196
 20
-123.4188232113328
 10
100.8782524704402
 20
-123.6041693484392
 10
100.7469943324521
 20
-123.6265624690934
 10
100.6391628437638
 20
-123.6468885324563
 10
100.6391628437638
 20
-123.6468885324563
 10
100.6391628437638
 20
-123.4095214535226
 10
100.6391628437638
 20
-123.4095214535226
 10
100.8379448532627
 20
-123.3509548302734
 10
100.8675726744359
 20
-123.2152180681545
 10
100.8675726744359
 20
-123.1156548086308
 10
100.8675726744359
 20
-122.9664821741195
 10
100.7680094149122
 20
-122.8035291576672
 10
100.5354654696578
 20
-122.8035291576672
 10
100.2794948751037
 20
-122.8035291576672
 10
100.2095594367532
 20
-122.9957654857441
 10
100.2095594367532
 20
-123.1246120568925
 10
100.2095594367532
 20
-123.1587185021964
 10
100.2095594367532
 20
-123.3099581939989
 10
100.33875051745
 20
-123.4050428293918
 10
100.33875051745
 20
-123.4050428293918
 10
100.3198024922812
 20
-123.5928005333379
 10
100.3198024922812
 20
-123.5928005333379
 10
100.3198024922812
 20
-123.5928005333379
 10
99.47334253155528
 20
-123.4639539621896
 10
99.47334253155528
 20
-123.4639539621896
 10
99.47334253155528
 20
-123.4639539621896
 10
99.47334253155528
 20
-122.6319634025017
 10
99.47334253155528
 20
-122.6319634025017
 10
99.47334253155528
 20
-122.6319634025017
 10
99.6679904264719
 20
-122.6319634025017
 10
99.6679904264719
 20
-122.6319634025017
 10
99.6679904264719
 20
-122.6319634025017
 10
99.6679904264719
 20
-123.2896321306359
 10
99.6679904264719
 20
-123.2896321306359
 10
99.6679904264719
 20
-123.2896321306359
 10
100.0910481520606
 20
-123.359912078535
 10
100.0910481520606
 20
-123.359912078535
 10
100.0572862163051
 20
-123.2944552643153
 10
100.0169785991277
 20
-123.2062608198929
 10
100.0169785991277
 20
-123.0794813060357
 10
100.0169785991277
 20
-122.8083522913465
 10
100.2033582648797
 20
-122.5551377731807
 10
100.5165174444889
 20
-122.5551377731807
 10
100.8338107386804
 20
-122.5551377731807
 10
101.068421741226
 20
-122.7945719094055
 10
101.068421741226
 20
-123.1180663754705
 97
        0
 97
        0
 75
     2
 76
     1
 98
        0
  0
ENDBLK
  5
AE
330
AB
100
AcDbEntity
  8
0
100
AcDbBlockEnd
  0
BLOCK
  5
D9
330
D7
100
AcDbEntity
  8
0
100
AcDbBlockBegin
  2
block 5
 70
     0
 10
0.0
 20
0.0
 30
0.0
  3
block 5
  1

  0
SPLINE
  5
DB
330
D7
100
AcDbEntity
  8
_U+30EC_U+30A4_U+30E4_U+30FC 1
370
     0
100
AcDbSpline
210
0.0
220
0.0
230
1.0
 70
    11
 71
     3
 72
    26
 73
    22
 74
     0
 42
0.0000000001
 43
0.0000000001
 12
1.0
 22
0.0
 32
0.0
 13
1.0
 23
0.0
 33
0.0
 40
0.0
 40
0.0
 40
0.0
 40
0.0
 40
1.0
 40
1.0
 40
1.0
 40
2.0
 40
2.0
 40
2.0
 40
3.0
 40
3.0
 40
3.0
 40
4.0
 40
4.0
 40
4.0
 40
5.0
 40
5.0
 40
5.0
 40
6.0
 40
6.0
 40
6.0
 40
7.0
 40
7.0
 40
7.0
 40
7.0
 10
101.0177788375928
 20
-132.2027831700743
 30
0.0
 10
101.0177788375928
 20
-132.2027831700743
 30
0.0
 10
99.9136257345702
 20
-132.2027831700743
 30
0.0
 10
99.9136257345702
 20
-132.2027831700743
 30
0.0
 10
99.9136257345702
 20
-132.2027831700743
 30
0.0
 10
99.9136257345702
 20
-132.5552164382154
 30
0.0
 10
99.9136257345702
 20
-132.5552164382154
 30
0.0
 10
99.9136257345702
 20
-132.5552164382154
 30
0.0
 10
99.76548662870447
 20
-132.5552164382154
 30
0.0
 10
99.76548662870447
 20
-132.5552164382154
 30
0.0
 10
99.7506727181179
 20
-132.2003716032346
 30
0.0
 10
99.58771970166558
 20
-132.150762228247
 30
0.0
 10
99.47334253155528
 20
-132.1190673497827
 30
0.0
 10
99.47334253155528
 20
-132.1190673497827
 30
0.0
 10
99.47334253155528
 20
-131.9630045243009
 30
0.0
 10
99.47334253155528
 20
-131.9630045243009
 30
0.0
 10
99.47334253155528
 20
-131.9630045243009
 30
0.0
 10
101.0177788375928
 20
-131.9630045243009
 30
0.0
 10
101.0177788375928
 20
-131.9630045243009
 30
0.0
 10
101.0177788375928
 20
-131.9630045243009
 30
0.0
 10
101.0177788375928
 20
-132.2027831700743
 30
0.0
 10
101.0177788375928
 20
-132.2027831700743
 30
0.0
  0
HATCH
  5
DC
330
D7
100
AcDbEntity
  8
_U+30EC_U+30A4_U+30E4_U+30FC 1
 62
   179
420
  2234388
100
AcDbHatch
 10
0.0
 20
0.0
 30
0.0
210
0.0
220
0.0
230
1.0
  2
SOLID
 70
     1
 71
     0
 91
        1
 92
        1
 93
        1
 72
     4
 94
        3
 73
     0
 74
     1
 95
       26
 96
       22
 40
0.0
 40
0.0
 40
0.0
 40
0.0
 40
1.0
 40
1.0
 40
1.0
 40
2.0
 40
2.0
 40
2.0
 40
3.0
 40
3.0
 40
3.0
 40
4.0
 40
4.0
 40
4.0
 40
5.0
 40
5.0
 40
5.0
 40
6.0
 40
6.0
 40
6.0
 40
7.0
 40
7.0
 40
7.0
 40
7.0
 10
101.0177788375928
 20
-132.2027831700743
 10
101.0177788375928
 20
-132.2027831700743
 10
99.9136257345702
 20
-132.2027831700743
 10
99.9136257345702
 20
-132.2027831700743
 10
99.9136257345702
 20
-132.2027831700743
 10
99.9136257345702
 20
-132.5552164382154
 10
99.9136257345702
 20
-132.5552164382154
 10
99.9136257345702
 20
-132.5552164382154
 10
99.76548662870447
 20
-132.5552164382154
 10
99.76548662870447
 20
-132.5552164382154
 10
99.7506727181179
 20
-132.2003716032346
 10
99.58771970166558
 20
-132.150762228247
 10
99.47334253155528
 20
-132.1190673497827
 10
99.47334253155528
 20
-132.1190673497827
 10
99.47334253155528
 20
-131.9630045243009
 10
99.47334253155528
 20
-131.9630045243009
 10
99.47334253155528
 20
-131.9630045243009
 10
101.0177788375928
 20
-131.9630045243009
 10
101.0177788375928
 20
-131.9630045243009
 10
101.0177788375928
 20
-131.9630045243009
 10
101.0177788375928
 20
-132.2027831700743
 10
101.0177788375928
 20
-132.2027831700743
 97
        0
 97
        0
 75
     2
 76
     1
 98
        0
  0
ENDBLK
  5
DA
330
D7
100
AcDbEntity
  8
0
100
AcDbBlockEnd
  0
BLOCK
  5
E1
330
DF
100
AcDbEntity
  8
0
100
AcDbBlockBegin
  2
block 6
 70
     0
 10
0.0
 20
0.0
 30
0.0
  3
block 6
  1

  0
SPLINE
  5
E3
330
DF
100
AcDbEntity
  8
_U+30EC_U+30A4_U+30E4_U+30FC 1
370
     0
100
AcDbSpline
210
0.0
220
0.0
230
1.0
 70
    11
 71
     3
 72
    26
 73
    22
 74
     0
 42
0.0000000001
 43
0.0000000001
 12
1.0
 22
0.0
 32
0.0
 13
1.0
 23
0.0
 33
0.0
 40
0.0
 40
0.0
 40
0.0
 40
0.0
 40
1.0
 40
1.0
 40
1.0
 40
2.0
 40
2.0
 40
2.0
 40
3.0
 40
3.0
 40
3.0
 40
4.0
 40
4.0
 40
4.0
 40
5.0
 40
5.0
 40
5.0
 40
6.0
 40
6.0
 40
6.0
 40
7.0
 40
7.0
 40
7.0
 40
7.0
 10
79.25803898843202
 20
-128.7966172638078
 30
0.0
 10
79.25803898843202
 20
-128.7966172638078
 30
0.0
 10
79.25803898843202
 20
-127.6921196512367
 30
0.0
 10
79.25803898843202
 20
-127.6921196512367
 30
0.0
 10
79.25803898843202
 20
-127.6921196512367
 30
0.0
 10
78.9279988409451
 20
-127.6921196512367
 30
0.0
 10
78.9279988409451
 20
-127.6921196512367
 30
0.0
 10
78.9279988409451
 20
-127.6921196512367
 30
0.0
 10
78.9279988409451
 20
-127.543980545371
 30
0.0
 10
78.9279988409451
 20
-127.543980545371
 30
0.0
 10
79.26010604572318
 20
-127.5293388895586
 30
0.0
 10
79.30661483477404
 20
-127.3663858731063
 30
0.0
 10
79.33624265594719
 20
-127.2521809577703
 30
0.0
 10
79.33624265594719
 20
-127.2521809577703
 30
0.0
 10
79.48231470452178
 20
-127.2521809577703
 30
0.0
 10
79.48231470452178
 20
-127.2521809577703
 30
0.0
 10
79.48231470452178
 20
-127.2521809577703
 30
0.0
 10
79.48231470452178
 20
-128.7966172638078
 30
0.0
 10
79.48231470452178
 20
-128.7966172638078
 30
0.0
 10
79.48231470452178
 20
-128.7966172638078
 30
0.0
 10
79.25803898843202
 20
-128.7966172638078
 30
0.0
 10
79.25803898843202
 20
-128.7966172638078
 30
0.0
  0
HATCH
  5
E4
330
DF
100
AcDbEntity
  8
_U+30EC_U+30A4_U+30E4_U+30FC 1
 62
   179
420
  2234388
100
AcDbHatch
 10
0.0
 20
0.0
 30
0.0
210
0.0
220
0.0
230
1.0
  2
SOLID
 70
     1
 71
     0
 91
        1
 92
        1
 93
        1
 72
     4
 94
        3
 73
     0
 74
     1
 95
       26
 96
       22
 40
0.0
 40
0.0
 40
0.0
 40
0.0
 40
1.0
 40
1.0
 40
1.0
 40
2.0
 40
2.0
 40
2.0
 40
3.0
 40
3.0
 40
3.0
 40
4.0
 40
4.0
 40
4.0
 40
5.0
 40
5.0
 40
5.0
 40
6.0
 40
6.0
 40
6.0
 40
7.0
 40
7.0
 40
7.0
 40
7.0
 10
79.25803898843202
 20
-128.7966172638078
 10
79.25803898843202
 20
-128.7966172638078
 10
79.25803898843202
 20
-127.6921196512367
 10
79.25803898843202
 20
-127.6921196512367
 10
79.25803898843202
 20
-127.6921196512367
 10
78.9279988409451
 20
-127.6921196512367
 10
78.9279988409451
 20
-127.6921196512367
 10
78.9279988409451
 20
-127.6921196512367
 10
78.9279988409451
 20
-127.543980545371
 10
78.9279988409451
 20
-127.543980545371
 10
79.26010604572318
 20
-127.5293388895586
 10
79.30661483477404
 20
-127.3663858731063
 10
79.33624265594719
 20
-127.2521809577703
 10
79.33624265594719
 20
-127.2521809577703
 10
79.48231470452178
 20
-127.2521809577703
 10
79.48231470452178
 20
-127.2521809577703
 10
79.48231470452178
 20
-127.2521809577703
 10
79.48231470452178
 20
-128.7966172638078
 10
79.48231470452178
 20
-128.7966172638078
 10
79.48231470452178
 20
-128.7966172638078
 10
79.25803898843202
 20
-128.7966172638078
 10
79.25803898843202
 20
-128.7966172638078
 97
        0
 97
        0
 75
     2
 76
     1
 98
        0
  0
ENDBLK
  5
E2
330
DF
100
AcDbEntity
  8
0
100
AcDbBlockEnd
  0
ENDSEC
  0
SECTION
  2
ENTITIES
  0
SPLINE
  5
41
330
1F
100
AcDbEntity
  8
_U+30EC_U+30A4_U+30E4_U+30FC 1
370
     0
100
AcDbSpline
210
0.0
220
0.0
230
1.0
 70
    11
 71
     3
 72
    44
 73
    40
 74
     0
 42
0.0000000001
 43
0.0000000001
 12
1.0
 22
0.0
 32
0.0
 13
1.0
 23
0.0
 33
0.0
 40
0.0
 40
0.0
 40
0.0
 40
0.0
 40
1.0
 40
1.0
 40
1.0
 40
2.0
 40
2.0
 40
2.0
 40
3.0
 40
3.0
 40
3.0
 40
4.0
 40
4.0
 40
4.0
 40
5.0
 40
5.0
 40
5.0
 40
6.0
 40
6.0
 40
6.0
 40
7.0
 40
7.0
 40
7.0
 40
8.0
 40
8.0
 40
8.0
 40
9.0
 40
9.0
 40
9.0
 40
10.0
 40
10.0
 40
10.0
 40
11.0
 40
11.0
 40
11.0
 40
12.0
 40
12.0
 40
12.0
 40
13.0
 40
13.0
 40
13.0
 40
13.0
 10
97.94232694572752
 20
-132.1662541336252
 30
0.0
 10
97.94232694572752
 20
-132.1662541336252
 30
0.0
 10
88.44212746587557
 20
-132.1662541336252
 30
0.0
 10
88.44212746587557
 20
-132.1662541336252
 30
0.0
 10
88.26369247042783
 20
-131.8569033003688
 30
0.0
 10
87.93363358995944
 20
-131.6667208004164
 30
0.0
 10
87.5760580435264
 20
-131.6667208004164
 30
0.0
 10
87.5760580435264
 20
-131.6667208004164
 30
0.0
 10
81.44171125558218
 20
-131.6667208004164
 30
0.0
 10
81.44171125558218
 20
-131.6667208004164
 30
0.0
 10
81.44171125558218
 20
-131.6667208004164
 30
0.0
 10
81.44171125558218
 20
-127.1665816348751
 30
0.0
 10
81.44171125558218
 20
-127.1665816348751
 30
0.0
 10
81.44171125558218
 20
-127.1665816348751
 30
0.0
 10
88.44212746587557
 20
-127.1665816348751
 30
0.0
 10
88.44212746587557
 20
-127.1665816348751
 30
0.0
 10
88.44212746587557
 20
-127.1665816348751
 30
0.0
 10
88.44212746587557
 20
-126.5664360794694
 30
0.0
 10
88.44212746587557
 20
-126.5664360794694
 30
0.0
 10
88.44212746587557
 20
-126.5664360794694
 30
0.0
 10
86.43228196159545
 20
-126.3652469128533
 30
0.0
 10
86.43228196159545
 20
-126.3652469128533
 30
0.0
 10
85.10590810654517
 20
-126.2329552462197
 30
0.0
 10
83.77473647383952
 20
-126.1661038573473
 30
0.0
 10
82.44215373005876
 20
-126.1661038573473
 30
0.0
 10
82.44215373005876
 20
-126.1661038573473
 30
0.0
 10
80.44193905886627
 20
-126.1661038573473
 30
0.0
 10
80.44193905886627
 20
-126.1661038573473
 30
0.0
 10
80.44193905886627
 20
-126.1661038573473
 30
0.0
 10
80.44193905886627
 20
-131.8665341337003
 30
0.0
 10
80.44193905886627
 20
-131.8665341337003
 30
0.0
 10
80.44193905886627
 20
-132.3082119113672
 30
0.0
 10
80.80022220202216
 20
-132.6664930223889
 30
0.0
 10
81.24189997968966
 20
-132.6664930223889
 30
0.0
 10
81.24189997968966
 20
-132.6664930223889
 30
0.0
 10
98.44256582185425
 20
-132.6664930223889
 30
0.0
 10
98.44256582185425
 20
-132.6664930223889
 30
0.0
 10
98.44256582185425
 20
-132.3901974669025
 30
0.0
 10
98.21862497544565
 20
-132.1662541336252
 30
0.0
 10
97.94232694572752
 20
-132.1662541336252
 30
0.0
  0
HATCH
  5
42
330
1F
100
AcDbEntity
  8
_U+30EC_U+30A4_U+30E4_U+30FC 1
 62
   253
420
 11711154
100
AcDbHatch
 10
0.0
 20
0.0
 30
0.0
210
0.0
220
0.0
230
1.0
  2
SOLID
 70
     1
 71
     0
 91
        1
 92
        1
 93
        1
 72
     4
 94
        3
 73
     0
 74
     1
 95
       44
 96
       40
 40
0.0
 40
0.0
 40
0.0
 40
0.0
 40
1.0
 40
1.0
 40
1.0
 40
2.0
 40
2.0
 40
2.0
 40
3.0
 40
3.0
 40
3.0
 40
4.0
 40
4.0
 40
4.0
 40
5.0
 40
5.0
 40
5.0
 40
6.0
 40
6.0
 40
6.0
 40
7.0
 40
7.0
 40
7.0
 40
8.0
 40
8.0
 40
8.0
 40
9.0
 40
9.0
 40
9.0
 40
10.0
 40
10.0
 40
10.0
 40
11.0
 40
11.0
 40
11.0
 40
12.0
 40
12.0
 40
12.0
 40
13.0
 40
13.0
 40
13.0
 40
13.0
 10
97.94232694572752
 20
-132.1662541336252
 10
97.94232694572752
 20
-132.1662541336252
 10
88.44212746587557
 20
-132.1662541336252
 10
88.44212746587557
 20
-132.1662541336252
 10
88.26369247042783
 20
-131.8569033003688
 10
87.93363358995944
 20
-131.6667208004164
 10
87.5760580435264
 20
-131.6667208004164
 10
87.5760580435264
 20
-131.6667208004164
 10
81.44171125558218
 20
-131.6667208004164
 10
81.44171125558218
 20
-131.6667208004164
 10
81.44171125558218
 20
-131.6667208004164
 10
81.44171125558218
 20
-127.1665816348751
 10
81.44171125558218
 20
-127.1665816348751
 10
81.44171125558218
 20
-127.1665816348751
 10
88.44212746587557
 20
-127.1665816348751
 10
88.44212746587557
 20
-127.1665816348751
 10
88.44212746587557
 20
-127.1665816348751
 10
88.44212746587557
 20
-126.5664360794694
 10
88.44212746587557
 20
-126.5664360794694
 10
88.44212746587557
 20
-126.5664360794694
 10
86.43228196159545
 20
-126.3652469128533
 10
86.43228196159545
 20
-126.3652469128533
 10
85.10590810654517
 20
-126.2329552462197
 10
83.77473647383952
 20
-126.1661038573473
 10
82.44215373005876
 20
-126.1661038573473
 10
82.44215373005876
 20
-126.1661038573473
 10
80.44193905886627
 20
-126.1661038573473
 10
80.44193905886627
 20
-126.1661038573473
 10
80.44193905886627
 20
-126.1661038573473
 10
80.44193905886627
 20
-131.8665341337003
 10
80.44193905886627
 20
-131.8665341337003
 10
80.44193905886627
 20
-132.3082119113672
 10
80.80022220202216
 20
-132.6664930223889
 10
81.24189997968966
 20
-132.6664930223889
 10
81.24189997968966
 20
-132.6664930223889
 10
98.44256582185425
 20
-132.6664930223889
 10
98.44256582185425
 20
-132.6664930223889
 10
98.44256582185425
 20
-132.3901974669025
 10
98.21862497544565
 20
-132.1662541336252
 10
97.94232694572752
 20
-132.1662541336252
 97
        0
 97
        0
 75
     2
 76
     1
 98
        0
  0
POLYLINE
  5
43
330
1F
100
AcDbEntity
  8
_U+30EC_U+30A4_U+30E4_U+30FC 1
 62
   179
420
  2234388
370
    25
100
AcDb2dPolyline
 66
     1
 10
0.0
 20
0.0
 30
0.0
  0
VERTEX
  5
44
330
43
100
AcDbEntity
  8
_U+30EC_U+30A4_U+30E4_U+30FC 1
 62
   179
420
  2234388
370
    25
100
AcDbVertex
100
AcDb2dVertex
 10
81.44171125558218
 20
-127.1665816348751
 30
0.0
  0
VERTEX
  5
45
330
43
100
AcDbEntity
  8
_U+30EC_U+30A4_U+30E4_U+30FC 1
 62
   179
420
  2234388
370
    25
100
AcDbVertex
100
AcDb2dVertex
 10
88.44212746587557
 20
-127.1665816348751
 30
0.0
  0
SEQEND
  5
46
330
43
100
AcDbEntity
  8
_U+30EC_U+30A4_U+30E4_U+30FC 1
 62
   179
420
  2234388
370
    25
  0
POLYLINE
  5
47
330
1F
100
AcDbEntity
  8
_U+30EC_U+30A4_U+30E4_U+30FC 1
 62
   179
420
  2234388
370
    25
100
AcDb2dPolyline
 66
     1
 10
0.0
 20
0.0
 30
0.0
  0
VERTEX
  5
48
330
47
100
AcDbEntity
  8
_U+30EC_U+30A4_U+30E4_U+30FC 1
 62
   179
420
  2234388
370
    25
100
AcDbVertex
100
AcDb2dVertex
 10
80.44193905886627
 20
-126.1661038573473
 30
0.0
  0
VERTEX
  5
49
330
47
100
AcDbEntity
  8
_U+30EC_U+30A4_U+30E4_U+30FC 1
 62
   179
420
  2234388
370
    25
100
AcDbVertex
100
AcDb2dVertex
 10
82.44215373005876
 20
-126.1661038573473
 30
0.0
  0
SEQEND
  5
4A
330
47
100
AcDbEntity
  8
_U+30EC_U+30A4_U+30E4_U+30FC 1
 62
   179
420
  2234388
370
    25
  0
POLYLINE
  5
4B
330
1F
100
AcDbEntity
  8
_U+30EC_U+30A4_U+30E4_U+30FC 1
 62
   179
420
  2234388
370
    25
100
AcDb2dPolyline
 66
     1
 10
0.0
 20
0.0
 30
0.0
  0
VERTEX
  5
4C
330
4B
100
AcDbEntity
  8
_U+30EC_U+30A4_U+30E4_U+30FC 1
 62
   179
420
  2234388
370
    25
100
AcDbVertex
100
AcDb2dVertex
 10
81.44171125558218
 20
-131.6667208004164
 30
0.0
  0
VERTEX
  5
4D
330
4B
100
AcDbEntity
  8
_U+30EC_U+30A4_U+30E4_U+30FC 1
 62
   179
420
  2234388
370
    25
100
AcDbVertex
100
AcDb2dVertex
 10
87.5760580435264
 20
-131.6667208004164
 30
0.0
  0
SEQEND
  5
4E
330
4B
100
AcDbEntity
  8
_U+30EC_U+30A4_U+30E4_U+30FC 1
 62
   179
420
  2234388
370
    25
  0
POLYLINE
  5
4F
330
1F
100
AcDbEntity
  8
_U+30EC_U+30A4_U+30E4_U+30FC 1
 62
   179
420
  2234388
370
    25
100
AcDb2dPolyline
 66
     1
 10
0.0
 20
0.0
 30
0.0
  0
VERTEX
  5
50
330
4F
100
AcDbEntity
  8
_U+30EC_U+30A4_U+30E4_U+30FC 1
 62
   179
420
  2234388
370
    25
100
AcDbVertex
100
AcDb2dVertex
 10
81.24189997968966
 20
-132.6664930223889
 30
0.0
  0
VERTEX
  5
51
330
4F
100
AcDbEntity
  8
_U+30EC_U+30A4_U+30E4_U+30FC 1
 62
   179
420
  2234388
370
    25
100
AcDbVertex
100
AcDb2dVertex
 10
98.44256582185425
 20
-132.6664930223889
 30
0.0
  0
SEQEND
  5
52
330
4F
100
AcDbEntity
  8
_U+30EC_U+30A4_U+30E4_U+30FC 1
 62
   179
420
  2234388
370
    25
  0
POLYLINE
  5
53
330
1F
100
AcDbEntity
  8
_U+30EC_U+30A4_U+30E4_U+30FC 1
 62
   179
420
  2234388
370
    25
100
AcDb2dPolyline
 66
     1
 10
0.0
 20
0.0
 30
0.0
  0
VERTEX
  5
54
330
53
100
AcDbEntity
  8
_U+30EC_U+30A4_U+30E4_U+30FC 1
 62
   179
420
  2234388
370
    25
100
AcDbVertex
100
AcDb2dVertex
 10
88.44212746587557
 20
-126.5664360794694
 30
0.0
  0
VERTEX
  5
55
330
53
100
AcDbEntity
  8
_U+30EC_U+30A4_U+30E4_U+30FC 1
 62
   179
420
  2234388
370
    25
100
AcDbVertex
100
AcDb2dVertex
 10
88.44212746587557
 20
-127.1665816348751
 30
0.0
  0
SEQEND
  5
56
330
53
100
AcDbEntity
  8
_U+30EC_U+30A4_U+30E4_U+30FC 1
 62
   179
420
  2234388
370
    25
  0
POLYLINE
  5
57
330
1F
100
AcDbEntity
  8
_U+30EC_U+30A4_U+30E4_U+30FC 1
 62
   179
420
  2234388
370
    25
100
AcDb2dPolyline
 66
     1
 10
0.0
 20
0.0
 30
0.0
  0
VERTEX
  5
58
330
57
100
AcDbEntity
  8
_U+30EC_U+30A4_U+30E4_U+30FC 1
 62
   179
420
  2234388
370
    25
100
AcDbVertex
100
AcDb2dVertex
 10
80.44193905886627
 20
-126.1661038573473
 30
0.0
  0
VERTEX
  5
59
330
57
100
AcDbEntity
  8
_U+30EC_U+30A4_U+30E4_U+30FC 1
 62
   179
420
  2234388
370
    25
100
AcDbVertex
100
AcDb2dVertex
 10
80.44193905886627
 20
-131.8665341337003
 30
0.0
  0
SEQEND
  5
5A
330
57
100
AcDbEntity
  8
_U+30EC_U+30A4_U+30E4_U+30FC 1
 62
   179
420
  2234388
370
    25
  0
POLYLINE
  5
5B
330
1F
100
AcDbEntity
  8
_U+30EC_U+30A4_U+30E4_U+30FC 1
 62
   179
420
  2234388
370
    25
100
AcDb2dPolyline
 66
     1
 10
0.0
 20
0.0
 30
0.0
  0
VERTEX
  5
5C
330
5B
100
AcDbEntity
  8
_U+30EC_U+30A4_U+30E4_U+30FC 1
 62
   179
420
  2234388
370
    25
100
AcDbVertex
100
AcDb2dVertex
 10
81.44171125558218
 20
-127.1665816348751
 30
0.0
  0
VERTEX
  5
5D
330
5B
100
AcDbEntity
  8
_U+30EC_U+30A4_U+30E4_U+30FC 1
 62
   179
420
  2234388
370
    25
100
AcDbVertex
100
AcDb2dVertex
 10
81.44171125558218
 20
-131.6667208004164
 30
0.0
  0
SEQEND
  5
5E
330
5B
100
AcDbEntity
  8
_U+30EC_U+30A4_U+30E4_U+30FC 1
 62
   179
420
  2234388
370
    25
  0
POLYLINE
  5
5F
330
1F
100
AcDbEntity
  8
_U+30EC_U+30A4_U+30E4_U+30FC 1
 62
   179
420
  2234388
370
    25
100
AcDb2dPolyline
 66
     1
 10
0.0
 20
0.0
 30
0.0
  0
VERTEX
  5
60
330
5F
100
AcDbEntity
  8
_U+30EC_U+30A4_U+30E4_U+30FC 1
 62
   179
420
  2234388
370
    25
100
AcDbVertex
100
AcDb2dVertex
 10
86.43228196159545
 20
-126.3652469128533
 30
0.0
  0
VERTEX
  5
61
330
5F
100
AcDbEntity
  8
_U+30EC_U+30A4_U+30E4_U+30FC 1
 62
   179
420
  2234388
370
    25
100
AcDbVertex
100
AcDb2dVertex
 10
88.44212746587557
 20
-126.5664360794694
 30
0.0
  0
SEQEND
  5
62
330
5F
100
AcDbEntity
  8
_U+30EC_U+30A4_U+30E4_U+30FC 1
 62
   179
420
  2234388
370
    25
  0
POLYLINE
  5
63
330
1F
100
AcDbEntity
  8
_U+30EC_U+30A4_U+30E4_U+30FC 1
 62
   179
420
  2234388
370
    25
100
AcDb2dPolyline
 66
     1
 10
0.0
 20
0.0
 30
0.0
  0
VERTEX
  5
64
330
63
100
AcDbEntity
  8
_U+30EC_U+30A4_U+30E4_U+30FC 1
 62
   179
420
  2234388
370
    25
100
AcDbVertex
100
AcDb2dVertex
 10
88.44212746587557
 20
-132.1662541336252
 30
0.0
  0
VERTEX
  5
65
330
63
100
AcDbEntity
  8
_U+30EC_U+30A4_U+30E4_U+30FC 1
 62
   179
420
  2234388
370
    25
100
AcDbVertex
100
AcDb2dVertex
 10
97.94232694572752
 20
-132.1662541336252
 30
0.0
  0
SEQEND
  5
66
330
63
100
AcDbEntity
  8
_U+30EC_U+30A4_U+30E4_U+30FC 1
 62
   179
420
  2234388
370
    25
  0
SPLINE
  5
67
330
1F
100
AcDbEntity
  8
_U+30EC_U+30A4_U+30E4_U+30FC 1
 62
   179
420
  2234388
370
    25
100
AcDbSpline
210
0.0
220
0.0
230
1.0
 70
     8
 71
     3
 72
     8
 73
     4
 74
     0
 42
0.0000000001
 43
0.0000000001
 12
1.0
 22
0.0
 32
0.0
 13
1.0
 23
0.0
 33
0.0
 40
0.0
 40
0.0
 40
0.0
 40
0.0
 40
1.0
 40
1.0
 40
1.0
 40
1.0
 10
80.44193905886627
 20
-131.8665341337003
 30
0.0
 10
80.44193905886627
 20
-132.3082119113672
 30
0.0
 10
80.80022220202216
 20
-132.6664930223889
 30
0.0
 10
81.24189997968966
 20
-132.6664930223889
 30
0.0
  0
SPLINE
  5
68
330
1F
100
AcDbEntity
  8
_U+30EC_U+30A4_U+30E4_U+30FC 1
 62
   179
420
  2234388
370
    25
100
AcDbSpline
210
0.0
220
0.0
230
1.0
 70
     8
 71
     3
 72
     8
 73
     4
 74
     0
 42
0.0000000001
 43
0.0000000001
 12
1.0
 22
0.0
 32
0.0
 13
1.0
 23
0.0
 33
0.0
 40
0.0
 40
0.0
 40
0.0
 40
0.0
 40
1.0
 40
1.0
 40
1.0
 40
1.0
 10
98.44256582185425
 20
-132.6664930223889
 30
0.0
 10
98.44256582185425
 20
-132.3901974669025
 30
0.0
 10
98.21862497544565
 20
-132.1662541336252
 30
0.0
 10
97.94232694572752
 20
-132.1662541336252
 30
0.0
  0
SPLINE
  5
69
330
1F
100
AcDbEntity
  8
_U+30EC_U+30A4_U+30E4_U+30FC 1
 62
   179
420
  2234388
370
    25
100
AcDbSpline
210
0.0
220
0.0
230
1.0
 70
     8
 71
     3
 72
     8
 73
     4
 74
     0
 42
0.0000000001
 43
0.0000000001
 12
1.0
 22
0.0
 32
0.0
 13
1.0
 23
0.0
 33
0.0
 40
0.0
 40
0.0
 40
0.0
 40
0.0
 40
1.0
 40
1.0
 40
1.0
 40
1.0
 10
88.44212746587557
 20
-132.1662541336252
 30
0.0
 10
88.26369247042783
 20
-131.8569033003688
 30
0.0
 10
87.93363358995944
 20
-131.6667208004164
 30
0.0
 10
87.5760580435264
 20
-131.6667208004164
 30
0.0
  0
SPLINE
  5
6A
330
1F
100
AcDbEntity
  8
_U+30EC_U+30A4_U+30E4_U+30FC 1
 62
   179
420
  2234388
370
    25
100
AcDbSpline
210
0.0
220
0.0
230
1.0
 70
     8
 71
     3
 72
     8
 73
     4
 74
     0
 42
0.0000000001
 43
0.0000000001
 12
1.0
 22
0.0
 32
0.0
 13
1.0
 23
0.0
 33
0.0
 40
0.0
 40
0.0
 40
0.0
 40
0.0
 40
1.0
 40
1.0
 40
1.0
 40
1.0
 10
86.43228196159545
 20
-126.3652469128533
 30
0.0
 10
85.10590810654517
 20
-126.2329552462197
 30
0.0
 10
83.77473647383952
 20
-126.1661038573473
 30
0.0
 10
82.44215373005876
 20
-126.1661038573473
 30
0.0
  0
SPLINE
  5
6B
330
1F
100
AcDbEntity
  8
_U+30EC_U+30A4_U+30E4_U+30FC 1
 62
   179
420
  2234388
370
     9
100
AcDbSpline
210
0.0
220
0.0
230
1.0
 70
    11
 71
     3
 72
    17
 73
    13
 74
     0
 42
0.0000000001
 43
0.0000000001
 12
1.0
 22
0.0
 32
0.0
 13
1.0
 23
0.0
 33
0.0
 40
0.0
 40
0.0
 40
0.0
 40
0.0
 40
1.0
 40
1.0
 40
1.0
 40
2.0
 40
2.0
 40
2.0
 40
3.0
 40
3.0
 40
3.0
 40
4.0
 40
4.0
 40
4.0
 40
4.0
 10
80.5418457229841
 20
-122.1660271916809
 30
0.0
 10
80.5418457229841
 20
-122.1108880250278
 30
0.0
 10
80.49707822412623
 20
-122.0661205250389
 30
0.0
 10
80.44193905886627
 20
-122.0661205250389
 30
0.0
 10
80.3868351713832
 20
-122.0661205250389
 30
0.0
 10
80.34203239474843
 20
-122.1108880250278
 30
0.0
 10
80.34203239474843
 20
-122.1660271916809
 30
0.0
 10
80.34203239474843
 20
-122.2211310805558
 30
0.0
 10
80.3868351713832
 20
-122.2659338583225
 30
0.0
 10
80.44193905886627
 20
-122.2659338583225
 30
0.0
 10
80.49707822412623
 20
-122.2659338583225
 30
0.0
 10
80.5418457229841
 20
-122.2211310805558
 30
0.0
 10
80.5418457229841
 20
-122.1660271916809
 30
0.0
  0
SPLINE
  5
6C
330
1F
100
AcDbEntity
  8
_U+30EC_U+30A4_U+30E4_U+30FC 1
 62
   179
420
  2234388
370
     9
100
AcDbSpline
210
0.0
220
0.0
230
1.0
 70
    11
 71
     3
 72
    17
 73
    13
 74
     0
 42
0.0000000001
 43
0.0000000001
 12
1.0
 22
0.0
 32
0.0
 13
1.0
 23
0.0
 33
0.0
 40
0.0
 40
0.0
 40
0.0
 40
0.0
 40
1.0
 40
1.0
 40
1.0
 40
2.0
 40
2.0
 40
2.0
 40
3.0
 40
3.0
 40
3.0
 40
4.0
 40
4.0
 40
4.0
 40
4.0
 10
88.54206940777028
 20
-122.1660271916809
 30
0.0
 10
88.54206940777028
 20
-122.1108880250278
 30
0.0
 10
88.49726663113552
 20
-122.0661205250389
 30
0.0
 10
88.44212746587557
 20
-122.0661205250389
 30
0.0
 10
88.3870235783925
 20
-122.0661205250389
 30
0.0
 10
88.34222080175773
 20
-122.1108880250278
 30
0.0
 10
88.34222080175773
 20
-122.1660271916809
 30
0.0
 10
88.34222080175773
 20
-122.2211310805558
 30
0.0
 10
88.3870235783925
 20
-122.2659338583225
 30
0.0
 10
88.44212746587557
 20
-122.2659338583225
 30
0.0
 10
88.49726663113552
 20
-122.2659338583225
 30
0.0
 10
88.54206940777028
 20
-122.2211310805558
 30
0.0
 10
88.54206940777028
 20
-122.1660271916809
 30
0.0
  0
SPLINE
  5
6D
330
1F
100
AcDbEntity
  8
_U+30EC_U+30A4_U+30E4_U+30FC 1
 62
   179
420
  2234388
370
     9
100
AcDbSpline
210
0.0
220
0.0
230
1.0
 70
    11
 71
     3
 72
    17
 73
    13
 74
     0
 42
0.0000000001
 43
0.0000000001
 12
1.0
 22
0.0
 32
0.0
 13
1.0
 23
0.0
 33
0.0
 40
0.0
 40
0.0
 40
0.0
 40
0.0
 40
1.0
 40
1.0
 40
1.0
 40
2.0
 40
2.0
 40
2.0
 40
3.0
 40
3.0
 40
3.0
 40
4.0
 40
4.0
 40
4.0
 40
4.0
 10
102.4195707203924
 20
-127.1665816348751
 30
0.0
 10
102.4195707203924
 20
-127.1110896904446
 30
0.0
 10
102.3748032215345
 20
-127.0663221904557
 30
0.0
 10
102.3196666410871
 20
-127.0663221904557
 30
0.0
 10
102.2645601687915
 20
-127.0663221904557
 30
0.0
 10
102.2197573921567
 20
-127.1110896904446
 30
0.0
 10
102.2197573921567
 20
-127.1665816348751
 30
0.0
 10
102.2197573921567
 20
-127.22168552375
 30
0.0
 10
102.2645601687915
 20
-127.2664883015167
 30
0.0
 10
102.3196666410871
 20
-127.2664883015167
 30
0.0
 10
102.3748032215345
 20
-127.2664883015167
 30
0.0
 10
102.4195707203924
 20
-127.22168552375
 30
0.0
 10
102.4195707203924
 20
-127.1665816348751
 30
0.0
  0
SPLINE
  5
6E
330
1F
100
AcDbEntity
  8
_U+30EC_U+30A4_U+30E4_U+30FC 1
 62
   179
420
  2234388
370
     9
100
AcDbSpline
210
0.0
220
0.0
230
1.0
 70
    11
 71
     3
 72
    17
 73
    13
 74
     0
 42
0.0000000001
 43
0.0000000001
 12
1.0
 22
0.0
 32
0.0
 13
1.0
 23
0.0
 33
0.0
 40
0.0
 40
0.0
 40
0.0
 40
0.0
 40
1.0
 40
1.0
 40
1.0
 40
2.0
 40
2.0
 40
2.0
 40
3.0
 40
3.0
 40
3.0
 40
4.0
 40
4.0
 40
4.0
 40
4.0
 10
102.4195707203924
 20
-131.6667208004164
 30
0.0
 10
102.4195707203924
 20
-131.6112641337637
 30
0.0
 10
102.3748032215345
 20
-131.566461355997
 30
0.0
 10
102.3196666410871
 20
-131.566461355997
 30
0.0
 10
102.2645601687915
 20
-131.566461355997
 30
0.0
 10
102.2197573921567
 20
-131.6112641337637
 30
0.0
 10
102.2197573921567
 20
-131.6667208004164
 30
0.0
 10
102.2197573921567
 20
-131.7218599670695
 30
0.0
 10
102.2645601687915
 20
-131.766627467058
 30
0.0
 10
102.3196666410871
 20
-131.766627467058
 30
0.0
 10
102.3748032215345
 20
-131.766627467058
 30
0.0
 10
102.4195707203924
 20
-131.7218599670695
 30
0.0
 10
102.4195707203924
 20
-131.6667208004164
 30
0.0
  0
SPLINE
  5
6F
330
1F
100
AcDbEntity
  8
_U+30EC_U+30A4_U+30E4_U+30FC 1
 62
   179
420
  2234388
370
     9
100
AcDbSpline
210
0.0
220
0.0
230
1.0
 70
    11
 71
     3
 72
    17
 73
    13
 74
     0
 42
0.0000000001
 43
0.0000000001
 12
1.0
 22
0.0
 32
0.0
 13
1.0
 23
0.0
 33
0.0
 40
0.0
 40
0.0
 40
0.0
 40
0.0
 40
1.0
 40
1.0
 40
1.0
 40
2.0
 40
2.0
 40
2.0
 40
3.0
 40
3.0
 40
3.0
 40
4.0
 40
4.0
 40
4.0
 40
4.0
 10
80.5418457229841
 20
-136.667275243611
 30
0.0
 10
80.5418457229841
 20
-136.6114657991805
 30
0.0
 10
80.49707822412623
 20
-136.566698299192
 30
0.0
 10
80.44193905886627
 20
-136.566698299192
 30
0.0
 10
80.3868351713832
 20
-136.566698299192
 30
0.0
 10
80.34203239474843
 20
-136.6114657991805
 30
0.0
 10
80.34203239474843
 20
-136.667275243611
 30
0.0
 10
80.34203239474843
 20
-136.722414410264
 30
0.0
 10
80.3868351713832
 20
-136.7671819102526
 30
0.0
 10
80.44193905886627
 20
-136.7671819102526
 30
0.0
 10
80.49707822412623
 20
-136.7671819102526
 30
0.0
 10
80.5418457229841
 20
-136.722414410264
 30
0.0
 10
80.5418457229841
 20
-136.667275243611
 30
0.0
  0
SPLINE
  5
70
330
1F
100
AcDbEntity
  8
_U+30EC_U+30A4_U+30E4_U+30FC 1
 62
   179
420
  2234388
370
     9
100
AcDbSpline
210
0.0
220
0.0
230
1.0
 70
    11
 71
     3
 72
    17
 73
    13
 74
     0
 42
0.0000000001
 43
0.0000000001
 12
1.0
 22
0.0
 32
0.0
 13
1.0
 23
0.0
 33
0.0
 40
0.0
 40
0.0
 40
0.0
 40
0.0
 40
1.0
 40
1.0
 40
1.0
 40
2.0
 40
2.0
 40
2.0
 40
3.0
 40
3.0
 40
3.0
 40
4.0
 40
4.0
 40
4.0
 40
4.0
 10
98.54247497536457
 20
-136.667275243611
 30
0.0
 10
98.54247497536457
 20
-136.6114657991805
 30
0.0
 10
98.49770498711419
 20
-136.566698299192
 30
0.0
 10
98.44256582185425
 20
-136.566698299192
 30
0.0
 10
98.38746193437117
 20
-136.566698299192
 30
0.0
 10
98.3426591577364
 20
-136.6114657991805
 30
0.0
 10
98.3426591577364
 20
-136.667275243611
 30
0.0
 10
98.3426591577364
 20
-136.722414410264
 30
0.0
 10
98.38746193437117
 20
-136.7671819102526
 30
0.0
 10
98.44256582185425
 20
-136.7671819102526
 30
0.0
 10
98.49770498711419
 20
-136.7671819102526
 30
0.0
 10
98.54247497536457
 20
-136.722414410264
 30
0.0
 10
98.54247497536457
 20
-136.667275243611
 30
0.0
  0
POLYLINE
  5
71
330
1F
100
AcDbEntity
  8
_U+30EC_U+30A4_U+30E4_U+30FC 1
 62
   179
420
  2234388
370
     9
100
AcDb2dPolyline
 66
     1
 10
0.0
 20
0.0
 30
0.0
  0
VERTEX
  5
72
330
71
100
AcDbEntity
  8
_U+30EC_U+30A4_U+30E4_U+30FC 1
 62
   179
420
  2234388
370
     9
100
AcDbVertex
100
AcDb2dVertex
 10
80.44193905886627
 20
-122.1660271916809
 30
0.0
  0
VERTEX
  5
73
330
71
100
AcDbEntity
  8
_U+30EC_U+30A4_U+30E4_U+30FC 1
 62
   179
420
  2234388
370
     9
100
AcDbVertex
100
AcDb2dVertex
 10
88.44212746587557
 20
-122.1660271916809
 30
0.0
  0
SEQEND
  5
74
330
71
100
AcDbEntity
  8
_U+30EC_U+30A4_U+30E4_U+30FC 1
 62
   179
420
  2234388
370
     9
  0
POLYLINE
  5
75
330
1F
100
AcDbEntity
  8
_U+30EC_U+30A4_U+30E4_U+30FC 1
 62
   179
420
  2234388
370
     9
100
AcDb2dPolyline
 66
     1
 10
0.0
 20
0.0
 30
0.0
  0
VERTEX
  5
76
330
75
100
AcDbEntity
  8
_U+30EC_U+30A4_U+30E4_U+30FC 1
 62
   179
420
  2234388
370
     9
100
AcDbVertex
100
AcDb2dVertex
 10
80.44193905886627
 20
-123.6260333024267
 30
0.0
  0
VERTEX
  5
77
330
75
100
AcDbEntity
  8
_U+30EC_U+30A4_U+30E4_U+30FC 1
 62
   179
420
  2234388
370
     9
100
AcDbVertex
100
AcDb2dVertex
 10
80.44193905886627
 20
-121.1659021919309
 30
0.0
  0
SEQEND
  5
78
330
75
100
AcDbEntity
  8
_U+30EC_U+30A4_U+30E4_U+30FC 1
 62
   179
420
  2234388
370
     9
  0
POLYLINE
  5
79
330
1F
100
AcDbEntity
  8
_U+30EC_U+30A4_U+30E4_U+30FC 1
 62
   179
420
  2234388
370
     9
100
AcDb2dPolyline
 66
     1
 10
0.0
 20
0.0
 30
0.0
  0
VERTEX
  5
7A
330
79
100
AcDbEntity
  8
_U+30EC_U+30A4_U+30E4_U+30FC 1
 62
   179
420
  2234388
370
     9
100
AcDbVertex
100
AcDb2dVertex
 10
88.44212746587557
 20
-124.0263655245491
 30
0.0
  0
VERTEX
  5
7B
330
79
100
AcDbEntity
  8
_U+30EC_U+30A4_U+30E4_U+30FC 1
 62
   179
420
  2234388
370
     9
100
AcDbVertex
100
AcDb2dVertex
 10
88.44212746587557
 20
-121.1659021919309
 30
0.0
  0
SEQEND
  5
7C
330
79
100
AcDbEntity
  8
_U+30EC_U+30A4_U+30E4_U+30FC 1
 62
   179
420
  2234388
370
     9
  0
INSERT
  5
7E
330
1F
100
AcDbEntity
  8
_U+30EC_U+30A4_U+30E4_U+30FC 1
100
AcDbBlockReference
  2
block 2
 10
0.0
 20
0.0
 30
0.0
  0
POLYLINE
  5
85
330
1F
100
AcDbEntity
  8
_U+30EC_U+30A4_U+30E4_U+30FC 1
 62
   179
420
  2234388
370
     9
100
AcDb2dPolyline
 66
     1
 10
0.0
 20
0.0
 30
0.0
  0
VERTEX
  5
86
330
85
100
AcDbEntity
  8
_U+30EC_U+30A4_U+30E4_U+30FC 1
 62
   179
420
  2234388
370
     9
100
AcDbVertex
100
AcDb2dVertex
 10
80.44193905886627
 20
-136.667275243611
 30
0.0
  0
VERTEX
  5
87
330
85
100
AcDbEntity
  8
_U+30EC_U+30A4_U+30E4_U+30FC 1
 62
   179
420
  2234388
370
     9
100
AcDbVertex
100
AcDb2dVertex
 10
98.44256582185425
 20
-136.667275243611
 30
0.0
  0
SEQEND
  5
88
330
85
100
AcDbEntity
  8
_U+30EC_U+30A4_U+30E4_U+30FC 1
 62
   179
420
  2234388
370
     9
  0
POLYLINE
  5
89
330
1F
100
AcDbEntity
  8
_U+30EC_U+30A4_U+30E4_U+30FC 1
 62
   179
420
  2234388
370
     9
100
AcDb2dPolyline
 66
     1
 10
0.0
 20
0.0
 30
0.0
  0
VERTEX
  5
8A
330
89
100
AcDbEntity
  8
_U+30EC_U+30A4_U+30E4_U+30FC 1
 62
   179
420
  2234388
370
     9
100
AcDbVertex
100
AcDb2dVertex
 10
80.44193905886627
 20
-134.4062519108429
 30
0.0
  0
VERTEX
  5
8B
330
89
100
AcDbEntity
  8
_U+30EC_U+30A4_U+30E4_U+30FC 1
 62
   179
420
  2234388
370
     9
100
AcDbVertex
100
AcDb2dVertex
 10
80.44193905886627
 20
-137.6670474655835
 30
0.0
  0
SEQEND
  5
8C
330
89
100
AcDbEntity
  8
_U+30EC_U+30A4_U+30E4_U+30FC 1
 62
   179
420
  2234388
370
     9
  0
POLYLINE
  5
8D
330
1F
100
AcDbEntity
  8
_U+30EC_U+30A4_U+30E4_U+30FC 1
 62
   179
420
  2234388
370
     9
100
AcDb2dPolyline
 66
     1
 10
0.0
 20
0.0
 30
0.0
  0
VERTEX
  5
8E
330
8D
100
AcDbEntity
  8
_U+30EC_U+30A4_U+30E4_U+30FC 1
 62
   179
420
  2234388
370
     9
100
AcDbVertex
100
AcDb2dVertex
 10
98.44256582185425
 20
-135.206916355087
 30
0.0
  0
VERTEX
  5
8F
330
8D
100
AcDbEntity
  8
_U+30EC_U+30A4_U+30E4_U+30FC 1
 62
   179
420
  2234388
370
     9
100
AcDbVertex
100
AcDb2dVertex
 10
98.44256582185425
 20
-137.6670474655835
 30
0.0
  0
SEQEND
  5
90
330
8D
100
AcDbEntity
  8
_U+30EC_U+30A4_U+30E4_U+30FC 1
 62
   179
420
  2234388
370
     9
  0
INSERT
  5
92
330
1F
100
AcDbEntity
  8
_U+30EC_U+30A4_U+30E4_U+30FC 1
100
AcDbBlockReference
  2
block 3
 10
0.0
 20
0.0
 30
0.0
  0
POLYLINE
  5
9B
330
1F
100
AcDbEntity
  8
_U+30EC_U+30A4_U+30E4_U+30FC 1
 62
   179
420
  2234388
370
     9
100
AcDb2dPolyline
 66
     1
 10
0.0
 20
0.0
 30
0.0
  0
VERTEX
  5
9C
330
9B
100
AcDbEntity
  8
_U+30EC_U+30A4_U+30E4_U+30FC 1
 62
   179
420
  2234388
370
     9
100
AcDbVertex
100
AcDb2dVertex
 10
102.3196666410871
 20
-127.1665816348751
 30
0.0
  0
VERTEX
  5
9D
330
9B
100
AcDbEntity
  8
_U+30EC_U+30A4_U+30E4_U+30FC 1
 62
   179
420
  2234388
370
     9
100
AcDbVertex
100
AcDb2dVertex
 10
102.3196666410871
 20
-121.9083230250784
 30
0.0
  0
SEQEND
  5
9E
330
9B
100
AcDbEntity
  8
_U+30EC_U+30A4_U+30E4_U+30FC 1
 62
   179
420
  2234388
370
     9
  0
POLYLINE
  5
9F
330
1F
100
AcDbEntity
  8
_U+30EC_U+30A4_U+30E4_U+30FC 1
 62
   179
420
  2234388
370
     9
100
AcDb2dPolyline
 66
     1
 10
0.0
 20
0.0
 30
0.0
  0
VERTEX
  5
A0
330
9F
100
AcDbEntity
  8
_U+30EC_U+30A4_U+30E4_U+30FC 1
 62
   179
420
  2234388
370
     9
100
AcDbVertex
100
AcDb2dVertex
 10
102.3196666410871
 20
-131.6667208004164
 30
0.0
  0
VERTEX
  5
A1
330
9F
100
AcDbEntity
  8
_U+30EC_U+30A4_U+30E4_U+30FC 1
 62
   179
420
  2234388
370
     9
100
AcDbVertex
100
AcDb2dVertex
 10
102.3196666410871
 20
-127.1665816348751
 30
0.0
  0
SEQEND
  5
A2
330
9F
100
AcDbEntity
  8
_U+30EC_U+30A4_U+30E4_U+30FC 1
 62
   179
420
  2234388
370
     9
  0
POLYLINE
  5
A3
330
1F
100
AcDbEntity
  8
_U+30EC_U+30A4_U+30E4_U+30FC 1
 62
   179
420
  2234388
370
     9
100
AcDb2dPolyline
 66
     1
 10
0.0
 20
0.0
 30
0.0
  0
VERTEX
  5
A4
330
A3
100
AcDbEntity
  8
_U+30EC_U+30A4_U+30E4_U+30FC 1
 62
   179
420
  2234388
370
     9
100
AcDbVertex
100
AcDb2dVertex
 10
101.1917629739386
 20
-131.6667208004164
 30
0.0
  0
VERTEX
  5
A5
330
A3
100
AcDbEntity
  8
_U+30EC_U+30A4_U+30E4_U+30FC 1
 62
   179
420
  2234388
370
     9
100
AcDbVertex
100
AcDb2dVertex
 10
103.3201444186145
 20
-131.6667208004164
 30
0.0
  0
SEQEND
  5
A6
330
A3
100
AcDbEntity
  8
_U+30EC_U+30A4_U+30E4_U+30FC 1
 62
   179
420
  2234388
370
     9
  0
POLYLINE
  5
A7
330
1F
100
AcDbEntity
  8
_U+30EC_U+30A4_U+30E4_U+30FC 1
 62
   179
420
  2234388
370
     9
100
AcDb2dPolyline
 66
     1
 10
0.0
 20
0.0
 30
0.0
  0
VERTEX
  5
A8
330
A7
100
AcDbEntity
  8
_U+30EC_U+30A4_U+30E4_U+30FC 1
 62
   179
420
  2234388
370
     9
100
AcDbVertex
100
AcDb2dVertex
 10
101.1917629739386
 20
-127.1665816348751
 30
0.0
  0
VERTEX
  5
A9
330
A7
100
AcDbEntity
  8
_U+30EC_U+30A4_U+30E4_U+30FC 1
 62
   179
420
  2234388
370
     9
100
AcDbVertex
100
AcDb2dVertex
 10
103.3201444186145
 20
-127.1665816348751
 30
0.0
  0
SEQEND
  5
AA
330
A7
100
AcDbEntity
  8
_U+30EC_U+30A4_U+30E4_U+30FC 1
 62
   179
420
  2234388
370
     9
  0
INSERT
  5
AC
330
1F
100
AcDbEntity
  8
_U+30EC_U+30A4_U+30E4_U+30FC 1
100
AcDbBlockReference
  2
block 4
 10
0.0
 20
0.0
 30
0.0
  0
SPLINE
  5
CE
330
1F
100
AcDbEntity
  8
_U+30EC_U+30A4_U+30E4_U+30FC 1
 62
   179
420
  2234388
370
     9
100
AcDbSpline
210
0.0
220
0.0
230
1.0
 70
    11
 71
     3
 72
    17
 73
    13
 74
     0
 42
0.0000000001
 43
0.0000000001
 12
1.0
 22
0.0
 32
0.0
 13
1.0
 23
0.0
 33
0.0
 40
0.0
 40
0.0
 40
0.0
 40
0.0
 40
1.0
 40
1.0
 40
1.0
 40
2.0
 40
2.0
 40
2.0
 40
3.0
 40
3.0
 40
3.0
 40
4.0
 40
4.0
 40
4.0
 40
4.0
 10
102.4195707203924
 20
-132.6795810779411
 30
0.0
 10
102.4195707203924
 20
-132.6237716335106
 30
0.0
 10
102.3748032215345
 20
-132.5790041335221
 30
0.0
 10
102.3196666410871
 20
-132.5790041335221
 30
0.0
 10
102.2645601687915
 20
-132.5790041335221
 30
0.0
 10
102.2197573921567
 20
-132.6237716335106
 30
0.0
 10
102.2197573921567
 20
-132.6795810779411
 30
0.0
 10
102.2197573921567
 20
-132.7347202445941
 30
0.0
 10
102.2645601687915
 20
-132.7794877445827
 30
0.0
 10
102.3196666410871
 20
-132.7794877445827
 30
0.0
 10
102.3748032215345
 20
-132.7794877445827
 30
0.0
 10
102.4195707203924
 20
-132.7347202445941
 30
0.0
 10
102.4195707203924
 20
-132.6795810779411
 30
0.0
  0
POLYLINE
  5
CF
330
1F
100
AcDbEntity
  8
_U+30EC_U+30A4_U+30E4_U+30FC 1
 62
   179
420
  2234388
370
     9
100
AcDb2dPolyline
 66
     1
 10
0.0
 20
0.0
 30
0.0
  0
VERTEX
  5
D0
330
CF
100
AcDbEntity
  8
_U+30EC_U+30A4_U+30E4_U+30FC 1
 62
   179
420
  2234388
370
     9
100
AcDbVertex
100
AcDb2dVertex
 10
102.3196666410871
 20
-132.6789108001637
 30
0.0
  0
VERTEX
  5
D1
330
CF
100
AcDbEntity
  8
_U+30EC_U+30A4_U+30E4_U+30FC 1
 62
   179
420
  2234388
370
     9
100
AcDbVertex
100
AcDb2dVertex
 10
102.3196666410871
 20
-130.4275183007264
 30
0.0
  0
SEQEND
  5
D2
330
CF
100
AcDbEntity
  8
_U+30EC_U+30A4_U+30E4_U+30FC 1
 62
   179
420
  2234388
370
     9
  0
POLYLINE
  5
D3
330
1F
100
AcDbEntity
  8
_U+30EC_U+30A4_U+30E4_U+30FC 1
 62
   179
420
  2234388
370
     9
100
AcDb2dPolyline
 66
     1
 10
0.0
 20
0.0
 30
0.0
  0
VERTEX
  5
D4
330
D3
100
AcDbEntity
  8
_U+30EC_U+30A4_U+30E4_U+30FC 1
 62
   179
420
  2234388
370
     9
100
AcDbVertex
100
AcDb2dVertex
 10
101.1917629739386
 20
-132.6789108001637
 30
0.0
  0
VERTEX
  5
D5
330
D3
100
AcDbEntity
  8
_U+30EC_U+30A4_U+30E4_U+30FC 1
 62
   179
420
  2234388
370
     9
100
AcDbVertex
100
AcDb2dVertex
 10
103.3201444186145
 20
-132.6789108001637
 30
0.0
  0
SEQEND
  5
D6
330
D3
100
AcDbEntity
  8
_U+30EC_U+30A4_U+30E4_U+30FC 1
 62
   179
420
  2234388
370
     9
  0
INSERT
  5
D8
330
1F
100
AcDbEntity
  8
_U+30EC_U+30A4_U+30E4_U+30FC 1
100
AcDbBlockReference
  2
block 5
 10
0.0
 20
0.0
 30
0.0
  0
SPLINE
  5
DD
330
1F
100
AcDbEntity
  8
_U+30EC_U+30A4_U+30E4_U+30FC 1
 62
   179
420
  2234388
370
     9
100
AcDbSpline
210
0.0
220
0.0
230
1.0
 70
    11
 71
     3
 72
    17
 73
    13
 74
     0
 42
0.0000000001
 43
0.0000000001
 12
1.0
 22
0.0
 32
0.0
 13
1.0
 23
0.0
 33
0.0
 40
0.0
 40
0.0
 40
0.0
 40
0.0
 40
1.0
 40
1.0
 40
1.0
 40
2.0
 40
2.0
 40
2.0
 40
3.0
 40
3.0
 40
3.0
 40
4.0
 40
4.0
 40
4.0
 40
4.0
 10
80.5335907231947
 20
-129.384707189876
 30
0.0
 10
80.5335907231947
 20
-129.3295680232229
 30
0.0
 10
80.48878794655995
 20
-129.2848005232343
 30
0.0
 10
80.43298053544724
 20
-129.2848005232343
 30
0.0
 10
80.37787461605625
 20
-129.2848005232343
 30
0.0
 10
80.33307183942148
 20
-129.3295680232229
 30
0.0
 10
80.33307183942148
 20
-129.384707189876
 30
0.0
 10
80.33307183942148
 20
-129.4398110787509
 30
0.0
 10
80.37787461605625
 20
-129.4846138565176
 30
0.0
 10
80.43298053544724
 20
-129.4846138565176
 30
0.0
 10
80.48878794655995
 20
-129.4846138565176
 30
0.0
 10
80.5335907231947
 20
-129.4398110787509
 30
0.0
 10
80.5335907231947
 20
-129.384707189876
 30
0.0
  0
SPLINE
  5
DE
330
1F
100
AcDbEntity
  8
_U+30EC_U+30A4_U+30E4_U+30FC 1
 62
   179
420
  2234388
370
     9
100
AcDbSpline
210
0.0
220
0.0
230
1.0
 70
    11
 71
     3
 72
    17
 73
    13
 74
     0
 42
0.0000000001
 43
0.0000000001
 12
1.0
 22
0.0
 32
0.0
 13
1.0
 23
0.0
 33
0.0
 40
0.0
 40
0.0
 40
0.0
 40
0.0
 40
1.0
 40
1.0
 40
1.0
 40
2.0
 40
2.0
 40
2.0
 40
3.0
 40
3.0
 40
3.0
 40
4.0
 40
4.0
 40
4.0
 40
4.0
 10
81.53336291991062
 20
-129.384707189876
 30
0.0
 10
81.53336291991062
 20
-129.3295680232229
 30
0.0
 10
81.48856014327585
 20
-129.2848005232343
 30
0.0
 10
81.43275275741946
 20
-129.2848005232343
 30
0.0
 10
81.37764681277216
 20
-129.2848005232343
 30
0.0
 10
81.33284403613739
 20
-129.3295680232229
 30
0.0
 10
81.33284403613739
 20
-129.384707189876
 30
0.0
 10
81.33284403613739
 20
-129.4398110787509
 30
0.0
 10
81.37764681277216
 20
-129.4846138565176
 30
0.0
 10
81.43275275741946
 20
-129.4846138565176
 30
0.0
 10
81.48856014327585
 20
-129.4846138565176
 30
0.0
 10
81.53336291991062
 20
-129.4398110787509
 30
0.0
 10
81.53336291991062
 20
-129.384707189876
 30
0.0
  0
INSERT
  5
E0
330
1F
100
AcDbEntity
  8
_U+30EC_U+30A4_U+30E4_U+30FC 1
100
AcDbBlockReference
  2
block 6
 10
0.0
 20
0.0
 30
0.0
  0
POLYLINE
  5
E5
330
1F
100
AcDbEntity
  8
_U+30EC_U+30A4_U+30E4_U+30FC 1
 62
   179
420
  2234388
370
     9
100
AcDb2dPolyline
 66
     1
 10
0.0
 20
0.0
 30
0.0
  0
VERTEX
  5
E6
330
E5
100
AcDbEntity
  8
_U+30EC_U+30A4_U+30E4_U+30FC 1
 62
   179
420
  2234388
370
     9
100
AcDbVertex
100
AcDb2dVertex
 10
82.29472790048658
 20
-129.384707189876
 30
0.0
  0
VERTEX
  5
E7
330
E5
100
AcDbEntity
  8
_U+30EC_U+30A4_U+30E4_U+30FC 1
 62
   179
420
  2234388
370
     9
100
AcDbVertex
100
AcDb2dVertex
 10
78.45551799843298
 20
-129.384707189876
 30
0.0
  0
SEQEND
  5
E8
330
E5
100
AcDbEntity
  8
_U+30EC_U+30A4_U+30E4_U+30FC 1
 62
   179
420
  2234388
370
     9
  0
ENDSEC
  0
SECTION
  2
OBJECTS
  0
DICTIONARY
  5
C
330
0
100
AcDbDictionary
281
     1
  3
ACAD_GROUP
350
D
  3
ACAD_LAYOUT
350
1A
  3
ACAD_MATERIAL
350
3B
  3
ACAD_MLEADERSTYLE
350
EA
  3
ACAD_MLINESTYLE
350
17
  3
ACAD_PLOTSETTINGS
350
19
  3
ACAD_PLOTSTYLENAME
350
E
  3
ACAD_TABLESTYLE
350
E9
  3
ACAD_VISUALSTYLE
350
2A
  0
SUN
  5
3F
330
29
100
AcDbSun
 90
        1
290
     0
 63
     7
421
 16777215
 40
1.0
291
     1
 91
  2455826
 92
 54000000
292
     0
 70
     2
 71
   256
280
     1
  0
DICTIONARY
  5
D
102
{ACAD_REACTORS
330
C
102
}
330
C
100
AcDbDictionary
281
     1
  0
DICTIONARY
  5
1A
102
{ACAD_REACTORS
330
C
102
}
330
C
100
AcDbDictionary
281
     1
  3
Layout1
350
1E
  3
Layout2
350
26
  3
Model
350
22
  0
DICTIONARY
  5
3B
102
{ACAD_REACTORS
330
C
102
}
330
C
100
AcDbDictionary
281
     1
  3
ByBlock
350
3D
  3
ByLayer
350
3C
  3
Global
350
3E
  0
DICTIONARY
  5
EA
102
{ACAD_REACTORS
330
C
102
}
330
C
100
AcDbDictionary
281
     1
  0
DICTIONARY
  5
17
102
{ACAD_REACTORS
330
C
102
}
330
C
100
AcDbDictionary
281
     1
  3
Standard
350
18
  0
DICTIONARY
  5
19
102
{ACAD_REACTORS
330
C
102
}
330
C
100
AcDbDictionary
281
     1
  0
ACDBDICTIONARYWDFLT
  5
E
102
{ACAD_REACTORS
330
C
102
}
330
C
100
AcDbDictionary
281
     1
  3
Normal
350
F
100
AcDbDictionaryWithDefault
340
F
  0
DICTIONARY
  5
E9
102
{ACAD_REACTORS
330
C
102
}
330
C
100
AcDbDictionary
281
     1
  0
DICTIONARY
  5
2A
102
{ACAD_REACTORS
330
C
102
}
330
C
100
AcDbDictionary
281
     1
  3
2dWireframe
350
2F
  3
3D Hidden
350
31
  3
3dWireframe
350
30
  3
Basic
350
32
  3
Brighten
350
36
  3
ColorChange
350
3A
  3
Conceptual
350
34
  3
Dim
350
35
  3
Facepattern
350
39
  3
Flat
350
2B
  3
FlatWithEdges
350
2C
  3
Gouraud
350
2D
  3
GouraudWithEdges
350
2E
  3
Linepattern
350
38
  3
Realistic
350
33
  3
Thicken
350
37
  0
LAYOUT
  5
1E
102
{ACAD_REACTORS
330
1A
102
}
330
1A
100
AcDbPlotSettings
  1

  2
none_device
  4

  6

 40
0.0
 41
0.0
 42
0.0
 43
0.0
 44
0.0
 45
0.0
 46
0.0
 47
0.0
 48
0.0
 49
0.0
140
0.0
141
0.0
142
1.0
143
1.0
 70
   688
 72
     0
 73
     0
 74
     5
  7

 75
    16
 76
     0
 77
     2
 78
   300
147
1.0
148
0.0
149
0.0
100
AcDbLayout
  1
Layout1
 70
     1
 71
     1
 10
0.0
 20
0.0
 11
12.0
 21
9.0
 12
0.0
 22
0.0
 32
0.0
 14
1.000000000000000E+20
 24
1.000000000000000E+20
 34
1.000000000000000E+20
 15
-1.000000000000000E+20
 25
-1.000000000000000E+20
 35
-1.000000000000000E+20
146
0.0
 13
0.0
 23
0.0
 33
0.0
 16
1.0
 26
0.0
 36
0.0
 17
0.0
 27
1.0
 37
0.0
 76
     0
330
1B
  0
LAYOUT
  5
26
102
{ACAD_REACTORS
330
1A
102
}
330
1A
100
AcDbPlotSettings
  1

  2
none_device
  4

  6

 40
0.0
 41
0.0
 42
0.0
 43
0.0
 44
0.0
 45
0.0
 46
0.0
 47
0.0
 48
0.0
 49
0.0
140
0.0
141
0.0
142
1.0
143
1.0
 70
   688
 72
     0
 73
     0
 74
     5
  7

 75
    16
 76
     0
 77
     2
 78
   300
147
1.0
148
0.0
149
0.0
100
AcDbLayout
  1
Layout2
 70
     1
 71
     2
 10
0.0
 20
0.0
 11
0.0
 21
0.0
 12
0.0
 22
0.0
 32
0.0
 14
0.0
 24
0.0
 34
0.0
 15
0.0
 25
0.0
 35
0.0
146
0.0
 13
0.0
 23
0.0
 33
0.0
 16
1.0
 26
0.0
 36
0.0
 17
0.0
 27
1.0
 37
0.0
 76
     0
330
23
  0
LAYOUT
  5
22
102
{ACAD_REACTORS
330
1A
102
}
330
1A
100
AcDbPlotSettings
  1

  2
none_device
  4

  6

 40
0.0
 41
0.0
 42
0.0
 43
0.0
 44
0.0
 45
0.0
 46
0.0
 47
0.0
 48
0.0
 49
0.0
140
0.0
141
0.0
142
1.0
143
1.0
 70
  1712
 72
     0
 73
     0
 74
     0
  7

 75
     0
 76
     0
 77
     2
 78
   300
147
1.0
148
0.0
149
0.0
100
AcDbLayout
  1
Model
 70
     1
 71
     0
 10
0.0
 20
0.0
 11
12.0
 21
9.0
 12
0.0
 22
0.0
 32
0.0
 14
1.000000000000000E+20
 24
1.000000000000000E+20
 34
1.000000000000000E+20
 15
-1.000000000000000E+20
 25
-1.000000000000000E+20
 35
-1.000000000000000E+20
146
0.0
 13
0.0
 23
0.0
 33
0.0
 16
1.0
 26
0.0
 36
0.0
 17
0.0
 27
1.0
 37
0.0
 76
     0
330
1F
331
29
  0
MATERIAL
  5
3D
102
{ACAD_REACTORS
330
3B
102
}
330
3B
100
AcDbMaterial
  1
ByBlock
 72
     1
 94
      127
  0
MATERIAL
  5
3C
102
{ACAD_REACTORS
330
3B
102
}
330
3B
100
AcDbMaterial
  1
ByLayer
 72
     1
 94
      127
  0
MATERIAL
  5
3E
102
{ACAD_REACTORS
330
3B
102
}
330
3B
100
AcDbMaterial
  1
Global
 72
     1
 94
      127
  0
MLINESTYLE
  5
18
102
{ACAD_REACTORS
330
17
102
}
330
17
100
AcDbMlineStyle
  2
Standard
 70
     0
  3

 62
   256
 51
90.0
 52
90.0
 71
     2
 49
0.5
 62
   256
  6
BYLAYER
 49
-0.5
 62
   256
  6
BYLAYER
  0
ACDBPLACEHOLDER
  5
F
102
{ACAD_REACTORS
330
E
102
}
330
E
  0
VISUALSTYLE
  5
2F
102
{ACAD_REACTORS
330
2A
102
}
330
2A
100
AcDbVisualStyle
  2
2dWireframe
 70
     4
177
     2
291
     0
 71
     0
176
     1
 72
     2
176
     1
 73
     0
176
     1
 90
        0
176
     1
 40
-0.6
176
     1
 41
-30.0
176
     1
 62
     5
 63
     7
421
 16777215
176
     1
 74
     1
176
     1
 91
        4
176
     1
 64
     7
176
     1
 65
   257
176
     1
 75
     1
176
     1
175
     1
176
     1
 42
1.0
176
     1
 92
        0
176
     1
 66
   257
176
     1
 43
1.0
176
     1
 76
     1
176
     1
 77
     6
176
     1
 78
     2
176
     1
 67
     7
176
     1
 79
     5
176
     1
170
     0
176
     1
171
     0
176
     1
290
     0
176
     1
 93
        1
176
     1
 44
0.0
176
     1
173
     0
176
     1
  0
VISUALSTYLE
  5
31
102
{ACAD_REACTORS
330
2A
102
}
330
2A
100
AcDbVisualStyle
  2
3D Hidden
 70
     6
177
     2
291
     0
 71
     1
176
     1
 72
     2
176
     1
 73
     2
176
     1
 90
        0
176
     1
 40
-0.6
176
     1
 41
-30.0
176
     1
 62
     5
 63
     7
421
 16777215
176
     1
 74
     2
176
     1
 91
        2
176
     1
 64
     7
176
     1
 65
   257
176
     1
 75
     2
176
     1
175
     1
176
     1
 42
40.0
176
     1
 92
        0
176
     1
 66
   257
176
     1
 43
1.0
176
     1
 76
     1
176
     1
 77
     6
176
     1
 78
     2
176
     1
 67
     7
176
     1
 79
     3
176
     1
170
     0
176
     1
171
     0
176
     1
290
     0
176
     1
 93
        1
176
     1
 44
0.0
176
     1
173
     0
176
     1
  0
VISUALSTYLE
  5
30
102
{ACAD_REACTORS
330
2A
102
}
330
2A
100
AcDbVisualStyle
  2
3dWireframe
 70
     5
177
     2
291
     0
 71
     0
176
     1
 72
     2
176
     1
 73
     0
176
     1
 90
        0
176
     1
 40
-0.6
176
     1
 41
-30.0
176
     1
 62
     5
 63
     7
421
 16777215
176
     1
 74
     1
176
     1
 91
        4
176
     1
 64
     7
176
     1
 65
   257
176
     1
 75
     1
176
     1
175
     1
176
     1
 42
1.0
176
     1
 92
        0
176
     1
 66
   257
176
     1
 43
1.0
176
     1
 76
     1
176
     1
 77
     6
176
     1
 78
     2
176
     1
 67
     7
176
     1
 79
     5
176
     1
170
     0
176
     1
171
     0
176
     1
290
     0
176
     1
 93
        1
176
     1
 44
0.0
176
     1
173
     0
176
     1
  0
VISUALSTYLE
  5
32
102
{ACAD_REACTORS
330
2A
102
}
330
2A
100
AcDbVisualStyle
  2
Basic
 70
     7
177
     2
291
     1
 71
     1
176
     1
 72
     0
176
     1
 73
     1
176
     1
 90
        0
176
     1
 40
-0.6
176
     1
 41
-30.0
176
     1
 62
     5
 63
     7
421
 16777215
176
     1
 74
     0
176
     1
 91
        4
176
     1
 64
     7
176
     1
 65
   257
176
     1
 75
     1
176
     1
175
     1
176
     1
 42
1.0
176
     1
 92
        8
176
     1
 66
     7
176
     1
 43
1.0
176
     1
 76
     1
176
     1
 77
     6
176
     1
 78
     2
176
     1
 67
     7
176
     1
 79
     5
176
     1
170
     0
176
     1
171
     0
176
     1
290
     0
176
     1
 93
        1
176
     1
 44
0.0
176
     1
173
     0
176
     1
  0
VISUALSTYLE
  5
36
102
{ACAD_REACTORS
330
2A
102
}
330
2A
100
AcDbVisualStyle
  2
Brighten
 70
    12
177
     2
291
     1
 71
     2
176
     1
 72
     2
176
     1
 73
     0
176
     1
 90
        0
176
     1
 40
-0.6
176
     1
 41
-30.0
176
     1
 62
     5
 63
     7
421
 16777215
176
     1
 74
     1
176
     1
 91
        4
176
     1
 64
     7
176
     1
 65
   257
176
     1
 75
     1
176
     1
175
     1
176
     1
 42
1.0
176
     1
 92
        8
176
     1
 66
     7
176
     1
 43
1.0
176
     1
 76
     1
176
     1
 77
     6
176
     1
 78
     2
176
     1
 67
     7
176
     1
 79
     5
176
     1
170
     0
176
     1
171
     0
176
     1
290
     0
176
     1
 93
        1
176
     1
 44
50.0
176
     1
173
     0
176
     1
  0
VISUALSTYLE
  5
3A
102
{ACAD_REACTORS
330
2A
102
}
330
2A
100
AcDbVisualStyle
  2
ColorChange
 70
    16
177
     2
291
     1
 71
     2
176
     1
 72
     2
176
     1
 73
     3
176
     1
 90
        0
176
     1
 40
-0.6
176
     1
 41
-30.0
176
     1
 62
     5
 63
     8
421
  8421504
176
     1
 74
     1
176
     1
 91
        4
176
     1
 64
     7
176
     1
 65
   257
176
     1
 75
     1
176
     1
175
     1
176
     1
 42
1.0
176
     1
 92
        8
176
     1
 66
     8
424
  8421504
176
     1
 43
1.0
176
     1
 76
     1
176
     1
 77
     6
176
     1
 78
     2
176
     1
 67
     7
176
     1
 79
     5
176
     1
170
     0
176
     1
171
     0
176
     1
290
     0
176
     1
 93
        1
176
     1
 44
0.0
176
     1
173
     0
176
     1
  0
VISUALSTYLE
  5
34
102
{ACAD_REACTORS
330
2A
102
}
330
2A
100
AcDbVisualStyle
  2
Conceptual
 70
     9
177
     2
291
     0
 71
     3
176
     1
 72
     2
176
     1
 73
     0
176
     1
 90
        0
176
     1
 40
-0.6
176
     1
 41
-30.0
176
     1
 62
     5
 63
     7
421
 16777215
176
     1
 74
     2
176
     1
 91
        2
176
     1
 64
     7
176
     1
 65
   257
176
     1
 75
     1
176
     1
175
     1
176
     1
 42
40.0
176
     1
 92
        8
176
     1
 66
     7
176
     1
 43
1.0
176
     1
 76
     1
176
     1
 77
     6
176
     1
 78
     2
176
     1
 67
     7
176
     1
 79
     3
176
     1
170
     0
176
     1
171
     0
176
     1
290
     0
176
     1
 93
        1
176
     1
 44
0.0
176
     1
173
     0
176
     1
  0
VISUALSTYLE
  5
35
102
{ACAD_REACTORS
330
2A
102
}
330
2A
100
AcDbVisualStyle
  2
Dim
 70
    11
177
     2
291
     1
 71
     2
176
     1
 72
     2
176
     1
 73
     0
176
     1
 90
        0
176
     1
 40
-0.6
176
     1
 41
-30.0
176
     1
 62
     5
 63
     7
421
 16777215
176
     1
 74
     1
176
     1
 91
        4
176
     1
 64
     7
176
     1
 65
   257
176
     1
 75
     1
176
     1
175
     1
176
     1
 42
1.0
176
     1
 92
        8
176
     1
 66
     7
176
     1
 43
1.0
176
     1
 76
     1
176
     1
 77
     6
176
     1
 78
     2
176
     1
 67
     7
176
     1
 79
     5
176
     1
170
     0
176
     1
171
     0
176
     1
290
     0
176
     1
 93
        1
176
     1
 44
-50.0
176
     1
173
     0
176
     1
  0
VISUALSTYLE
  5
39
102
{ACAD_REACTORS
330
2A
102
}
330
2A
100
AcDbVisualStyle
  2
Facepattern
 70
    15
177
     2
291
     1
 71
     2
176
     1
 72
     2
176
     1
 73
     0
176
     1
 90
        0
176
     1
 40
-0.6
176
     1
 41
-30.0
176
     1
 62
     5
 63
     7
421
 16777215
176
     1
 74
     1
176
     1
 91
        4
176
     1
 64
     7
176
     1
 65
   257
176
     1
 75
     1
176
     1
175
     1
176
     1
 42
1.0
176
     1
 92
        8
176
     1
 66
     7
176
     1
 43
1.0
176
     1
 76
     1
176
     1
 77
     6
176
     1
 78
     2
176
     1
 67
     7
176
     1
 79
     5
176
     1
170
     0
176
     1
171
     0
176
     1
290
     0
176
     1
 93
        1
176
     1
 44
0.0
176
     1
173
     0
176
     1
  0
VISUALSTYLE
  5
2B
102
{ACAD_REACTORS
330
2A
102
}
330
2A
100
AcDbVisualStyle
  2
Flat
 70
     0
177
     2
291
     1
 71
     2
176
     1
 72
     1
176
     1
 73
     1
176
     1
 90
        2
176
     1
 40
-0.6
176
     1
 41
30.0
176
     1
 62
     5
 63
     7
421
 16777215
176
     1
 74
     0
176
     1
 91
        4
176
     1
 64
     7
176
     1
 65
   257
176
     1
 75
     1
176
     1
175
     1
176
     1
 42
1.0
176
     1
 92
        8
176
     1
 66
     7
176
     1
 43
1.0
176
     1
 76
     1
176
     1
 77
     6
176
     1
 78
     2
176
     1
 67
     7
176
     1
 79
     5
176
     1
170
     0
176
     1
171
     0
176
     1
290
     0
176
     1
 93
       13
176
     1
 44
0.0
176
     1
173
     0
176
     1
  0
VISUALSTYLE
  5
2C
102
{ACAD_REACTORS
330
2A
102
}
330
2A
100
AcDbVisualStyle
  2
FlatWithEdges
 70
     1
177
     2
291
     1
 71
     2
176
     1
 72
     1
176
     1
 73
     1
176
     1
 90
        2
176
     1
 40
-0.6
176
     1
 41
30.0
176
     1
 62
     5
 63
     7
421
 16777215
176
     1
 74
     1
176
     1
 91
        4
176
     1
 64
     7
176
     1
 65
   257
176
     1
 75
     1
176
     1
175
     1
176
     1
 42
1.0
176
     1
 92
        0
176
     1
 66
   257
176
     1
 43
1.0
176
     1
 76
     1
176
     1
 77
     6
176
     1
 78
     2
176
     1
 67
     7
176
     1
 79
     5
176
     1
170
     0
176
     1
171
     0
176
     1
290
     0
176
     1
 93
       13
176
     1
 44
0.0
176
     1
173
     0
176
     1
  0
VISUALSTYLE
  5
2D
102
{ACAD_REACTORS
330
2A
102
}
330
2A
100
AcDbVisualStyle
  2
Gouraud
 70
     2
177
     2
291
     1
 71
     2
176
     1
 72
     2
176
     1
 73
     1
176
     1
 90
        2
176
     1
 40
-0.6
176
     1
 41
30.0
176
     1
 62
     5
 63
     7
421
 16777215
176
     1
 74
     0
176
     1
 91
        4
176
     1
 64
     7
176
     1
 65
   257
176
     1
 75
     1
176
     1
175
     1
176
     1
 42
1.0
176
     1
 92
        0
176
     1
 66
     7
176
     1
 43
1.0
176
     1
 76
     1
176
     1
 77
     6
176
     1
 78
     2
176
     1
 67
     7
176
     1
 79
     5
176
     1
170
     0
176
     1
171
     0
176
     1
290
     0
176
     1
 93
       13
176
     1
 44
0.0
176
     1
173
     0
176
     1
  0
VISUALSTYLE
  5
2E
102
{ACAD_REACTORS
330
2A
102
}
330
2A
100
AcDbVisualStyle
  2
GouraudWithEdges
 70
     3
177
     2
291
     1
 71
     2
176
     1
 72
     2
176
     1
 73
     1
176
     1
 90
        2
176
     1
 40
-0.6
176
     1
 41
30.0
176
     1
 62
     5
 63
     7
421
 16777215
176
     1
 74
     1
176
     1
 91
        4
176
     1
 64
     7
176
     1
 65
   257
176
     1
 75
     1
176
     1
175
     1
176
     1
 42
1.0
176
     1
 92
        0
176
     1
 66
   257
176
     1
 43
1.0
176
     1
 76
     1
176
     1
 77
     6
176
     1
 78
     2
176
     1
 67
     7
176
     1
 79
     5
176
     1
170
     0
176
     1
171
     0
176
     1
290
     0
176
     1
 93
       13
176
     1
 44
0.0
176
     1
173
     0
176
     1
  0
VISUALSTYLE
  5
38
102
{ACAD_REACTORS
330
2A
102
}
330
2A
100
AcDbVisualStyle
  2
Linepattern
 70
    14
177
     2
291
     1
 71
     2
176
     1
 72
     2
176
     1
 73
     0
176
     1
 90
        0
176
     1
 40
-0.6
176
     1
 41
-30.0
176
     1
 62
     5
 63
     7
421
 16777215
176
     1
 74
     1
176
     1
 91
        4
176
     1
 64
     7
176
     1
 65
   257
176
     1
 75
     7
176
     1
175
     7
176
     1
 42
1.0
176
     1
 92
        8
176
     1
 66
     7
176
     1
 43
1.0
176
     1
 76
     1
176
     1
 77
     6
176
     1
 78
     2
176
     1
 67
     7
176
     1
 79
     5
176
     1
170
     0
176
     1
171
     0
176
     1
290
     0
176
     1
 93
        1
176
     1
 44
0.0
176
     1
173
     0
176
     1
  0
VISUALSTYLE
  5
33
102
{ACAD_REACTORS
330
2A
102
}
330
2A
100
AcDbVisualStyle
  2
Realistic
 70
     8
177
     2
291
     0
 71
     2
176
     1
 72
     2
176
     1
 73
     0
176
     1
 90
        0
176
     1
 40
-0.6
176
     1
 41
-30.0
176
     1
 62
     5
 63
     7
421
 16777215
176
     1
 74
     1
176
     1
 91
        0
176
     1
 64
     7
176
     1
 65
   257
176
     1
 75
     1
176
     1
175
     1
176
     1
 42
1.0
176
     1
 92
        8
176
     1
 66
     8
424
  7895160
176
     1
 43
1.0
176
     1
 76
     1
176
     1
 77
     6
176
     1
 78
     2
176
     1
 67
     7
176
     1
 79
     5
176
     1
170
     0
176
     1
171
     0
176
     1
290
     0
176
     1
 93
       13
176
     1
 44
0.0
176
     1
173
     0
176
     1
  0
VISUALSTYLE
  5
37
102
{ACAD_REACTORS
330
2A
102
}
330
2A
100
AcDbVisualStyle
  2
Thicken
 70
    13
177
     2
291
     1
 71
     2
176
     1
 72
     2
176
     1
 73
     0
176
     1
 90
        0
176
     1
 40
-0.6
176
     1
 41
-30.0
176
     1
 62
     5
 63
     7
421
 16777215
176
     1
 74
     1
176
     1
 91
        4
176
     1
 64
     7
176
     1
 65
   257
176
     1
 75
     1
176
     1
175
     1
176
     1
 42
1.0
176
     1
 92
       12
176
     1
 66
     7
176
     1
 43
1.0
176
     1
 76
     1
176
     1
 77
     6
176
     1
 78
     2
176
     1
 67
     7
176
     1
 79
     5
176
     1
170
     0
176
     1
171
     0
176
     1
290
     0
176
     1
 93
        1
176
     1
 44
0.0
176
     1
173
     0
176
     1
  0
ENDSEC
  0
EOF
