  0
SECTION
  2
HEADER
  9
$ACADVER
  1
AC1024
  9
$ACADMAINTVER
 70
     6
  9
$DWGCODEPAGE
  3
UNDEFINED
  9
$INSBASE
 10
0.0
 20
0.0
 30
0.0
  9
$EXTMIN
 10
1.000000000000000E+20
 20
1.000000000000000E+20
 30
1.000000000000000E+20
  9
$EXTMAX
 10
-1.000000000000000E+20
 20
-1.000000000000000E+20
 30
-1.000000000000000E+20
  9
$LIMMIN
 10
0.0
 20
0.0
  9
$LIMMAX
 10
12.0
 20
9.0
  9
$ORTHOMODE
 70
     0
  9
$REGENMODE
 70
     1
  9
$FILLMODE
 70
     1
  9
$QTEXTMODE
 70
     0
  9
$MIRRTEXT
 70
     1
  9
$LTSCALE
 40
1.0
  9
$ATTMODE
 70
     1
  9
$TEXTSIZE
 40
0.2
  9
$TRACEWID
 40
0.05
  9
$TEXTSTYLE
  7
Standard
  9
$CLAYER
  8
0
  9
$CELTYPE
  6
ByLayer
  9
$CECOLOR
 62
   256
  9
$CELTSCALE
 40
1.0
  9
$DISPSILH
 70
     0
  9
$DIMSCALE
 40
1.0
  9
$DIMASZ
 40
0.18
  9
$DIMEXO
 40
0.0625
  9
$DIMDLI
 40
0.38
  9
$DIMRND
 40
0.0
  9
$DIMDLE
 40
0.0
  9
$DIMEXE
 40
0.18
  9
$DIMTP
 40
0.0
  9
$DIMTM
 40
0.0
  9
$DIMTXT
 40
0.18
  9
$DIMCEN
 40
0.09
  9
$DIMTSZ
 40
0.0
  9
$DIMTOL
 70
     0
  9
$DIMLIM
 70
     0
  9
$DIMTIH
 70
     1
  9
$DIMTOH
 70
     1
  9
$DIMSE1
 70
     0
  9
$DIMSE2
 70
     0
  9
$DIMTAD
 70
     0
  9
$DIMZIN
 70
     0
  9
$DIMBLK
  1

  9
$DIMASO
 70
     1
  9
$DIMSHO
 70
     1
  9
$DIMPOST
  1

  9
$DIMAPOST
  1

  9
$DIMALT
 70
     0
  9
$DIMALTD
 70
     2
  9
$DIMALTF
 40
25.4
  9
$DIMLFAC
 40
1.0
  9
$DIMTOFL
 70
     0
  9
$DIMTVP
 40
0.0
  9
$DIMTIX
 70
     0
  9
$DIMSOXD
 70
     0
  9
$DIMSAH
 70
     0
  9
$DIMBLK1
  1

  9
$DIMBLK2
  1

  9
$DIMSTYLE
  2
Standard
  9
$DIMCLRD
 70
     0
  9
$DIMCLRE
 70
     0
  9
$DIMCLRT
 70
     0
  9
$DIMTFAC
 40
1.0
  9
$DIMGAP
 40
0.09
  9
$DIMJUST
 70
     0
  9
$DIMSD1
 70
     0
  9
$DIMSD2
 70
     0
  9
$DIMTOLJ
 70
     1
  9
$DIMTZIN
 70
     0
  9
$DIMALTZ
 70
     0
  9
$DIMALTTZ
 70
     0
  9
$DIMUPT
 70
     0
  9
$DIMDEC
 70
     4
  9
$DIMTDEC
 70
     4
  9
$DIMALTU
 70
     2
  9
$DIMALTTD
 70
     2
  9
$DIMTXSTY
  7
Standard
  9
$DIMAUNIT
 70
     0
  9
$DIMADEC
 70
     0
  9
$DIMALTRND
 40
0.0
  9
$DIMAZIN
 70
     0
  9
$DIMDSEP
 70
    46
  9
$DIMATFIT
 70
     3
  9
$DIMFRAC
 70
     0
  9
$DIMLDRBLK
  1

  9
$DIMLUNIT
 70
     2
  9
$DIMLWD
 70
    -2
  9
$DIMLWE
 70
    -2
  9
$DIMTMOVE
 70
     0
  9
$DIMFXL
 40
1.0
  9
$DIMFXLON
 70
     0
  9
$DIMJOGANG
 40
0.7853981633974483
  9
$DIMTFILL
 70
     0
  9
$DIMTFILLCLR
 70
     0
  9
$DIMARCSYM
 70
     0
  9
$DIMLTYPE
  6

  9
$DIMLTEX1
  6

  9
$DIMLTEX2
  6

  9
$DIMTXTDIRECTION
 70
     0
  9
$LUNITS
 70
     2
  9
$LUPREC
 70
     4
  9
$SKETCHINC
 40
0.1
  9
$FILLETRAD
 40
0.5
  9
$AUNITS
 70
     0
  9
$AUPREC
 70
     0
  9
$MENU
  1
.
  9
$ELEVATION
 40
0.0
  9
$PELEVATION
 40
0.0
  9
$THICKNESS
 40
0.0
  9
$LIMCHECK
 70
     0
  9
$CHAMFERA
 40
0.5
  9
$CHAMFERB
 40
0.5
  9
$CHAMFERC
 40
1.0
  9
$CHAMFERD
 40
0.0
  9
$SKPOLY
 70
     0
  9
$TDCREATE
 40
2457917.617604167
  9
$TDUCREATE
 40
2457917.242604167
  9
$TDUPDATE
 40
2457917.617604167
  9
$TDUUPDATE
 40
2457917.242604167
  9
$TDINDWG
 40
0.0000000116
  9
$TDUSRTIMER
 40
0.0000000116
  9
$USRTIMER
 70
     1
  9
$ANGBASE
 50
0.0
  9
$ANGDIR
 70
     0
  9
$PDMODE
 70
     0
  9
$PDSIZE
 40
0.0
  9
$PLINEWID
 40
0.0
  9
$SPLFRAME
 70
     0
  9
$SPLINETYPE
 70
     6
  9
$SPLINESEGS
 70
     8
  9
$HANDSEED
  5
DC
  9
$SURFTAB1
 70
     6
  9
$SURFTAB2
 70
     6
  9
$SURFTYPE
 70
     6
  9
$SURFU
 70
     6
  9
$SURFV
 70
     6
  9
$UCSBASE
  2

  9
$UCSNAME
  2

  9
$UCSORG
 10
0.0
 20
0.0
 30
0.0
  9
$UCSXDIR
 10
1.0
 20
0.0
 30
0.0
  9
$UCSYDIR
 10
0.0
 20
1.0
 30
0.0
  9
$UCSORTHOREF
  2

  9
$UCSORTHOVIEW
 70
     0
  9
$UCSORGTOP
 10
0.0
 20
0.0
 30
0.0
  9
$UCSORGBOTTOM
 10
0.0
 20
0.0
 30
0.0
  9
$UCSORGLEFT
 10
0.0
 20
0.0
 30
0.0
  9
$UCSORGRIGHT
 10
0.0
 20
0.0
 30
0.0
  9
$UCSORGFRONT
 10
0.0
 20
0.0
 30
0.0
  9
$UCSORGBACK
 10
0.0
 20
0.0
 30
0.0
  9
$PUCSBASE
  2

  9
$PUCSNAME
  2

  9
$PUCSORG
 10
0.0
 20
0.0
 30
0.0
  9
$PUCSXDIR
 10
1.0
 20
0.0
 30
0.0
  9
$PUCSYDIR
 10
0.0
 20
1.0
 30
0.0
  9
$PUCSORTHOREF
  2

  9
$PUCSORTHOVIEW
 70
     0
  9
$PUCSORGTOP
 10
0.0
 20
0.0
 30
0.0
  9
$PUCSORGBOTTOM
 10
0.0
 20
0.0
 30
0.0
  9
$PUCSORGLEFT
 10
0.0
 20
0.0
 30
0.0
  9
$PUCSORGRIGHT
 10
0.0
 20
0.0
 30
0.0
  9
$PUCSORGFRONT
 10
0.0
 20
0.0
 30
0.0
  9
$PUCSORGBACK
 10
0.0
 20
0.0
 30
0.0
  9
$USERI1
 70
     0
  9
$USERI2
 70
     0
  9
$USERI3
 70
     0
  9
$USERI4
 70
     0
  9
$USERI5
 70
     0
  9
$USERR1
 40
0.0
  9
$USERR2
 40
0.0
  9
$USERR3
 40
0.0
  9
$USERR4
 40
0.0
  9
$USERR5
 40
0.0
  9
$WORLDVIEW
 70
     1
  9
$SHADEDGE
 70
     3
  9
$SHADEDIF
 70
    70
  9
$TILEMODE
 70
     1
  9
$MAXACTVP
 70
    64
  9
$PINSBASE
 10
0.0
 20
0.0
 30
0.0
  9
$PLIMCHECK
 70
     0
  9
$PEXTMIN
 10
1.000000000000000E+20
 20
1.000000000000000E+20
 30
1.000000000000000E+20
  9
$PEXTMAX
 10
-1.000000000000000E+20
 20
-1.000000000000000E+20
 30
-1.000000000000000E+20
  9
$PLIMMIN
 10
0.0
 20
0.0
  9
$PLIMMAX
 10
12.0
 20
9.0
  9
$UNITMODE
 70
     0
  9
$VISRETAIN
 70
     1
  9
$PLINEGEN
 70
     0
  9
$PSLTSCALE
 70
     1
  9
$TREEDEPTH
 70
  3020
  9
$CMLSTYLE
  2
Standard
  9
$CMLJUST
 70
     0
  9
$CMLSCALE
 40
1.0
  9
$PROXYGRAPHICS
 70
     1
  9
$MEASUREMENT
 70
     0
  9
$CELWEIGHT
370
    -1
  9
$ENDCAPS
280
     0
  9
$JOINSTYLE
280
     0
  9
$LWDISPLAY
290
     1
  9
$INSUNITS
 70
     1
  9
$HYPERLINKBASE
  1

  9
$STYLESHEET
  1

  9
$XEDIT
290
     1
  9
$CEPSNTYPE
380
     0
  9
$PSTYLEMODE
290
     1
  9
$FINGERPRINTGUID
  2
{B843E2CE-CC35-0E58-5B5C-BCB558DF916F}
  9
$VERSIONGUID
  2
{FAEB1C32-E019-11D5-929B-00C0DF256EC4}
  9
$EXTNAMES
290
     1
  9
$PSVPSCALE
 40
0.0
  9
$OLESTARTUP
290
     0
  9
$SORTENTS
280
   127
  9
$INDEXCTL
280
     0
  9
$HIDETEXT
280
     1
  9
$XCLIPFRAME
280
     2
  9
$HALOGAP
280
     0
  9
$OBSCOLOR
 70
   257
  9
$OBSLTYPE
280
     0
  9
$INTERSECTIONDISPLAY
280
     0
  9
$INTERSECTIONCOLOR
 70
   257
  9
$DIMASSOC
280
     2
  9
$PROJECTNAME
  1

  9
$CAMERADISPLAY
290
     0
  9
$LENSLENGTH
 40
50.0
  9
$CAMERAHEIGHT
 40
0.0
  9
$STEPSPERSEC
 40
2.0
  9
$STEPSIZE
 40
6.0
  9
$3DDWFPREC
 40
2.0
  9
$PSOLWIDTH
 40
0.25
  9
$PSOLHEIGHT
 40
4.0
  9
$LOFTANG1
 40
1.570796326794897
  9
$LOFTANG2
 40
1.570796326794897
  9
$LOFTMAG1
 40
0.0
  9
$LOFTMAG2
 40
0.0
  9
$LOFTPARAM
 70
     7
  9
$LOFTNORMALS
280
     1
  9
$LATITUDE
 40
37.795
  9
$LONGITUDE
 40
-122.394
  9
$NORTHDIRECTION
 40
0.0
  9
$TIMEZONE
 70
 -8000
  9
$LIGHTGLYPHDISPLAY
280
     1
  9
$TILEMODELIGHTSYNCH
280
     1
  9
$CMATERIAL
347
3C
  9
$SOLIDHIST
280
     1
  9
$SHOWHIST
280
     1
  9
$DWFFRAME
280
     2
  9
$DGNFRAME
280
     2
  9
$REALWORLDSCALE
290
     1
  9
$INTERFERECOLOR
 62
   256
  9
$CSHADOW
280
     0
  9
$SHADOWPLANELOCATION
 40
0.0
  0
ENDSEC
  0
SECTION
  2
CLASSES
  0
CLASS
  1
ACDBDICTIONARYWDFLT
  2
AcDbDictionaryWithDefault
  3
ObjectDBX Classes
 90
        0
 91
        4
280
     0
281
     0
  0
CLASS
  1
VISUALSTYLE
  2
AcDbVisualStyle
  3
ObjectDBX Classes
 90
     4095
 91
        4
280
     0
281
     0
  0
CLASS
  1
MATERIAL
  2
AcDbMaterial
  3
ObjectDBX Classes
 90
     1153
 91
        4
280
     0
281
     0
  0
CLASS
  1
SUN
  2
AcDbSun
  3
SCENEOE
 90
     1024
 91
        4
280
     0
281
     0
  0
ENDSEC
  0
SECTION
  2
TABLES
  0
TABLE
  2
VPORT
  5
8
330
0
100
AcDbSymbolTable
 70
     1
  0
VPORT
  5
29
330
8
100
AcDbSymbolTableRecord
100
AcDbViewportTableRecord
  2
*Active
 70
     0
 10
0.0
 20
0.0
 11
1.0
 21
1.0
 12
0.0
 22
0.0
 13
0.0
 23
0.0
 14
0.5
 24
0.5
 15
0.5
 25
0.5
 16
0.0
 26
0.0
 36
1.0
 17
91.00082462281999
 27
-128.4993055234307
 37
0.0
 40
256.9986110468615
 41
0.7081814508812795
 42
50.0
 43
0.0
 44
0.0
 50
0.0
 51
0.0
 71
     0
 72
   100
 73
     1
 74
     3
 75
     0
 76
     0
 77
     0
 78
     0
281
     0
 65
     1
110
0.0
120
0.0
130
0.0
111
1.0
121
0.0
131
0.0
112
0.0
122
1.0
132
0.0
 79
     0
146
0.0
 60
     3
 61
     5
292
     1
282
     1
141
0.0
142
0.0
 63
   250
361
3F
  0
ENDTAB
  0
TABLE
  2
LTYPE
  5
5
330
0
100
AcDbSymbolTable
 70
     1
  0
LTYPE
  5
14
330
5
100
AcDbSymbolTableRecord
100
AcDbLinetypeTableRecord
  2
ByBlock
 70
     0
  3

 72
    65
 73
     0
 40
0.0
  0
LTYPE
  5
15
330
5
100
AcDbSymbolTableRecord
100
AcDbLinetypeTableRecord
  2
ByLayer
 70
     0
  3

 72
    65
 73
     0
 40
0.0
  0
LTYPE
  5
16
330
5
100
AcDbSymbolTableRecord
100
AcDbLinetypeTableRecord
  2
Continuous
 70
     0
  3
Solid line
 72
    65
 73
     0
 40
0.0
  0
ENDTAB
  0
TABLE
  2
LAYER
  5
2
330
0
100
AcDbSymbolTable
 70
     2
  0
LAYER
  5
10
330
2
100
AcDbSymbolTableRecord
100
AcDbLayerTableRecord
  2
0
 70
     0
 62
     7
  6
Continuous
370
    -3
390
F
347
3E
  0
LAYER
  5
40
330
2
100
AcDbSymbolTableRecord
100
AcDbLayerTableRecord
  2
_U+30EC_U+30A4_U+30E4_U+30FC 1
 70
     0
 62
     7
  6
Continuous
370
    -3
390
F
347
3E
  0
ENDTAB
  0
TABLE
  2
STYLE
  5
3
330
0
100
AcDbSymbolTable
 70
     1
  0
STYLE
  5
11
330
3
100
AcDbSymbolTableRecord
100
AcDbTextStyleTableRecord
  2
Standard
 70
     0
 40
0.0
 41
1.0
 50
0.0
 71
     0
 42
0.2
  3
txt
  4

  0
ENDTAB
  0
TABLE
  2
VIEW
  5
6
330
0
100
AcDbSymbolTable
 70
     0
  0
ENDTAB
  0
TABLE
  2
UCS
  5
7
330
0
100
AcDbSymbolTable
 70
     0
  0
ENDTAB
  0
TABLE
  2
APPID
  5
9
330
0
100
AcDbSymbolTable
 70
     1
  0
APPID
  5
12
330
9
100
AcDbSymbolTableRecord
100
AcDbRegAppTableRecord
  2
ACAD
 70
     0
  0
ENDTAB
  0
TABLE
  2
DIMSTYLE
  5
A
330
0
100
AcDbSymbolTable
 70
     1
100
AcDbDimStyleTable
  0
DIMSTYLE
105
27
330
A
100
AcDbSymbolTableRecord
100
AcDbDimStyleTableRecord
  2
Standard
 70
     0
178
     0
340
11
  0
ENDTAB
  0
TABLE
  2
BLOCK_RECORD
  5
1
330
0
100
AcDbSymbolTable
 70
     6
  0
BLOCK_RECORD
  5
1F
330
1
100
AcDbSymbolTableRecord
100
AcDbBlockTableRecord
  2
*Model_Space
340
22
 70
     0
280
     1
281
     0
  0
BLOCK_RECORD
  5
1B
330
1
100
AcDbSymbolTableRecord
100
AcDbBlockTableRecord
  2
*Paper_Space
340
1E
 70
     0
280
     1
281
     0
  0
BLOCK_RECORD
  5
23
330
1
100
AcDbSymbolTableRecord
100
AcDbBlockTableRecord
  2
*Paper_Space0
340
26
 70
     0
280
     1
281
     0
  0
BLOCK_RECORD
  5
7D
330
1
100
AcDbSymbolTableRecord
100
AcDbBlockTableRecord
  2
block 2
340
0
102
{BLKREFS
331
7E
102
}
 70
     0
280
     1
281
     0
  0
BLOCK_RECORD
  5
91
330
1
100
AcDbSymbolTableRecord
100
AcDbBlockTableRecord
  2
block 3
340
0
102
{BLKREFS
331
92
102
}
 70
     0
280
     1
281
     0
  0
BLOCK_RECORD
  5
AB
330
1
100
AcDbSymbolTableRecord
100
AcDbBlockTableRecord
  2
block 4
340
0
102
{BLKREFS
331
AC
102
}
 70
     0
280
     1
281
     0
  0
BLOCK_RECORD
  5
C8
330
1
100
AcDbSymbolTableRecord
100
AcDbBlockTableRecord
  2
block 5
340
0
102
{BLKREFS
331
C9
102
}
 70
     0
280
     1
281
     0
  0
BLOCK_RECORD
  5
D0
330
1
100
AcDbSymbolTableRecord
100
AcDbBlockTableRecord
  2
block 6
340
0
102
{BLKREFS
331
D1
102
}
 70
     0
280
     1
281
     0
  0
ENDTAB
  0
ENDSEC
  0
SECTION
  2
BLOCKS
  0
BLOCK
  5
20
330
1F
100
AcDbEntity
  8
0
100
AcDbBlockBegin
  2
*Model_Space
 70
     0
 10
0.0
 20
0.0
 30
0.0
  3
*Model_Space
  1

  0
ENDBLK
  5
21
330
1F
100
AcDbEntity
  8
0
100
AcDbBlockEnd
  0
BLOCK
  5
1C
330
1B
100
AcDbEntity
 67
     1
  8
0
100
AcDbBlockBegin
  2
*Paper_Space
 70
     0
 10
0.0
 20
0.0
 30
0.0
  3
*Paper_Space
  1

  0
ENDBLK
  5
1D
330
1B
100
AcDbEntity
 67
     1
  8
0
100
AcDbBlockEnd
  0
BLOCK
  5
24
330
23
100
AcDbEntity
  8
0
100
AcDbBlockBegin
  2
*Paper_Space0
 70
     0
 10
0.0
 20
0.0
 30
0.0
  3
*Paper_Space0
  1

  0
ENDBLK
  5
25
330
23
100
AcDbEntity
  8
0
100
AcDbBlockEnd
  0
BLOCK
  5
7F
330
7D
100
AcDbEntity
  8
0
100
AcDbBlockBegin
  2
block 2
 70
     0
 10
0.0
 20
0.0
 30
0.0
  3
block 2
  1

  0
SPLINE
  5
81
330
7D
100
AcDbEntity
  8
_U+30EC_U+30A4_U+30E4_U+30FC 1
370
     0
100
AcDbSpline
210
0.0
220
0.0
230
1.0
 70
    11
 71
     3
 72
    29
 73
    25
 74
     0
 42
0.0000000001
 43
0.0000000001
 12
1.0
 22
0.0
 32
0.0
 13
1.0
 23
0.0
 33
0.0
 40
0.0
 40
0.0
 40
0.0
 40
0.0
 40
1.0
 40
1.0
 40
1.0
 40
2.0
 40
2.0
 40
2.0
 40
3.0
 40
3.0
 40
3.0
 40
4.0
 40
4.0
 40
4.0
 40
5.0
 40
5.0
 40
5.0
 40
6.0
 40
6.0
 40
6.0
 40
7.0
 40
7.0
 40
7.0
 40
8.0
 40
8.0
 40
8.0
 40
8.0
 10
84.44773082741237
 20
-121.9153835415698
 30
0.0
 10
84.16282143078222
 20
-121.9153835415698
 30
0.0
 10
83.8915201613188
 20
-121.777751976934
 30
0.0
 10
83.8915201613188
 20
-121.4287638042782
 30
0.0
 10
83.8915201613188
 20
-121.1727932097242
 30
0.0
 10
84.04293210789552
 20
-121.077536319557
 30
0.0
 10
84.15610349458598
 20
-121.0162136199196
 30
0.0
 10
84.02260604453255
 20
-120.9569579775733
 30
0.0
 10
83.94130179108065
 20
-120.8427530622372
 30
0.0
 10
83.94130179108065
 20
-120.6820393578503
 30
0.0
 10
83.94130179108065
 20
-120.4069484833531
 30
0.0
 10
84.15369192774631
 20
-120.2715562307828
 30
0.0
 10
84.44773082741237
 20
-120.2715562307828
 30
0.0
 10
84.7507269753401
 20
-120.2715562307828
 30
0.0
 10
84.95415986374411
 20
-120.415388967292
 30
0.0
 10
84.95415986374411
 20
-120.6820393578503
 30
0.0
 10
84.95415986374411
 20
-120.8427530622372
 30
0.0
 10
84.87044404345254
 20
-120.9569579775733
 30
0.0
 10
84.73711884817337
 20
-121.0162136199196
 30
0.0
 10
84.83203122879199
 20
-121.067028778327
 30
0.0
 10
85.0015299266663
 20
-121.1622856684941
 30
0.0
 10
85.0015299266663
 20
-121.4244574349217
 30
0.0
 10
85.0015299266663
 20
-121.7989393141683
 30
0.0
 10
84.70318465764365
 20
-121.9153835415698
 30
0.0
 10
84.44773082741237
 20
-121.9153835415698
 30
0.0
  0
SPLINE
  5
82
330
7D
100
AcDbEntity
  8
_U+30EC_U+30A4_U+30E4_U+30FC 1
370
     0
100
AcDbSpline
210
0.0
220
0.0
230
1.0
 70
    11
 71
     3
 72
    17
 73
    13
 74
     0
 42
0.0000000001
 43
0.0000000001
 12
1.0
 22
0.0
 32
0.0
 13
1.0
 23
0.0
 33
0.0
 40
0.0
 40
0.0
 40
0.0
 40
0.0
 40
1.0
 40
1.0
 40
1.0
 40
2.0
 40
2.0
 40
2.0
 40
3.0
 40
3.0
 40
3.0
 40
4.0
 40
4.0
 40
4.0
 40
4.0
 10
84.44773082741237
 20
-121.1242173633821
 30
0.0
 10
84.29390731399597
 20
-121.1242173633821
 30
0.0
 10
84.13112655231792
 20
-121.2108615148362
 30
0.0
 10
84.13112655231792
 20
-121.4139498936917
 30
0.0
 10
84.13112655231792
 20
-121.6191053298383
 30
0.0
 10
84.26686331443676
 20
-121.7207356466532
 30
0.0
 10
84.44773082741237
 20
-121.7207356466532
 30
0.0
 10
84.64668509168555
 20
-121.7207356466532
 30
0.0
 10
84.76416284773258
 20
-121.5980902473783
 30
0.0
 10
84.76416284773258
 20
-121.4203233203394
 30
0.0
 10
84.76416284773258
 20
-121.1981146615408
 30
0.0
 10
84.59018552572746
 20
-121.1242173633821
 30
0.0
 10
84.44773082741237
 20
-121.1242173633821
 30
0.0
  0
SPLINE
  5
83
330
7D
100
AcDbEntity
  8
_U+30EC_U+30A4_U+30E4_U+30FC 1
370
     0
100
AcDbSpline
210
0.0
220
0.0
230
1.0
 70
    11
 71
     3
 72
    17
 73
    13
 74
     0
 42
0.0000000001
 43
0.0000000001
 12
1.0
 22
0.0
 32
0.0
 13
1.0
 23
0.0
 33
0.0
 40
0.0
 40
0.0
 40
0.0
 40
0.0
 40
1.0
 40
1.0
 40
1.0
 40
2.0
 40
2.0
 40
2.0
 40
3.0
 40
3.0
 40
3.0
 40
4.0
 40
4.0
 40
4.0
 40
4.0
 10
84.44773082741237
 20
-120.4641370684083
 30
0.0
 10
84.27134193856759
 20
-120.4641370684083
 30
0.0
 10
84.18090818207978
 20
-120.5592217038012
 30
0.0
 10
84.18090818207978
 20
-120.6946139563715
 30
0.0
 10
84.18090818207978
 20
-120.8174316104206
 30
0.0
 10
84.25773381140085
 20
-120.9359428951132
 30
0.0
 10
84.44773082741237
 20
-120.9359428951132
 30
0.0
 10
84.63755558864965
 20
-120.9359428951132
 30
0.0
 10
84.71455347274498
 20
-120.8174316104206
 30
0.0
 10
84.71455347274498
 20
-120.6946139563715
 30
0.0
 10
84.71455347274498
 20
-120.5592217038012
 30
0.0
 10
84.6217081494175
 20
-120.4641370684083
 30
0.0
 10
84.44773082741237
 20
-120.4641370684083
 30
0.0
  0
HATCH
  5
84
330
7D
100
AcDbEntity
  8
_U+30EC_U+30A4_U+30E4_U+30FC 1
 62
   179
420
  2234388
100
AcDbHatch
 10
0.0
 20
0.0
 30
0.0
210
0.0
220
0.0
230
1.0
  2
SOLID
 70
     1
 71
     0
 91
        3
 92
        1
 93
        1
 72
     4
 94
        3
 73
     0
 74
     1
 95
       29
 96
       25
 40
0.0
 40
0.0
 40
0.0
 40
0.0
 40
1.0
 40
1.0
 40
1.0
 40
2.0
 40
2.0
 40
2.0
 40
3.0
 40
3.0
 40
3.0
 40
4.0
 40
4.0
 40
4.0
 40
5.0
 40
5.0
 40
5.0
 40
6.0
 40
6.0
 40
6.0
 40
7.0
 40
7.0
 40
7.0
 40
8.0
 40
8.0
 40
8.0
 40
8.0
 10
84.44773082741237
 20
-121.9153835415698
 10
84.16282143078222
 20
-121.9153835415698
 10
83.8915201613188
 20
-121.777751976934
 10
83.8915201613188
 20
-121.4287638042782
 10
83.8915201613188
 20
-121.1727932097242
 10
84.04293210789552
 20
-121.077536319557
 10
84.15610349458598
 20
-121.0162136199196
 10
84.02260604453255
 20
-120.9569579775733
 10
83.94130179108065
 20
-120.8427530622372
 10
83.94130179108065
 20
-120.6820393578503
 10
83.94130179108065
 20
-120.4069484833531
 10
84.15369192774631
 20
-120.2715562307828
 10
84.44773082741237
 20
-120.2715562307828
 10
84.7507269753401
 20
-120.2715562307828
 10
84.95415986374411
 20
-120.415388967292
 10
84.95415986374411
 20
-120.6820393578503
 10
84.95415986374411
 20
-120.8427530622372
 10
84.87044404345254
 20
-120.9569579775733
 10
84.73711884817337
 20
-121.0162136199196
 10
84.83203122879199
 20
-121.067028778327
 10
85.0015299266663
 20
-121.1622856684941
 10
85.0015299266663
 20
-121.4244574349217
 10
85.0015299266663
 20
-121.7989393141683
 10
84.70318465764365
 20
-121.9153835415698
 10
84.44773082741237
 20
-121.9153835415698
 97
        0
 97
        0
 92
        1
 93
        1
 72
     4
 94
        3
 73
     0
 74
     1
 95
       17
 96
       13
 40
0.0
 40
0.0
 40
0.0
 40
0.0
 40
1.0
 40
1.0
 40
1.0
 40
2.0
 40
2.0
 40
2.0
 40
3.0
 40
3.0
 40
3.0
 40
4.0
 40
4.0
 40
4.0
 40
4.0
 10
84.44773082741237
 20
-121.1242173633821
 10
84.29390731399597
 20
-121.1242173633821
 10
84.13112655231792
 20
-121.2108615148362
 10
84.13112655231792
 20
-121.4139498936917
 10
84.13112655231792
 20
-121.6191053298383
 10
84.26686331443676
 20
-121.7207356466532
 10
84.44773082741237
 20
-121.7207356466532
 10
84.64668509168555
 20
-121.7207356466532
 10
84.76416284773258
 20
-121.5980902473783
 10
84.76416284773258
 20
-121.4203233203394
 10
84.76416284773258
 20
-121.1981146615408
 10
84.59018552572746
 20
-121.1242173633821
 10
84.44773082741237
 20
-121.1242173633821
 97
        0
 97
        0
 92
        1
 93
        1
 72
     4
 94
        3
 73
     0
 74
     1
 95
       17
 96
       13
 40
0.0
 40
0.0
 40
0.0
 40
0.0
 40
1.0
 40
1.0
 40
1.0
 40
2.0
 40
2.0
 40
2.0
 40
3.0
 40
3.0
 40
3.0
 40
4.0
 40
4.0
 40
4.0
 40
4.0
 10
84.44773082741237
 20
-120.4641370684083
 10
84.27134193856759
 20
-120.4641370684083
 10
84.18090818207978
 20
-120.5592217038012
 10
84.18090818207978
 20
-120.6946139563715
 10
84.18090818207978
 20
-120.8174316104206
 10
84.25773381140085
 20
-120.9359428951132
 10
84.44773082741237
 20
-120.9359428951132
 10
84.63755558864965
 20
-120.9359428951132
 10
84.71455347274498
 20
-120.8174316104206
 10
84.71455347274498
 20
-120.6946139563715
 10
84.71455347274498
 20
-120.5592217038012
 10
84.6217081494175
 20
-120.4641370684083
 10
84.44773082741237
 20
-120.4641370684083
 97
        0
 97
        0
 75
     2
 76
     1
 98
        0
  0
ENDBLK
  5
80
330
7D
100
AcDbEntity
  8
0
100
AcDbBlockEnd
  0
BLOCK
  5
93
330
91
100
AcDbEntity
  8
0
100
AcDbBlockBegin
  2
block 3
 70
     0
 10
0.0
 20
0.0
 30
0.0
  3
block 3
  1

  0
SPLINE
  5
95
330
91
100
AcDbEntity
  8
_U+30EC_U+30A4_U+30E4_U+30FC 1
370
     0
100
AcDbSpline
210
0.0
220
0.0
230
1.0
 70
    11
 71
     3
 72
    26
 73
    22
 74
     0
 42
0.0000000001
 43
0.0000000001
 12
1.0
 22
0.0
 32
0.0
 13
1.0
 23
0.0
 33
0.0
 40
0.0
 40
0.0
 40
0.0
 40
0.0
 40
1.0
 40
1.0
 40
1.0
 40
2.0
 40
2.0
 40
2.0
 40
3.0
 40
3.0
 40
3.0
 40
4.0
 40
4.0
 40
4.0
 40
5.0
 40
5.0
 40
5.0
 40
6.0
 40
6.0
 40
6.0
 40
7.0
 40
7.0
 40
7.0
 40
7.0
 10
88.72877873215809
 20
-135.3653808255337
 30
0.0
 10
88.72877873215809
 20
-135.3653808255337
 30
0.0
 10
88.72877873215809
 20
-134.2612277225111
 30
0.0
 10
88.72877873215809
 20
-134.2612277225111
 30
0.0
 10
88.72877873215809
 20
-134.2612277225111
 30
0.0
 10
88.37634546401704
 20
-134.2612277225111
 30
0.0
 10
88.37634546401704
 20
-134.2612277225111
 30
0.0
 10
88.37634546401704
 20
-134.2612277225111
 30
0.0
 10
88.37634546401704
 20
-134.1130886166453
 30
0.0
 10
88.37634546401704
 20
-134.1130886166453
 30
0.0
 10
88.73119029899776
 20
-134.0982747060588
 30
0.0
 10
88.78079967398536
 20
-133.9353216896064
 30
0.0
 10
88.81249455244966
 20
-133.8209445194962
 30
0.0
 10
88.81249455244966
 20
-133.8209445194962
 30
0.0
 10
88.96855737793148
 20
-133.8209445194962
 30
0.0
 10
88.96855737793148
 20
-133.8209445194962
 30
0.0
 10
88.96855737793148
 20
-133.8209445194962
 30
0.0
 10
88.96855737793148
 20
-135.3653808255337
 30
0.0
 10
88.96855737793148
 20
-135.3653808255337
 30
0.0
 10
88.96855737793148
 20
-135.3653808255337
 30
0.0
 10
88.72877873215809
 20
-135.3653808255337
 30
0.0
 10
88.72877873215809
 20
-135.3653808255337
 30
0.0
  0
HATCH
  5
96
330
91
100
AcDbEntity
  8
_U+30EC_U+30A4_U+30E4_U+30FC 1
 62
   179
420
  2234388
100
AcDbHatch
 10
0.0
 20
0.0
 30
0.0
210
0.0
220
0.0
230
1.0
  2
SOLID
 70
     1
 71
     0
 91
        1
 92
        1
 93
        1
 72
     4
 94
        3
 73
     0
 74
     1
 95
       26
 96
       22
 40
0.0
 40
0.0
 40
0.0
 40
0.0
 40
1.0
 40
1.0
 40
1.0
 40
2.0
 40
2.0
 40
2.0
 40
3.0
 40
3.0
 40
3.0
 40
4.0
 40
4.0
 40
4.0
 40
5.0
 40
5.0
 40
5.0
 40
6.0
 40
6.0
 40
6.0
 40
7.0
 40
7.0
 40
7.0
 40
7.0
 10
88.72877873215809
 20
-135.3653808255337
 10
88.72877873215809
 20
-135.3653808255337
 10
88.72877873215809
 20
-134.2612277225111
 10
88.72877873215809
 20
-134.2612277225111
 10
88.72877873215809
 20
-134.2612277225111
 10
88.37634546401704
 20
-134.2612277225111
 10
88.37634546401704
 20
-134.2612277225111
 10
88.37634546401704
 20
-134.2612277225111
 10
88.37634546401704
 20
-134.1130886166453
 10
88.37634546401704
 20
-134.1130886166453
 10
88.73119029899776
 20
-134.0982747060588
 10
88.78079967398536
 20
-133.9353216896064
 10
88.81249455244966
 20
-133.8209445194962
 10
88.81249455244966
 20
-133.8209445194962
 10
88.96855737793148
 20
-133.8209445194962
 10
88.96855737793148
 20
-133.8209445194962
 10
88.96855737793148
 20
-133.8209445194962
 10
88.96855737793148
 20
-135.3653808255337
 10
88.96855737793148
 20
-135.3653808255337
 10
88.96855737793148
 20
-135.3653808255337
 10
88.72877873215809
 20
-135.3653808255337
 10
88.72877873215809
 20
-135.3653808255337
 97
        0
 97
        0
 75
     2
 76
     1
 98
        0
  0
SPLINE
  5
97
330
91
100
AcDbEntity
  8
_U+30EC_U+30A4_U+30E4_U+30FC 1
370
     0
100
AcDbSpline
210
0.0
220
0.0
230
1.0
 70
    11
 71
     3
 72
    29
 73
    25
 74
     0
 42
0.0000000001
 43
0.0000000001
 12
1.0
 22
0.0
 32
0.0
 13
1.0
 23
0.0
 33
0.0
 40
0.0
 40
0.0
 40
0.0
 40
0.0
 40
1.0
 40
1.0
 40
1.0
 40
2.0
 40
2.0
 40
2.0
 40
3.0
 40
3.0
 40
3.0
 40
4.0
 40
4.0
 40
4.0
 40
5.0
 40
5.0
 40
5.0
 40
6.0
 40
6.0
 40
6.0
 40
7.0
 40
7.0
 40
7.0
 40
8.0
 40
8.0
 40
8.0
 40
8.0
 10
90.03860403565008
 20
-135.4160237291668
 30
0.0
 10
89.75369463901991
 20
-135.4160237291668
 30
0.0
 10
89.48256562433075
 20
-135.2785644193054
 30
0.0
 10
89.48256562433075
 20
-134.9295762466496
 30
0.0
 10
89.48256562433075
 20
-134.6736056520955
 30
0.0
 10
89.63414982568175
 20
-134.5785210167026
 30
0.0
 10
89.74714895759794
 20
-134.5171983170652
 30
0.0
 10
89.61382376231877
 20
-134.4579426747189
 30
0.0
 10
89.53217499931834
 20
-134.3435655046086
 30
0.0
 10
89.53217499931834
 20
-134.1826795454474
 30
0.0
 10
89.53217499931834
 20
-133.9077609257245
 30
0.0
 10
89.74473739075826
 20
-133.7723686731541
 30
0.0
 10
90.03860403565008
 20
-133.7723686731541
 30
0.0
 10
90.34177243835207
 20
-133.7723686731541
 30
0.0
 10
90.5450330719818
 20
-133.9163736644376
 30
0.0
 10
90.5450330719818
 20
-134.1826795454474
 30
0.0
 10
90.5450330719818
 20
-134.3435655046086
 30
0.0
 10
90.46166176123876
 20
-134.4579426747189
 30
0.0
 10
90.32799205641106
 20
-134.5171983170652
 30
0.0
 10
90.42307669180396
 20
-134.5678412206983
 30
0.0
 10
90.59257538967825
 20
-134.6629258560912
 30
0.0
 10
90.59257538967825
 20
-134.9254421320672
 30
0.0
 10
90.59257538967825
 20
-135.2999240113139
 30
0.0
 10
90.29423012065561
 20
-135.4160237291668
 30
0.0
 10
90.03860403565008
 20
-135.4160237291668
 30
0.0
  0
SPLINE
  5
98
330
91
100
AcDbEntity
  8
_U+30EC_U+30A4_U+30E4_U+30FC 1
370
     0
100
AcDbSpline
210
0.0
220
0.0
230
1.0
 70
    11
 71
     3
 72
    17
 73
    13
 74
     0
 42
0.0000000001
 43
0.0000000001
 12
1.0
 22
0.0
 32
0.0
 13
1.0
 23
0.0
 33
0.0
 40
0.0
 40
0.0
 40
0.0
 40
0.0
 40
1.0
 40
1.0
 40
1.0
 40
2.0
 40
2.0
 40
2.0
 40
3.0
 40
3.0
 40
3.0
 40
4.0
 40
4.0
 40
4.0
 40
4.0
 10
90.03860403565008
 20
-134.6250298057535
 30
0.0
 10
89.88495277700794
 20
-134.6250298057535
 30
0.0
 10
89.72234427010414
 20
-134.7118462119818
 30
0.0
 10
89.72234427010414
 20
-134.914762336063
 30
0.0
 10
89.72234427010414
 20
-135.1200900269839
 30
0.0
 10
89.85773652267446
 20
-135.2213758342502
 30
0.0
 10
90.03860403565008
 20
-135.2213758342502
 30
0.0
 10
90.23773055469752
 20
-135.2213758342502
 30
0.0
 10
90.35520831074453
 20
-135.0987304349753
 30
0.0
 10
90.35520831074453
 20
-134.9209635079364
 30
0.0
 10
90.35520831074453
 20
-134.6990993586863
 30
0.0
 10
90.18123098873942
 20
-134.6250298057535
 30
0.0
 10
90.03860403565008
 20
-134.6250298057535
 30
0.0
  0
SPLINE
  5
99
330
91
100
AcDbEntity
  8
_U+30EC_U+30A4_U+30E4_U+30FC 1
370
     0
100
AcDbSpline
210
0.0
220
0.0
230
1.0
 70
    11
 71
     3
 72
    17
 73
    13
 74
     0
 42
0.0000000001
 43
0.0000000001
 12
1.0
 22
0.0
 32
0.0
 13
1.0
 23
0.0
 33
0.0
 40
0.0
 40
0.0
 40
0.0
 40
0.0
 40
1.0
 40
1.0
 40
1.0
 40
2.0
 40
2.0
 40
2.0
 40
3.0
 40
3.0
 40
3.0
 40
4.0
 40
4.0
 40
4.0
 40
4.0
 10
90.03860403565008
 20
-133.9649495107796
 30
0.0
 10
89.86255965635381
 20
-133.9649495107796
 30
0.0
 10
89.77195364509174
 20
-134.0600341461725
 30
0.0
 10
89.77195364509174
 20
-134.1954263987428
 30
0.0
 10
89.77195364509174
 20
-134.3180717980177
 30
0.0
 10
89.8487792744128
 20
-134.4365830827103
 30
0.0
 10
90.03860403565008
 20
-134.4365830827103
 30
0.0
 10
90.22877330643587
 20
-134.4365830827103
 30
0.0
 10
90.30559893575693
 20
-134.3180717980177
 30
0.0
 10
90.30559893575693
 20
-134.1954263987428
 30
0.0
 10
90.30559893575693
 20
-134.0600341461725
 30
0.0
 10
90.21292586720372
 20
-133.9649495107796
 30
0.0
 10
90.03860403565008
 20
-133.9649495107796
 30
0.0
  0
HATCH
  5
9A
330
91
100
AcDbEntity
  8
_U+30EC_U+30A4_U+30E4_U+30FC 1
 62
   179
420
  2234388
100
AcDbHatch
 10
0.0
 20
0.0
 30
0.0
210
0.0
220
0.0
230
1.0
  2
SOLID
 70
     1
 71
     0
 91
        3
 92
        1
 93
        1
 72
     4
 94
        3
 73
     0
 74
     1
 95
       29
 96
       25
 40
0.0
 40
0.0
 40
0.0
 40
0.0
 40
1.0
 40
1.0
 40
1.0
 40
2.0
 40
2.0
 40
2.0
 40
3.0
 40
3.0
 40
3.0
 40
4.0
 40
4.0
 40
4.0
 40
5.0
 40
5.0
 40
5.0
 40
6.0
 40
6.0
 40
6.0
 40
7.0
 40
7.0
 40
7.0
 40
8.0
 40
8.0
 40
8.0
 40
8.0
 10
90.03860403565008
 20
-135.4160237291668
 10
89.75369463901991
 20
-135.4160237291668
 10
89.48256562433075
 20
-135.2785644193054
 10
89.48256562433075
 20
-134.9295762466496
 10
89.48256562433075
 20
-134.6736056520955
 10
89.63414982568175
 20
-134.5785210167026
 10
89.74714895759794
 20
-134.5171983170652
 10
89.61382376231877
 20
-134.4579426747189
 10
89.53217499931834
 20
-134.3435655046086
 10
89.53217499931834
 20
-134.1826795454474
 10
89.53217499931834
 20
-133.9077609257245
 10
89.74473739075826
 20
-133.7723686731541
 10
90.03860403565008
 20
-133.7723686731541
 10
90.34177243835207
 20
-133.7723686731541
 10
90.5450330719818
 20
-133.9163736644376
 10
90.5450330719818
 20
-134.1826795454474
 10
90.5450330719818
 20
-134.3435655046086
 10
90.46166176123876
 20
-134.4579426747189
 10
90.32799205641106
 20
-134.5171983170652
 10
90.42307669180396
 20
-134.5678412206983
 10
90.59257538967825
 20
-134.6629258560912
 10
90.59257538967825
 20
-134.9254421320672
 10
90.59257538967825
 20
-135.2999240113139
 10
90.29423012065561
 20
-135.4160237291668
 10
90.03860403565008
 20
-135.4160237291668
 97
        0
 97
        0
 92
        1
 93
        1
 72
     4
 94
        3
 73
     0
 74
     1
 95
       17
 96
       13
 40
0.0
 40
0.0
 40
0.0
 40
0.0
 40
1.0
 40
1.0
 40
1.0
 40
2.0
 40
2.0
 40
2.0
 40
3.0
 40
3.0
 40
3.0
 40
4.0
 40
4.0
 40
4.0
 40
4.0
 10
90.03860403565008
 20
-134.6250298057535
 10
89.88495277700794
 20
-134.6250298057535
 10
89.72234427010414
 20
-134.7118462119818
 10
89.72234427010414
 20
-134.914762336063
 10
89.72234427010414
 20
-135.1200900269839
 10
89.85773652267446
 20
-135.2213758342502
 10
90.03860403565008
 20
-135.2213758342502
 10
90.23773055469752
 20
-135.2213758342502
 10
90.35520831074453
 20
-135.0987304349753
 10
90.35520831074453
 20
-134.9209635079364
 10
90.35520831074453
 20
-134.6990993586863
 10
90.18123098873942
 20
-134.6250298057535
 10
90.03860403565008
 20
-134.6250298057535
 97
        0
 97
        0
 92
        1
 93
        1
 72
     4
 94
        3
 73
     0
 74
     1
 95
       17
 96
       13
 40
0.0
 40
0.0
 40
0.0
 40
0.0
 40
1.0
 40
1.0
 40
1.0
 40
2.0
 40
2.0
 40
2.0
 40
3.0
 40
3.0
 40
3.0
 40
4.0
 40
4.0
 40
4.0
 40
4.0
 10
90.03860403565008
 20
-133.9649495107796
 10
89.86255965635381
 20
-133.9649495107796
 10
89.77195364509174
 20
-134.0600341461725
 10
89.77195364509174
 20
-134.1954263987428
 10
89.77195364509174
 20
-134.3180717980177
 10
89.8487792744128
 20
-134.4365830827103
 10
90.03860403565008
 20
-134.4365830827103
 10
90.22877330643587
 20
-134.4365830827103
 10
90.30559893575693
 20
-134.3180717980177
 10
90.30559893575693
 20
-134.1954263987428
 10
90.30559893575693
 20
-134.0600341461725
 10
90.21292586720372
 20
-133.9649495107796
 10
90.03860403565008
 20
-133.9649495107796
 97
        0
 97
        0
 75
     2
 76
     1
 98
        0
  0
ENDBLK
  5
94
330
91
100
AcDbEntity
  8
0
100
AcDbBlockEnd
  0
BLOCK
  5
AD
330
AB
100
AcDbEntity
  8
0
100
AcDbBlockBegin
  2
block 4
 70
     0
 10
0.0
 20
0.0
 30
0.0
  3
block 4
  1

  0
SPLINE
  5
AF
330
AB
100
AcDbEntity
  8
_U+30EC_U+30A4_U+30E4_U+30FC 1
370
     0
100
AcDbSpline
210
0.0
220
0.0
230
1.0
 70
    11
 71
     3
 72
    62
 73
    58
 74
     0
 42
0.0000000001
 43
0.0000000001
 12
1.0
 22
0.0
 32
0.0
 13
1.0
 23
0.0
 33
0.0
 40
0.0
 40
0.0
 40
0.0
 40
0.0
 40
1.0
 40
1.0
 40
1.0
 40
2.0
 40
2.0
 40
2.0
 40
3.0
 40
3.0
 40
3.0
 40
4.0
 40
4.0
 40
4.0
 40
5.0
 40
5.0
 40
5.0
 40
6.0
 40
6.0
 40
6.0
 40
7.0
 40
7.0
 40
7.0
 40
8.0
 40
8.0
 40
8.0
 40
9.0
 40
9.0
 40
9.0
 40
10.0
 40
10.0
 40
10.0
 40
11.0
 40
11.0
 40
11.0
 40
12.0
 40
12.0
 40
12.0
 40
13.0
 40
13.0
 40
13.0
 40
14.0
 40
14.0
 40
14.0
 40
15.0
 40
15.0
 40
15.0
 40
16.0
 40
16.0
 40
16.0
 40
17.0
 40
17.0
 40
17.0
 40
18.0
 40
18.0
 40
18.0
 40
19.0
 40
19.0
 40
19.0
 40
19.0
 10
101.18658851637
 20
-125.2891655502749
 30
0.0
 10
101.18658851637
 20
-125.3907958670898
 30
0.0
 10
101.16557343391
 20
-125.6236843218927
 30
0.0
 10
100.9795382777065
 20
-125.7570095171719
 30
0.0
 10
100.8672281648874
 20
-125.8362467133326
 30
0.0
 10
100.7680094149122
 20
-125.8407253374634
 30
0.0
 10
100.683260065975
 20
-125.8452039615943
 30
0.0
 10
100.683260065975
 20
-125.8452039615943
 30
0.0
 10
100.683260065975
 20
-125.6102484495002
 30
0.0
 10
100.683260065975
 20
-125.6102484495002
 30
0.0
 10
100.7573296189079
 20
-125.6078368826605
 30
0.0
 10
100.9919406214534
 20
-125.5964680675592
 30
0.0
 10
100.9919406214534
 20
-125.2936441744058
 30
0.0
 10
100.9919406214534
 20
-125.1465385971856
 30
0.0
 10
100.9223496926514
 20
-124.9839300902818
 30
0.0
 10
100.6939398619793
 20
-124.9839300902818
 30
0.0
 10
100.5774956345779
 20
-124.9839300902818
 30
0.0
 10
100.5289197882358
 20
-125.0245822170077
 30
0.0
 10
100.4972249097715
 20
-125.0583441527632
 30
0.0
 10
100.4231553568387
 20
-125.1375813489239
 30
0.0
 10
100.4104085035432
 20
-125.2619492959415
 30
0.0
 10
100.4104085035432
 20
-125.3208604287392
 30
0.0
 10
100.4104085035432
 20
-125.3411864921022
 30
0.0
 10
100.4124755608344
 20
-125.3794270519885
 30
0.0
 10
100.4166096754167
 20
-125.4090548731616
 30
0.0
 10
100.4166096754167
 20
-125.4090548731616
 30
0.0
 10
100.2219617805001
 20
-125.4090548731616
 30
0.0
 10
100.2219617805001
 20
-125.4090548731616
 30
0.0
 10
100.228507461922
 20
-125.3684027464357
 30
0.0
 10
100.2305745192132
 20
-125.3229274860304
 30
0.0
 10
100.2305745192132
 20
-125.3163818046084
 30
0.0
 10
100.2305745192132
 20
-125.2461018567093
 30
0.0
 10
100.2092149272046
 20
-125.0335394652694
 30
0.0
 10
99.97253686736798
 20
-125.0335394652694
 30
0.0
 10
99.79476994032909
 20
-125.0335394652694
 30
0.0
 10
99.73964841256509
 20
-125.1737548515191
 30
0.0
 10
99.73964841256509
 20
-125.2912326075661
 30
0.0
 10
99.73964841256509
 20
-125.5740749469051
 30
0.0
 10
99.97253686736798
 20
-125.5830321951668
 30
0.0
 10
100.0441948534612
 20
-125.5875108192976
 30
0.0
 10
100.0441948534612
 20
-125.5875108192976
 30
0.0
 10
100.0441948534612
 20
-125.8045518348683
 30
0.0
 10
100.0441948534612
 20
-125.8045518348683
 30
0.0
 10
99.91948239689513
 20
-125.7955945866067
 30
0.0
 10
99.54293346035733
 20
-125.766311274982
 30
0.0
 10
99.54293346035733
 20
-125.2777967351736
 30
0.0
 10
99.54293346035733
 20
-125.0380180894002
 30
0.0
 10
99.67005748376305
 20
-124.7803249471035
 30
0.0
 10
99.96599118594601
 20
-124.7803249471035
 30
0.0
 10
100.152370851698
 20
-124.7803249471035
 30
0.0
 10
100.2347086337955
 20
-124.8822997734669
 30
0.0
 10
100.2960313334329
 20
-124.9884087144126
 30
0.0
 10
100.3235920973149
 20
-124.9229519001929
 30
0.0
 10
100.4038628221213
 20
-124.7283040052763
 30
0.0
 10
100.6811930086839
 20
-124.7283040052763
 30
0.0
 10
101.0195013853354
 20
-124.7283040052763
 30
0.0
 10
101.18658851637
 20
-124.9928873385435
 30
0.0
 10
101.18658851637
 20
-125.2891655502749
 30
0.0
  0
HATCH
  5
B0
330
AB
100
AcDbEntity
  8
_U+30EC_U+30A4_U+30E4_U+30FC 1
 62
   179
420
  2234388
100
AcDbHatch
 10
0.0
 20
0.0
 30
0.0
210
0.0
220
0.0
230
1.0
  2
SOLID
 70
     1
 71
     0
 91
        1
 92
        1
 93
        1
 72
     4
 94
        3
 73
     0
 74
     1
 95
       62
 96
       58
 40
0.0
 40
0.0
 40
0.0
 40
0.0
 40
1.0
 40
1.0
 40
1.0
 40
2.0
 40
2.0
 40
2.0
 40
3.0
 40
3.0
 40
3.0
 40
4.0
 40
4.0
 40
4.0
 40
5.0
 40
5.0
 40
5.0
 40
6.0
 40
6.0
 40
6.0
 40
7.0
 40
7.0
 40
7.0
 40
8.0
 40
8.0
 40
8.0
 40
9.0
 40
9.0
 40
9.0
 40
10.0
 40
10.0
 40
10.0
 40
11.0
 40
11.0
 40
11.0
 40
12.0
 40
12.0
 40
12.0
 40
13.0
 40
13.0
 40
13.0
 40
14.0
 40
14.0
 40
14.0
 40
15.0
 40
15.0
 40
15.0
 40
16.0
 40
16.0
 40
16.0
 40
17.0
 40
17.0
 40
17.0
 40
18.0
 40
18.0
 40
18.0
 40
19.0
 40
19.0
 40
19.0
 40
19.0
 10
101.18658851637
 20
-125.2891655502749
 10
101.18658851637
 20
-125.3907958670898
 10
101.16557343391
 20
-125.6236843218927
 10
100.9795382777065
 20
-125.7570095171719
 10
100.8672281648874
 20
-125.8362467133326
 10
100.7680094149122
 20
-125.8407253374634
 10
100.683260065975
 20
-125.8452039615943
 10
100.683260065975
 20
-125.8452039615943
 10
100.683260065975
 20
-125.6102484495002
 10
100.683260065975
 20
-125.6102484495002
 10
100.7573296189079
 20
-125.6078368826605
 10
100.9919406214534
 20
-125.5964680675592
 10
100.9919406214534
 20
-125.2936441744058
 10
100.9919406214534
 20
-125.1465385971856
 10
100.9223496926514
 20
-124.9839300902818
 10
100.6939398619793
 20
-124.9839300902818
 10
100.5774956345779
 20
-124.9839300902818
 10
100.5289197882358
 20
-125.0245822170077
 10
100.4972249097715
 20
-125.0583441527632
 10
100.4231553568387
 20
-125.1375813489239
 10
100.4104085035432
 20
-125.2619492959415
 10
100.4104085035432
 20
-125.3208604287392
 10
100.4104085035432
 20
-125.3411864921022
 10
100.4124755608344
 20
-125.3794270519885
 10
100.4166096754167
 20
-125.4090548731616
 10
100.4166096754167
 20
-125.4090548731616
 10
100.2219617805001
 20
-125.4090548731616
 10
100.2219617805001
 20
-125.4090548731616
 10
100.228507461922
 20
-125.3684027464357
 10
100.2305745192132
 20
-125.3229274860304
 10
100.2305745192132
 20
-125.3163818046084
 10
100.2305745192132
 20
-125.2461018567093
 10
100.2092149272046
 20
-125.0335394652694
 10
99.97253686736798
 20
-125.0335394652694
 10
99.79476994032909
 20
-125.0335394652694
 10
99.73964841256509
 20
-125.1737548515191
 10
99.73964841256509
 20
-125.2912326075661
 10
99.73964841256509
 20
-125.5740749469051
 10
99.97253686736798
 20
-125.5830321951668
 10
100.0441948534612
 20
-125.5875108192976
 10
100.0441948534612
 20
-125.5875108192976
 10
100.0441948534612
 20
-125.8045518348683
 10
100.0441948534612
 20
-125.8045518348683
 10
99.91948239689513
 20
-125.7955945866067
 10
99.54293346035733
 20
-125.766311274982
 10
99.54293346035733
 20
-125.2777967351736
 10
99.54293346035733
 20
-125.0380180894002
 10
99.67005748376305
 20
-124.7803249471035
 10
99.96599118594601
 20
-124.7803249471035
 10
100.152370851698
 20
-124.7803249471035
 10
100.2347086337955
 20
-124.8822997734669
 10
100.2960313334329
 20
-124.9884087144126
 10
100.3235920973149
 20
-124.9229519001929
 10
100.4038628221213
 20
-124.7283040052763
 10
100.6811930086839
 20
-124.7283040052763
 10
101.0195013853354
 20
-124.7283040052763
 10
101.18658851637
 20
-124.9928873385435
 10
101.18658851637
 20
-125.2891655502749
 97
        0
 97
        0
 75
     2
 76
     1
 98
        0
  0
POLYLINE
  5
B1
330
AB
100
AcDbEntity
  8
_U+30EC_U+30A4_U+30E4_U+30FC 1
370
     0
100
AcDb2dPolyline
 66
     1
 10
0.0
 20
0.0
 30
0.0
  0
VERTEX
  5
B2
330
B1
100
AcDbEntity
  8
_U+30EC_U+30A4_U+30E4_U+30FC 1
370
     0
100
AcDbVertex
100
AcDb2dVertex
 10
101.1359456127368
 20
-124.4926594740852
 30
0.0
  0
VERTEX
  5
B3
330
B1
100
AcDbEntity
  8
_U+30EC_U+30A4_U+30E4_U+30FC 1
370
     0
100
AcDbVertex
100
AcDb2dVertex
 10
100.8841091327651
 20
-124.4926594740852
 30
0.0
  0
VERTEX
  5
B4
330
B1
100
AcDbEntity
  8
_U+30EC_U+30A4_U+30E4_U+30FC 1
370
     0
100
AcDbVertex
100
AcDb2dVertex
 10
100.8841091327651
 20
-124.2235975166872
 30
0.0
  0
VERTEX
  5
B5
330
B1
100
AcDbEntity
  8
_U+30EC_U+30A4_U+30E4_U+30FC 1
370
     0
100
AcDbVertex
100
AcDb2dVertex
 10
101.1359456127368
 20
-124.2235975166872
 30
0.0
  0
VERTEX
  5
B6
330
B1
100
AcDbEntity
  8
_U+30EC_U+30A4_U+30E4_U+30FC 1
370
     0
100
AcDbVertex
100
AcDb2dVertex
 10
101.1359456127368
 20
-124.4926594740852
 30
0.0
  0
SEQEND
  5
B7
330
B1
100
AcDbEntity
  8
_U+30EC_U+30A4_U+30E4_U+30FC 1
370
     0
  0
HATCH
  5
B8
330
AB
100
AcDbEntity
  8
_U+30EC_U+30A4_U+30E4_U+30FC 1
 62
   179
420
  2234388
100
AcDbHatch
 10
0.0
 20
0.0
 30
0.0
210
0.0
220
0.0
230
1.0
  2
SOLID
 70
     1
 71
     0
 91
        1
 92
        1
 93
        4
 72
     1
 10
101.1359456127368
 20
-124.4926594740852
 11
100.8841091327651
 21
-124.4926594740852
 72
     1
 10
100.8841091327651
 20
-124.4926594740852
 11
100.8841091327651
 21
-124.2235975166872
 72
     1
 10
100.8841091327651
 20
-124.2235975166872
 11
101.1359456127368
 21
-124.2235975166872
 72
     1
 10
101.1359456127368
 20
-124.2235975166872
 11
101.1359456127368
 21
-124.4926594740852
 97
        0
 75
     2
 76
     1
 98
        0
  0
SPLINE
  5
B9
330
AB
100
AcDbEntity
  8
_U+30EC_U+30A4_U+30E4_U+30FC 1
370
     0
100
AcDbSpline
210
0.0
220
0.0
230
1.0
 70
    11
 71
     3
 72
    53
 73
    49
 74
     0
 42
0.0000000001
 43
0.0000000001
 12
1.0
 22
0.0
 32
0.0
 13
1.0
 23
0.0
 33
0.0
 40
0.0
 40
0.0
 40
0.0
 40
0.0
 40
1.0
 40
1.0
 40
1.0
 40
2.0
 40
2.0
 40
2.0
 40
3.0
 40
3.0
 40
3.0
 40
4.0
 40
4.0
 40
4.0
 40
5.0
 40
5.0
 40
5.0
 40
6.0
 40
6.0
 40
6.0
 40
7.0
 40
7.0
 40
7.0
 40
8.0
 40
8.0
 40
8.0
 40
9.0
 40
9.0
 40
9.0
 40
10.0
 40
10.0
 40
10.0
 40
11.0
 40
11.0
 40
11.0
 40
12.0
 40
12.0
 40
12.0
 40
13.0
 40
13.0
 40
13.0
 40
14.0
 40
14.0
 40
14.0
 40
15.0
 40
15.0
 40
15.0
 40
16.0
 40
16.0
 40
16.0
 40
16.0
 10
101.18658851637
 20
-123.4567192616705
 30
0.0
 10
101.18658851637
 20
-123.5404350819621
 30
0.0
 10
101.1697075484923
 20
-123.648611080199
 30
0.0
 10
101.1063177915637
 20
-123.7574760975329
 30
0.0
 10
100.9964192455842
 20
-123.9428222346393
 30
0.0
 10
100.8651611075962
 20
-123.9652153552934
 30
0.0
 10
100.7573296189079
 20
-123.9855414186564
 30
0.0
 10
100.7573296189079
 20
-123.9855414186564
 30
0.0
 10
100.7573296189079
 20
-123.7481743397227
 30
0.0
 10
100.7573296189079
 20
-123.7481743397227
 30
0.0
 10
100.9561116284068
 20
-123.6896077164734
 30
0.0
 10
100.98573944958
 20
-123.5538709543546
 30
0.0
 10
100.98573944958
 20
-123.4543076948309
 30
0.0
 10
100.98573944958
 20
-123.3051350603196
 30
0.0
 10
100.8861761900562
 20
-123.1421820438672
 30
0.0
 10
100.6536322448019
 20
-123.1421820438672
 30
0.0
 10
100.3976616502478
 20
-123.1421820438672
 30
0.0
 10
100.3277262118972
 20
-123.3344183719442
 30
0.0
 10
100.3277262118972
 20
-123.4632649430925
 30
0.0
 10
100.3277262118972
 20
-123.4973713883965
 30
0.0
 10
100.3277262118972
 20
-123.648611080199
 30
0.0
 10
100.4569172925941
 20
-123.7436957155919
 30
0.0
 10
100.4569172925941
 20
-123.7436957155919
 30
0.0
 10
100.4379692674252
 20
-123.931453419538
 30
0.0
 10
100.4379692674252
 20
-123.931453419538
 30
0.0
 10
100.4379692674252
 20
-123.931453419538
 30
0.0
 10
99.59150930669935
 20
-123.8026068483896
 30
0.0
 10
99.59150930669935
 20
-123.8026068483896
 30
0.0
 10
99.59150930669935
 20
-123.8026068483896
 30
0.0
 10
99.59150930669935
 20
-122.9706162887018
 30
0.0
 10
99.59150930669935
 20
-122.9706162887018
 30
0.0
 10
99.59150930669935
 20
-122.9706162887018
 30
0.0
 10
99.78615720161596
 20
-122.9706162887018
 30
0.0
 10
99.78615720161596
 20
-122.9706162887018
 30
0.0
 10
99.78615720161596
 20
-122.9706162887018
 30
0.0
 10
99.78615720161596
 20
-123.628285016836
 30
0.0
 10
99.78615720161596
 20
-123.628285016836
 30
0.0
 10
99.78615720161596
 20
-123.628285016836
 30
0.0
 10
100.2092149272046
 20
-123.6985649647351
 30
0.0
 10
100.2092149272046
 20
-123.6985649647351
 30
0.0
 10
100.1754529914492
 20
-123.6331081505153
 30
0.0
 10
100.1351453742718
 20
-123.5449137060929
 30
0.0
 10
100.1351453742718
 20
-123.4181341922358
 30
0.0
 10
100.1351453742718
 20
-123.1470051775466
 30
0.0
 10
100.3215250400238
 20
-122.8937906593807
 30
0.0
 10
100.634684219633
 20
-122.8937906593807
 30
0.0
 10
100.9519775138245
 20
-122.8937906593807
 30
0.0
 10
101.18658851637
 20
-123.1332247956056
 30
0.0
 10
101.18658851637
 20
-123.4567192616705
 30
0.0
  0
HATCH
  5
BA
330
AB
100
AcDbEntity
  8
_U+30EC_U+30A4_U+30E4_U+30FC 1
 62
   179
420
  2234388
100
AcDbHatch
 10
0.0
 20
0.0
 30
0.0
210
0.0
220
0.0
230
1.0
  2
SOLID
 70
     1
 71
     0
 91
        1
 92
        1
 93
        1
 72
     4
 94
        3
 73
     0
 74
     1
 95
       53
 96
       49
 40
0.0
 40
0.0
 40
0.0
 40
0.0
 40
1.0
 40
1.0
 40
1.0
 40
2.0
 40
2.0
 40
2.0
 40
3.0
 40
3.0
 40
3.0
 40
4.0
 40
4.0
 40
4.0
 40
5.0
 40
5.0
 40
5.0
 40
6.0
 40
6.0
 40
6.0
 40
7.0
 40
7.0
 40
7.0
 40
8.0
 40
8.0
 40
8.0
 40
9.0
 40
9.0
 40
9.0
 40
10.0
 40
10.0
 40
10.0
 40
11.0
 40
11.0
 40
11.0
 40
12.0
 40
12.0
 40
12.0
 40
13.0
 40
13.0
 40
13.0
 40
14.0
 40
14.0
 40
14.0
 40
15.0
 40
15.0
 40
15.0
 40
16.0
 40
16.0
 40
16.0
 40
16.0
 10
101.18658851637
 20
-123.4567192616705
 10
101.18658851637
 20
-123.5404350819621
 10
101.1697075484923
 20
-123.648611080199
 10
101.1063177915637
 20
-123.7574760975329
 10
100.9964192455842
 20
-123.9428222346393
 10
100.8651611075962
 20
-123.9652153552934
 10
100.7573296189079
 20
-123.9855414186564
 10
100.7573296189079
 20
-123.9855414186564
 10
100.7573296189079
 20
-123.7481743397227
 10
100.7573296189079
 20
-123.7481743397227
 10
100.9561116284068
 20
-123.6896077164734
 10
100.98573944958
 20
-123.5538709543546
 10
100.98573944958
 20
-123.4543076948309
 10
100.98573944958
 20
-123.3051350603196
 10
100.8861761900562
 20
-123.1421820438672
 10
100.6536322448019
 20
-123.1421820438672
 10
100.3976616502478
 20
-123.1421820438672
 10
100.3277262118972
 20
-123.3344183719442
 10
100.3277262118972
 20
-123.4632649430925
 10
100.3277262118972
 20
-123.4973713883965
 10
100.3277262118972
 20
-123.648611080199
 10
100.4569172925941
 20
-123.7436957155919
 10
100.4569172925941
 20
-123.7436957155919
 10
100.4379692674252
 20
-123.931453419538
 10
100.4379692674252
 20
-123.931453419538
 10
100.4379692674252
 20
-123.931453419538
 10
99.59150930669935
 20
-123.8026068483896
 10
99.59150930669935
 20
-123.8026068483896
 10
99.59150930669935
 20
-123.8026068483896
 10
99.59150930669935
 20
-122.9706162887018
 10
99.59150930669935
 20
-122.9706162887018
 10
99.59150930669935
 20
-122.9706162887018
 10
99.78615720161596
 20
-122.9706162887018
 10
99.78615720161596
 20
-122.9706162887018
 10
99.78615720161596
 20
-122.9706162887018
 10
99.78615720161596
 20
-123.628285016836
 10
99.78615720161596
 20
-123.628285016836
 10
99.78615720161596
 20
-123.628285016836
 10
100.2092149272046
 20
-123.6985649647351
 10
100.2092149272046
 20
-123.6985649647351
 10
100.1754529914492
 20
-123.6331081505153
 10
100.1351453742718
 20
-123.5449137060929
 10
100.1351453742718
 20
-123.4181341922358
 10
100.1351453742718
 20
-123.1470051775466
 10
100.3215250400238
 20
-122.8937906593807
 10
100.634684219633
 20
-122.8937906593807
 10
100.9519775138245
 20
-122.8937906593807
 10
101.18658851637
 20
-123.1332247956056
 10
101.18658851637
 20
-123.4567192616705
 97
        0
 97
        0
 75
     2
 76
     1
 98
        0
  0
ENDBLK
  5
AE
330
AB
100
AcDbEntity
  8
0
100
AcDbBlockEnd
  0
BLOCK
  5
CA
330
C8
100
AcDbEntity
  8
0
100
AcDbBlockBegin
  2
block 5
 70
     0
 10
0.0
 20
0.0
 30
0.0
  3
block 5
  1

  0
SPLINE
  5
CC
330
C8
100
AcDbEntity
  8
_U+30EC_U+30A4_U+30E4_U+30FC 1
370
     0
100
AcDbSpline
210
0.0
220
0.0
230
1.0
 70
    11
 71
     3
 72
    26
 73
    22
 74
     0
 42
0.0000000001
 43
0.0000000001
 12
1.0
 22
0.0
 32
0.0
 13
1.0
 23
0.0
 33
0.0
 40
0.0
 40
0.0
 40
0.0
 40
0.0
 40
1.0
 40
1.0
 40
1.0
 40
2.0
 40
2.0
 40
2.0
 40
3.0
 40
3.0
 40
3.0
 40
4.0
 40
4.0
 40
4.0
 40
5.0
 40
5.0
 40
5.0
 40
6.0
 40
6.0
 40
6.0
 40
7.0
 40
7.0
 40
7.0
 40
7.0
 10
101.1359456127368
 20
-131.5271999454168
 30
0.0
 10
101.1359456127368
 20
-131.5271999454168
 30
0.0
 10
100.0317925097143
 20
-131.5271999454168
 30
0.0
 10
100.0317925097143
 20
-131.5271999454168
 30
0.0
 10
100.0317925097143
 20
-131.5271999454168
 30
0.0
 10
100.0317925097143
 20
-131.8796332135579
 30
0.0
 10
100.0317925097143
 20
-131.8796332135579
 30
0.0
 10
100.0317925097143
 20
-131.8796332135579
 30
0.0
 10
99.88365340384854
 20
-131.8796332135579
 30
0.0
 10
99.88365340384854
 20
-131.8796332135579
 30
0.0
 10
99.86883949326196
 20
-131.5247883785771
 30
0.0
 10
99.70588647680964
 20
-131.4751790035895
 30
0.0
 10
99.59150930669935
 20
-131.4434841251253
 30
0.0
 10
99.59150930669935
 20
-131.4434841251253
 30
0.0
 10
99.59150930669935
 20
-131.2874212996434
 30
0.0
 10
99.59150930669935
 20
-131.2874212996434
 30
0.0
 10
99.59150930669935
 20
-131.2874212996434
 30
0.0
 10
101.1359456127368
 20
-131.2874212996434
 30
0.0
 10
101.1359456127368
 20
-131.2874212996434
 30
0.0
 10
101.1359456127368
 20
-131.2874212996434
 30
0.0
 10
101.1359456127368
 20
-131.5271999454168
 30
0.0
 10
101.1359456127368
 20
-131.5271999454168
 30
0.0
  0
HATCH
  5
CD
330
C8
100
AcDbEntity
  8
_U+30EC_U+30A4_U+30E4_U+30FC 1
 62
   179
420
  2234388
100
AcDbHatch
 10
0.0
 20
0.0
 30
0.0
210
0.0
220
0.0
230
1.0
  2
SOLID
 70
     1
 71
     0
 91
        1
 92
        1
 93
        1
 72
     4
 94
        3
 73
     0
 74
     1
 95
       26
 96
       22
 40
0.0
 40
0.0
 40
0.0
 40
0.0
 40
1.0
 40
1.0
 40
1.0
 40
2.0
 40
2.0
 40
2.0
 40
3.0
 40
3.0
 40
3.0
 40
4.0
 40
4.0
 40
4.0
 40
5.0
 40
5.0
 40
5.0
 40
6.0
 40
6.0
 40
6.0
 40
7.0
 40
7.0
 40
7.0
 40
7.0
 10
101.1359456127368
 20
-131.5271999454168
 10
101.1359456127368
 20
-131.5271999454168
 10
100.0317925097143
 20
-131.5271999454168
 10
100.0317925097143
 20
-131.5271999454168
 10
100.0317925097143
 20
-131.5271999454168
 10
100.0317925097143
 20
-131.8796332135579
 10
100.0317925097143
 20
-131.8796332135579
 10
100.0317925097143
 20
-131.8796332135579
 10
99.88365340384854
 20
-131.8796332135579
 10
99.88365340384854
 20
-131.8796332135579
 10
99.86883949326196
 20
-131.5247883785771
 10
99.70588647680964
 20
-131.4751790035895
 10
99.59150930669935
 20
-131.4434841251253
 10
99.59150930669935
 20
-131.4434841251253
 10
99.59150930669935
 20
-131.2874212996434
 10
99.59150930669935
 20
-131.2874212996434
 10
99.59150930669935
 20
-131.2874212996434
 10
101.1359456127368
 20
-131.2874212996434
 10
101.1359456127368
 20
-131.2874212996434
 10
101.1359456127368
 20
-131.2874212996434
 10
101.1359456127368
 20
-131.5271999454168
 10
101.1359456127368
 20
-131.5271999454168
 97
        0
 97
        0
 75
     2
 76
     1
 98
        0
  0
ENDBLK
  5
CB
330
C8
100
AcDbEntity
  8
0
100
AcDbBlockEnd
  0
BLOCK
  5
D2
330
D0
100
AcDbEntity
  8
0
100
AcDbBlockBegin
  2
block 6
 70
     0
 10
0.0
 20
0.0
 30
0.0
  3
block 6
  1

  0
SPLINE
  5
D4
330
D0
100
AcDbEntity
  8
_U+30EC_U+30A4_U+30E4_U+30FC 1
370
     0
100
AcDbSpline
210
0.0
220
0.0
230
1.0
 70
    11
 71
     3
 72
    26
 73
    22
 74
     0
 42
0.0000000001
 43
0.0000000001
 12
1.0
 22
0.0
 32
0.0
 13
1.0
 23
0.0
 33
0.0
 40
0.0
 40
0.0
 40
0.0
 40
0.0
 40
1.0
 40
1.0
 40
1.0
 40
2.0
 40
2.0
 40
2.0
 40
3.0
 40
3.0
 40
3.0
 40
4.0
 40
4.0
 40
4.0
 40
5.0
 40
5.0
 40
5.0
 40
6.0
 40
6.0
 40
6.0
 40
7.0
 40
7.0
 40
7.0
 40
7.0
 10
79.23254528184117
 20
-128.6589856991721
 30
0.0
 10
79.23254528184117
 20
-128.6589856991721
 30
0.0
 10
79.23254528184117
 20
-127.5546603413752
 30
0.0
 10
79.23254528184117
 20
-127.5546603413752
 30
0.0
 10
79.23254528184117
 20
-127.5546603413752
 30
0.0
 10
78.90250513435424
 20
-127.5546603413752
 30
0.0
 10
78.90250513435424
 20
-127.5546603413752
 30
0.0
 10
78.90250513435424
 20
-127.5546603413752
 30
0.0
 10
78.90250513435424
 20
-127.4065212355095
 30
0.0
 10
78.90250513435424
 20
-127.4065212355095
 30
0.0
 10
79.23461233913233
 20
-127.3918795796972
 30
0.0
 10
79.2811211281832
 20
-127.2289265632449
 30
0.0
 10
79.31074894935634
 20
-127.1147216479088
 30
0.0
 10
79.31074894935634
 20
-127.1147216479088
 30
0.0
 10
79.45682099793093
 20
-127.1147216479088
 30
0.0
 10
79.45682099793093
 20
-127.1147216479088
 30
0.0
 10
79.45682099793093
 20
-127.1147216479088
 30
0.0
 10
79.45682099793093
 20
-128.6589856991721
 30
0.0
 10
79.45682099793093
 20
-128.6589856991721
 30
0.0
 10
79.45682099793093
 20
-128.6589856991721
 30
0.0
 10
79.23254528184117
 20
-128.6589856991721
 30
0.0
 10
79.23254528184117
 20
-128.6589856991721
 30
0.0
  0
HATCH
  5
D5
330
D0
100
AcDbEntity
  8
_U+30EC_U+30A4_U+30E4_U+30FC 1
 62
   179
420
  2234388
100
AcDbHatch
 10
0.0
 20
0.0
 30
0.0
210
0.0
220
0.0
230
1.0
  2
SOLID
 70
     1
 71
     0
 91
        1
 92
        1
 93
        1
 72
     4
 94
        3
 73
     0
 74
     1
 95
       26
 96
       22
 40
0.0
 40
0.0
 40
0.0
 40
0.0
 40
1.0
 40
1.0
 40
1.0
 40
2.0
 40
2.0
 40
2.0
 40
3.0
 40
3.0
 40
3.0
 40
4.0
 40
4.0
 40
4.0
 40
5.0
 40
5.0
 40
5.0
 40
6.0
 40
6.0
 40
6.0
 40
7.0
 40
7.0
 40
7.0
 40
7.0
 10
79.23254528184117
 20
-128.6589856991721
 10
79.23254528184117
 20
-128.6589856991721
 10
79.23254528184117
 20
-127.5546603413752
 10
79.23254528184117
 20
-127.5546603413752
 10
79.23254528184117
 20
-127.5546603413752
 10
78.90250513435424
 20
-127.5546603413752
 10
78.90250513435424
 20
-127.5546603413752
 10
78.90250513435424
 20
-127.5546603413752
 10
78.90250513435424
 20
-127.4065212355095
 10
78.90250513435424
 20
-127.4065212355095
 10
79.23461233913233
 20
-127.3918795796972
 10
79.2811211281832
 20
-127.2289265632449
 10
79.31074894935634
 20
-127.1147216479088
 10
79.31074894935634
 20
-127.1147216479088
 10
79.45682099793093
 20
-127.1147216479088
 10
79.45682099793093
 20
-127.1147216479088
 10
79.45682099793093
 20
-127.1147216479088
 10
79.45682099793093
 20
-128.6589856991721
 10
79.45682099793093
 20
-128.6589856991721
 10
79.45682099793093
 20
-128.6589856991721
 10
79.23254528184117
 20
-128.6589856991721
 10
79.23254528184117
 20
-128.6589856991721
 97
        0
 97
        0
 75
     2
 76
     1
 98
        0
  0
ENDBLK
  5
D3
330
D0
100
AcDbEntity
  8
0
100
AcDbBlockEnd
  0
ENDSEC
  0
SECTION
  2
ENTITIES
  0
SPLINE
  5
41
330
1F
100
AcDbEntity
  8
_U+30EC_U+30A4_U+30E4_U+30FC 1
370
     0
100
AcDbSpline
210
0.0
220
0.0
230
1.0
 70
    11
 71
     3
 72
    44
 73
    40
 74
     0
 42
0.0000000001
 43
0.0000000001
 12
1.0
 22
0.0
 32
0.0
 13
1.0
 23
0.0
 33
0.0
 40
0.0
 40
0.0
 40
0.0
 40
0.0
 40
1.0
 40
1.0
 40
1.0
 40
2.0
 40
2.0
 40
2.0
 40
3.0
 40
3.0
 40
3.0
 40
4.0
 40
4.0
 40
4.0
 40
5.0
 40
5.0
 40
5.0
 40
6.0
 40
6.0
 40
6.0
 40
7.0
 40
7.0
 40
7.0
 40
8.0
 40
8.0
 40
8.0
 40
9.0
 40
9.0
 40
9.0
 40
10.0
 40
10.0
 40
10.0
 40
11.0
 40
11.0
 40
11.0
 40
12.0
 40
12.0
 40
12.0
 40
13.0
 40
13.0
 40
13.0
 40
13.0
 10
97.90514416889835
 20
-131.4610513560238
 30
0.0
 10
97.90514416889835
 20
-131.4610513560238
 30
0.0
 10
88.4049446890464
 20
-131.4610513560238
 30
0.0
 10
88.4049446890464
 20
-131.4610513560238
 30
0.0
 10
88.22647441582178
 20
-131.1517005227674
 30
0.0
 10
87.89645081313027
 20
-130.961518022815
 30
0.0
 10
87.53883998892036
 20
-130.961518022815
 30
0.0
 10
87.53883998892036
 20
-130.961518022815
 30
0.0
 10
81.40484597874492
 20
-130.961518022815
 30
0.0
 10
81.40484597874492
 20
-130.961518022815
 30
0.0
 10
81.40484597874492
 20
-130.961518022815
 30
0.0
 10
81.40484597874492
 20
-127.4611158014681
 30
0.0
 10
81.40484597874492
 20
-127.4611158014681
 30
0.0
 10
81.40484597874492
 20
-127.4611158014681
 30
0.0
 10
88.4049446890464
 20
-127.4611158014681
 30
0.0
 10
88.4049446890464
 20
-127.4611158014681
 30
0.0
 10
88.4049446890464
 20
-127.4611158014681
 30
0.0
 10
88.4049446890464
 20
-126.8610055238402
 30
0.0
 10
88.4049446890464
 20
-126.8610055238402
 30
0.0
 10
88.4049446890464
 20
-126.8610055238402
 30
0.0
 10
86.3950639069894
 20
-126.660133857224
 30
0.0
 10
86.3950639069894
 20
-126.660133857224
 30
0.0
 10
85.06904282970791
 20
-126.5274894128126
 30
0.0
 10
83.73751841923348
 20
-126.4613435794958
 30
0.0
 10
82.4052884532215
 20
-126.4613435794958
 30
0.0
 10
82.4052884532215
 20
-126.4613435794958
 30
0.0
 10
80.405073782029
 20
-126.4613435794958
 30
0.0
 10
80.405073782029
 20
-126.4613435794958
 30
0.0
 10
80.405073782029
 20
-126.4613435794958
 30
0.0
 10
80.405073782029
 20
-131.1613313560983
 30
0.0
 10
80.405073782029
 20
-131.1613313560983
 30
0.0
 10
80.405073782029
 20
-131.6030091337658
 30
0.0
 10
80.76335488399961
 20
-131.9612902447875
 30
0.0
 10
81.20503265050924
 20
-131.9612902447875
 30
0.0
 10
81.20503265050924
 20
-131.9612902447875
 30
0.0
 10
98.40467748948753
 20
-131.9612902447875
 30
0.0
 10
98.40467748948753
 20
-131.9612902447875
 30
0.0
 10
98.40467748948753
 20
-131.6849946893011
 30
0.0
 10
98.18073416186746
 20
-131.4610513560238
 30
0.0
 10
97.90514416889835
 20
-131.4610513560238
 30
0.0
  0
HATCH
  5
42
330
1F
100
AcDbEntity
  8
_U+30EC_U+30A4_U+30E4_U+30FC 1
 62
   253
420
 11711154
100
AcDbHatch
 10
0.0
 20
0.0
 30
0.0
210
0.0
220
0.0
230
1.0
  2
SOLID
 70
     1
 71
     0
 91
        1
 92
        1
 93
        1
 72
     4
 94
        3
 73
     0
 74
     1
 95
       44
 96
       40
 40
0.0
 40
0.0
 40
0.0
 40
0.0
 40
1.0
 40
1.0
 40
1.0
 40
2.0
 40
2.0
 40
2.0
 40
3.0
 40
3.0
 40
3.0
 40
4.0
 40
4.0
 40
4.0
 40
5.0
 40
5.0
 40
5.0
 40
6.0
 40
6.0
 40
6.0
 40
7.0
 40
7.0
 40
7.0
 40
8.0
 40
8.0
 40
8.0
 40
9.0
 40
9.0
 40
9.0
 40
10.0
 40
10.0
 40
10.0
 40
11.0
 40
11.0
 40
11.0
 40
12.0
 40
12.0
 40
12.0
 40
13.0
 40
13.0
 40
13.0
 40
13.0
 10
97.90514416889835
 20
-131.4610513560238
 10
97.90514416889835
 20
-131.4610513560238
 10
88.4049446890464
 20
-131.4610513560238
 10
88.4049446890464
 20
-131.4610513560238
 10
88.22647441582178
 20
-131.1517005227674
 10
87.89645081313027
 20
-130.961518022815
 10
87.53883998892036
 20
-130.961518022815
 10
87.53883998892036
 20
-130.961518022815
 10
81.40484597874492
 20
-130.961518022815
 10
81.40484597874492
 20
-130.961518022815
 10
81.40484597874492
 20
-130.961518022815
 10
81.40484597874492
 20
-127.4611158014681
 10
81.40484597874492
 20
-127.4611158014681
 10
81.40484597874492
 20
-127.4611158014681
 10
88.4049446890464
 20
-127.4611158014681
 10
88.4049446890464
 20
-127.4611158014681
 10
88.4049446890464
 20
-127.4611158014681
 10
88.4049446890464
 20
-126.8610055238402
 10
88.4049446890464
 20
-126.8610055238402
 10
88.4049446890464
 20
-126.8610055238402
 10
86.3950639069894
 20
-126.660133857224
 10
86.3950639069894
 20
-126.660133857224
 10
85.06904282970791
 20
-126.5274894128126
 10
83.73751841923348
 20
-126.4613435794958
 10
82.4052884532215
 20
-126.4613435794958
 10
82.4052884532215
 20
-126.4613435794958
 10
80.405073782029
 20
-126.4613435794958
 10
80.405073782029
 20
-126.4613435794958
 10
80.405073782029
 20
-126.4613435794958
 10
80.405073782029
 20
-131.1613313560983
 10
80.405073782029
 20
-131.1613313560983
 10
80.405073782029
 20
-131.6030091337658
 10
80.76335488399961
 20
-131.9612902447875
 10
81.20503265050924
 20
-131.9612902447875
 10
81.20503265050924
 20
-131.9612902447875
 10
98.40467748948753
 20
-131.9612902447875
 10
98.40467748948753
 20
-131.9612902447875
 10
98.40467748948753
 20
-131.6849946893011
 10
98.18073416186746
 20
-131.4610513560238
 10
97.90514416889835
 20
-131.4610513560238
 97
        0
 97
        0
 75
     2
 76
     1
 98
        0
  0
POLYLINE
  5
43
330
1F
100
AcDbEntity
  8
_U+30EC_U+30A4_U+30E4_U+30FC 1
 62
   179
420
  2234388
370
    25
100
AcDb2dPolyline
 66
     1
 10
0.0
 20
0.0
 30
0.0
  0
VERTEX
  5
44
330
43
100
AcDbEntity
  8
_U+30EC_U+30A4_U+30E4_U+30FC 1
 62
   179
420
  2234388
370
    25
100
AcDbVertex
100
AcDb2dVertex
 10
81.40484597874492
 20
-127.4611158014681
 30
0.0
  0
VERTEX
  5
45
330
43
100
AcDbEntity
  8
_U+30EC_U+30A4_U+30E4_U+30FC 1
 62
   179
420
  2234388
370
    25
100
AcDbVertex
100
AcDb2dVertex
 10
88.4049446890464
 20
-127.4611158014681
 30
0.0
  0
SEQEND
  5
46
330
43
100
AcDbEntity
  8
_U+30EC_U+30A4_U+30E4_U+30FC 1
 62
   179
420
  2234388
370
    25
  0
POLYLINE
  5
47
330
1F
100
AcDbEntity
  8
_U+30EC_U+30A4_U+30E4_U+30FC 1
 62
   179
420
  2234388
370
    25
100
AcDb2dPolyline
 66
     1
 10
0.0
 20
0.0
 30
0.0
  0
VERTEX
  5
48
330
47
100
AcDbEntity
  8
_U+30EC_U+30A4_U+30E4_U+30FC 1
 62
   179
420
  2234388
370
    25
100
AcDbVertex
100
AcDb2dVertex
 10
80.405073782029
 20
-126.4613435794958
 30
0.0
  0
VERTEX
  5
49
330
47
100
AcDbEntity
  8
_U+30EC_U+30A4_U+30E4_U+30FC 1
 62
   179
420
  2234388
370
    25
100
AcDbVertex
100
AcDb2dVertex
 10
82.4052884532215
 20
-126.4613435794958
 30
0.0
  0
SEQEND
  5
4A
330
47
100
AcDbEntity
  8
_U+30EC_U+30A4_U+30E4_U+30FC 1
 62
   179
420
  2234388
370
    25
  0
POLYLINE
  5
4B
330
1F
100
AcDbEntity
  8
_U+30EC_U+30A4_U+30E4_U+30FC 1
 62
   179
420
  2234388
370
    25
100
AcDb2dPolyline
 66
     1
 10
0.0
 20
0.0
 30
0.0
  0
VERTEX
  5
4C
330
4B
100
AcDbEntity
  8
_U+30EC_U+30A4_U+30E4_U+30FC 1
 62
   179
420
  2234388
370
    25
100
AcDbVertex
100
AcDb2dVertex
 10
81.40484597874492
 20
-130.961518022815
 30
0.0
  0
VERTEX
  5
4D
330
4B
100
AcDbEntity
  8
_U+30EC_U+30A4_U+30E4_U+30FC 1
 62
   179
420
  2234388
370
    25
100
AcDbVertex
100
AcDb2dVertex
 10
87.53883998892036
 20
-130.961518022815
 30
0.0
  0
SEQEND
  5
4E
330
4B
100
AcDbEntity
  8
_U+30EC_U+30A4_U+30E4_U+30FC 1
 62
   179
420
  2234388
370
    25
  0
POLYLINE
  5
4F
330
1F
100
AcDbEntity
  8
_U+30EC_U+30A4_U+30E4_U+30FC 1
 62
   179
420
  2234388
370
    25
100
AcDb2dPolyline
 66
     1
 10
0.0
 20
0.0
 30
0.0
  0
VERTEX
  5
50
330
4F
100
AcDbEntity
  8
_U+30EC_U+30A4_U+30E4_U+30FC 1
 62
   179
420
  2234388
370
    25
100
AcDbVertex
100
AcDb2dVertex
 10
81.20503265050924
 20
-131.9612902447875
 30
0.0
  0
VERTEX
  5
51
330
4F
100
AcDbEntity
  8
_U+30EC_U+30A4_U+30E4_U+30FC 1
 62
   179
420
  2234388
370
    25
100
AcDbVertex
100
AcDb2dVertex
 10
98.40467748948753
 20
-131.9612902447875
 30
0.0
  0
SEQEND
  5
52
330
4F
100
AcDbEntity
  8
_U+30EC_U+30A4_U+30E4_U+30FC 1
 62
   179
420
  2234388
370
    25
  0
POLYLINE
  5
53
330
1F
100
AcDbEntity
  8
_U+30EC_U+30A4_U+30E4_U+30FC 1
 62
   179
420
  2234388
370
    25
100
AcDb2dPolyline
 66
     1
 10
0.0
 20
0.0
 30
0.0
  0
VERTEX
  5
54
330
53
100
AcDbEntity
  8
_U+30EC_U+30A4_U+30E4_U+30FC 1
 62
   179
420
  2234388
370
    25
100
AcDbVertex
100
AcDb2dVertex
 10
88.4049446890464
 20
-126.8610055238402
 30
0.0
  0
VERTEX
  5
55
330
53
100
AcDbEntity
  8
_U+30EC_U+30A4_U+30E4_U+30FC 1
 62
   179
420
  2234388
370
    25
100
AcDbVertex
100
AcDb2dVertex
 10
88.4049446890464
 20
-127.4611158014681
 30
0.0
  0
SEQEND
  5
56
330
53
100
AcDbEntity
  8
_U+30EC_U+30A4_U+30E4_U+30FC 1
 62
   179
420
  2234388
370
    25
  0
POLYLINE
  5
57
330
1F
100
AcDbEntity
  8
_U+30EC_U+30A4_U+30E4_U+30FC 1
 62
   179
420
  2234388
370
    25
100
AcDb2dPolyline
 66
     1
 10
0.0
 20
0.0
 30
0.0
  0
VERTEX
  5
58
330
57
100
AcDbEntity
  8
_U+30EC_U+30A4_U+30E4_U+30FC 1
 62
   179
420
  2234388
370
    25
100
AcDbVertex
100
AcDb2dVertex
 10
80.405073782029
 20
-126.4613435794958
 30
0.0
  0
VERTEX
  5
59
330
57
100
AcDbEntity
  8
_U+30EC_U+30A4_U+30E4_U+30FC 1
 62
   179
420
  2234388
370
    25
100
AcDbVertex
100
AcDb2dVertex
 10
80.405073782029
 20
-131.1613313560983
 30
0.0
  0
SEQEND
  5
5A
330
57
100
AcDbEntity
  8
_U+30EC_U+30A4_U+30E4_U+30FC 1
 62
   179
420
  2234388
370
    25
  0
POLYLINE
  5
5B
330
1F
100
AcDbEntity
  8
_U+30EC_U+30A4_U+30E4_U+30FC 1
 62
   179
420
  2234388
370
    25
100
AcDb2dPolyline
 66
     1
 10
0.0
 20
0.0
 30
0.0
  0
VERTEX
  5
5C
330
5B
100
AcDbEntity
  8
_U+30EC_U+30A4_U+30E4_U+30FC 1
 62
   179
420
  2234388
370
    25
100
AcDbVertex
100
AcDb2dVertex
 10
81.40484597874492
 20
-127.4611158014681
 30
0.0
  0
VERTEX
  5
5D
330
5B
100
AcDbEntity
  8
_U+30EC_U+30A4_U+30E4_U+30FC 1
 62
   179
420
  2234388
370
    25
100
AcDbVertex
100
AcDb2dVertex
 10
81.40484597874492
 20
-130.961518022815
 30
0.0
  0
SEQEND
  5
5E
330
5B
100
AcDbEntity
  8
_U+30EC_U+30A4_U+30E4_U+30FC 1
 62
   179
420
  2234388
370
    25
  0
POLYLINE
  5
5F
330
1F
100
AcDbEntity
  8
_U+30EC_U+30A4_U+30E4_U+30FC 1
 62
   179
420
  2234388
370
    25
100
AcDb2dPolyline
 66
     1
 10
0.0
 20
0.0
 30
0.0
  0
VERTEX
  5
60
330
5F
100
AcDbEntity
  8
_U+30EC_U+30A4_U+30E4_U+30FC 1
 62
   179
420
  2234388
370
    25
100
AcDbVertex
100
AcDb2dVertex
 10
86.3950639069894
 20
-126.660133857224
 30
0.0
  0
VERTEX
  5
61
330
5F
100
AcDbEntity
  8
_U+30EC_U+30A4_U+30E4_U+30FC 1
 62
   179
420
  2234388
370
    25
100
AcDbVertex
100
AcDb2dVertex
 10
88.4049446890464
 20
-126.8610055238402
 30
0.0
  0
SEQEND
  5
62
330
5F
100
AcDbEntity
  8
_U+30EC_U+30A4_U+30E4_U+30FC 1
 62
   179
420
  2234388
370
    25
  0
POLYLINE
  5
63
330
1F
100
AcDbEntity
  8
_U+30EC_U+30A4_U+30E4_U+30FC 1
 62
   179
420
  2234388
370
    25
100
AcDb2dPolyline
 66
     1
 10
0.0
 20
0.0
 30
0.0
  0
VERTEX
  5
64
330
63
100
AcDbEntity
  8
_U+30EC_U+30A4_U+30E4_U+30FC 1
 62
   179
420
  2234388
370
    25
100
AcDbVertex
100
AcDb2dVertex
 10
88.4049446890464
 20
-131.4610513560238
 30
0.0
  0
VERTEX
  5
65
330
63
100
AcDbEntity
  8
_U+30EC_U+30A4_U+30E4_U+30FC 1
 62
   179
420
  2234388
370
    25
100
AcDbVertex
100
AcDb2dVertex
 10
97.90514416889835
 20
-131.4610513560238
 30
0.0
  0
SEQEND
  5
66
330
63
100
AcDbEntity
  8
_U+30EC_U+30A4_U+30E4_U+30FC 1
 62
   179
420
  2234388
370
    25
  0
SPLINE
  5
67
330
1F
100
AcDbEntity
  8
_U+30EC_U+30A4_U+30E4_U+30FC 1
 62
   179
420
  2234388
370
    25
100
AcDbSpline
210
0.0
220
0.0
230
1.0
 70
     8
 71
     3
 72
     8
 73
     4
 74
     0
 42
0.0000000001
 43
0.0000000001
 12
1.0
 22
0.0
 32
0.0
 13
1.0
 23
0.0
 33
0.0
 40
0.0
 40
0.0
 40
0.0
 40
0.0
 40
1.0
 40
1.0
 40
1.0
 40
1.0
 10
80.405073782029
 20
-131.1613313560983
 30
0.0
 10
80.405073782029
 20
-131.6030091337658
 30
0.0
 10
80.76335488399961
 20
-131.9612902447875
 30
0.0
 10
81.20503265050924
 20
-131.9612902447875
 30
0.0
  0
SPLINE
  5
68
330
1F
100
AcDbEntity
  8
_U+30EC_U+30A4_U+30E4_U+30FC 1
 62
   179
420
  2234388
370
    25
100
AcDbSpline
210
0.0
220
0.0
230
1.0
 70
     8
 71
     3
 72
     8
 73
     4
 74
     0
 42
0.0000000001
 43
0.0000000001
 12
1.0
 22
0.0
 32
0.0
 13
1.0
 23
0.0
 33
0.0
 40
0.0
 40
0.0
 40
0.0
 40
0.0
 40
1.0
 40
1.0
 40
1.0
 40
1.0
 10
98.40467748948753
 20
-131.9612902447875
 30
0.0
 10
98.40467748948753
 20
-131.6849946893011
 30
0.0
 10
98.18073416186746
 20
-131.4610513560238
 30
0.0
 10
97.90514416889835
 20
-131.4610513560238
 30
0.0
  0
SPLINE
  5
69
330
1F
100
AcDbEntity
  8
_U+30EC_U+30A4_U+30E4_U+30FC 1
 62
   179
420
  2234388
370
    25
100
AcDbSpline
210
0.0
220
0.0
230
1.0
 70
     8
 71
     3
 72
     8
 73
     4
 74
     0
 42
0.0000000001
 43
0.0000000001
 12
1.0
 22
0.0
 32
0.0
 13
1.0
 23
0.0
 33
0.0
 40
0.0
 40
0.0
 40
0.0
 40
0.0
 40
1.0
 40
1.0
 40
1.0
 40
1.0
 10
88.4049446890464
 20
-131.4610513560238
 30
0.0
 10
88.22647441582178
 20
-131.1517005227674
 30
0.0
 10
87.89645081313027
 20
-130.961518022815
 30
0.0
 10
87.53883998892036
 20
-130.961518022815
 30
0.0
  0
SPLINE
  5
6A
330
1F
100
AcDbEntity
  8
_U+30EC_U+30A4_U+30E4_U+30FC 1
 62
   179
420
  2234388
370
    25
100
AcDbSpline
210
0.0
220
0.0
230
1.0
 70
     8
 71
     3
 72
     8
 73
     4
 74
     0
 42
0.0000000001
 43
0.0000000001
 12
1.0
 22
0.0
 32
0.0
 13
1.0
 23
0.0
 33
0.0
 40
0.0
 40
0.0
 40
0.0
 40
0.0
 40
1.0
 40
1.0
 40
1.0
 40
1.0
 10
86.3950639069894
 20
-126.660133857224
 30
0.0
 10
85.06904282970791
 20
-126.5274894128126
 30
0.0
 10
83.73751841923348
 20
-126.4613435794958
 30
0.0
 10
82.4052884532215
 20
-126.4613435794958
 30
0.0
  0
SPLINE
  5
6B
330
1F
100
AcDbEntity
  8
_U+30EC_U+30A4_U+30E4_U+30FC 1
 62
   179
420
  2234388
370
     9
100
AcDbSpline
210
0.0
220
0.0
230
1.0
 70
    11
 71
     3
 72
    17
 73
    13
 74
     0
 42
0.0000000001
 43
0.0000000001
 12
1.0
 22
0.0
 32
0.0
 13
1.0
 23
0.0
 33
0.0
 40
0.0
 40
0.0
 40
0.0
 40
0.0
 40
1.0
 40
1.0
 40
1.0
 40
2.0
 40
2.0
 40
2.0
 40
3.0
 40
3.0
 40
3.0
 40
4.0
 40
4.0
 40
4.0
 40
4.0
 10
80.50498044614685
 20
-122.4605613582738
 30
0.0
 10
80.50498044614685
 20
-122.4054574693986
 30
0.0
 10
80.46021294728895
 20
-122.3606546916322
 30
0.0
 10
80.405073782029
 20
-122.3606546916322
 30
0.0
 10
80.34996989454594
 20
-122.3606546916322
 30
0.0
 10
80.30516711791117
 20
-122.4054574693986
 30
0.0
 10
80.30516711791117
 20
-122.4605613582738
 30
0.0
 10
80.30516711791117
 20
-122.5160533027043
 30
0.0
 10
80.34996989454594
 20
-122.5608208026932
 30
0.0
 10
80.405073782029
 20
-122.5608208026932
 30
0.0
 10
80.46021294728895
 20
-122.5608208026932
 30
0.0
 10
80.50498044614685
 20
-122.5160533027043
 30
0.0
 10
80.50498044614685
 20
-122.4605613582738
 30
0.0
  0
SPLINE
  5
6C
330
1F
100
AcDbEntity
  8
_U+30EC_U+30A4_U+30E4_U+30FC 1
 62
   179
420
  2234388
370
     9
100
AcDbSpline
210
0.0
220
0.0
230
1.0
 70
    11
 71
     3
 72
    17
 73
    13
 74
     0
 42
0.0000000001
 43
0.0000000001
 12
1.0
 22
0.0
 32
0.0
 13
1.0
 23
0.0
 33
0.0
 40
0.0
 40
0.0
 40
0.0
 40
0.0
 40
1.0
 40
1.0
 40
1.0
 40
2.0
 40
2.0
 40
2.0
 40
3.0
 40
3.0
 40
3.0
 40
4.0
 40
4.0
 40
4.0
 40
4.0
 10
88.50485135316424
 20
-122.4605613582738
 30
0.0
 10
88.50485135316424
 20
-122.4054574693986
 30
0.0
 10
88.46004857652947
 20
-122.3606546916322
 30
0.0
 10
88.4049446890464
 20
-122.3606546916322
 30
0.0
 10
88.34980552378646
 20
-122.3606546916322
 30
0.0
 10
88.30503802492858
 20
-122.4054574693986
 30
0.0
 10
88.30503802492858
 20
-122.4605613582738
 30
0.0
 10
88.30503802492858
 20
-122.5160533027043
 30
0.0
 10
88.34980552378646
 20
-122.5608208026932
 30
0.0
 10
88.4049446890464
 20
-122.5608208026932
 30
0.0
 10
88.46004857652947
 20
-122.5608208026932
 30
0.0
 10
88.50485135316424
 20
-122.5160533027043
 30
0.0
 10
88.50485135316424
 20
-122.4605613582738
 30
0.0
  0
SPLINE
  5
6D
330
1F
100
AcDbEntity
  8
_U+30EC_U+30A4_U+30E4_U+30FC 1
 62
   179
420
  2234388
370
     9
100
AcDbSpline
210
0.0
220
0.0
230
1.0
 70
    11
 71
     3
 72
    17
 73
    13
 74
     0
 42
0.0000000001
 43
0.0000000001
 12
1.0
 22
0.0
 32
0.0
 13
1.0
 23
0.0
 33
0.0
 40
0.0
 40
0.0
 40
0.0
 40
0.0
 40
1.0
 40
1.0
 40
1.0
 40
2.0
 40
2.0
 40
2.0
 40
3.0
 40
3.0
 40
3.0
 40
4.0
 40
4.0
 40
4.0
 40
4.0
 10
102.3823879435632
 20
-127.4611158014681
 30
0.0
 10
102.3823879435632
 20
-127.4060119125928
 30
0.0
 10
102.3375851669285
 20
-127.3612091348264
 30
0.0
 10
102.2824812794454
 20
-127.3612091348264
 30
0.0
 10
102.2273421141854
 20
-127.3612091348264
 30
0.0
 10
102.1825746153276
 20
-127.4060119125928
 30
0.0
 10
102.1825746153276
 20
-127.4611158014681
 30
0.0
 10
102.1825746153276
 20
-127.5162549681208
 30
0.0
 10
102.2273421141854
 20
-127.5610224681097
 30
0.0
 10
102.2824812794454
 20
-127.5610224681097
 30
0.0
 10
102.3375851669285
 20
-127.5610224681097
 30
0.0
 10
102.3823879435632
 20
-127.5162549681208
 30
0.0
 10
102.3823879435632
 20
-127.4611158014681
 30
0.0
  0
SPLINE
  5
6E
330
1F
100
AcDbEntity
  8
_U+30EC_U+30A4_U+30E4_U+30FC 1
 62
   179
420
  2234388
370
     9
100
AcDbSpline
210
0.0
220
0.0
230
1.0
 70
    11
 71
     3
 72
    17
 73
    13
 74
     0
 42
0.0000000001
 43
0.0000000001
 12
1.0
 22
0.0
 32
0.0
 13
1.0
 23
0.0
 33
0.0
 40
0.0
 40
0.0
 40
0.0
 40
0.0
 40
1.0
 40
1.0
 40
1.0
 40
2.0
 40
2.0
 40
2.0
 40
3.0
 40
3.0
 40
3.0
 40
4.0
 40
4.0
 40
4.0
 40
4.0
 10
102.3823879435632
 20
-130.961518022815
 30
0.0
 10
102.3823879435632
 20
-130.9060613561623
 30
0.0
 10
102.3375851669285
 20
-130.8612585783956
 30
0.0
 10
102.2824812794454
 20
-130.8612585783956
 30
0.0
 10
102.2273421141854
 20
-130.8612585783956
 30
0.0
 10
102.1825746153276
 20
-130.9060613561623
 30
0.0
 10
102.1825746153276
 20
-130.961518022815
 30
0.0
 10
102.1825746153276
 20
-131.0166219116905
 30
0.0
 10
102.2273421141854
 20
-131.0614246894566
 30
0.0
 10
102.2824812794454
 20
-131.0614246894566
 30
0.0
 10
102.3375851669285
 20
-131.0614246894566
 30
0.0
 10
102.3823879435632
 20
-131.0166219116905
 30
0.0
 10
102.3823879435632
 20
-130.961518022815
 30
0.0
  0
SPLINE
  5
6F
330
1F
100
AcDbEntity
  8
_U+30EC_U+30A4_U+30E4_U+30FC 1
 62
   179
420
  2234388
370
     9
100
AcDbSpline
210
0.0
220
0.0
230
1.0
 70
    11
 71
     3
 72
    17
 73
    13
 74
     0
 42
0.0000000001
 43
0.0000000001
 12
1.0
 22
0.0
 32
0.0
 13
1.0
 23
0.0
 33
0.0
 40
0.0
 40
0.0
 40
0.0
 40
0.0
 40
1.0
 40
1.0
 40
1.0
 40
2.0
 40
2.0
 40
2.0
 40
3.0
 40
3.0
 40
3.0
 40
4.0
 40
4.0
 40
4.0
 40
4.0
 10
80.50498044614685
 20
-135.961366910454
 30
0.0
 10
80.50498044614685
 20
-135.9059102438013
 30
0.0
 10
80.46021294728895
 20
-135.8611427438128
 30
0.0
 10
80.405073782029
 20
-135.8611427438128
 30
0.0
 10
80.34996989454594
 20
-135.8611427438128
 30
0.0
 10
80.30516711791117
 20
-135.9059102438013
 30
0.0
 10
80.30516711791117
 20
-135.961366910454
 30
0.0
 10
80.30516711791117
 20
-136.0165060771071
 30
0.0
 10
80.34996989454594
 20
-136.0612735770956
 30
0.0
 10
80.405073782029
 20
-136.0612735770956
 30
0.0
 10
80.46021294728895
 20
-136.0612735770956
 30
0.0
 10
80.50498044614685
 20
-136.0165060771071
 30
0.0
 10
80.50498044614685
 20
-135.961366910454
 30
0.0
  0
SPLINE
  5
70
330
1F
100
AcDbEntity
  8
_U+30EC_U+30A4_U+30E4_U+30FC 1
 62
   179
420
  2234388
370
     9
100
AcDbSpline
210
0.0
220
0.0
230
1.0
 70
    11
 71
     3
 72
    17
 73
    13
 74
     0
 42
0.0000000001
 43
0.0000000001
 12
1.0
 22
0.0
 32
0.0
 13
1.0
 23
0.0
 33
0.0
 40
0.0
 40
0.0
 40
0.0
 40
0.0
 40
1.0
 40
1.0
 40
1.0
 40
2.0
 40
2.0
 40
2.0
 40
3.0
 40
3.0
 40
3.0
 40
4.0
 40
4.0
 40
4.0
 40
4.0
 10
98.50458415360536
 20
-135.961366910454
 30
0.0
 10
98.50458415360536
 20
-135.9059102438013
 30
0.0
 10
98.4597813769706
 20
-135.8611427438128
 30
0.0
 10
98.40467748948753
 20
-135.8611427438128
 30
0.0
 10
98.34953832422758
 20
-135.8611427438128
 30
0.0
 10
98.30477082536969
 20
-135.9059102438013
 30
0.0
 10
98.30477082536969
 20
-135.961366910454
 30
0.0
 10
98.30477082536969
 20
-136.0165060771071
 30
0.0
 10
98.34953832422758
 20
-136.0612735770956
 30
0.0
 10
98.40467748948753
 20
-136.0612735770956
 30
0.0
 10
98.4597813769706
 20
-136.0612735770956
 30
0.0
 10
98.50458415360536
 20
-136.0165060771071
 30
0.0
 10
98.50458415360536
 20
-135.961366910454
 30
0.0
  0
POLYLINE
  5
71
330
1F
100
AcDbEntity
  8
_U+30EC_U+30A4_U+30E4_U+30FC 1
 62
   179
420
  2234388
370
     9
100
AcDb2dPolyline
 66
     1
 10
0.0
 20
0.0
 30
0.0
  0
VERTEX
  5
72
330
71
100
AcDbEntity
  8
_U+30EC_U+30A4_U+30E4_U+30FC 1
 62
   179
420
  2234388
370
     9
100
AcDbVertex
100
AcDb2dVertex
 10
80.405073782029
 20
-122.4605613582738
 30
0.0
  0
VERTEX
  5
73
330
71
100
AcDbEntity
  8
_U+30EC_U+30A4_U+30E4_U+30FC 1
 62
   179
420
  2234388
370
     9
100
AcDbVertex
100
AcDb2dVertex
 10
88.4049446890464
 20
-122.4605613582738
 30
0.0
  0
SEQEND
  5
74
330
71
100
AcDbEntity
  8
_U+30EC_U+30A4_U+30E4_U+30FC 1
 62
   179
420
  2234388
370
     9
  0
POLYLINE
  5
75
330
1F
100
AcDbEntity
  8
_U+30EC_U+30A4_U+30E4_U+30FC 1
 62
   179
420
  2234388
370
     9
100
AcDb2dPolyline
 66
     1
 10
0.0
 20
0.0
 30
0.0
  0
VERTEX
  5
76
330
75
100
AcDbEntity
  8
_U+30EC_U+30A4_U+30E4_U+30FC 1
 62
   179
420
  2234388
370
     9
100
AcDbVertex
100
AcDb2dVertex
 10
80.405073782029
 20
-123.9209555245753
 30
0.0
  0
VERTEX
  5
77
330
75
100
AcDbEntity
  8
_U+30EC_U+30A4_U+30E4_U+30FC 1
 62
   179
420
  2234388
370
     9
100
AcDbVertex
100
AcDb2dVertex
 10
80.405073782029
 20
-121.4607891363016
 30
0.0
  0
SEQEND
  5
78
330
75
100
AcDbEntity
  8
_U+30EC_U+30A4_U+30E4_U+30FC 1
 62
   179
420
  2234388
370
     9
  0
POLYLINE
  5
79
330
1F
100
AcDbEntity
  8
_U+30EC_U+30A4_U+30E4_U+30FC 1
 62
   179
420
  2234388
370
     9
100
AcDb2dPolyline
 66
     1
 10
0.0
 20
0.0
 30
0.0
  0
VERTEX
  5
7A
330
79
100
AcDbEntity
  8
_U+30EC_U+30A4_U+30E4_U+30FC 1
 62
   179
420
  2234388
370
     9
100
AcDbVertex
100
AcDb2dVertex
 10
88.4049446890464
 20
-124.3212524689195
 30
0.0
  0
VERTEX
  5
7B
330
79
100
AcDbEntity
  8
_U+30EC_U+30A4_U+30E4_U+30FC 1
 62
   179
420
  2234388
370
     9
100
AcDbVertex
100
AcDb2dVertex
 10
88.4049446890464
 20
-121.4607891363016
 30
0.0
  0
SEQEND
  5
7C
330
79
100
AcDbEntity
  8
_U+30EC_U+30A4_U+30E4_U+30FC 1
 62
   179
420
  2234388
370
     9
  0
INSERT
  5
7E
330
1F
100
AcDbEntity
  8
_U+30EC_U+30A4_U+30E4_U+30FC 1
100
AcDbBlockReference
  2
block 2
 10
0.0
 20
0.0
 30
0.0
  0
POLYLINE
  5
85
330
1F
100
AcDbEntity
  8
_U+30EC_U+30A4_U+30E4_U+30FC 1
 62
   179
420
  2234388
370
     9
100
AcDb2dPolyline
 66
     1
 10
0.0
 20
0.0
 30
0.0
  0
VERTEX
  5
86
330
85
100
AcDbEntity
  8
_U+30EC_U+30A4_U+30E4_U+30FC 1
 62
   179
420
  2234388
370
     9
100
AcDbVertex
100
AcDb2dVertex
 10
80.405073782029
 20
-135.961366910454
 30
0.0
  0
VERTEX
  5
87
330
85
100
AcDbEntity
  8
_U+30EC_U+30A4_U+30E4_U+30FC 1
 62
   179
420
  2234388
370
     9
100
AcDbVertex
100
AcDb2dVertex
 10
98.40467748948753
 20
-135.961366910454
 30
0.0
  0
SEQEND
  5
88
330
85
100
AcDbEntity
  8
_U+30EC_U+30A4_U+30E4_U+30FC 1
 62
   179
420
  2234388
370
     9
  0
POLYLINE
  5
89
330
1F
100
AcDbEntity
  8
_U+30EC_U+30A4_U+30E4_U+30FC 1
 62
   179
420
  2234388
370
     9
100
AcDb2dPolyline
 66
     1
 10
0.0
 20
0.0
 30
0.0
  0
VERTEX
  5
8A
330
89
100
AcDbEntity
  8
_U+30EC_U+30A4_U+30E4_U+30FC 1
 62
   179
420
  2234388
370
     9
100
AcDbVertex
100
AcDb2dVertex
 10
80.405073782029
 20
-133.7010491332414
 30
0.0
  0
VERTEX
  5
8B
330
89
100
AcDbEntity
  8
_U+30EC_U+30A4_U+30E4_U+30FC 1
 62
   179
420
  2234388
370
     9
100
AcDbVertex
100
AcDb2dVertex
 10
80.405073782029
 20
-136.9611391324266
 30
0.0
  0
SEQEND
  5
8C
330
89
100
AcDbEntity
  8
_U+30EC_U+30A4_U+30E4_U+30FC 1
 62
   179
420
  2234388
370
     9
  0
POLYLINE
  5
8D
330
1F
100
AcDbEntity
  8
_U+30EC_U+30A4_U+30E4_U+30FC 1
 62
   179
420
  2234388
370
     9
100
AcDb2dPolyline
 66
     1
 10
0.0
 20
0.0
 30
0.0
  0
VERTEX
  5
8E
330
8D
100
AcDbEntity
  8
_U+30EC_U+30A4_U+30E4_U+30FC 1
 62
   179
420
  2234388
370
     9
100
AcDbVertex
100
AcDb2dVertex
 10
98.40467748948753
 20
-134.5013607997078
 30
0.0
  0
VERTEX
  5
8F
330
8D
100
AcDbEntity
  8
_U+30EC_U+30A4_U+30E4_U+30FC 1
 62
   179
420
  2234388
370
     9
100
AcDbVertex
100
AcDb2dVertex
 10
98.40467748948753
 20
-136.9611391324266
 30
0.0
  0
SEQEND
  5
90
330
8D
100
AcDbEntity
  8
_U+30EC_U+30A4_U+30E4_U+30FC 1
 62
   179
420
  2234388
370
     9
  0
INSERT
  5
92
330
1F
100
AcDbEntity
  8
_U+30EC_U+30A4_U+30E4_U+30FC 1
100
AcDbBlockReference
  2
block 3
 10
0.0
 20
0.0
 30
0.0
  0
POLYLINE
  5
9B
330
1F
100
AcDbEntity
  8
_U+30EC_U+30A4_U+30E4_U+30FC 1
 62
   179
420
  2234388
370
     9
100
AcDb2dPolyline
 66
     1
 10
0.0
 20
0.0
 30
0.0
  0
VERTEX
  5
9C
330
9B
100
AcDbEntity
  8
_U+30EC_U+30A4_U+30E4_U+30FC 1
 62
   179
420
  2234388
370
     9
100
AcDbVertex
100
AcDb2dVertex
 10
102.2824812794454
 20
-127.4611158014681
 30
0.0
  0
VERTEX
  5
9D
330
9B
100
AcDbEntity
  8
_U+30EC_U+30A4_U+30E4_U+30FC 1
 62
   179
420
  2234388
370
     9
100
AcDbVertex
100
AcDb2dVertex
 10
102.2824812794454
 20
-122.2028924694492
 30
0.0
  0
SEQEND
  5
9E
330
9B
100
AcDbEntity
  8
_U+30EC_U+30A4_U+30E4_U+30FC 1
 62
   179
420
  2234388
370
     9
  0
POLYLINE
  5
9F
330
1F
100
AcDbEntity
  8
_U+30EC_U+30A4_U+30E4_U+30FC 1
 62
   179
420
  2234388
370
     9
100
AcDb2dPolyline
 66
     1
 10
0.0
 20
0.0
 30
0.0
  0
VERTEX
  5
A0
330
9F
100
AcDbEntity
  8
_U+30EC_U+30A4_U+30E4_U+30FC 1
 62
   179
420
  2234388
370
     9
100
AcDbVertex
100
AcDb2dVertex
 10
102.2824812794454
 20
-130.961518022815
 30
0.0
  0
VERTEX
  5
A1
330
9F
100
AcDbEntity
  8
_U+30EC_U+30A4_U+30E4_U+30FC 1
 62
   179
420
  2234388
370
     9
100
AcDbVertex
100
AcDb2dVertex
 10
102.2824812794454
 20
-127.4611158014681
 30
0.0
  0
SEQEND
  5
A2
330
9F
100
AcDbEntity
  8
_U+30EC_U+30A4_U+30E4_U+30FC 1
 62
   179
420
  2234388
370
     9
  0
POLYLINE
  5
A3
330
1F
100
AcDbEntity
  8
_U+30EC_U+30A4_U+30E4_U+30FC 1
 62
   179
420
  2234388
370
     9
100
AcDb2dPolyline
 66
     1
 10
0.0
 20
0.0
 30
0.0
  0
VERTEX
  5
A4
330
A3
100
AcDbEntity
  8
_U+30EC_U+30A4_U+30E4_U+30FC 1
 62
   179
420
  2234388
370
     9
100
AcDbVertex
100
AcDb2dVertex
 10
101.1545449193326
 20
-130.9608124672601
 30
0.0
  0
VERTEX
  5
A5
330
A3
100
AcDbEntity
  8
_U+30EC_U+30A4_U+30E4_U+30FC 1
 62
   179
420
  2234388
370
     9
100
AcDbVertex
100
AcDb2dVertex
 10
103.282923753922
 20
-130.961518022815
 30
0.0
  0
SEQEND
  5
A6
330
A3
100
AcDbEntity
  8
_U+30EC_U+30A4_U+30E4_U+30FC 1
 62
   179
420
  2234388
370
     9
  0
POLYLINE
  5
A7
330
1F
100
AcDbEntity
  8
_U+30EC_U+30A4_U+30E4_U+30FC 1
 62
   179
420
  2234388
370
     9
100
AcDb2dPolyline
 66
     1
 10
0.0
 20
0.0
 30
0.0
  0
VERTEX
  5
A8
330
A7
100
AcDbEntity
  8
_U+30EC_U+30A4_U+30E4_U+30FC 1
 62
   179
420
  2234388
370
     9
100
AcDbVertex
100
AcDb2dVertex
 10
101.1752176965829
 20
-127.4611158014681
 30
0.0
  0
VERTEX
  5
A9
330
A7
100
AcDbEntity
  8
_U+30EC_U+30A4_U+30E4_U+30FC 1
 62
   179
420
  2234388
370
     9
100
AcDbVertex
100
AcDb2dVertex
 10
103.282923753922
 20
-127.4611158014681
 30
0.0
  0
SEQEND
  5
AA
330
A7
100
AcDbEntity
  8
_U+30EC_U+30A4_U+30E4_U+30FC 1
 62
   179
420
  2234388
370
     9
  0
INSERT
  5
AC
330
1F
100
AcDbEntity
  8
_U+30EC_U+30A4_U+30E4_U+30FC 1
100
AcDbBlockReference
  2
block 4
 10
0.0
 20
0.0
 30
0.0
  0
POLYLINE
  5
BB
330
1F
100
AcDbEntity
  8
_U+30EC_U+30A4_U+30E4_U+30FC 1
 62
   179
420
  2234388
370
     9
100
AcDb2dPolyline
 66
     1
 10
0.0
 20
0.0
 30
0.0
  0
VERTEX
  5
BC
330
BB
100
AcDbEntity
  8
_U+30EC_U+30A4_U+30E4_U+30FC 1
 62
   179
420
  2234388
370
     9
100
AcDbVertex
100
AcDb2dVertex
 10
102.2824812794454
 20
-130.9608124672601
 30
0.0
  0
VERTEX
  5
BD
330
BB
100
AcDbEntity
  8
_U+30EC_U+30A4_U+30E4_U+30FC 1
 62
   179
420
  2234388
370
     9
100
AcDbVertex
100
AcDb2dVertex
 10
102.2824812794454
 20
-128.460358856774
 30
0.0
  0
SEQEND
  5
BE
330
BB
100
AcDbEntity
  8
_U+30EC_U+30A4_U+30E4_U+30FC 1
 62
   179
420
  2234388
370
     9
  0
SPLINE
  5
BF
330
1F
100
AcDbEntity
  8
_U+30EC_U+30A4_U+30E4_U+30FC 1
 62
   179
420
  2234388
370
     9
100
AcDbSpline
210
0.0
220
0.0
230
1.0
 70
    11
 71
     3
 72
    17
 73
    13
 74
     0
 42
0.0000000001
 43
0.0000000001
 12
1.0
 22
0.0
 32
0.0
 13
1.0
 23
0.0
 33
0.0
 40
0.0
 40
0.0
 40
0.0
 40
0.0
 40
1.0
 40
1.0
 40
1.0
 40
2.0
 40
2.0
 40
2.0
 40
3.0
 40
3.0
 40
3.0
 40
4.0
 40
4.0
 40
4.0
 40
4.0
 10
102.3823879435632
 20
-131.9595616336769
 30
0.0
 10
102.3823879435632
 20
-131.9037521892465
 30
0.0
 10
102.3375851669285
 20
-131.8589494114797
 30
0.0
 10
102.2824812794454
 20
-131.8589494114797
 30
0.0
 10
102.2273421141854
 20
-131.8589494114797
 30
0.0
 10
102.1825746153276
 20
-131.9037521892465
 30
0.0
 10
102.1825746153276
 20
-131.9595616336769
 30
0.0
 10
102.1825746153276
 20
-132.0146655225518
 30
0.0
 10
102.2273421141854
 20
-132.0594683003185
 30
0.0
 10
102.2824812794454
 20
-132.0594683003185
 30
0.0
 10
102.3375851669285
 20
-132.0594683003185
 30
0.0
 10
102.3823879435632
 20
-132.0146655225518
 30
0.0
 10
102.3823879435632
 20
-131.9595616336769
 30
0.0
  0
POLYLINE
  5
C0
330
1F
100
AcDbEntity
  8
_U+30EC_U+30A4_U+30E4_U+30FC 1
 62
   179
420
  2234388
370
     9
100
AcDb2dPolyline
 66
     1
 10
0.0
 20
0.0
 30
0.0
  0
VERTEX
  5
C1
330
C0
100
AcDbEntity
  8
_U+30EC_U+30A4_U+30E4_U+30FC 1
 62
   179
420
  2234388
370
     9
100
AcDbVertex
100
AcDb2dVertex
 10
102.2824812794454
 20
-131.9592088558991
 30
0.0
  0
VERTEX
  5
C2
330
C0
100
AcDbEntity
  8
_U+30EC_U+30A4_U+30E4_U+30FC 1
 62
   179
420
  2234388
370
     9
100
AcDbVertex
100
AcDb2dVertex
 10
102.2824812794454
 20
-128.0188927457732
 30
0.0
  0
SEQEND
  5
C3
330
C0
100
AcDbEntity
  8
_U+30EC_U+30A4_U+30E4_U+30FC 1
 62
   179
420
  2234388
370
     9
  0
POLYLINE
  5
C4
330
1F
100
AcDbEntity
  8
_U+30EC_U+30A4_U+30E4_U+30FC 1
 62
   179
420
  2234388
370
     9
100
AcDb2dPolyline
 66
     1
 10
0.0
 20
0.0
 30
0.0
  0
VERTEX
  5
C5
330
C4
100
AcDbEntity
  8
_U+30EC_U+30A4_U+30E4_U+30FC 1
 62
   179
420
  2234388
370
     9
100
AcDbVertex
100
AcDb2dVertex
 10
101.1545449193326
 20
-131.9592088558991
 30
0.0
  0
VERTEX
  5
C6
330
C4
100
AcDbEntity
  8
_U+30EC_U+30A4_U+30E4_U+30FC 1
 62
   179
420
  2234388
370
     9
100
AcDbVertex
100
AcDb2dVertex
 10
103.282923753922
 20
-131.9592088558991
 30
0.0
  0
SEQEND
  5
C7
330
C4
100
AcDbEntity
  8
_U+30EC_U+30A4_U+30E4_U+30FC 1
 62
   179
420
  2234388
370
     9
  0
INSERT
  5
C9
330
1F
100
AcDbEntity
  8
_U+30EC_U+30A4_U+30E4_U+30FC 1
100
AcDbBlockReference
  2
block 5
 10
0.0
 20
0.0
 30
0.0
  0
SPLINE
  5
CE
330
1F
100
AcDbEntity
  8
_U+30EC_U+30A4_U+30E4_U+30FC 1
 62
   179
420
  2234388
370
     9
100
AcDbSpline
210
0.0
220
0.0
230
1.0
 70
    11
 71
     3
 72
    17
 73
    13
 74
     0
 42
0.0000000001
 43
0.0000000001
 12
1.0
 22
0.0
 32
0.0
 13
1.0
 23
0.0
 33
0.0
 40
0.0
 40
0.0
 40
0.0
 40
0.0
 40
1.0
 40
1.0
 40
1.0
 40
2.0
 40
2.0
 40
2.0
 40
3.0
 40
3.0
 40
3.0
 40
4.0
 40
4.0
 40
4.0
 40
4.0
 10
80.50879044604964
 20
-129.2472296899105
 30
0.0
 10
80.50879044604964
 20
-129.1921258010355
 30
0.0
 10
80.46398766941488
 20
-129.1473230232688
 30
0.0
 10
80.4088837819318
 20
-129.1473230232688
 30
0.0
 10
80.35374461667186
 20
-129.1473230232688
 30
0.0
 10
80.30897711781397
 20
-129.1921258010355
 30
0.0
 10
80.30897711781397
 20
-129.2472296899105
 30
0.0
 10
80.30897711781397
 20
-129.3023688565635
 30
0.0
 10
80.35374461667186
 20
-129.3471363565521
 30
0.0
 10
80.4088837819318
 20
-129.3471363565521
 30
0.0
 10
80.46398766941488
 20
-129.3471363565521
 30
0.0
 10
80.50879044604964
 20
-129.3023688565635
 30
0.0
 10
80.50879044604964
 20
-129.2472296899105
 30
0.0
  0
SPLINE
  5
CF
330
1F
100
AcDbEntity
  8
_U+30EC_U+30A4_U+30E4_U+30FC 1
 62
   179
420
  2234388
370
     9
100
AcDbSpline
210
0.0
220
0.0
230
1.0
 70
    11
 71
     3
 72
    17
 73
    13
 74
     0
 42
0.0000000001
 43
0.0000000001
 12
1.0
 22
0.0
 32
0.0
 13
1.0
 23
0.0
 33
0.0
 40
0.0
 40
0.0
 40
0.0
 40
0.0
 40
1.0
 40
1.0
 40
1.0
 40
2.0
 40
2.0
 40
2.0
 40
3.0
 40
3.0
 40
3.0
 40
4.0
 40
4.0
 40
4.0
 40
4.0
 10
81.50856264276555
 20
-129.2472296899105
 30
0.0
 10
81.50856264276555
 20
-129.1921258010355
 30
0.0
 10
81.46375986613079
 20
-129.1473230232688
 30
0.0
 10
81.40862070087084
 20
-129.1473230232688
 30
0.0
 10
81.35351681338777
 20
-129.1473230232688
 30
0.0
 10
81.308714036753
 20
-129.1921258010355
 30
0.0
 10
81.308714036753
 20
-129.2472296899105
 30
0.0
 10
81.308714036753
 20
-129.3023688565635
 30
0.0
 10
81.35351681338777
 20
-129.3471363565521
 30
0.0
 10
81.40862070087084
 20
-129.3471363565521
 30
0.0
 10
81.46375986613079
 20
-129.3471363565521
 30
0.0
 10
81.50856264276555
 20
-129.3023688565635
 30
0.0
 10
81.50856264276555
 20
-129.2472296899105
 30
0.0
  0
INSERT
  5
D1
330
1F
100
AcDbEntity
  8
_U+30EC_U+30A4_U+30E4_U+30FC 1
100
AcDbBlockReference
  2
block 6
 10
0.0
 20
0.0
 30
0.0
  0
POLYLINE
  5
D6
330
1F
100
AcDbEntity
  8
_U+30EC_U+30A4_U+30E4_U+30FC 1
 62
   179
420
  2234388
370
     9
100
AcDb2dPolyline
 66
     1
 10
0.0
 20
0.0
 30
0.0
  0
VERTEX
  5
D7
330
D6
100
AcDbEntity
  8
_U+30EC_U+30A4_U+30E4_U+30FC 1
 62
   179
420
  2234388
370
     9
100
AcDbVertex
100
AcDb2dVertex
 10
82.26992762334152
 20
-129.2472296899105
 30
0.0
  0
VERTEX
  5
D8
330
D6
100
AcDbEntity
  8
_U+30EC_U+30A4_U+30E4_U+30FC 1
 62
   179
420
  2234388
370
     9
100
AcDbVertex
100
AcDb2dVertex
 10
78.43068244351103
 20
-129.2472296899105
 30
0.0
  0
SEQEND
  5
D9
330
D6
100
AcDbEntity
  8
_U+30EC_U+30A4_U+30E4_U+30FC 1
 62
   179
420
  2234388
370
     9
  0
ENDSEC
  0
SECTION
  2
OBJECTS
  0
DICTIONARY
  5
C
330
0
100
AcDbDictionary
281
     1
  3
ACAD_GROUP
350
D
  3
ACAD_LAYOUT
350
1A
  3
ACAD_MATERIAL
350
3B
  3
ACAD_MLEADERSTYLE
350
DB
  3
ACAD_MLINESTYLE
350
17
  3
ACAD_PLOTSETTINGS
350
19
  3
ACAD_PLOTSTYLENAME
350
E
  3
ACAD_TABLESTYLE
350
DA
  3
ACAD_VISUALSTYLE
350
2A
  0
SUN
  5
3F
330
29
100
AcDbSun
 90
        1
290
     0
 63
     7
421
 16777215
 40
1.0
291
     1
 91
  2455826
 92
 54000000
292
     0
 70
     2
 71
   256
280
     1
  0
DICTIONARY
  5
D
102
{ACAD_REACTORS
330
C
102
}
330
C
100
AcDbDictionary
281
     1
  0
DICTIONARY
  5
1A
102
{ACAD_REACTORS
330
C
102
}
330
C
100
AcDbDictionary
281
     1
  3
Layout1
350
1E
  3
Layout2
350
26
  3
Model
350
22
  0
DICTIONARY
  5
3B
102
{ACAD_REACTORS
330
C
102
}
330
C
100
AcDbDictionary
281
     1
  3
ByBlock
350
3D
  3
ByLayer
350
3C
  3
Global
350
3E
  0
DICTIONARY
  5
DB
102
{ACAD_REACTORS
330
C
102
}
330
C
100
AcDbDictionary
281
     1
  0
DICTIONARY
  5
17
102
{ACAD_REACTORS
330
C
102
}
330
C
100
AcDbDictionary
281
     1
  3
Standard
350
18
  0
DICTIONARY
  5
19
102
{ACAD_REACTORS
330
C
102
}
330
C
100
AcDbDictionary
281
     1
  0
ACDBDICTIONARYWDFLT
  5
E
102
{ACAD_REACTORS
330
C
102
}
330
C
100
AcDbDictionary
281
     1
  3
Normal
350
F
100
AcDbDictionaryWithDefault
340
F
  0
DICTIONARY
  5
DA
102
{ACAD_REACTORS
330
C
102
}
330
C
100
AcDbDictionary
281
     1
  0
DICTIONARY
  5
2A
102
{ACAD_REACTORS
330
C
102
}
330
C
100
AcDbDictionary
281
     1
  3
2dWireframe
350
2F
  3
3D Hidden
350
31
  3
3dWireframe
350
30
  3
Basic
350
32
  3
Brighten
350
36
  3
ColorChange
350
3A
  3
Conceptual
350
34
  3
Dim
350
35
  3
Facepattern
350
39
  3
Flat
350
2B
  3
FlatWithEdges
350
2C
  3
Gouraud
350
2D
  3
GouraudWithEdges
350
2E
  3
Linepattern
350
38
  3
Realistic
350
33
  3
Thicken
350
37
  0
LAYOUT
  5
1E
102
{ACAD_REACTORS
330
1A
102
}
330
1A
100
AcDbPlotSettings
  1

  2
none_device
  4

  6

 40
0.0
 41
0.0
 42
0.0
 43
0.0
 44
0.0
 45
0.0
 46
0.0
 47
0.0
 48
0.0
 49
0.0
140
0.0
141
0.0
142
1.0
143
1.0
 70
   688
 72
     0
 73
     0
 74
     5
  7

 75
    16
 76
     0
 77
     2
 78
   300
147
1.0
148
0.0
149
0.0
100
AcDbLayout
  1
Layout1
 70
     1
 71
     1
 10
0.0
 20
0.0
 11
12.0
 21
9.0
 12
0.0
 22
0.0
 32
0.0
 14
1.000000000000000E+20
 24
1.000000000000000E+20
 34
1.000000000000000E+20
 15
-1.000000000000000E+20
 25
-1.000000000000000E+20
 35
-1.000000000000000E+20
146
0.0
 13
0.0
 23
0.0
 33
0.0
 16
1.0
 26
0.0
 36
0.0
 17
0.0
 27
1.0
 37
0.0
 76
     0
330
1B
  0
LAYOUT
  5
26
102
{ACAD_REACTORS
330
1A
102
}
330
1A
100
AcDbPlotSettings
  1

  2
none_device
  4

  6

 40
0.0
 41
0.0
 42
0.0
 43
0.0
 44
0.0
 45
0.0
 46
0.0
 47
0.0
 48
0.0
 49
0.0
140
0.0
141
0.0
142
1.0
143
1.0
 70
   688
 72
     0
 73
     0
 74
     5
  7

 75
    16
 76
     0
 77
     2
 78
   300
147
1.0
148
0.0
149
0.0
100
AcDbLayout
  1
Layout2
 70
     1
 71
     2
 10
0.0
 20
0.0
 11
0.0
 21
0.0
 12
0.0
 22
0.0
 32
0.0
 14
0.0
 24
0.0
 34
0.0
 15
0.0
 25
0.0
 35
0.0
146
0.0
 13
0.0
 23
0.0
 33
0.0
 16
1.0
 26
0.0
 36
0.0
 17
0.0
 27
1.0
 37
0.0
 76
     0
330
23
  0
LAYOUT
  5
22
102
{ACAD_REACTORS
330
1A
102
}
330
1A
100
AcDbPlotSettings
  1

  2
none_device
  4

  6

 40
0.0
 41
0.0
 42
0.0
 43
0.0
 44
0.0
 45
0.0
 46
0.0
 47
0.0
 48
0.0
 49
0.0
140
0.0
141
0.0
142
1.0
143
1.0
 70
  1712
 72
     0
 73
     0
 74
     0
  7

 75
     0
 76
     0
 77
     2
 78
   300
147
1.0
148
0.0
149
0.0
100
AcDbLayout
  1
Model
 70
     1
 71
     0
 10
0.0
 20
0.0
 11
12.0
 21
9.0
 12
0.0
 22
0.0
 32
0.0
 14
1.000000000000000E+20
 24
1.000000000000000E+20
 34
1.000000000000000E+20
 15
-1.000000000000000E+20
 25
-1.000000000000000E+20
 35
-1.000000000000000E+20
146
0.0
 13
0.0
 23
0.0
 33
0.0
 16
1.0
 26
0.0
 36
0.0
 17
0.0
 27
1.0
 37
0.0
 76
     0
330
1F
331
29
  0
MATERIAL
  5
3D
102
{ACAD_REACTORS
330
3B
102
}
330
3B
100
AcDbMaterial
  1
ByBlock
 72
     1
 94
      127
  0
MATERIAL
  5
3C
102
{ACAD_REACTORS
330
3B
102
}
330
3B
100
AcDbMaterial
  1
ByLayer
 72
     1
 94
      127
  0
MATERIAL
  5
3E
102
{ACAD_REACTORS
330
3B
102
}
330
3B
100
AcDbMaterial
  1
Global
 72
     1
 94
      127
  0
MLINESTYLE
  5
18
102
{ACAD_REACTORS
330
17
102
}
330
17
100
AcDbMlineStyle
  2
Standard
 70
     0
  3

 62
   256
 51
90.0
 52
90.0
 71
     2
 49
0.5
 62
   256
  6
BYLAYER
 49
-0.5
 62
   256
  6
BYLAYER
  0
ACDBPLACEHOLDER
  5
F
102
{ACAD_REACTORS
330
E
102
}
330
E
  0
VISUALSTYLE
  5
2F
102
{ACAD_REACTORS
330
2A
102
}
330
2A
100
AcDbVisualStyle
  2
2dWireframe
 70
     4
177
     2
291
     0
 71
     0
176
     1
 72
     2
176
     1
 73
     0
176
     1
 90
        0
176
     1
 40
-0.6
176
     1
 41
-30.0
176
     1
 62
     5
 63
     7
421
 16777215
176
     1
 74
     1
176
     1
 91
        4
176
     1
 64
     7
176
     1
 65
   257
176
     1
 75
     1
176
     1
175
     1
176
     1
 42
1.0
176
     1
 92
        0
176
     1
 66
   257
176
     1
 43
1.0
176
     1
 76
     1
176
     1
 77
     6
176
     1
 78
     2
176
     1
 67
     7
176
     1
 79
     5
176
     1
170
     0
176
     1
171
     0
176
     1
290
     0
176
     1
 93
        1
176
     1
 44
0.0
176
     1
173
     0
176
     1
  0
VISUALSTYLE
  5
31
102
{ACAD_REACTORS
330
2A
102
}
330
2A
100
AcDbVisualStyle
  2
3D Hidden
 70
     6
177
     2
291
     0
 71
     1
176
     1
 72
     2
176
     1
 73
     2
176
     1
 90
        0
176
     1
 40
-0.6
176
     1
 41
-30.0
176
     1
 62
     5
 63
     7
421
 16777215
176
     1
 74
     2
176
     1
 91
        2
176
     1
 64
     7
176
     1
 65
   257
176
     1
 75
     2
176
     1
175
     1
176
     1
 42
40.0
176
     1
 92
        0
176
     1
 66
   257
176
     1
 43
1.0
176
     1
 76
     1
176
     1
 77
     6
176
     1
 78
     2
176
     1
 67
     7
176
     1
 79
     3
176
     1
170
     0
176
     1
171
     0
176
     1
290
     0
176
     1
 93
        1
176
     1
 44
0.0
176
     1
173
     0
176
     1
  0
VISUALSTYLE
  5
30
102
{ACAD_REACTORS
330
2A
102
}
330
2A
100
AcDbVisualStyle
  2
3dWireframe
 70
     5
177
     2
291
     0
 71
     0
176
     1
 72
     2
176
     1
 73
     0
176
     1
 90
        0
176
     1
 40
-0.6
176
     1
 41
-30.0
176
     1
 62
     5
 63
     7
421
 16777215
176
     1
 74
     1
176
     1
 91
        4
176
     1
 64
     7
176
     1
 65
   257
176
     1
 75
     1
176
     1
175
     1
176
     1
 42
1.0
176
     1
 92
        0
176
     1
 66
   257
176
     1
 43
1.0
176
     1
 76
     1
176
     1
 77
     6
176
     1
 78
     2
176
     1
 67
     7
176
     1
 79
     5
176
     1
170
     0
176
     1
171
     0
176
     1
290
     0
176
     1
 93
        1
176
     1
 44
0.0
176
     1
173
     0
176
     1
  0
VISUALSTYLE
  5
32
102
{ACAD_REACTORS
330
2A
102
}
330
2A
100
AcDbVisualStyle
  2
Basic
 70
     7
177
     2
291
     1
 71
     1
176
     1
 72
     0
176
     1
 73
     1
176
     1
 90
        0
176
     1
 40
-0.6
176
     1
 41
-30.0
176
     1
 62
     5
 63
     7
421
 16777215
176
     1
 74
     0
176
     1
 91
        4
176
     1
 64
     7
176
     1
 65
   257
176
     1
 75
     1
176
     1
175
     1
176
     1
 42
1.0
176
     1
 92
        8
176
     1
 66
     7
176
     1
 43
1.0
176
     1
 76
     1
176
     1
 77
     6
176
     1
 78
     2
176
     1
 67
     7
176
     1
 79
     5
176
     1
170
     0
176
     1
171
     0
176
     1
290
     0
176
     1
 93
        1
176
     1
 44
0.0
176
     1
173
     0
176
     1
  0
VISUALSTYLE
  5
36
102
{ACAD_REACTORS
330
2A
102
}
330
2A
100
AcDbVisualStyle
  2
Brighten
 70
    12
177
     2
291
     1
 71
     2
176
     1
 72
     2
176
     1
 73
     0
176
     1
 90
        0
176
     1
 40
-0.6
176
     1
 41
-30.0
176
     1
 62
     5
 63
     7
421
 16777215
176
     1
 74
     1
176
     1
 91
        4
176
     1
 64
     7
176
     1
 65
   257
176
     1
 75
     1
176
     1
175
     1
176
     1
 42
1.0
176
     1
 92
        8
176
     1
 66
     7
176
     1
 43
1.0
176
     1
 76
     1
176
     1
 77
     6
176
     1
 78
     2
176
     1
 67
     7
176
     1
 79
     5
176
     1
170
     0
176
     1
171
     0
176
     1
290
     0
176
     1
 93
        1
176
     1
 44
50.0
176
     1
173
     0
176
     1
  0
VISUALSTYLE
  5
3A
102
{ACAD_REACTORS
330
2A
102
}
330
2A
100
AcDbVisualStyle
  2
ColorChange
 70
    16
177
     2
291
     1
 71
     2
176
     1
 72
     2
176
     1
 73
     3
176
     1
 90
        0
176
     1
 40
-0.6
176
     1
 41
-30.0
176
     1
 62
     5
 63
     8
421
  8421504
176
     1
 74
     1
176
     1
 91
        4
176
     1
 64
     7
176
     1
 65
   257
176
     1
 75
     1
176
     1
175
     1
176
     1
 42
1.0
176
     1
 92
        8
176
     1
 66
     8
424
  8421504
176
     1
 43
1.0
176
     1
 76
     1
176
     1
 77
     6
176
     1
 78
     2
176
     1
 67
     7
176
     1
 79
     5
176
     1
170
     0
176
     1
171
     0
176
     1
290
     0
176
     1
 93
        1
176
     1
 44
0.0
176
     1
173
     0
176
     1
  0
VISUALSTYLE
  5
34
102
{ACAD_REACTORS
330
2A
102
}
330
2A
100
AcDbVisualStyle
  2
Conceptual
 70
     9
177
     2
291
     0
 71
     3
176
     1
 72
     2
176
     1
 73
     0
176
     1
 90
        0
176
     1
 40
-0.6
176
     1
 41
-30.0
176
     1
 62
     5
 63
     7
421
 16777215
176
     1
 74
     2
176
     1
 91
        2
176
     1
 64
     7
176
     1
 65
   257
176
     1
 75
     1
176
     1
175
     1
176
     1
 42
40.0
176
     1
 92
        8
176
     1
 66
     7
176
     1
 43
1.0
176
     1
 76
     1
176
     1
 77
     6
176
     1
 78
     2
176
     1
 67
     7
176
     1
 79
     3
176
     1
170
     0
176
     1
171
     0
176
     1
290
     0
176
     1
 93
        1
176
     1
 44
0.0
176
     1
173
     0
176
     1
  0
VISUALSTYLE
  5
35
102
{ACAD_REACTORS
330
2A
102
}
330
2A
100
AcDbVisualStyle
  2
Dim
 70
    11
177
     2
291
     1
 71
     2
176
     1
 72
     2
176
     1
 73
     0
176
     1
 90
        0
176
     1
 40
-0.6
176
     1
 41
-30.0
176
     1
 62
     5
 63
     7
421
 16777215
176
     1
 74
     1
176
     1
 91
        4
176
     1
 64
     7
176
     1
 65
   257
176
     1
 75
     1
176
     1
175
     1
176
     1
 42
1.0
176
     1
 92
        8
176
     1
 66
     7
176
     1
 43
1.0
176
     1
 76
     1
176
     1
 77
     6
176
     1
 78
     2
176
     1
 67
     7
176
     1
 79
     5
176
     1
170
     0
176
     1
171
     0
176
     1
290
     0
176
     1
 93
        1
176
     1
 44
-50.0
176
     1
173
     0
176
     1
  0
VISUALSTYLE
  5
39
102
{ACAD_REACTORS
330
2A
102
}
330
2A
100
AcDbVisualStyle
  2
Facepattern
 70
    15
177
     2
291
     1
 71
     2
176
     1
 72
     2
176
     1
 73
     0
176
     1
 90
        0
176
     1
 40
-0.6
176
     1
 41
-30.0
176
     1
 62
     5
 63
     7
421
 16777215
176
     1
 74
     1
176
     1
 91
        4
176
     1
 64
     7
176
     1
 65
   257
176
     1
 75
     1
176
     1
175
     1
176
     1
 42
1.0
176
     1
 92
        8
176
     1
 66
     7
176
     1
 43
1.0
176
     1
 76
     1
176
     1
 77
     6
176
     1
 78
     2
176
     1
 67
     7
176
     1
 79
     5
176
     1
170
     0
176
     1
171
     0
176
     1
290
     0
176
     1
 93
        1
176
     1
 44
0.0
176
     1
173
     0
176
     1
  0
VISUALSTYLE
  5
2B
102
{ACAD_REACTORS
330
2A
102
}
330
2A
100
AcDbVisualStyle
  2
Flat
 70
     0
177
     2
291
     1
 71
     2
176
     1
 72
     1
176
     1
 73
     1
176
     1
 90
        2
176
     1
 40
-0.6
176
     1
 41
30.0
176
     1
 62
     5
 63
     7
421
 16777215
176
     1
 74
     0
176
     1
 91
        4
176
     1
 64
     7
176
     1
 65
   257
176
     1
 75
     1
176
     1
175
     1
176
     1
 42
1.0
176
     1
 92
        8
176
     1
 66
     7
176
     1
 43
1.0
176
     1
 76
     1
176
     1
 77
     6
176
     1
 78
     2
176
     1
 67
     7
176
     1
 79
     5
176
     1
170
     0
176
     1
171
     0
176
     1
290
     0
176
     1
 93
       13
176
     1
 44
0.0
176
     1
173
     0
176
     1
  0
VISUALSTYLE
  5
2C
102
{ACAD_REACTORS
330
2A
102
}
330
2A
100
AcDbVisualStyle
  2
FlatWithEdges
 70
     1
177
     2
291
     1
 71
     2
176
     1
 72
     1
176
     1
 73
     1
176
     1
 90
        2
176
     1
 40
-0.6
176
     1
 41
30.0
176
     1
 62
     5
 63
     7
421
 16777215
176
     1
 74
     1
176
     1
 91
        4
176
     1
 64
     7
176
     1
 65
   257
176
     1
 75
     1
176
     1
175
     1
176
     1
 42
1.0
176
     1
 92
        0
176
     1
 66
   257
176
     1
 43
1.0
176
     1
 76
     1
176
     1
 77
     6
176
     1
 78
     2
176
     1
 67
     7
176
     1
 79
     5
176
     1
170
     0
176
     1
171
     0
176
     1
290
     0
176
     1
 93
       13
176
     1
 44
0.0
176
     1
173
     0
176
     1
  0
VISUALSTYLE
  5
2D
102
{ACAD_REACTORS
330
2A
102
}
330
2A
100
AcDbVisualStyle
  2
Gouraud
 70
     2
177
     2
291
     1
 71
     2
176
     1
 72
     2
176
     1
 73
     1
176
     1
 90
        2
176
     1
 40
-0.6
176
     1
 41
30.0
176
     1
 62
     5
 63
     7
421
 16777215
176
     1
 74
     0
176
     1
 91
        4
176
     1
 64
     7
176
     1
 65
   257
176
     1
 75
     1
176
     1
175
     1
176
     1
 42
1.0
176
     1
 92
        0
176
     1
 66
     7
176
     1
 43
1.0
176
     1
 76
     1
176
     1
 77
     6
176
     1
 78
     2
176
     1
 67
     7
176
     1
 79
     5
176
     1
170
     0
176
     1
171
     0
176
     1
290
     0
176
     1
 93
       13
176
     1
 44
0.0
176
     1
173
     0
176
     1
  0
VISUALSTYLE
  5
2E
102
{ACAD_REACTORS
330
2A
102
}
330
2A
100
AcDbVisualStyle
  2
GouraudWithEdges
 70
     3
177
     2
291
     1
 71
     2
176
     1
 72
     2
176
     1
 73
     1
176
     1
 90
        2
176
     1
 40
-0.6
176
     1
 41
30.0
176
     1
 62
     5
 63
     7
421
 16777215
176
     1
 74
     1
176
     1
 91
        4
176
     1
 64
     7
176
     1
 65
   257
176
     1
 75
     1
176
     1
175
     1
176
     1
 42
1.0
176
     1
 92
        0
176
     1
 66
   257
176
     1
 43
1.0
176
     1
 76
     1
176
     1
 77
     6
176
     1
 78
     2
176
     1
 67
     7
176
     1
 79
     5
176
     1
170
     0
176
     1
171
     0
176
     1
290
     0
176
     1
 93
       13
176
     1
 44
0.0
176
     1
173
     0
176
     1
  0
VISUALSTYLE
  5
38
102
{ACAD_REACTORS
330
2A
102
}
330
2A
100
AcDbVisualStyle
  2
Linepattern
 70
    14
177
     2
291
     1
 71
     2
176
     1
 72
     2
176
     1
 73
     0
176
     1
 90
        0
176
     1
 40
-0.6
176
     1
 41
-30.0
176
     1
 62
     5
 63
     7
421
 16777215
176
     1
 74
     1
176
     1
 91
        4
176
     1
 64
     7
176
     1
 65
   257
176
     1
 75
     7
176
     1
175
     7
176
     1
 42
1.0
176
     1
 92
        8
176
     1
 66
     7
176
     1
 43
1.0
176
     1
 76
     1
176
     1
 77
     6
176
     1
 78
     2
176
     1
 67
     7
176
     1
 79
     5
176
     1
170
     0
176
     1
171
     0
176
     1
290
     0
176
     1
 93
        1
176
     1
 44
0.0
176
     1
173
     0
176
     1
  0
VISUALSTYLE
  5
33
102
{ACAD_REACTORS
330
2A
102
}
330
2A
100
AcDbVisualStyle
  2
Realistic
 70
     8
177
     2
291
     0
 71
     2
176
     1
 72
     2
176
     1
 73
     0
176
     1
 90
        0
176
     1
 40
-0.6
176
     1
 41
-30.0
176
     1
 62
     5
 63
     7
421
 16777215
176
     1
 74
     1
176
     1
 91
        0
176
     1
 64
     7
176
     1
 65
   257
176
     1
 75
     1
176
     1
175
     1
176
     1
 42
1.0
176
     1
 92
        8
176
     1
 66
     8
424
  7895160
176
     1
 43
1.0
176
     1
 76
     1
176
     1
 77
     6
176
     1
 78
     2
176
     1
 67
     7
176
     1
 79
     5
176
     1
170
     0
176
     1
171
     0
176
     1
290
     0
176
     1
 93
       13
176
     1
 44
0.0
176
     1
173
     0
176
     1
  0
VISUALSTYLE
  5
37
102
{ACAD_REACTORS
330
2A
102
}
330
2A
100
AcDbVisualStyle
  2
Thicken
 70
    13
177
     2
291
     1
 71
     2
176
     1
 72
     2
176
     1
 73
     0
176
     1
 90
        0
176
     1
 40
-0.6
176
     1
 41
-30.0
176
     1
 62
     5
 63
     7
421
 16777215
176
     1
 74
     1
176
     1
 91
        4
176
     1
 64
     7
176
     1
 65
   257
176
     1
 75
     1
176
     1
175
     1
176
     1
 42
1.0
176
     1
 92
       12
176
     1
 66
     7
176
     1
 43
1.0
176
     1
 76
     1
176
     1
 77
     6
176
     1
 78
     2
176
     1
 67
     7
176
     1
 79
     5
176
     1
170
     0
176
     1
171
     0
176
     1
290
     0
176
     1
 93
        1
176
     1
 44
0.0
176
     1
173
     0
176
     1
  0
ENDSEC
  0
EOF
