  0
SECTION
  2
HEADER
  9
$ACADVER
  1
AC1024
  9
$ACADMAINTVER
 70
     6
  9
$DWGCODEPAGE
  3
UNDEFINED
  9
$INSBASE
 10
0.0
 20
0.0
 30
0.0
  9
$EXTMIN
 10
1.000000000000000E+20
 20
1.000000000000000E+20
 30
1.000000000000000E+20
  9
$EXTMAX
 10
-1.000000000000000E+20
 20
-1.000000000000000E+20
 30
-1.000000000000000E+20
  9
$LIMMIN
 10
0.0
 20
0.0
  9
$LIMMAX
 10
12.0
 20
9.0
  9
$ORTHOMODE
 70
     0
  9
$REGENMODE
 70
     1
  9
$FILLMODE
 70
     1
  9
$QTEXTMODE
 70
     0
  9
$MIRRTEXT
 70
     1
  9
$LTSCALE
 40
1.0
  9
$ATTMODE
 70
     1
  9
$TEXTSIZE
 40
0.2
  9
$TRACEWID
 40
0.05
  9
$TEXTSTYLE
  7
Standard
  9
$CLAYER
  8
0
  9
$CELTYPE
  6
ByLayer
  9
$CECOLOR
 62
   256
  9
$CELTSCALE
 40
1.0
  9
$DISPSILH
 70
     0
  9
$DIMSCALE
 40
1.0
  9
$DIMASZ
 40
0.18
  9
$DIMEXO
 40
0.0625
  9
$DIMDLI
 40
0.38
  9
$DIMRND
 40
0.0
  9
$DIMDLE
 40
0.0
  9
$DIMEXE
 40
0.18
  9
$DIMTP
 40
0.0
  9
$DIMTM
 40
0.0
  9
$DIMTXT
 40
0.18
  9
$DIMCEN
 40
0.09
  9
$DIMTSZ
 40
0.0
  9
$DIMTOL
 70
     0
  9
$DIMLIM
 70
     0
  9
$DIMTIH
 70
     1
  9
$DIMTOH
 70
     1
  9
$DIMSE1
 70
     0
  9
$DIMSE2
 70
     0
  9
$DIMTAD
 70
     0
  9
$DIMZIN
 70
     0
  9
$DIMBLK
  1

  9
$DIMASO
 70
     1
  9
$DIMSHO
 70
     1
  9
$DIMPOST
  1

  9
$DIMAPOST
  1

  9
$DIMALT
 70
     0
  9
$DIMALTD
 70
     2
  9
$DIMALTF
 40
25.4
  9
$DIMLFAC
 40
1.0
  9
$DIMTOFL
 70
     0
  9
$DIMTVP
 40
0.0
  9
$DIMTIX
 70
     0
  9
$DIMSOXD
 70
     0
  9
$DIMSAH
 70
     0
  9
$DIMBLK1
  1

  9
$DIMBLK2
  1

  9
$DIMSTYLE
  2
Standard
  9
$DIMCLRD
 70
     0
  9
$DIMCLRE
 70
     0
  9
$DIMCLRT
 70
     0
  9
$DIMTFAC
 40
1.0
  9
$DIMGAP
 40
0.09
  9
$DIMJUST
 70
     0
  9
$DIMSD1
 70
     0
  9
$DIMSD2
 70
     0
  9
$DIMTOLJ
 70
     1
  9
$DIMTZIN
 70
     0
  9
$DIMALTZ
 70
     0
  9
$DIMALTTZ
 70
     0
  9
$DIMUPT
 70
     0
  9
$DIMDEC
 70
     4
  9
$DIMTDEC
 70
     4
  9
$DIMALTU
 70
     2
  9
$DIMALTTD
 70
     2
  9
$DIMTXSTY
  7
Standard
  9
$DIMAUNIT
 70
     0
  9
$DIMADEC
 70
     0
  9
$DIMALTRND
 40
0.0
  9
$DIMAZIN
 70
     0
  9
$DIMDSEP
 70
    46
  9
$DIMATFIT
 70
     3
  9
$DIMFRAC
 70
     0
  9
$DIMLDRBLK
  1

  9
$DIMLUNIT
 70
     2
  9
$DIMLWD
 70
    -2
  9
$DIMLWE
 70
    -2
  9
$DIMTMOVE
 70
     0
  9
$DIMFXL
 40
1.0
  9
$DIMFXLON
 70
     0
  9
$DIMJOGANG
 40
0.7853981633974483
  9
$DIMTFILL
 70
     0
  9
$DIMTFILLCLR
 70
     0
  9
$DIMARCSYM
 70
     0
  9
$DIMLTYPE
  6

  9
$DIMLTEX1
  6

  9
$DIMLTEX2
  6

  9
$DIMTXTDIRECTION
 70
     0
  9
$LUNITS
 70
     2
  9
$LUPREC
 70
     4
  9
$SKETCHINC
 40
0.1
  9
$FILLETRAD
 40
0.5
  9
$AUNITS
 70
     0
  9
$AUPREC
 70
     0
  9
$MENU
  1
.
  9
$ELEVATION
 40
0.0
  9
$PELEVATION
 40
0.0
  9
$THICKNESS
 40
0.0
  9
$LIMCHECK
 70
     0
  9
$CHAMFERA
 40
0.5
  9
$CHAMFERB
 40
0.5
  9
$CHAMFERC
 40
1.0
  9
$CHAMFERD
 40
0.0
  9
$SKPOLY
 70
     0
  9
$TDCREATE
 40
2457917.617280081
  9
$TDUCREATE
 40
2457917.242280093
  9
$TDUPDATE
 40
2457917.617280081
  9
$TDUUPDATE
 40
2457917.242280093
  9
$TDINDWG
 40
0.0000000116
  9
$TDUSRTIMER
 40
0.0000000116
  9
$USRTIMER
 70
     1
  9
$ANGBASE
 50
0.0
  9
$ANGDIR
 70
     0
  9
$PDMODE
 70
     0
  9
$PDSIZE
 40
0.0
  9
$PLINEWID
 40
0.0
  9
$SPLFRAME
 70
     0
  9
$SPLINETYPE
 70
     6
  9
$SPLINESEGS
 70
     8
  9
$HANDSEED
  5
DE
  9
$SURFTAB1
 70
     6
  9
$SURFTAB2
 70
     6
  9
$SURFTYPE
 70
     6
  9
$SURFU
 70
     6
  9
$SURFV
 70
     6
  9
$UCSBASE
  2

  9
$UCSNAME
  2

  9
$UCSORG
 10
0.0
 20
0.0
 30
0.0
  9
$UCSXDIR
 10
1.0
 20
0.0
 30
0.0
  9
$UCSYDIR
 10
0.0
 20
1.0
 30
0.0
  9
$UCSORTHOREF
  2

  9
$UCSORTHOVIEW
 70
     0
  9
$UCSORGTOP
 10
0.0
 20
0.0
 30
0.0
  9
$UCSORGBOTTOM
 10
0.0
 20
0.0
 30
0.0
  9
$UCSORGLEFT
 10
0.0
 20
0.0
 30
0.0
  9
$UCSORGRIGHT
 10
0.0
 20
0.0
 30
0.0
  9
$UCSORGFRONT
 10
0.0
 20
0.0
 30
0.0
  9
$UCSORGBACK
 10
0.0
 20
0.0
 30
0.0
  9
$PUCSBASE
  2

  9
$PUCSNAME
  2

  9
$PUCSORG
 10
0.0
 20
0.0
 30
0.0
  9
$PUCSXDIR
 10
1.0
 20
0.0
 30
0.0
  9
$PUCSYDIR
 10
0.0
 20
1.0
 30
0.0
  9
$PUCSORTHOREF
  2

  9
$PUCSORTHOVIEW
 70
     0
  9
$PUCSORGTOP
 10
0.0
 20
0.0
 30
0.0
  9
$PUCSORGBOTTOM
 10
0.0
 20
0.0
 30
0.0
  9
$PUCSORGLEFT
 10
0.0
 20
0.0
 30
0.0
  9
$PUCSORGRIGHT
 10
0.0
 20
0.0
 30
0.0
  9
$PUCSORGFRONT
 10
0.0
 20
0.0
 30
0.0
  9
$PUCSORGBACK
 10
0.0
 20
0.0
 30
0.0
  9
$USERI1
 70
     0
  9
$USERI2
 70
     0
  9
$USERI3
 70
     0
  9
$USERI4
 70
     0
  9
$USERI5
 70
     0
  9
$USERR1
 40
0.0
  9
$USERR2
 40
0.0
  9
$USERR3
 40
0.0
  9
$USERR4
 40
0.0
  9
$USERR5
 40
0.0
  9
$WORLDVIEW
 70
     1
  9
$SHADEDGE
 70
     3
  9
$SHADEDIF
 70
    70
  9
$TILEMODE
 70
     1
  9
$MAXACTVP
 70
    64
  9
$PINSBASE
 10
0.0
 20
0.0
 30
0.0
  9
$PLIMCHECK
 70
     0
  9
$PEXTMIN
 10
1.000000000000000E+20
 20
1.000000000000000E+20
 30
1.000000000000000E+20
  9
$PEXTMAX
 10
-1.000000000000000E+20
 20
-1.000000000000000E+20
 30
-1.000000000000000E+20
  9
$PLIMMIN
 10
0.0
 20
0.0
  9
$PLIMMAX
 10
12.0
 20
9.0
  9
$UNITMODE
 70
     0
  9
$VISRETAIN
 70
     1
  9
$PLINEGEN
 70
     0
  9
$PSLTSCALE
 70
     1
  9
$TREEDEPTH
 70
  3020
  9
$CMLSTYLE
  2
Standard
  9
$CMLJUST
 70
     0
  9
$CMLSCALE
 40
1.0
  9
$PROXYGRAPHICS
 70
     1
  9
$MEASUREMENT
 70
     0
  9
$CELWEIGHT
370
    -1
  9
$ENDCAPS
280
     0
  9
$JOINSTYLE
280
     0
  9
$LWDISPLAY
290
     1
  9
$INSUNITS
 70
     1
  9
$HYPERLINKBASE
  1

  9
$STYLESHEET
  1

  9
$XEDIT
290
     1
  9
$CEPSNTYPE
380
     0
  9
$PSTYLEMODE
290
     1
  9
$FINGERPRINTGUID
  2
{E73605E4-E100-061B-2ECA-1993D580461F}
  9
$VERSIONGUID
  2
{FAEB1C32-E019-11D5-929B-00C0DF256EC4}
  9
$EXTNAMES
290
     1
  9
$PSVPSCALE
 40
0.0
  9
$OLESTARTUP
290
     0
  9
$SORTENTS
280
   127
  9
$INDEXCTL
280
     0
  9
$HIDETEXT
280
     1
  9
$XCLIPFRAME
280
     2
  9
$HALOGAP
280
     0
  9
$OBSCOLOR
 70
   257
  9
$OBSLTYPE
280
     0
  9
$INTERSECTIONDISPLAY
280
     0
  9
$INTERSECTIONCOLOR
 70
   257
  9
$DIMASSOC
280
     2
  9
$PROJECTNAME
  1

  9
$CAMERADISPLAY
290
     0
  9
$LENSLENGTH
 40
50.0
  9
$CAMERAHEIGHT
 40
0.0
  9
$STEPSPERSEC
 40
2.0
  9
$STEPSIZE
 40
6.0
  9
$3DDWFPREC
 40
2.0
  9
$PSOLWIDTH
 40
0.25
  9
$PSOLHEIGHT
 40
4.0
  9
$LOFTANG1
 40
1.570796326794897
  9
$LOFTANG2
 40
1.570796326794897
  9
$LOFTMAG1
 40
0.0
  9
$LOFTMAG2
 40
0.0
  9
$LOFTPARAM
 70
     7
  9
$LOFTNORMALS
280
     1
  9
$LATITUDE
 40
37.795
  9
$LONGITUDE
 40
-122.394
  9
$NORTHDIRECTION
 40
0.0
  9
$TIMEZONE
 70
 -8000
  9
$LIGHTGLYPHDISPLAY
280
     1
  9
$TILEMODELIGHTSYNCH
280
     1
  9
$CMATERIAL
347
3C
  9
$SOLIDHIST
280
     1
  9
$SHOWHIST
280
     1
  9
$DWFFRAME
280
     2
  9
$DGNFRAME
280
     2
  9
$REALWORLDSCALE
290
     1
  9
$INTERFERECOLOR
 62
   256
  9
$CSHADOW
280
     0
  9
$SHADOWPLANELOCATION
 40
0.0
  0
ENDSEC
  0
SECTION
  2
CLASSES
  0
CLASS
  1
ACDBDICTIONARYWDFLT
  2
AcDbDictionaryWithDefault
  3
ObjectDBX Classes
 90
        0
 91
        4
280
     0
281
     0
  0
CLASS
  1
VISUALSTYLE
  2
AcDbVisualStyle
  3
ObjectDBX Classes
 90
     4095
 91
        4
280
     0
281
     0
  0
CLASS
  1
MATERIAL
  2
AcDbMaterial
  3
ObjectDBX Classes
 90
     1153
 91
        4
280
     0
281
     0
  0
CLASS
  1
SUN
  2
AcDbSun
  3
SCENEOE
 90
     1024
 91
        4
280
     0
281
     0
  0
ENDSEC
  0
SECTION
  2
TABLES
  0
TABLE
  2
VPORT
  5
8
330
0
100
AcDbSymbolTable
 70
     1
  0
VPORT
  5
29
330
8
100
AcDbSymbolTableRecord
100
AcDbViewportTableRecord
  2
*Active
 70
     0
 10
0.0
 20
0.0
 11
1.0
 21
1.0
 12
0.0
 22
0.0
 13
0.0
 23
0.0
 14
0.5
 24
0.5
 15
0.5
 25
0.5
 16
0.0
 26
0.0
 36
1.0
 17
91.00082462281999
 27
-128.4993055234307
 37
0.0
 40
256.9986110468615
 41
0.7081814508812795
 42
50.0
 43
0.0
 44
0.0
 50
0.0
 51
0.0
 71
     0
 72
   100
 73
     1
 74
     3
 75
     0
 76
     0
 77
     0
 78
     0
281
     0
 65
     1
110
0.0
120
0.0
130
0.0
111
1.0
121
0.0
131
0.0
112
0.0
122
1.0
132
0.0
 79
     0
146
0.0
 60
     3
 61
     5
292
     1
282
     1
141
0.0
142
0.0
 63
   250
361
3F
  0
ENDTAB
  0
TABLE
  2
LTYPE
  5
5
330
0
100
AcDbSymbolTable
 70
     1
  0
LTYPE
  5
14
330
5
100
AcDbSymbolTableRecord
100
AcDbLinetypeTableRecord
  2
ByBlock
 70
     0
  3

 72
    65
 73
     0
 40
0.0
  0
LTYPE
  5
15
330
5
100
AcDbSymbolTableRecord
100
AcDbLinetypeTableRecord
  2
ByLayer
 70
     0
  3

 72
    65
 73
     0
 40
0.0
  0
LTYPE
  5
16
330
5
100
AcDbSymbolTableRecord
100
AcDbLinetypeTableRecord
  2
Continuous
 70
     0
  3
Solid line
 72
    65
 73
     0
 40
0.0
  0
ENDTAB
  0
TABLE
  2
LAYER
  5
2
330
0
100
AcDbSymbolTable
 70
     2
  0
LAYER
  5
10
330
2
100
AcDbSymbolTableRecord
100
AcDbLayerTableRecord
  2
0
 70
     0
 62
     7
  6
Continuous
370
    -3
390
F
347
3E
  0
LAYER
  5
40
330
2
100
AcDbSymbolTableRecord
100
AcDbLayerTableRecord
  2
_U+30EC_U+30A4_U+30E4_U+30FC 1
 70
     0
 62
     7
  6
Continuous
370
    -3
390
F
347
3E
  0
ENDTAB
  0
TABLE
  2
STYLE
  5
3
330
0
100
AcDbSymbolTable
 70
     1
  0
STYLE
  5
11
330
3
100
AcDbSymbolTableRecord
100
AcDbTextStyleTableRecord
  2
Standard
 70
     0
 40
0.0
 41
1.0
 50
0.0
 71
     0
 42
0.2
  3
txt
  4

  0
ENDTAB
  0
TABLE
  2
VIEW
  5
6
330
0
100
AcDbSymbolTable
 70
     0
  0
ENDTAB
  0
TABLE
  2
UCS
  5
7
330
0
100
AcDbSymbolTable
 70
     0
  0
ENDTAB
  0
TABLE
  2
APPID
  5
9
330
0
100
AcDbSymbolTable
 70
     1
  0
APPID
  5
12
330
9
100
AcDbSymbolTableRecord
100
AcDbRegAppTableRecord
  2
ACAD
 70
     0
  0
ENDTAB
  0
TABLE
  2
DIMSTYLE
  5
A
330
0
100
AcDbSymbolTable
 70
     1
100
AcDbDimStyleTable
  0
DIMSTYLE
105
27
330
A
100
AcDbSymbolTableRecord
100
AcDbDimStyleTableRecord
  2
Standard
 70
     0
178
     0
340
11
  0
ENDTAB
  0
TABLE
  2
BLOCK_RECORD
  5
1
330
0
100
AcDbSymbolTable
 70
     7
  0
BLOCK_RECORD
  5
1F
330
1
100
AcDbSymbolTableRecord
100
AcDbBlockTableRecord
  2
*Model_Space
340
22
 70
     0
280
     1
281
     0
  0
BLOCK_RECORD
  5
1B
330
1
100
AcDbSymbolTableRecord
100
AcDbBlockTableRecord
  2
*Paper_Space
340
1E
 70
     0
280
     1
281
     0
  0
BLOCK_RECORD
  5
23
330
1
100
AcDbSymbolTableRecord
100
AcDbBlockTableRecord
  2
*Paper_Space0
340
26
 70
     0
280
     1
281
     0
  0
BLOCK_RECORD
  5
55
330
1
100
AcDbSymbolTableRecord
100
AcDbBlockTableRecord
  2
block 2
340
0
102
{BLKREFS
331
56
102
}
 70
     0
280
     1
281
     0
  0
BLOCK_RECORD
  5
70
330
1
100
AcDbSymbolTableRecord
100
AcDbBlockTableRecord
  2
block 3
340
0
102
{BLKREFS
331
71
102
}
 70
     0
280
     1
281
     0
  0
BLOCK_RECORD
  5
8B
330
1
100
AcDbSymbolTableRecord
100
AcDbBlockTableRecord
  2
block 4
340
0
102
{BLKREFS
331
8C
102
}
 70
     0
280
     1
281
     0
  0
BLOCK_RECORD
  5
A3
330
1
100
AcDbSymbolTableRecord
100
AcDbBlockTableRecord
  2
block 5
340
0
102
{BLKREFS
331
A4
102
}
 70
     0
280
     1
281
     0
  0
BLOCK_RECORD
  5
C7
330
1
100
AcDbSymbolTableRecord
100
AcDbBlockTableRecord
  2
block 6
340
0
102
{BLKREFS
331
C8
102
}
 70
     0
280
     1
281
     0
  0
BLOCK_RECORD
  5
CD
330
1
100
AcDbSymbolTableRecord
100
AcDbBlockTableRecord
  2
block 7
340
0
102
{BLKREFS
331
CE
102
}
 70
     0
280
     1
281
     0
  0
ENDTAB
  0
ENDSEC
  0
SECTION
  2
BLOCKS
  0
BLOCK
  5
20
330
1F
100
AcDbEntity
  8
0
100
AcDbBlockBegin
  2
*Model_Space
 70
     0
 10
0.0
 20
0.0
 30
0.0
  3
*Model_Space
  1

  0
ENDBLK
  5
21
330
1F
100
AcDbEntity
  8
0
100
AcDbBlockEnd
  0
BLOCK
  5
1C
330
1B
100
AcDbEntity
 67
     1
  8
0
100
AcDbBlockBegin
  2
*Paper_Space
 70
     0
 10
0.0
 20
0.0
 30
0.0
  3
*Paper_Space
  1

  0
ENDBLK
  5
1D
330
1B
100
AcDbEntity
 67
     1
  8
0
100
AcDbBlockEnd
  0
BLOCK
  5
24
330
23
100
AcDbEntity
  8
0
100
AcDbBlockBegin
  2
*Paper_Space0
 70
     0
 10
0.0
 20
0.0
 30
0.0
  3
*Paper_Space0
  1

  0
ENDBLK
  5
25
330
23
100
AcDbEntity
  8
0
100
AcDbBlockEnd
  0
BLOCK
  5
57
330
55
100
AcDbEntity
  8
0
100
AcDbBlockBegin
  2
block 2
 70
     0
 10
0.0
 20
0.0
 30
0.0
  3
block 2
  1

  0
SPLINE
  5
59
330
55
100
AcDbEntity
  8
_U+30EC_U+30A4_U+30E4_U+30FC 1
370
     0
100
AcDbSpline
210
0.0
220
0.0
230
1.0
 70
    11
 71
     3
 72
    26
 73
    22
 74
     0
 42
0.0000000001
 43
0.0000000001
 12
1.0
 22
0.0
 32
0.0
 13
1.0
 23
0.0
 33
0.0
 40
0.0
 40
0.0
 40
0.0
 40
0.0
 40
1.0
 40
1.0
 40
1.0
 40
2.0
 40
2.0
 40
2.0
 40
3.0
 40
3.0
 40
3.0
 40
4.0
 40
4.0
 40
4.0
 40
5.0
 40
5.0
 40
5.0
 40
6.0
 40
6.0
 40
6.0
 40
7.0
 40
7.0
 40
7.0
 40
7.0
 10
77.05507268038902
 20
-139.6149061065893
 30
0.0
 10
77.05507268038902
 20
-139.6149061065893
 30
0.0
 10
75.95091957736643
 20
-139.6149061065893
 30
0.0
 10
75.95091957736643
 20
-139.6149061065893
 30
0.0
 10
75.95091957736643
 20
-139.6149061065893
 30
0.0
 10
75.95091957736643
 20
-139.9673393747304
 30
0.0
 10
75.95091957736643
 20
-139.9673393747304
 30
0.0
 10
75.95091957736643
 20
-139.9673393747304
 30
0.0
 10
75.8027804715007
 20
-139.9673393747304
 30
0.0
 10
75.8027804715007
 20
-139.9673393747304
 30
0.0
 10
75.78796656091413
 20
-139.6124945397497
 30
0.0
 10
75.62501354446181
 20
-139.5628851647621
 30
0.0
 10
75.5106363743515
 20
-139.5311902862978
 30
0.0
 10
75.5106363743515
 20
-139.5311902862978
 30
0.0
 10
75.5106363743515
 20
-139.3751274608159
 30
0.0
 10
75.5106363743515
 20
-139.3751274608159
 30
0.0
 10
75.5106363743515
 20
-139.3751274608159
 30
0.0
 10
77.05507268038902
 20
-139.3751274608159
 30
0.0
 10
77.05507268038902
 20
-139.3751274608159
 30
0.0
 10
77.05507268038902
 20
-139.3751274608159
 30
0.0
 10
77.05507268038902
 20
-139.6149061065893
 30
0.0
 10
77.05507268038902
 20
-139.6149061065893
 30
0.0
  0
HATCH
  5
5A
330
55
100
AcDbEntity
  8
_U+30EC_U+30A4_U+30E4_U+30FC 1
 62
     7
420
 16777215
100
AcDbHatch
 10
0.0
 20
0.0
 30
0.0
210
0.0
220
0.0
230
1.0
  2
SOLID
 70
     1
 71
     0
 91
        1
 92
        1
 93
        1
 72
     4
 94
        3
 73
     0
 74
     1
 95
       26
 96
       22
 40
0.0
 40
0.0
 40
0.0
 40
0.0
 40
1.0
 40
1.0
 40
1.0
 40
2.0
 40
2.0
 40
2.0
 40
3.0
 40
3.0
 40
3.0
 40
4.0
 40
4.0
 40
4.0
 40
5.0
 40
5.0
 40
5.0
 40
6.0
 40
6.0
 40
6.0
 40
7.0
 40
7.0
 40
7.0
 40
7.0
 10
77.05507268038902
 20
-139.6149061065893
 10
77.05507268038902
 20
-139.6149061065893
 10
75.95091957736643
 20
-139.6149061065893
 10
75.95091957736643
 20
-139.6149061065893
 10
75.95091957736643
 20
-139.6149061065893
 10
75.95091957736643
 20
-139.9673393747304
 10
75.95091957736643
 20
-139.9673393747304
 10
75.95091957736643
 20
-139.9673393747304
 10
75.8027804715007
 20
-139.9673393747304
 10
75.8027804715007
 20
-139.9673393747304
 10
75.78796656091413
 20
-139.6124945397497
 10
75.62501354446181
 20
-139.5628851647621
 10
75.5106363743515
 20
-139.5311902862978
 10
75.5106363743515
 20
-139.5311902862978
 10
75.5106363743515
 20
-139.3751274608159
 10
75.5106363743515
 20
-139.3751274608159
 10
75.5106363743515
 20
-139.3751274608159
 10
77.05507268038902
 20
-139.3751274608159
 10
77.05507268038902
 20
-139.3751274608159
 10
77.05507268038902
 20
-139.3751274608159
 10
77.05507268038902
 20
-139.6149061065893
 10
77.05507268038902
 20
-139.6149061065893
 97
        0
 97
        0
 75
     2
 76
     1
 98
        0
  0
POLYLINE
  5
5B
330
55
100
AcDbEntity
  8
_U+30EC_U+30A4_U+30E4_U+30FC 1
370
     0
100
AcDb2dPolyline
 66
     1
 10
0.0
 20
0.0
 30
0.0
  0
VERTEX
  5
5C
330
5B
100
AcDbEntity
  8
_U+30EC_U+30A4_U+30E4_U+30FC 1
370
     0
100
AcDbVertex
100
AcDb2dVertex
 10
76.70815156502435
 20
-137.9498914585681
 30
0.0
  0
VERTEX
  5
5D
330
5B
100
AcDbEntity
  8
_U+30EC_U+30A4_U+30E4_U+30FC 1
370
     0
100
AcDbVertex
100
AcDb2dVertex
 10
77.05507268038902
 20
-137.9498914585681
 30
0.0
  0
VERTEX
  5
5E
330
5B
100
AcDbEntity
  8
_U+30EC_U+30A4_U+30E4_U+30FC 1
370
     0
100
AcDbVertex
100
AcDb2dVertex
 10
77.05507268038902
 20
-138.182779913371
 30
0.0
  0
VERTEX
  5
5F
330
5B
100
AcDbEntity
  8
_U+30EC_U+30A4_U+30E4_U+30FC 1
370
     0
100
AcDbVertex
100
AcDb2dVertex
 10
76.70815156502435
 20
-138.182779913371
 30
0.0
  0
VERTEX
  5
60
330
5B
100
AcDbEntity
  8
_U+30EC_U+30A4_U+30E4_U+30FC 1
370
     0
100
AcDbVertex
100
AcDb2dVertex
 10
76.70815156502435
 20
-138.8838568446193
 30
0.0
  0
VERTEX
  5
61
330
5B
100
AcDbEntity
  8
_U+30EC_U+30A4_U+30E4_U+30FC 1
370
     0
100
AcDbVertex
100
AcDb2dVertex
 10
76.48387584893459
 20
-138.8838568446193
 30
0.0
  0
VERTEX
  5
62
330
5B
100
AcDbEntity
  8
_U+30EC_U+30A4_U+30E4_U+30FC 1
370
     0
100
AcDbVertex
100
AcDb2dVertex
 10
75.5106363743515
 20
-138.1579752258772
 30
0.0
  0
VERTEX
  5
63
330
5B
100
AcDbEntity
  8
_U+30EC_U+30A4_U+30E4_U+30FC 1
370
     0
100
AcDbVertex
100
AcDb2dVertex
 10
75.5106363743515
 20
-137.9498914585681
 30
0.0
  0
VERTEX
  5
64
330
5B
100
AcDbEntity
  8
_U+30EC_U+30A4_U+30E4_U+30FC 1
370
     0
100
AcDbVertex
100
AcDb2dVertex
 10
76.50936955552544
 20
-137.9498914585681
 30
0.0
  0
VERTEX
  5
65
330
5B
100
AcDbEntity
  8
_U+30EC_U+30A4_U+30E4_U+30FC 1
370
     0
100
AcDbVertex
100
AcDb2dVertex
 10
76.50936955552544
 20
-137.7283718188665
 30
0.0
  0
VERTEX
  5
66
330
5B
100
AcDbEntity
  8
_U+30EC_U+30A4_U+30E4_U+30FC 1
370
     0
100
AcDbVertex
100
AcDb2dVertex
 10
76.70815156502435
 20
-137.7283718188665
 30
0.0
  0
VERTEX
  5
67
330
5B
100
AcDbEntity
  8
_U+30EC_U+30A4_U+30E4_U+30FC 1
370
     0
100
AcDbVertex
100
AcDb2dVertex
 10
76.70815156502435
 20
-137.9498914585681
 30
0.0
  0
SEQEND
  5
68
330
5B
100
AcDbEntity
  8
_U+30EC_U+30A4_U+30E4_U+30FC 1
370
     0
  0
POLYLINE
  5
69
330
55
100
AcDbEntity
  8
_U+30EC_U+30A4_U+30E4_U+30FC 1
370
     0
100
AcDb2dPolyline
 66
     1
 10
0.0
 20
0.0
 30
0.0
  0
VERTEX
  5
6A
330
69
100
AcDbEntity
  8
_U+30EC_U+30A4_U+30E4_U+30FC 1
370
     0
100
AcDbVertex
100
AcDb2dVertex
 10
75.85342337513387
 20
-138.182779913371
 30
0.0
  0
VERTEX
  5
6B
330
69
100
AcDbEntity
  8
_U+30EC_U+30A4_U+30E4_U+30FC 1
370
     0
100
AcDbVertex
100
AcDb2dVertex
 10
76.50936955552544
 20
-138.6712944531794
 30
0.0
  0
VERTEX
  5
6C
330
69
100
AcDbEntity
  8
_U+30EC_U+30A4_U+30E4_U+30FC 1
370
     0
100
AcDbVertex
100
AcDb2dVertex
 10
76.50936955552544
 20
-138.182779913371
 30
0.0
  0
VERTEX
  5
6D
330
69
100
AcDbEntity
  8
_U+30EC_U+30A4_U+30E4_U+30FC 1
370
     0
100
AcDbVertex
100
AcDb2dVertex
 10
75.85342337513387
 20
-138.182779913371
 30
0.0
  0
SEQEND
  5
6E
330
69
100
AcDbEntity
  8
_U+30EC_U+30A4_U+30E4_U+30FC 1
370
     0
  0
HATCH
  5
6F
330
55
100
AcDbEntity
  8
_U+30EC_U+30A4_U+30E4_U+30FC 1
 62
     7
420
 16777215
100
AcDbHatch
 10
0.0
 20
0.0
 30
0.0
210
0.0
220
0.0
230
1.0
  2
SOLID
 70
     1
 71
     0
 91
        2
 92
        1
 93
       11
 72
     1
 10
76.70815156502435
 20
-137.9498914585681
 11
77.05507268038902
 21
-137.9498914585681
 72
     1
 10
77.05507268038902
 20
-137.9498914585681
 11
77.05507268038902
 21
-138.182779913371
 72
     1
 10
77.05507268038902
 20
-138.182779913371
 11
76.70815156502435
 21
-138.182779913371
 72
     1
 10
76.70815156502435
 20
-138.182779913371
 11
76.70815156502435
 21
-138.8838568446193
 72
     1
 10
76.70815156502435
 20
-138.8838568446193
 11
76.48387584893459
 21
-138.8838568446193
 72
     1
 10
76.48387584893459
 20
-138.8838568446193
 11
75.5106363743515
 21
-138.1579752258772
 72
     1
 10
75.5106363743515
 20
-138.1579752258772
 11
75.5106363743515
 21
-137.9498914585681
 72
     1
 10
75.5106363743515
 20
-137.9498914585681
 11
76.50936955552544
 21
-137.9498914585681
 72
     1
 10
76.50936955552544
 20
-137.9498914585681
 11
76.50936955552544
 21
-137.7283718188665
 72
     1
 10
76.50936955552544
 20
-137.7283718188665
 11
76.70815156502435
 21
-137.7283718188665
 72
     1
 10
76.70815156502435
 20
-137.7283718188665
 11
76.70815156502435
 21
-137.9498914585681
 97
        0
 92
        1
 93
        3
 72
     1
 10
75.85342337513387
 20
-138.182779913371
 11
76.50936955552544
 21
-138.6712944531794
 72
     1
 10
76.50936955552544
 20
-138.6712944531794
 11
76.50936955552544
 21
-138.182779913371
 72
     1
 10
76.50936955552544
 20
-138.182779913371
 11
75.85342337513387
 21
-138.182779913371
 97
        0
 75
     2
 76
     1
 98
        0
  0
ENDBLK
  5
58
330
55
100
AcDbEntity
  8
0
100
AcDbBlockEnd
  0
BLOCK
  5
72
330
70
100
AcDbEntity
  8
0
100
AcDbBlockBegin
  2
block 3
 70
     0
 10
0.0
 20
0.0
 30
0.0
  3
block 3
  1

  0
SPLINE
  5
74
330
70
100
AcDbEntity
  8
_U+30EC_U+30A4_U+30E4_U+30FC 1
370
     0
100
AcDbSpline
210
0.0
220
0.0
230
1.0
 70
    11
 71
     3
 72
    62
 73
    58
 74
     0
 42
0.0000000001
 43
0.0000000001
 12
1.0
 22
0.0
 32
0.0
 13
1.0
 23
0.0
 33
0.0
 40
0.0
 40
0.0
 40
0.0
 40
0.0
 40
1.0
 40
1.0
 40
1.0
 40
2.0
 40
2.0
 40
2.0
 40
3.0
 40
3.0
 40
3.0
 40
4.0
 40
4.0
 40
4.0
 40
5.0
 40
5.0
 40
5.0
 40
6.0
 40
6.0
 40
6.0
 40
7.0
 40
7.0
 40
7.0
 40
8.0
 40
8.0
 40
8.0
 40
9.0
 40
9.0
 40
9.0
 40
10.0
 40
10.0
 40
10.0
 40
11.0
 40
11.0
 40
11.0
 40
12.0
 40
12.0
 40
12.0
 40
13.0
 40
13.0
 40
13.0
 40
14.0
 40
14.0
 40
14.0
 40
15.0
 40
15.0
 40
15.0
 40
16.0
 40
16.0
 40
16.0
 40
17.0
 40
17.0
 40
17.0
 40
18.0
 40
18.0
 40
18.0
 40
19.0
 40
19.0
 40
19.0
 40
19.0
 10
70.98860404041257
 20
-129.5721082575375
 30
0.0
 10
70.98860404041257
 20
-129.6737385743524
 30
0.0
 10
70.96758895795256
 20
-129.9066270291553
 30
0.0
 10
70.78155380174906
 20
-130.0399522244345
 30
0.0
 10
70.66924368892991
 20
-130.1191894205952
 30
0.0
 10
70.57002493895472
 20
-130.123668044726
 30
0.0
 10
70.48527559001758
 20
-130.1281466688569
 30
0.0
 10
70.48527559001758
 20
-130.1281466688569
 30
0.0
 10
70.48527559001758
 20
-129.8931911567628
 30
0.0
 10
70.48527559001758
 20
-129.8931911567628
 30
0.0
 10
70.55934514295045
 20
-129.8907795899231
 30
0.0
 10
70.79395614549595
 20
-129.8794107748218
 30
0.0
 10
70.79395614549595
 20
-129.5765868816684
 30
0.0
 10
70.79395614549595
 20
-129.4294813044482
 30
0.0
 10
70.72436521669391
 20
-129.2668727975444
 30
0.0
 10
70.49595538602185
 20
-129.2668727975444
 30
0.0
 10
70.3795111586204
 20
-129.2668727975444
 30
0.0
 10
70.33093531227838
 20
-129.3075249242704
 30
0.0
 10
70.29924043381408
 20
-129.3412868600258
 30
0.0
 10
70.22517088088121
 20
-129.4205240561865
 30
0.0
 10
70.21242402758578
 20
-129.5448920032041
 30
0.0
 10
70.21242402758578
 20
-129.6038031360018
 30
0.0
 10
70.21242402758578
 20
-129.6241291993648
 30
0.0
 10
70.21449108487694
 20
-129.6623697592511
 30
0.0
 10
70.21862519945924
 20
-129.6919975804242
 30
0.0
 10
70.21862519945924
 20
-129.6919975804242
 30
0.0
 10
70.02397730454263
 20
-129.6919975804242
 30
0.0
 10
70.02397730454263
 20
-129.6919975804242
 30
0.0
 10
70.0305229859646
 20
-129.6513454536983
 30
0.0
 10
70.03259004325574
 20
-129.605870193293
 30
0.0
 10
70.03259004325574
 20
-129.599324511871
 30
0.0
 10
70.03259004325574
 20
-129.5290445639719
 30
0.0
 10
70.0112304512472
 20
-129.316482172532
 30
0.0
 10
69.77455239141054
 20
-129.316482172532
 30
0.0
 10
69.59678546437164
 20
-129.316482172532
 30
0.0
 10
69.54166393660765
 20
-129.4566975587817
 30
0.0
 10
69.54166393660765
 20
-129.5741753148287
 30
0.0
 10
69.54166393660765
 20
-129.8570176541677
 30
0.0
 10
69.77455239141054
 20
-129.8659749024293
 30
0.0
 10
69.84621037750372
 20
-129.8704535265602
 30
0.0
 10
69.84621037750372
 20
-129.8704535265602
 30
0.0
 10
69.84621037750372
 20
-130.0874945421309
 30
0.0
 10
69.84621037750372
 20
-130.0874945421309
 30
0.0
 10
69.72149792093768
 20
-130.0785372938693
 30
0.0
 10
69.34494898439988
 20
-130.0492539822446
 30
0.0
 10
69.34494898439988
 20
-129.5607394424362
 30
0.0
 10
69.34494898439988
 20
-129.3209607966628
 30
0.0
 10
69.47207300780559
 20
-129.0632676543661
 30
0.0
 10
69.76800670998855
 20
-129.0632676543661
 30
0.0
 10
69.95438637574057
 20
-129.0632676543661
 30
0.0
 10
70.03672415783804
 20
-129.1652424807295
 30
0.0
 10
70.0980468574755
 20
-129.2713514216752
 30
0.0
 10
70.12560762135749
 20
-129.2058946074555
 30
0.0
 10
70.20587834616381
 20
-129.0112467125388
 30
0.0
 10
70.48320853272642
 20
-129.0112467125388
 30
0.0
 10
70.82151690937796
 20
-129.0112467125388
 30
0.0
 10
70.98860404041257
 20
-129.2758300458061
 30
0.0
 10
70.98860404041257
 20
-129.5721082575375
 30
0.0
  0
HATCH
  5
75
330
70
100
AcDbEntity
  8
_U+30EC_U+30A4_U+30E4_U+30FC 1
 62
     7
420
 16777215
100
AcDbHatch
 10
0.0
 20
0.0
 30
0.0
210
0.0
220
0.0
230
1.0
  2
SOLID
 70
     1
 71
     0
 91
        1
 92
        1
 93
        1
 72
     4
 94
        3
 73
     0
 74
     1
 95
       62
 96
       58
 40
0.0
 40
0.0
 40
0.0
 40
0.0
 40
1.0
 40
1.0
 40
1.0
 40
2.0
 40
2.0
 40
2.0
 40
3.0
 40
3.0
 40
3.0
 40
4.0
 40
4.0
 40
4.0
 40
5.0
 40
5.0
 40
5.0
 40
6.0
 40
6.0
 40
6.0
 40
7.0
 40
7.0
 40
7.0
 40
8.0
 40
8.0
 40
8.0
 40
9.0
 40
9.0
 40
9.0
 40
10.0
 40
10.0
 40
10.0
 40
11.0
 40
11.0
 40
11.0
 40
12.0
 40
12.0
 40
12.0
 40
13.0
 40
13.0
 40
13.0
 40
14.0
 40
14.0
 40
14.0
 40
15.0
 40
15.0
 40
15.0
 40
16.0
 40
16.0
 40
16.0
 40
17.0
 40
17.0
 40
17.0
 40
18.0
 40
18.0
 40
18.0
 40
19.0
 40
19.0
 40
19.0
 40
19.0
 10
70.98860404041257
 20
-129.5721082575375
 10
70.98860404041257
 20
-129.6737385743524
 10
70.96758895795256
 20
-129.9066270291553
 10
70.78155380174906
 20
-130.0399522244345
 10
70.66924368892991
 20
-130.1191894205952
 10
70.57002493895472
 20
-130.123668044726
 10
70.48527559001758
 20
-130.1281466688569
 10
70.48527559001758
 20
-130.1281466688569
 10
70.48527559001758
 20
-129.8931911567628
 10
70.48527559001758
 20
-129.8931911567628
 10
70.55934514295045
 20
-129.8907795899231
 10
70.79395614549595
 20
-129.8794107748218
 10
70.79395614549595
 20
-129.5765868816684
 10
70.79395614549595
 20
-129.4294813044482
 10
70.72436521669391
 20
-129.2668727975444
 10
70.49595538602185
 20
-129.2668727975444
 10
70.3795111586204
 20
-129.2668727975444
 10
70.33093531227838
 20
-129.3075249242704
 10
70.29924043381408
 20
-129.3412868600258
 10
70.22517088088121
 20
-129.4205240561865
 10
70.21242402758578
 20
-129.5448920032041
 10
70.21242402758578
 20
-129.6038031360018
 10
70.21242402758578
 20
-129.6241291993648
 10
70.21449108487694
 20
-129.6623697592511
 10
70.21862519945924
 20
-129.6919975804242
 10
70.21862519945924
 20
-129.6919975804242
 10
70.02397730454263
 20
-129.6919975804242
 10
70.02397730454263
 20
-129.6919975804242
 10
70.0305229859646
 20
-129.6513454536983
 10
70.03259004325574
 20
-129.605870193293
 10
70.03259004325574
 20
-129.599324511871
 10
70.03259004325574
 20
-129.5290445639719
 10
70.0112304512472
 20
-129.316482172532
 10
69.77455239141054
 20
-129.316482172532
 10
69.59678546437164
 20
-129.316482172532
 10
69.54166393660765
 20
-129.4566975587817
 10
69.54166393660765
 20
-129.5741753148287
 10
69.54166393660765
 20
-129.8570176541677
 10
69.77455239141054
 20
-129.8659749024293
 10
69.84621037750372
 20
-129.8704535265602
 10
69.84621037750372
 20
-129.8704535265602
 10
69.84621037750372
 20
-130.0874945421309
 10
69.84621037750372
 20
-130.0874945421309
 10
69.72149792093768
 20
-130.0785372938693
 10
69.34494898439988
 20
-130.0492539822446
 10
69.34494898439988
 20
-129.5607394424362
 10
69.34494898439988
 20
-129.3209607966628
 10
69.47207300780559
 20
-129.0632676543661
 10
69.76800670998855
 20
-129.0632676543661
 10
69.95438637574057
 20
-129.0632676543661
 10
70.03672415783804
 20
-129.1652424807295
 10
70.0980468574755
 20
-129.2713514216752
 10
70.12560762135749
 20
-129.2058946074555
 10
70.20587834616381
 20
-129.0112467125388
 10
70.48320853272642
 20
-129.0112467125388
 10
70.82151690937796
 20
-129.0112467125388
 10
70.98860404041257
 20
-129.2758300458061
 10
70.98860404041257
 20
-129.5721082575375
 97
        0
 97
        0
 75
     2
 76
     1
 98
        0
  0
POLYLINE
  5
76
330
70
100
AcDbEntity
  8
_U+30EC_U+30A4_U+30E4_U+30FC 1
370
     0
100
AcDb2dPolyline
 66
     1
 10
0.0
 20
0.0
 30
0.0
  0
VERTEX
  5
77
330
76
100
AcDbEntity
  8
_U+30EC_U+30A4_U+30E4_U+30FC 1
370
     0
100
AcDbVertex
100
AcDb2dVertex
 10
70.59104002141474
 20
-127.9501573030819
 30
0.0
  0
VERTEX
  5
78
330
76
100
AcDbEntity
  8
_U+30EC_U+30A4_U+30E4_U+30FC 1
370
     0
100
AcDbVertex
100
AcDb2dVertex
 10
70.9379611367794
 20
-127.9501573030819
 30
0.0
  0
VERTEX
  5
79
330
76
100
AcDbEntity
  8
_U+30EC_U+30A4_U+30E4_U+30FC 1
370
     0
100
AcDbVertex
100
AcDb2dVertex
 10
70.9379611367794
 20
-128.1830457578848
 30
0.0
  0
VERTEX
  5
7A
330
76
100
AcDbEntity
  8
_U+30EC_U+30A4_U+30E4_U+30FC 1
370
     0
100
AcDbVertex
100
AcDb2dVertex
 10
70.59104002141474
 20
-128.1830457578848
 30
0.0
  0
VERTEX
  5
7B
330
76
100
AcDbEntity
  8
_U+30EC_U+30A4_U+30E4_U+30FC 1
370
     0
100
AcDbVertex
100
AcDb2dVertex
 10
70.59104002141474
 20
-128.8841226891331
 30
0.0
  0
VERTEX
  5
7C
330
76
100
AcDbEntity
  8
_U+30EC_U+30A4_U+30E4_U+30FC 1
370
     0
100
AcDbVertex
100
AcDb2dVertex
 10
70.36676430532498
 20
-128.8841226891331
 30
0.0
  0
VERTEX
  5
7D
330
76
100
AcDbEntity
  8
_U+30EC_U+30A4_U+30E4_U+30FC 1
370
     0
100
AcDbVertex
100
AcDb2dVertex
 10
69.3935248307419
 20
-128.158241070391
 30
0.0
  0
VERTEX
  5
7E
330
76
100
AcDbEntity
  8
_U+30EC_U+30A4_U+30E4_U+30FC 1
370
     0
100
AcDbVertex
100
AcDb2dVertex
 10
69.3935248307419
 20
-127.9501573030819
 30
0.0
  0
VERTEX
  5
7F
330
76
100
AcDbEntity
  8
_U+30EC_U+30A4_U+30E4_U+30FC 1
370
     0
100
AcDbVertex
100
AcDb2dVertex
 10
70.39225801191583
 20
-127.9501573030819
 30
0.0
  0
VERTEX
  5
80
330
76
100
AcDbEntity
  8
_U+30EC_U+30A4_U+30E4_U+30FC 1
370
     0
100
AcDbVertex
100
AcDb2dVertex
 10
70.39225801191583
 20
-127.7286376633803
 30
0.0
  0
VERTEX
  5
81
330
76
100
AcDbEntity
  8
_U+30EC_U+30A4_U+30E4_U+30FC 1
370
     0
100
AcDbVertex
100
AcDb2dVertex
 10
70.59104002141474
 20
-127.7286376633803
 30
0.0
  0
VERTEX
  5
82
330
76
100
AcDbEntity
  8
_U+30EC_U+30A4_U+30E4_U+30FC 1
370
     0
100
AcDbVertex
100
AcDb2dVertex
 10
70.59104002141474
 20
-127.9501573030819
 30
0.0
  0
SEQEND
  5
83
330
76
100
AcDbEntity
  8
_U+30EC_U+30A4_U+30E4_U+30FC 1
370
     0
  0
POLYLINE
  5
84
330
70
100
AcDbEntity
  8
_U+30EC_U+30A4_U+30E4_U+30FC 1
370
     0
100
AcDb2dPolyline
 66
     1
 10
0.0
 20
0.0
 30
0.0
  0
VERTEX
  5
85
330
84
100
AcDbEntity
  8
_U+30EC_U+30A4_U+30E4_U+30FC 1
370
     0
100
AcDbVertex
100
AcDb2dVertex
 10
69.73631183152426
 20
-128.1830457578848
 30
0.0
  0
VERTEX
  5
86
330
84
100
AcDbEntity
  8
_U+30EC_U+30A4_U+30E4_U+30FC 1
370
     0
100
AcDbVertex
100
AcDb2dVertex
 10
70.39225801191583
 20
-128.6715602976932
 30
0.0
  0
VERTEX
  5
87
330
84
100
AcDbEntity
  8
_U+30EC_U+30A4_U+30E4_U+30FC 1
370
     0
100
AcDbVertex
100
AcDb2dVertex
 10
70.39225801191583
 20
-128.1830457578848
 30
0.0
  0
VERTEX
  5
88
330
84
100
AcDbEntity
  8
_U+30EC_U+30A4_U+30E4_U+30FC 1
370
     0
100
AcDbVertex
100
AcDb2dVertex
 10
69.73631183152426
 20
-128.1830457578848
 30
0.0
  0
SEQEND
  5
89
330
84
100
AcDbEntity
  8
_U+30EC_U+30A4_U+30E4_U+30FC 1
370
     0
  0
HATCH
  5
8A
330
70
100
AcDbEntity
  8
_U+30EC_U+30A4_U+30E4_U+30FC 1
 62
     7
420
 16777215
100
AcDbHatch
 10
0.0
 20
0.0
 30
0.0
210
0.0
220
0.0
230
1.0
  2
SOLID
 70
     1
 71
     0
 91
        2
 92
        1
 93
       11
 72
     1
 10
70.59104002141474
 20
-127.9501573030819
 11
70.9379611367794
 21
-127.9501573030819
 72
     1
 10
70.9379611367794
 20
-127.9501573030819
 11
70.9379611367794
 21
-128.1830457578848
 72
     1
 10
70.9379611367794
 20
-128.1830457578848
 11
70.59104002141474
 21
-128.1830457578848
 72
     1
 10
70.59104002141474
 20
-128.1830457578848
 11
70.59104002141474
 21
-128.8841226891331
 72
     1
 10
70.59104002141474
 20
-128.8841226891331
 11
70.36676430532498
 21
-128.8841226891331
 72
     1
 10
70.36676430532498
 20
-128.8841226891331
 11
69.3935248307419
 21
-128.158241070391
 72
     1
 10
69.3935248307419
 20
-128.158241070391
 11
69.3935248307419
 21
-127.9501573030819
 72
     1
 10
69.3935248307419
 20
-127.9501573030819
 11
70.39225801191583
 21
-127.9501573030819
 72
     1
 10
70.39225801191583
 20
-127.9501573030819
 11
70.39225801191583
 21
-127.7286376633803
 72
     1
 10
70.39225801191583
 20
-127.7286376633803
 11
70.59104002141474
 21
-127.7286376633803
 72
     1
 10
70.59104002141474
 20
-127.7286376633803
 11
70.59104002141474
 21
-127.9501573030819
 97
        0
 92
        1
 93
        3
 72
     1
 10
69.73631183152426
 20
-128.1830457578848
 11
70.39225801191583
 21
-128.6715602976932
 72
     1
 10
70.39225801191583
 20
-128.6715602976932
 11
70.39225801191583
 21
-128.1830457578848
 72
     1
 10
70.39225801191583
 20
-128.1830457578848
 11
69.73631183152426
 21
-128.1830457578848
 97
        0
 75
     2
 76
     1
 98
        0
  0
ENDBLK
  5
73
330
70
100
AcDbEntity
  8
0
100
AcDbBlockEnd
  0
BLOCK
  5
8D
330
8B
100
AcDbEntity
  8
0
100
AcDbBlockBegin
  2
block 4
 70
     0
 10
0.0
 20
0.0
 30
0.0
  3
block 4
  1

  0
SPLINE
  5
8F
330
8B
100
AcDbEntity
  8
_U+30EC_U+30A4_U+30E4_U+30FC 1
370
     0
100
AcDbSpline
210
0.0
220
0.0
230
1.0
 70
    11
 71
     3
 72
    44
 73
    40
 74
     0
 42
0.0000000001
 43
0.0000000001
 12
1.0
 22
0.0
 32
0.0
 13
1.0
 23
0.0
 33
0.0
 40
0.0
 40
0.0
 40
0.0
 40
0.0
 40
1.0
 40
1.0
 40
1.0
 40
2.0
 40
2.0
 40
2.0
 40
3.0
 40
3.0
 40
3.0
 40
4.0
 40
4.0
 40
4.0
 40
5.0
 40
5.0
 40
5.0
 40
6.0
 40
6.0
 40
6.0
 40
7.0
 40
7.0
 40
7.0
 40
8.0
 40
8.0
 40
8.0
 40
9.0
 40
9.0
 40
9.0
 40
10.0
 40
10.0
 40
10.0
 40
11.0
 40
11.0
 40
11.0
 40
12.0
 40
12.0
 40
12.0
 40
13.0
 40
13.0
 40
13.0
 40
13.0
 10
76.47319605293032
 20
-122.463498233273
 30
0.0
 10
76.63201495480034
 20
-122.6963866880759
 30
0.0
 10
76.70608450773321
 20
-122.7959499475996
 30
0.0
 10
76.84974498946812
 20
-122.8479708894269
 30
0.0
 10
76.84974498946812
 20
-122.8479708894269
 30
0.0
 10
76.84974498946812
 20
-122.0156358201905
 30
0.0
 10
76.84974498946812
 20
-122.0156358201905
 30
0.0
 10
76.84974498946812
 20
-122.0156358201905
 30
0.0
 10
77.05507268038902
 20
-122.0156358201905
 30
0.0
 10
77.05507268038902
 20
-122.0156358201905
 30
0.0
 10
77.05507268038902
 20
-122.0156358201905
 30
0.0
 10
77.05507268038902
 20
-123.1146212799852
 30
0.0
 10
77.05507268038902
 20
-123.1146212799852
 30
0.0
 10
76.69747176902008
 20
-123.0805148346813
 30
0.0
 10
76.61926810150491
 20
-123.0105793963307
 30
0.0
 10
76.32092283248227
 20
-122.5992349953919
 30
0.0
 10
76.12214082298335
 20
-122.325694413863
 30
0.0
 10
76.05427244192394
 20
-122.2554144659639
 30
0.0
 10
75.91681313206247
 20
-122.2554144659639
 30
0.0
 10
75.79830184736987
 20
-122.2554144659639
 30
0.0
 10
75.66738821893038
 20
-122.332240095285
 30
0.0
 10
75.66738821893038
 20
-122.5427354294338
 30
0.0
 10
75.66738821893038
 20
-122.8207546350934
 30
0.0
 10
75.89786510689359
 20
-122.8297118833551
 30
0.0
 10
76.01430933429504
 20
-122.8341905074859
 30
0.0
 10
76.01430933429504
 20
-122.8341905074859
 30
0.0
 10
76.01430933429504
 20
-123.0739691532593
 30
0.0
 10
76.01430933429504
 20
-123.0739691532593
 30
0.0
 10
75.88718531088932
 20
-123.0650119049976
 30
0.0
 10
75.7752197076187
 20
-123.0536430898963
 30
0.0
 10
75.6567084229261
 20
-122.9675157027651
 30
0.0
 10
75.49582246376494
 20
-122.850037946718
 30
0.0
 10
75.46206052800949
 20
-122.6512559372191
 30
0.0
 10
75.46206052800949
 20
-122.5268879902016
 30
0.0
 10
75.46206052800949
 20
-122.2306097784701
 30
0.0
 10
75.64602862692183
 20
-122.0090901387686
 30
0.0
 10
75.91888018935362
 20
-122.0090901387686
 30
0.0
 10
76.1476345295742
 20
-122.0090901387686
 30
0.0
 10
76.2468532795494
 20
-122.1334580857861
 30
0.0
 10
76.47319605293032
 20
-122.463498233273
 30
0.0
  0
HATCH
  5
90
330
8B
100
AcDbEntity
  8
_U+30EC_U+30A4_U+30E4_U+30FC 1
 62
     7
420
 16777215
100
AcDbHatch
 10
0.0
 20
0.0
 30
0.0
210
0.0
220
0.0
230
1.0
  2
SOLID
 70
     1
 71
     0
 91
        1
 92
        1
 93
        1
 72
     4
 94
        3
 73
     0
 74
     1
 95
       44
 96
       40
 40
0.0
 40
0.0
 40
0.0
 40
0.0
 40
1.0
 40
1.0
 40
1.0
 40
2.0
 40
2.0
 40
2.0
 40
3.0
 40
3.0
 40
3.0
 40
4.0
 40
4.0
 40
4.0
 40
5.0
 40
5.0
 40
5.0
 40
6.0
 40
6.0
 40
6.0
 40
7.0
 40
7.0
 40
7.0
 40
8.0
 40
8.0
 40
8.0
 40
9.0
 40
9.0
 40
9.0
 40
10.0
 40
10.0
 40
10.0
 40
11.0
 40
11.0
 40
11.0
 40
12.0
 40
12.0
 40
12.0
 40
13.0
 40
13.0
 40
13.0
 40
13.0
 10
76.47319605293032
 20
-122.463498233273
 10
76.63201495480034
 20
-122.6963866880759
 10
76.70608450773321
 20
-122.7959499475996
 10
76.84974498946812
 20
-122.8479708894269
 10
76.84974498946812
 20
-122.8479708894269
 10
76.84974498946812
 20
-122.0156358201905
 10
76.84974498946812
 20
-122.0156358201905
 10
76.84974498946812
 20
-122.0156358201905
 10
77.05507268038902
 20
-122.0156358201905
 10
77.05507268038902
 20
-122.0156358201905
 10
77.05507268038902
 20
-122.0156358201905
 10
77.05507268038902
 20
-123.1146212799852
 10
77.05507268038902
 20
-123.1146212799852
 10
76.69747176902008
 20
-123.0805148346813
 10
76.61926810150491
 20
-123.0105793963307
 10
76.32092283248227
 20
-122.5992349953919
 10
76.12214082298335
 20
-122.325694413863
 10
76.05427244192394
 20
-122.2554144659639
 10
75.91681313206247
 20
-122.2554144659639
 10
75.79830184736987
 20
-122.2554144659639
 10
75.66738821893038
 20
-122.332240095285
 10
75.66738821893038
 20
-122.5427354294338
 10
75.66738821893038
 20
-122.8207546350934
 10
75.89786510689359
 20
-122.8297118833551
 10
76.01430933429504
 20
-122.8341905074859
 10
76.01430933429504
 20
-122.8341905074859
 10
76.01430933429504
 20
-123.0739691532593
 10
76.01430933429504
 20
-123.0739691532593
 10
75.88718531088932
 20
-123.0650119049976
 10
75.7752197076187
 20
-123.0536430898963
 10
75.6567084229261
 20
-122.9675157027651
 10
75.49582246376494
 20
-122.850037946718
 10
75.46206052800949
 20
-122.6512559372191
 10
75.46206052800949
 20
-122.5268879902016
 10
75.46206052800949
 20
-122.2306097784701
 10
75.64602862692183
 20
-122.0090901387686
 10
75.91888018935362
 20
-122.0090901387686
 10
76.1476345295742
 20
-122.0090901387686
 10
76.2468532795494
 20
-122.1334580857861
 10
76.47319605293032
 20
-122.463498233273
 97
        0
 97
        0
 75
     2
 76
     1
 98
        0
  0
SPLINE
  5
91
330
8B
100
AcDbEntity
  8
_U+30EC_U+30A4_U+30E4_U+30FC 1
370
     0
100
AcDbSpline
210
0.0
220
0.0
230
1.0
 70
    11
 71
     3
 72
    29
 73
    25
 74
     0
 42
0.0000000001
 43
0.0000000001
 12
1.0
 22
0.0
 32
0.0
 13
1.0
 23
0.0
 33
0.0
 40
0.0
 40
0.0
 40
0.0
 40
0.0
 40
1.0
 40
1.0
 40
1.0
 40
2.0
 40
2.0
 40
2.0
 40
3.0
 40
3.0
 40
3.0
 40
4.0
 40
4.0
 40
4.0
 40
5.0
 40
5.0
 40
5.0
 40
6.0
 40
6.0
 40
6.0
 40
7.0
 40
7.0
 40
7.0
 40
8.0
 40
8.0
 40
8.0
 40
8.0
 10
76.87730575335011
 20
-120.8801323482522
 30
0.0
 10
77.08676755885331
 20
-120.9955430470081
 30
0.0
 10
77.10571558402219
 20
-121.1808891841145
 30
0.0
 10
77.10571558402219
 20
-121.305257131132
 30
0.0
 10
77.10571558402219
 20
-121.4768228862975
 30
0.0
 10
77.05920679497132
 20
-121.6284070876485
 30
0.0
 10
76.87730575335011
 20
-121.7300374044633
 30
0.0
 10
76.6826578584335
 20
-121.8409694790884
 30
0.0
 10
76.44563528904831
 20
-121.8612955424513
 30
0.0
 10
76.28302678214452
 20
-121.8612955424513
 30
0.0
 10
76.13902179086108
 20
-121.8612955424513
 30
0.0
 10
75.88718531088932
 20
-121.8433810459281
 30
0.0
 10
75.68840330139041
 20
-121.7300374044633
 30
0.0
 10
75.48548717730918
 20
-121.614971215256
 30
0.0
 10
75.46206052800949
 20
-121.443060950542
 30
0.0
 10
75.46206052800949
 20
-121.305257131132
 30
0.0
 10
75.46206052800949
 20
-121.1354139237092
 30
0.0
 10
75.5065022597692
 20
-120.9817626650671
 30
0.0
 10
75.68840330139041
 20
-120.8801323482522
 30
0.0
 10
75.88098413901587
 20
-120.773678897758
 30
0.0
 10
76.10939396968793
 20
-120.7488742102642
 30
0.0
 10
76.28302678214452
 20
-120.7488742102642
 30
0.0
 10
76.45424802776144
 20
-120.7488742102642
 30
0.0
 10
76.68472491572466
 20
-120.7716118404668
 30
0.0
 10
76.87730575335011
 20
-120.8801323482522
 30
0.0
  0
SPLINE
  5
92
330
8B
100
AcDbEntity
  8
_U+30EC_U+30A4_U+30E4_U+30FC 1
370
     0
100
AcDbSpline
210
0.0
220
0.0
230
1.0
 70
    11
 71
     3
 72
    17
 73
    13
 74
     0
 42
0.0000000001
 43
0.0000000001
 12
1.0
 22
0.0
 32
0.0
 13
1.0
 23
0.0
 33
0.0
 40
0.0
 40
0.0
 40
0.0
 40
0.0
 40
1.0
 40
1.0
 40
1.0
 40
2.0
 40
2.0
 40
2.0
 40
3.0
 40
3.0
 40
3.0
 40
4.0
 40
4.0
 40
4.0
 40
4.0
 10
75.65464136563496
 20
-121.305257131132
 30
0.0
 10
75.65464136563496
 20
-121.5719075216904
 30
0.0
 10
75.93817272407101
 20
-121.621516896678
 30
0.0
 10
76.28302678214452
 20
-121.621516896678
 30
0.0
 10
76.60238713362719
 20
-121.621516896678
 30
0.0
 10
76.91106768910556
 20
-121.5832763367917
 30
0.0
 10
76.91106768910556
 20
-121.305257131132
 30
0.0
 10
76.91106768910556
 20
-121.0406737978648
 30
0.0
 10
76.62994789750918
 20
-120.9886528560376
 30
0.0
 10
76.28302678214452
 20
-120.9886528560376
 30
0.0
 10
75.96332192111333
 20
-120.9886528560376
 30
0.0
 10
75.65464136563496
 20
-121.0293049827635
 30
0.0
 10
75.65464136563496
 20
-121.305257131132
 30
0.0
  0
HATCH
  5
93
330
8B
100
AcDbEntity
  8
_U+30EC_U+30A4_U+30E4_U+30FC 1
 62
     7
420
 16777215
100
AcDbHatch
 10
0.0
 20
0.0
 30
0.0
210
0.0
220
0.0
230
1.0
  2
SOLID
 70
     1
 71
     0
 91
        2
 92
        1
 93
        1
 72
     4
 94
        3
 73
     0
 74
     1
 95
       29
 96
       25
 40
0.0
 40
0.0
 40
0.0
 40
0.0
 40
1.0
 40
1.0
 40
1.0
 40
2.0
 40
2.0
 40
2.0
 40
3.0
 40
3.0
 40
3.0
 40
4.0
 40
4.0
 40
4.0
 40
5.0
 40
5.0
 40
5.0
 40
6.0
 40
6.0
 40
6.0
 40
7.0
 40
7.0
 40
7.0
 40
8.0
 40
8.0
 40
8.0
 40
8.0
 10
76.87730575335011
 20
-120.8801323482522
 10
77.08676755885331
 20
-120.9955430470081
 10
77.10571558402219
 20
-121.1808891841145
 10
77.10571558402219
 20
-121.305257131132
 10
77.10571558402219
 20
-121.4768228862975
 10
77.05920679497132
 20
-121.6284070876485
 10
76.87730575335011
 20
-121.7300374044633
 10
76.6826578584335
 20
-121.8409694790884
 10
76.44563528904831
 20
-121.8612955424513
 10
76.28302678214452
 20
-121.8612955424513
 10
76.13902179086108
 20
-121.8612955424513
 10
75.88718531088932
 20
-121.8433810459281
 10
75.68840330139041
 20
-121.7300374044633
 10
75.48548717730918
 20
-121.614971215256
 10
75.46206052800949
 20
-121.443060950542
 10
75.46206052800949
 20
-121.305257131132
 10
75.46206052800949
 20
-121.1354139237092
 10
75.5065022597692
 20
-120.9817626650671
 10
75.68840330139041
 20
-120.8801323482522
 10
75.88098413901587
 20
-120.773678897758
 10
76.10939396968793
 20
-120.7488742102642
 10
76.28302678214452
 20
-120.7488742102642
 10
76.45424802776144
 20
-120.7488742102642
 10
76.68472491572466
 20
-120.7716118404668
 10
76.87730575335011
 20
-120.8801323482522
 97
        0
 97
        0
 92
        1
 93
        1
 72
     4
 94
        3
 73
     0
 74
     1
 95
       17
 96
       13
 40
0.0
 40
0.0
 40
0.0
 40
0.0
 40
1.0
 40
1.0
 40
1.0
 40
2.0
 40
2.0
 40
2.0
 40
3.0
 40
3.0
 40
3.0
 40
4.0
 40
4.0
 40
4.0
 40
4.0
 10
75.65464136563496
 20
-121.305257131132
 10
75.65464136563496
 20
-121.5719075216904
 10
75.93817272407101
 20
-121.621516896678
 10
76.28302678214452
 20
-121.621516896678
 10
76.60238713362719
 20
-121.621516896678
 10
76.91106768910556
 20
-121.5832763367917
 10
76.91106768910556
 20
-121.305257131132
 10
76.91106768910556
 20
-121.0406737978648
 10
76.62994789750918
 20
-120.9886528560376
 10
76.28302678214452
 20
-120.9886528560376
 10
75.96332192111333
 20
-120.9886528560376
 10
75.65464136563496
 20
-121.0293049827635
 10
75.65464136563496
 20
-121.305257131132
 97
        0
 97
        0
 75
     2
 76
     1
 98
        0
  0
ENDBLK
  5
8E
330
8B
100
AcDbEntity
  8
0
100
AcDbBlockEnd
  0
BLOCK
  5
A5
330
A3
100
AcDbEntity
  8
0
100
AcDbBlockBegin
  2
block 5
 70
     0
 10
0.0
 20
0.0
 30
0.0
  3
block 5
  1

  0
SPLINE
  5
A7
330
A3
100
AcDbEntity
  8
_U+30EC_U+30A4_U+30E4_U+30FC 1
370
     0
100
AcDbSpline
210
0.0
220
0.0
230
1.0
 70
    11
 71
     3
 72
    44
 73
    40
 74
     0
 42
0.0000000001
 43
0.0000000001
 12
1.0
 22
0.0
 32
0.0
 13
1.0
 23
0.0
 33
0.0
 40
0.0
 40
0.0
 40
0.0
 40
0.0
 40
1.0
 40
1.0
 40
1.0
 40
2.0
 40
2.0
 40
2.0
 40
3.0
 40
3.0
 40
3.0
 40
4.0
 40
4.0
 40
4.0
 40
5.0
 40
5.0
 40
5.0
 40
6.0
 40
6.0
 40
6.0
 40
7.0
 40
7.0
 40
7.0
 40
8.0
 40
8.0
 40
8.0
 40
9.0
 40
9.0
 40
9.0
 40
10.0
 40
10.0
 40
10.0
 40
11.0
 40
11.0
 40
11.0
 40
12.0
 40
12.0
 40
12.0
 40
13.0
 40
13.0
 40
13.0
 40
13.0
 10
72.60659313506017
 20
-107.8655951336239
 30
0.0
 10
72.58316648576046
 20
-107.8211534018642
 30
0.0
 10
72.56215140330043
 20
-107.7682711861656
 30
0.0
 10
72.55991209123502
 20
-107.5376220434281
 30
0.0
 10
72.55577797665272
 20
-107.2943983021695
 30
0.0
 10
72.49652233430643
 20
-107.2246351185932
 30
0.0
 10
72.31875540726753
 20
-107.2246351185932
 30
0.0
 10
72.31875540726753
 20
-107.2246351185932
 30
0.0
 10
71.91051159226544
 20
-107.2246351185932
 30
0.0
 10
71.91051159226544
 20
-107.2246351185932
 30
0.0
 10
71.91051159226544
 20
-107.2246351185932
 30
0.0
 10
71.91051159226544
 20
-107.8655951336239
 30
0.0
 10
71.91051159226544
 20
-107.8655951336239
 30
0.0
 10
71.91051159226544
 20
-107.8655951336239
 30
0.0
 10
71.67572833494566
 20
-107.8655951336239
 30
0.0
 10
71.67572833494566
 20
-107.8655951336239
 30
0.0
 10
71.67572833494566
 20
-107.8655951336239
 30
0.0
 10
71.67572833494566
 20
-106.3213310823606
 30
0.0
 10
71.67572833494566
 20
-106.3213310823606
 30
0.0
 10
71.67572833494566
 20
-106.3213310823606
 30
0.0
 10
72.35045028573184
 20
-106.3213310823606
 30
0.0
 10
72.35045028573184
 20
-106.3213310823606
 30
0.0
 10
72.65723603869333
 20
-106.3213310823606
 30
0.0
 10
72.82449542450222
 20
-106.4925523279776
 30
0.0
 10
72.82449542450222
 20
-106.7486951773059
 30
0.0
 10
72.82449542450222
 20
-106.7993380809391
 30
0.0
 10
72.81588268578909
 20
-106.8818481178108
 30
0.0
 10
72.77144095402936
 20
-106.9622910973914
 30
0.0
 10
72.71235756645733
 20
-107.0659884714974
 30
0.0
 10
72.64672849746331
 20
-107.0849364966663
 30
0.0
 10
72.58540579782587
 20
-107.101817464544
 30
0.0
 10
72.72286510768734
 20
-107.1441921390126
 30
0.0
 10
72.7905612339725
 20
-107.1929402401288
 30
0.0
 10
72.79486760332907
 20
-107.507994222255
 30
0.0
 10
72.79900171791137
 20
-107.7787787273956
 30
0.0
 10
72.83500296573223
 20
-107.8106458606342
 30
0.0
 10
72.90269909201739
 20
-107.8655951336239
 30
0.0
 10
72.90269909201739
 20
-107.8655951336239
 30
0.0
 10
72.60659313506017
 20
-107.8655951336239
 30
0.0
 10
72.60659313506017
 20
-107.8655951336239
 30
0.0
  0
SPLINE
  5
A8
330
A3
100
AcDbEntity
  8
_U+30EC_U+30A4_U+30E4_U+30FC 1
370
     0
100
AcDbSpline
210
0.0
220
0.0
230
1.0
 70
    11
 71
     3
 72
    20
 73
    16
 74
     0
 42
0.0000000001
 43
0.0000000001
 12
1.0
 22
0.0
 32
0.0
 13
1.0
 23
0.0
 33
0.0
 40
0.0
 40
0.0
 40
0.0
 40
0.0
 40
1.0
 40
1.0
 40
1.0
 40
2.0
 40
2.0
 40
2.0
 40
3.0
 40
3.0
 40
3.0
 40
4.0
 40
4.0
 40
4.0
 40
5.0
 40
5.0
 40
5.0
 40
5.0
 10
72.3547566550884
 20
-106.532859945155
 30
0.0
 10
72.3547566550884
 20
-106.532859945155
 30
0.0
 10
71.91051159226544
 20
-106.532859945155
 30
0.0
 10
71.91051159226544
 20
-106.532859945155
 30
0.0
 10
71.91051159226544
 20
-106.532859945155
 30
0.0
 10
71.91051159226544
 20
-107.0131062557988
 30
0.0
 10
71.91051159226544
 20
-107.0131062557988
 30
0.0
 10
71.91051159226544
 20
-107.0131062557988
 30
0.0
 10
72.35268959779725
 20
-107.0131062557988
 30
0.0
 10
72.35268959779725
 20
-107.0131062557988
 30
0.0
 10
72.4520806025467
 20
-107.0131062557988
 30
0.0
 10
72.58747285511703
 20
-106.9369696455748
 30
0.0
 10
72.58747285511703
 20
-106.7655761451836
 30
0.0
 10
72.58747285511703
 20
-106.6872002228942
 30
0.0
 10
72.55371091936158
 20
-106.532859945155
 30
0.0
 10
72.3547566550884
 20
-106.532859945155
 30
0.0
  0
HATCH
  5
A9
330
A3
100
AcDbEntity
  8
_U+30EC_U+30A4_U+30E4_U+30FC 1
 62
     7
420
 16777215
100
AcDbHatch
 10
0.0
 20
0.0
 30
0.0
210
0.0
220
0.0
230
1.0
  2
SOLID
 70
     1
 71
     0
 91
        2
 92
        1
 93
        1
 72
     4
 94
        3
 73
     0
 74
     1
 95
       44
 96
       40
 40
0.0
 40
0.0
 40
0.0
 40
0.0
 40
1.0
 40
1.0
 40
1.0
 40
2.0
 40
2.0
 40
2.0
 40
3.0
 40
3.0
 40
3.0
 40
4.0
 40
4.0
 40
4.0
 40
5.0
 40
5.0
 40
5.0
 40
6.0
 40
6.0
 40
6.0
 40
7.0
 40
7.0
 40
7.0
 40
8.0
 40
8.0
 40
8.0
 40
9.0
 40
9.0
 40
9.0
 40
10.0
 40
10.0
 40
10.0
 40
11.0
 40
11.0
 40
11.0
 40
12.0
 40
12.0
 40
12.0
 40
13.0
 40
13.0
 40
13.0
 40
13.0
 10
72.60659313506017
 20
-107.8655951336239
 10
72.58316648576046
 20
-107.8211534018642
 10
72.56215140330043
 20
-107.7682711861656
 10
72.55991209123502
 20
-107.5376220434281
 10
72.55577797665272
 20
-107.2943983021695
 10
72.49652233430643
 20
-107.2246351185932
 10
72.31875540726753
 20
-107.2246351185932
 10
72.31875540726753
 20
-107.2246351185932
 10
71.91051159226544
 20
-107.2246351185932
 10
71.91051159226544
 20
-107.2246351185932
 10
71.91051159226544
 20
-107.2246351185932
 10
71.91051159226544
 20
-107.8655951336239
 10
71.91051159226544
 20
-107.8655951336239
 10
71.91051159226544
 20
-107.8655951336239
 10
71.67572833494566
 20
-107.8655951336239
 10
71.67572833494566
 20
-107.8655951336239
 10
71.67572833494566
 20
-107.8655951336239
 10
71.67572833494566
 20
-106.3213310823606
 10
71.67572833494566
 20
-106.3213310823606
 10
71.67572833494566
 20
-106.3213310823606
 10
72.35045028573184
 20
-106.3213310823606
 10
72.35045028573184
 20
-106.3213310823606
 10
72.65723603869333
 20
-106.3213310823606
 10
72.82449542450222
 20
-106.4925523279776
 10
72.82449542450222
 20
-106.7486951773059
 10
72.82449542450222
 20
-106.7993380809391
 10
72.81588268578909
 20
-106.8818481178108
 10
72.77144095402936
 20
-106.9622910973914
 10
72.71235756645733
 20
-107.0659884714974
 10
72.64672849746331
 20
-107.0849364966663
 10
72.58540579782587
 20
-107.101817464544
 10
72.72286510768734
 20
-107.1441921390126
 10
72.7905612339725
 20
-107.1929402401288
 10
72.79486760332907
 20
-107.507994222255
 10
72.79900171791137
 20
-107.7787787273956
 10
72.83500296573223
 20
-107.8106458606342
 10
72.90269909201739
 20
-107.8655951336239
 10
72.90269909201739
 20
-107.8655951336239
 10
72.60659313506017
 20
-107.8655951336239
 10
72.60659313506017
 20
-107.8655951336239
 97
        0
 97
        0
 92
        1
 93
        1
 72
     4
 94
        3
 73
     0
 74
     1
 95
       20
 96
       16
 40
0.0
 40
0.0
 40
0.0
 40
0.0
 40
1.0
 40
1.0
 40
1.0
 40
2.0
 40
2.0
 40
2.0
 40
3.0
 40
3.0
 40
3.0
 40
4.0
 40
4.0
 40
4.0
 40
5.0
 40
5.0
 40
5.0
 40
5.0
 10
72.3547566550884
 20
-106.532859945155
 10
72.3547566550884
 20
-106.532859945155
 10
71.91051159226544
 20
-106.532859945155
 10
71.91051159226544
 20
-106.532859945155
 10
71.91051159226544
 20
-106.532859945155
 10
71.91051159226544
 20
-107.0131062557988
 10
71.91051159226544
 20
-107.0131062557988
 10
71.91051159226544
 20
-107.0131062557988
 10
72.35268959779725
 20
-107.0131062557988
 10
72.35268959779725
 20
-107.0131062557988
 10
72.4520806025467
 20
-107.0131062557988
 10
72.58747285511703
 20
-106.9369696455748
 10
72.58747285511703
 20
-106.7655761451836
 10
72.58747285511703
 20
-106.6872002228942
 10
72.55371091936158
 20
-106.532859945155
 10
72.3547566550884
 20
-106.532859945155
 97
        0
 97
        0
 75
     2
 76
     1
 98
        0
  0
SPLINE
  5
AA
330
A3
100
AcDbEntity
  8
_U+30EC_U+30A4_U+30E4_U+30FC 1
370
     0
100
AcDbSpline
210
0.0
220
0.0
230
1.0
 70
    11
 71
     3
 72
    53
 73
    49
 74
     0
 42
0.0000000001
 43
0.0000000001
 12
1.0
 22
0.0
 32
0.0
 13
1.0
 23
0.0
 33
0.0
 40
0.0
 40
0.0
 40
0.0
 40
0.0
 40
1.0
 40
1.0
 40
1.0
 40
2.0
 40
2.0
 40
2.0
 40
3.0
 40
3.0
 40
3.0
 40
4.0
 40
4.0
 40
4.0
 40
5.0
 40
5.0
 40
5.0
 40
6.0
 40
6.0
 40
6.0
 40
7.0
 40
7.0
 40
7.0
 40
8.0
 40
8.0
 40
8.0
 40
9.0
 40
9.0
 40
9.0
 40
10.0
 40
10.0
 40
10.0
 40
11.0
 40
11.0
 40
11.0
 40
12.0
 40
12.0
 40
12.0
 40
13.0
 40
13.0
 40
13.0
 40
14.0
 40
14.0
 40
14.0
 40
15.0
 40
15.0
 40
15.0
 40
16.0
 40
16.0
 40
16.0
 40
16.0
 10
73.52333304368514
 20
-107.9164102920313
 30
0.0
 10
73.4449571213957
 20
-107.9164102920313
 30
0.0
 10
73.3434990593551
 20
-107.8993570693793
 30
0.0
 10
73.24186874254023
 20
-107.8359673124507
 30
0.0
 10
73.0684081848579
 20
-107.725896511697
 30
0.0
 10
73.04722084762362
 20
-107.5948106284832
 30
0.0
 10
73.02827282245474
 20
-107.4869791397949
 30
0.0
 10
73.02827282245474
 20
-107.4869791397949
 30
0.0
 10
73.25030922647909
 20
-107.4869791397949
 30
0.0
 10
73.25030922647909
 20
-107.4869791397949
 30
0.0
 10
73.30543075424309
 20
-107.6857611492938
 30
0.0
 10
73.43238252287455
 20
-107.715388970467
 30
0.0
 10
73.5254001009763
 20
-107.715388970467
 30
0.0
 10
73.66509872290317
 20
-107.715388970467
 30
0.0
 10
73.81737194335122
 20
-107.6159979657175
 30
0.0
 10
73.81737194335122
 20
-107.3832817656889
 30
0.0
 10
73.81737194335122
 20
-107.1273111711348
 30
0.0
 10
73.63753795902117
 20
-107.0575479875585
 30
0.0
 10
73.51695961703743
 20
-107.0575479875585
 30
0.0
 10
73.48526473857314
 20
-107.0575479875585
 30
0.0
 10
73.3434990593551
 20
-107.0575479875585
 30
0.0
 10
73.25461559583566
 20
-107.1865668134811
 30
0.0
 10
73.25461559583566
 20
-107.1865668134811
 30
0.0
 10
73.07908798086217
 20
-107.167446533538
 30
0.0
 10
73.07908798086217
 20
-107.167446533538
 30
0.0
 10
73.07908798086217
 20
-107.167446533538
 30
0.0
 10
73.19966632284591
 20
-106.3213310823606
 30
0.0
 10
73.19966632284591
 20
-106.3213310823606
 30
0.0
 10
73.19966632284591
 20
-106.3213310823606
 30
0.0
 10
73.97808564773813
 20
-106.3213310823606
 30
0.0
 10
73.97808564773813
 20
-106.3213310823606
 30
0.0
 10
73.97808564773813
 20
-106.3213310823606
 30
0.0
 10
73.97808564773813
 20
-106.5159789772773
 30
0.0
 10
73.97808564773813
 20
-106.5159789772773
 30
0.0
 10
73.97808564773813
 20
-106.5159789772773
 30
0.0
 10
73.36244708452398
 20
-106.5159789772773
 30
0.0
 10
73.36244708452398
 20
-106.5159789772773
 30
0.0
 10
73.36244708452398
 20
-106.5159789772773
 30
0.0
 10
73.29699027030424
 20
-106.9390367028659
 30
0.0
 10
73.29699027030424
 20
-106.9390367028659
 30
0.0
 10
73.35831296994168
 20
-106.9051025123362
 30
0.0
 10
73.4408230068134
 20
-106.8649671499331
 30
0.0
 10
73.55916203673173
 20
-106.8649671499331
 30
0.0
 10
73.81306557399465
 20
-106.8649671499331
 30
0.0
 10
74.05008814337984
 20
-107.0511745609108
 30
0.0
 10
74.05008814337984
 20
-107.3641614857458
 30
0.0
 10
74.05008814337984
 20
-107.6816270347115
 30
0.0
 10
73.82581242729007
 20
-107.9164102920313
 30
0.0
 10
73.52333304368514
 20
-107.9164102920313
 30
0.0
  0
HATCH
  5
AB
330
A3
100
AcDbEntity
  8
_U+30EC_U+30A4_U+30E4_U+30FC 1
 62
     7
420
 16777215
100
AcDbHatch
 10
0.0
 20
0.0
 30
0.0
210
0.0
220
0.0
230
1.0
  2
SOLID
 70
     1
 71
     0
 91
        1
 92
        1
 93
        1
 72
     4
 94
        3
 73
     0
 74
     1
 95
       53
 96
       49
 40
0.0
 40
0.0
 40
0.0
 40
0.0
 40
1.0
 40
1.0
 40
1.0
 40
2.0
 40
2.0
 40
2.0
 40
3.0
 40
3.0
 40
3.0
 40
4.0
 40
4.0
 40
4.0
 40
5.0
 40
5.0
 40
5.0
 40
6.0
 40
6.0
 40
6.0
 40
7.0
 40
7.0
 40
7.0
 40
8.0
 40
8.0
 40
8.0
 40
9.0
 40
9.0
 40
9.0
 40
10.0
 40
10.0
 40
10.0
 40
11.0
 40
11.0
 40
11.0
 40
12.0
 40
12.0
 40
12.0
 40
13.0
 40
13.0
 40
13.0
 40
14.0
 40
14.0
 40
14.0
 40
15.0
 40
15.0
 40
15.0
 40
16.0
 40
16.0
 40
16.0
 40
16.0
 10
73.52333304368514
 20
-107.9164102920313
 10
73.4449571213957
 20
-107.9164102920313
 10
73.3434990593551
 20
-107.8993570693793
 10
73.24186874254023
 20
-107.8359673124507
 10
73.0684081848579
 20
-107.725896511697
 10
73.04722084762362
 20
-107.5948106284832
 10
73.02827282245474
 20
-107.4869791397949
 10
73.02827282245474
 20
-107.4869791397949
 10
73.25030922647909
 20
-107.4869791397949
 10
73.25030922647909
 20
-107.4869791397949
 10
73.30543075424309
 20
-107.6857611492938
 10
73.43238252287455
 20
-107.715388970467
 10
73.5254001009763
 20
-107.715388970467
 10
73.66509872290317
 20
-107.715388970467
 10
73.81737194335122
 20
-107.6159979657175
 10
73.81737194335122
 20
-107.3832817656889
 10
73.81737194335122
 20
-107.1273111711348
 10
73.63753795902117
 20
-107.0575479875585
 10
73.51695961703743
 20
-107.0575479875585
 10
73.48526473857314
 20
-107.0575479875585
 10
73.3434990593551
 20
-107.0575479875585
 10
73.25461559583566
 20
-107.1865668134811
 10
73.25461559583566
 20
-107.1865668134811
 10
73.07908798086217
 20
-107.167446533538
 10
73.07908798086217
 20
-107.167446533538
 10
73.07908798086217
 20
-107.167446533538
 10
73.19966632284591
 20
-106.3213310823606
 10
73.19966632284591
 20
-106.3213310823606
 10
73.19966632284591
 20
-106.3213310823606
 10
73.97808564773813
 20
-106.3213310823606
 10
73.97808564773813
 20
-106.3213310823606
 10
73.97808564773813
 20
-106.3213310823606
 10
73.97808564773813
 20
-106.5159789772773
 10
73.97808564773813
 20
-106.5159789772773
 10
73.97808564773813
 20
-106.5159789772773
 10
73.36244708452398
 20
-106.5159789772773
 10
73.36244708452398
 20
-106.5159789772773
 10
73.36244708452398
 20
-106.5159789772773
 10
73.29699027030424
 20
-106.9390367028659
 10
73.29699027030424
 20
-106.9390367028659
 10
73.35831296994168
 20
-106.9051025123362
 10
73.4408230068134
 20
-106.8649671499331
 10
73.55916203673173
 20
-106.8649671499331
 10
73.81306557399465
 20
-106.8649671499331
 10
74.05008814337984
 20
-107.0511745609108
 10
74.05008814337984
 20
-107.3641614857458
 10
74.05008814337984
 20
-107.6816270347115
 10
73.82581242729007
 20
-107.9164102920313
 10
73.52333304368514
 20
-107.9164102920313
 97
        0
 97
        0
 75
     2
 76
     1
 98
        0
  0
ENDBLK
  5
A6
330
A3
100
AcDbEntity
  8
0
100
AcDbBlockEnd
  0
BLOCK
  5
C9
330
C7
100
AcDbEntity
  8
0
100
AcDbBlockBegin
  2
block 6
 70
     0
 10
0.0
 20
0.0
 30
0.0
  3
block 6
  1

  0
SPLINE
  5
CB
330
C7
100
AcDbEntity
  8
_U+30EC_U+30A4_U+30E4_U+30FC 1
370
     0
100
AcDbSpline
210
0.0
220
0.0
230
1.0
 70
    11
 71
     3
 72
    26
 73
    22
 74
     0
 42
0.0000000001
 43
0.0000000001
 12
1.0
 22
0.0
 32
0.0
 13
1.0
 23
0.0
 33
0.0
 40
0.0
 40
0.0
 40
0.0
 40
0.0
 40
1.0
 40
1.0
 40
1.0
 40
2.0
 40
2.0
 40
2.0
 40
3.0
 40
3.0
 40
3.0
 40
4.0
 40
4.0
 40
4.0
 40
5.0
 40
5.0
 40
5.0
 40
6.0
 40
6.0
 40
6.0
 40
7.0
 40
7.0
 40
7.0
 40
7.0
 10
86.41160750877904
 20
-148.6066053230914
 30
0.0
 10
86.41160750877904
 20
-148.6066053230914
 30
0.0
 10
86.15839299061318
 20
-148.6066053230914
 30
0.0
 10
86.15839299061318
 20
-148.6066053230914
 30
0.0
 10
86.18543699017239
 20
-148.2975802580645
 30
0.0
 10
86.39110919064181
 20
-147.7794378970829
 30
0.0
 10
86.82519122178329
 20
-147.2736978798482
 30
0.0
 10
86.82519122178329
 20
-147.2736978798482
 30
0.0
 10
85.92998315994112
 20
-147.2736978798482
 30
0.0
 10
85.92998315994112
 20
-147.2736978798482
 30
0.0
 10
85.92998315994112
 20
-147.2736978798482
 30
0.0
 10
85.92998315994112
 20
-147.0621690170539
 30
0.0
 10
85.92998315994112
 20
-147.0621690170539
 30
0.0
 10
85.92998315994112
 20
-147.0621690170539
 30
0.0
 10
87.07840573994915
 20
-147.0621690170539
 30
0.0
 10
87.07840573994915
 20
-147.0621690170539
 30
0.0
 10
87.07840573994915
 20
-147.0621690170539
 30
0.0
 10
87.07840573994915
 20
-147.2736978798482
 30
0.0
 10
87.07840573994915
 20
-147.2736978798482
 30
0.0
 10
86.73251815323007
 20
-147.5637749197063
 30
0.0
 10
86.44778101137418
 20
-148.1559868336207
 30
0.0
 10
86.41160750877904
 20
-148.6066053230914
 30
0.0
  0
HATCH
  5
CC
330
C7
100
AcDbEntity
  8
_U+30EC_U+30A4_U+30E4_U+30FC 1
 62
     7
420
 16777215
100
AcDbHatch
 10
0.0
 20
0.0
 30
0.0
210
0.0
220
0.0
230
1.0
  2
SOLID
 70
     1
 71
     0
 91
        1
 92
        1
 93
        1
 72
     4
 94
        3
 73
     0
 74
     1
 95
       26
 96
       22
 40
0.0
 40
0.0
 40
0.0
 40
0.0
 40
1.0
 40
1.0
 40
1.0
 40
2.0
 40
2.0
 40
2.0
 40
3.0
 40
3.0
 40
3.0
 40
4.0
 40
4.0
 40
4.0
 40
5.0
 40
5.0
 40
5.0
 40
6.0
 40
6.0
 40
6.0
 40
7.0
 40
7.0
 40
7.0
 40
7.0
 10
86.41160750877904
 20
-148.6066053230914
 10
86.41160750877904
 20
-148.6066053230914
 10
86.15839299061318
 20
-148.6066053230914
 10
86.15839299061318
 20
-148.6066053230914
 10
86.18543699017239
 20
-148.2975802580645
 10
86.39110919064181
 20
-147.7794378970829
 10
86.82519122178329
 20
-147.2736978798482
 10
86.82519122178329
 20
-147.2736978798482
 10
85.92998315994112
 20
-147.2736978798482
 10
85.92998315994112
 20
-147.2736978798482
 10
85.92998315994112
 20
-147.2736978798482
 10
85.92998315994112
 20
-147.0621690170539
 10
85.92998315994112
 20
-147.0621690170539
 10
85.92998315994112
 20
-147.0621690170539
 10
87.07840573994915
 20
-147.0621690170539
 10
87.07840573994915
 20
-147.0621690170539
 10
87.07840573994915
 20
-147.0621690170539
 10
87.07840573994915
 20
-147.2736978798482
 10
87.07840573994915
 20
-147.2736978798482
 10
86.73251815323007
 20
-147.5637749197063
 10
86.44778101137418
 20
-148.1559868336207
 10
86.41160750877904
 20
-148.6066053230914
 97
        0
 97
        0
 75
     2
 76
     1
 98
        0
  0
ENDBLK
  5
CA
330
C7
100
AcDbEntity
  8
0
100
AcDbBlockEnd
  0
BLOCK
  5
CF
330
CD
100
AcDbEntity
  8
0
100
AcDbBlockBegin
  2
block 7
 70
     0
 10
0.0
 20
0.0
 30
0.0
  3
block 7
  1

  0
SPLINE
  5
D1
330
CD
100
AcDbEntity
  8
_U+30EC_U+30A4_U+30E4_U+30FC 1
370
     0
100
AcDbSpline
210
0.0
220
0.0
230
1.0
 70
    11
 71
     3
 72
    26
 73
    22
 74
     0
 42
0.0000000001
 43
0.0000000001
 12
1.0
 22
0.0
 32
0.0
 13
1.0
 23
0.0
 33
0.0
 40
0.0
 40
0.0
 40
0.0
 40
0.0
 40
1.0
 40
1.0
 40
1.0
 40
2.0
 40
2.0
 40
2.0
 40
3.0
 40
3.0
 40
3.0
 40
4.0
 40
4.0
 40
4.0
 40
5.0
 40
5.0
 40
5.0
 40
6.0
 40
6.0
 40
6.0
 40
7.0
 40
7.0
 40
7.0
 40
7.0
 10
92.45671655674694
 20
-148.6066053230914
 30
0.0
 10
92.45671655674694
 20
-148.6066053230914
 30
0.0
 10
92.45671655674694
 20
-147.5024522200688
 30
0.0
 10
92.45671655674694
 20
-147.5024522200688
 30
0.0
 10
92.45671655674694
 20
-147.5024522200688
 30
0.0
 10
92.10393877905736
 20
-147.5024522200688
 30
0.0
 10
92.10393877905736
 20
-147.5024522200688
 30
0.0
 10
92.10393877905736
 20
-147.5024522200688
 30
0.0
 10
92.10393877905736
 20
-147.3543131142031
 30
0.0
 10
92.10393877905736
 20
-147.3543131142031
 30
0.0
 10
92.45878361403808
 20
-147.3394992036165
 30
0.0
 10
92.5087374985742
 20
-147.1765461871642
 30
0.0
 10
92.54008786748999
 20
-147.0621690170539
 30
0.0
 10
92.54008786748999
 20
-147.0621690170539
 30
0.0
 10
92.6961506929718
 20
-147.0621690170539
 30
0.0
 10
92.6961506929718
 20
-147.0621690170539
 30
0.0
 10
92.6961506929718
 20
-147.0621690170539
 30
0.0
 10
92.6961506929718
 20
-148.6066053230914
 30
0.0
 10
92.6961506929718
 20
-148.6066053230914
 30
0.0
 10
92.6961506929718
 20
-148.6066053230914
 30
0.0
 10
92.45671655674694
 20
-148.6066053230914
 30
0.0
 10
92.45671655674694
 20
-148.6066053230914
 30
0.0
  0
HATCH
  5
D2
330
CD
100
AcDbEntity
  8
_U+30EC_U+30A4_U+30E4_U+30FC 1
 62
     7
420
 16777215
100
AcDbHatch
 10
0.0
 20
0.0
 30
0.0
210
0.0
220
0.0
230
1.0
  2
SOLID
 70
     1
 71
     0
 91
        1
 92
        1
 93
        1
 72
     4
 94
        3
 73
     0
 74
     1
 95
       26
 96
       22
 40
0.0
 40
0.0
 40
0.0
 40
0.0
 40
1.0
 40
1.0
 40
1.0
 40
2.0
 40
2.0
 40
2.0
 40
3.0
 40
3.0
 40
3.0
 40
4.0
 40
4.0
 40
4.0
 40
5.0
 40
5.0
 40
5.0
 40
6.0
 40
6.0
 40
6.0
 40
7.0
 40
7.0
 40
7.0
 40
7.0
 10
92.45671655674694
 20
-148.6066053230914
 10
92.45671655674694
 20
-148.6066053230914
 10
92.45671655674694
 20
-147.5024522200688
 10
92.45671655674694
 20
-147.5024522200688
 10
92.45671655674694
 20
-147.5024522200688
 10
92.10393877905736
 20
-147.5024522200688
 10
92.10393877905736
 20
-147.5024522200688
 10
92.10393877905736
 20
-147.5024522200688
 10
92.10393877905736
 20
-147.3543131142031
 10
92.10393877905736
 20
-147.3543131142031
 10
92.45878361403808
 20
-147.3394992036165
 10
92.5087374985742
 20
-147.1765461871642
 10
92.54008786748999
 20
-147.0621690170539
 10
92.54008786748999
 20
-147.0621690170539
 10
92.6961506929718
 20
-147.0621690170539
 10
92.6961506929718
 20
-147.0621690170539
 10
92.6961506929718
 20
-147.0621690170539
 10
92.6961506929718
 20
-148.6066053230914
 10
92.6961506929718
 20
-148.6066053230914
 10
92.6961506929718
 20
-148.6066053230914
 10
92.45671655674694
 20
-148.6066053230914
 10
92.45671655674694
 20
-148.6066053230914
 97
        0
 97
        0
 75
     2
 76
     1
 98
        0
  0
ENDBLK
  5
D0
330
CD
100
AcDbEntity
  8
0
100
AcDbBlockEnd
  0
ENDSEC
  0
SECTION
  2
ENTITIES
  0
SPLINE
  5
41
330
1F
100
AcDbEntity
  8
_U+30EC_U+30A4_U+30E4_U+30FC 1
 62
     7
420
 16777215
370
    25
100
AcDbSpline
210
0.0
220
0.0
230
1.0
 70
    11
 71
     3
 72
   131
 73
   127
 74
     0
 42
0.0000000001
 43
0.0000000001
 12
1.0
 22
0.0
 32
0.0
 13
1.0
 23
0.0
 33
0.0
 40
0.0
 40
0.0
 40
0.0
 40
0.0
 40
1.0
 40
1.0
 40
1.0
 40
2.0
 40
2.0
 40
2.0
 40
3.0
 40
3.0
 40
3.0
 40
4.0
 40
4.0
 40
4.0
 40
5.0
 40
5.0
 40
5.0
 40
6.0
 40
6.0
 40
6.0
 40
7.0
 40
7.0
 40
7.0
 40
8.0
 40
8.0
 40
8.0
 40
9.0
 40
9.0
 40
9.0
 40
10.0
 40
10.0
 40
10.0
 40
11.0
 40
11.0
 40
11.0
 40
12.0
 40
12.0
 40
12.0
 40
13.0
 40
13.0
 40
13.0
 40
14.0
 40
14.0
 40
14.0
 40
15.0
 40
15.0
 40
15.0
 40
16.0
 40
16.0
 40
16.0
 40
17.0
 40
17.0
 40
17.0
 40
18.0
 40
18.0
 40
18.0
 40
19.0
 40
19.0
 40
19.0
 40
20.0
 40
20.0
 40
20.0
 40
21.0
 40
21.0
 40
21.0
 40
22.0
 40
22.0
 40
22.0
 40
23.0
 40
23.0
 40
23.0
 40
24.0
 40
24.0
 40
24.0
 40
25.0
 40
25.0
 40
25.0
 40
26.0
 40
26.0
 40
26.0
 40
27.0
 40
27.0
 40
27.0
 40
28.0
 40
28.0
 40
28.0
 40
29.0
 40
29.0
 40
29.0
 40
30.0
 40
30.0
 40
30.0
 40
31.0
 40
31.0
 40
31.0
 40
32.0
 40
32.0
 40
32.0
 40
33.0
 40
33.0
 40
33.0
 40
34.0
 40
34.0
 40
34.0
 40
35.0
 40
35.0
 40
35.0
 40
36.0
 40
36.0
 40
36.0
 40
37.0
 40
37.0
 40
37.0
 40
38.0
 40
38.0
 40
38.0
 40
39.0
 40
39.0
 40
39.0
 40
40.0
 40
40.0
 40
40.0
 40
41.0
 40
41.0
 40
41.0
 40
42.0
 40
42.0
 40
42.0
 40
42.0
 10
108.3758027506839
 20
-118.9370874702659
 30
0.0
 10
108.3758027506839
 20
-118.9370874702659
 30
0.0
 10
108.0977758533071
 20
-119.2199446924171
 30
0.0
 10
108.0977758533071
 20
-119.2199446924171
 30
0.0
 10
108.0977758533071
 20
-119.2199446924171
 30
0.0
 10
107.8197869715103
 20
-118.9370874702659
 30
0.0
 10
107.8197869715103
 20
-118.9370874702659
 30
0.0
 10
107.8197869715103
 20
-118.9370874702659
 30
0.0
 10
102.036136563508
 20
-118.9370874702659
 30
0.0
 10
102.036136563508
 20
-118.9370874702659
 30
0.0
 10
102.036136563508
 20
-118.9370874702659
 30
0.0
 10
102.036136563508
 20
-112.9364433050992
 30
0.0
 10
102.036136563508
 20
-112.9364433050992
 30
0.0
 10
102.036136563508
 20
-112.9364433050992
 30
0.0
 10
102.036136563508
 20
-111.9370238609047
 30
0.0
 10
102.036136563508
 20
-111.9370238609047
 30
0.0
 10
102.036136563508
 20
-111.9370238609047
 30
0.0
 10
102.036136563508
 20
-111.9366710831269
 30
0.0
 10
102.036136563508
 20
-111.9366710831269
 30
0.0
 10
102.036136563508
 20
-111.9366710831269
 30
0.0
 10
89.13632355927626
 20
-111.9366710831269
 30
0.0
 10
89.13632355927626
 20
-111.9366710831269
 30
0.0
 10
89.13632355927626
 20
-111.9366710831269
 30
0.0
 10
88.00598831033574
 20
-111.9370238609047
 30
0.0
 10
88.00598831033574
 20
-111.9370238609047
 30
0.0
 10
85.24440865856728
 20
-111.9370238609047
 30
0.0
 10
83.00578886813757
 20
-114.1756458047894
 30
0.0
 10
83.00578886813757
 20
-116.9372255263212
 30
0.0
 10
83.00578886813757
 20
-116.9372255263212
 30
0.0
 10
83.0068098267643
 20
-116.9372255263212
 30
0.0
 10
83.0068098267643
 20
-116.9372255263212
 30
0.0
 10
83.0068098267643
 20
-116.9372255263212
 30
0.0
 10
83.0068098267643
 20
-130.937388022821
 30
0.0
 10
83.0068098267643
 20
-130.937388022821
 30
0.0
 10
83.0068098267643
 20
-130.937388022821
 30
0.0
 10
83.0068098267643
 20
-131.9371602447935
 30
0.0
 10
83.0068098267643
 20
-131.9371602447935
 30
0.0
 10
83.0068098267643
 20
-131.9371602447935
 30
0.0
 10
84.0065820234802
 20
-131.9371602447935
 30
0.0
 10
84.0065820234802
 20
-131.9371602447935
 30
0.0
 10
84.0065820234802
 20
-131.9371602447935
 30
0.0
 10
90.0069085370658
 20
-131.9371602447935
 30
0.0
 10
90.0069085370658
 20
-131.9371602447935
 30
0.0
 10
90.0069085370658
 20
-131.9371602447935
 30
0.0
 10
90.0069085370658
 20
-138.6599405208903
 30
0.0
 10
90.0069085370658
 20
-138.6599405208903
 30
0.0
 10
90.0069085370658
 20
-138.6599405208903
 30
0.0
 10
90.28906019653417
 20
-138.936553576377
 30
0.0
 10
90.28906019653417
 20
-138.936553576377
 30
0.0
 10
90.28906019653417
 20
-138.936553576377
 30
0.0
 10
90.0069085370658
 20
-139.2135546874189
 30
0.0
 10
90.0069085370658
 20
-139.2135546874189
 30
0.0
 10
90.0069085370658
 20
-139.2135546874189
 30
0.0
 10
90.0069085370658
 20
-145.9373580190715
 30
0.0
 10
90.0069085370658
 20
-145.9373580190715
 30
0.0
 10
90.0069085370658
 20
-145.9373580190715
 30
0.0
 10
91.0066807337817
 20
-145.9373580190715
 30
0.0
 10
91.0066807337817
 20
-145.9373580190715
 30
0.0
 10
91.0066807337817
 20
-145.9373580190715
 30
0.0
 10
91.0066807337817
 20
-131.9371602447935
 30
0.0
 10
91.0066807337817
 20
-131.9371602447935
 30
0.0
 10
91.0066807337817
 20
-131.9371602447935
 30
0.0
 10
91.0066807337817
 20
-130.937388022821
 30
0.0
 10
91.0066807337817
 20
-130.937388022821
 30
0.0
 10
91.0066807337817
 20
-130.937388022821
 30
0.0
 10
90.0069085370658
 20
-130.937388022821
 30
0.0
 10
90.0069085370658
 20
-130.937388022821
 30
0.0
 10
90.0069085370658
 20
-130.937388022821
 30
0.0
 10
87.00656889138861
 20
-130.937388022821
 30
0.0
 10
87.00656889138861
 20
-130.937388022821
 30
0.0
 10
87.00656889138861
 20
-130.937388022821
 30
0.0
 10
87.00656889138861
 20
-130.3372777451931
 30
0.0
 10
87.00656889138861
 20
-130.3372777451931
 30
0.0
 10
87.00656889138861
 20
-130.3372777451931
 30
0.0
 10
86.20661002290838
 20
-130.3372777451931
 30
0.0
 10
86.20661002290838
 20
-130.3372777451931
 30
0.0
 10
86.20661002290838
 20
-130.3372777451931
 30
0.0
 10
86.20661002290838
 20
-130.937388022821
 30
0.0
 10
86.20661002290838
 20
-130.937388022821
 30
0.0
 10
86.20661002290838
 20
-130.937388022821
 30
0.0
 10
84.0065820234802
 20
-130.937388022821
 30
0.0
 10
84.0065820234802
 20
-130.937388022821
 30
0.0
 10
84.0065820234802
 20
-130.937388022821
 30
0.0
 10
84.0065820234802
 20
-117.5680274706081
 30
0.0
 10
84.0065820234802
 20
-117.5680274706081
 30
0.0
 10
84.0065820234802
 20
-117.5680274706081
 30
0.0
 10
84.00622924571144
 20
-116.9372255263212
 30
0.0
 10
84.00622924571144
 20
-116.9372255263212
 30
0.0
 10
84.00622924571144
 20
-114.7282369157623
 30
0.0
 10
85.79699975558063
 20
-112.9374663606546
 30
0.0
 10
88.00598831033574
 20
-112.9374663606546
 30
0.0
 10
88.00598831033574
 20
-112.9374663606546
 30
0.0
 10
89.07017772763045
 20
-112.9364433050992
 30
0.0
 10
89.07017772763045
 20
-112.9364433050992
 30
0.0
 10
89.07017772763045
 20
-112.9364433050992
 30
0.0
 10
101.0360468668001
 20
-112.9364433050992
 30
0.0
 10
101.0360468668001
 20
-112.9364433050992
 30
0.0
 10
101.0360468668001
 20
-112.9364433050992
 30
0.0
 10
101.0360468668001
 20
-115.1368241378823
 30
0.0
 10
101.0360468668001
 20
-115.1368241378823
 30
0.0
 10
101.0360468668001
 20
-115.1368241378823
 30
0.0
 10
100.4359013265556
 20
-115.1368241378823
 30
0.0
 10
100.4359013265556
 20
-115.1368241378823
 30
0.0
 10
100.4359013265556
 20
-115.1368241378823
 30
0.0
 10
100.4359013265556
 20
-115.9367477487937
 30
0.0
 10
100.4359013265556
 20
-115.9367477487937
 30
0.0
 10
100.4359013265556
 20
-115.9367477487937
 30
0.0
 10
101.0360468668001
 20
-115.9367477487937
 30
0.0
 10
101.0360468668001
 20
-115.9367477487937
 30
0.0
 10
101.0360468668001
 20
-115.9367477487937
 30
0.0
 10
101.0360468668001
 20
-118.9370874702659
 30
0.0
 10
101.0360468668001
 20
-118.9370874702659
 30
0.0
 10
101.0360468668001
 20
-118.9370874702659
 30
0.0
 10
101.0360468668001
 20
-119.9368596922381
 30
0.0
 10
101.0360468668001
 20
-119.9368596922381
 30
0.0
 10
101.0360468668001
 20
-119.9368596922381
 30
0.0
 10
102.036136563508
 20
-119.9368596922381
 30
0.0
 10
102.036136563508
 20
-119.9368596922381
 30
0.0
 10
102.036136563508
 20
-119.9368596922381
 30
0.0
 10
115.1530166378783
 20
-119.9368596922381
 30
0.0
 10
115.1530166378783
 20
-119.9368596922381
 30
0.0
 10
115.1530166378783
 20
-119.9368596922381
 30
0.0
 10
115.1530166378783
 20
-118.9370874702659
 30
0.0
 10
115.1530166378783
 20
-118.9370874702659
 30
0.0
 10
115.1530166378783
 20
-118.9370874702659
 30
0.0
 10
108.3758027506839
 20
-118.9370874702659
 30
0.0
 10
108.3758027506839
 20
-118.9370874702659
 30
0.0
  0
HATCH
  5
42
330
1F
100
AcDbEntity
  8
_U+30EC_U+30A4_U+30E4_U+30FC 1
 62
   253
420
 10855845
100
AcDbHatch
 10
0.0
 20
0.0
 30
0.0
210
0.0
220
0.0
230
1.0
  2
SOLID
 70
     1
 71
     0
 91
        1
 92
        1
 93
        1
 72
     4
 94
        3
 73
     0
 74
     1
 95
      131
 96
      127
 40
0.0
 40
0.0
 40
0.0
 40
0.0
 40
1.0
 40
1.0
 40
1.0
 40
2.0
 40
2.0
 40
2.0
 40
3.0
 40
3.0
 40
3.0
 40
4.0
 40
4.0
 40
4.0
 40
5.0
 40
5.0
 40
5.0
 40
6.0
 40
6.0
 40
6.0
 40
7.0
 40
7.0
 40
7.0
 40
8.0
 40
8.0
 40
8.0
 40
9.0
 40
9.0
 40
9.0
 40
10.0
 40
10.0
 40
10.0
 40
11.0
 40
11.0
 40
11.0
 40
12.0
 40
12.0
 40
12.0
 40
13.0
 40
13.0
 40
13.0
 40
14.0
 40
14.0
 40
14.0
 40
15.0
 40
15.0
 40
15.0
 40
16.0
 40
16.0
 40
16.0
 40
17.0
 40
17.0
 40
17.0
 40
18.0
 40
18.0
 40
18.0
 40
19.0
 40
19.0
 40
19.0
 40
20.0
 40
20.0
 40
20.0
 40
21.0
 40
21.0
 40
21.0
 40
22.0
 40
22.0
 40
22.0
 40
23.0
 40
23.0
 40
23.0
 40
24.0
 40
24.0
 40
24.0
 40
25.0
 40
25.0
 40
25.0
 40
26.0
 40
26.0
 40
26.0
 40
27.0
 40
27.0
 40
27.0
 40
28.0
 40
28.0
 40
28.0
 40
29.0
 40
29.0
 40
29.0
 40
30.0
 40
30.0
 40
30.0
 40
31.0
 40
31.0
 40
31.0
 40
32.0
 40
32.0
 40
32.0
 40
33.0
 40
33.0
 40
33.0
 40
34.0
 40
34.0
 40
34.0
 40
35.0
 40
35.0
 40
35.0
 40
36.0
 40
36.0
 40
36.0
 40
37.0
 40
37.0
 40
37.0
 40
38.0
 40
38.0
 40
38.0
 40
39.0
 40
39.0
 40
39.0
 40
40.0
 40
40.0
 40
40.0
 40
41.0
 40
41.0
 40
41.0
 40
42.0
 40
42.0
 40
42.0
 40
42.0
 10
108.3758027506839
 20
-118.9370874702659
 10
108.3758027506839
 20
-118.9370874702659
 10
108.0977758533071
 20
-119.2199446924171
 10
108.0977758533071
 20
-119.2199446924171
 10
108.0977758533071
 20
-119.2199446924171
 10
107.8197869715103
 20
-118.9370874702659
 10
107.8197869715103
 20
-118.9370874702659
 10
107.8197869715103
 20
-118.9370874702659
 10
102.036136563508
 20
-118.9370874702659
 10
102.036136563508
 20
-118.9370874702659
 10
102.036136563508
 20
-118.9370874702659
 10
102.036136563508
 20
-112.9364433050992
 10
102.036136563508
 20
-112.9364433050992
 10
102.036136563508
 20
-112.9364433050992
 10
102.036136563508
 20
-111.9370238609047
 10
102.036136563508
 20
-111.9370238609047
 10
102.036136563508
 20
-111.9370238609047
 10
102.036136563508
 20
-111.9366710831269
 10
102.036136563508
 20
-111.9366710831269
 10
102.036136563508
 20
-111.9366710831269
 10
89.13632355927626
 20
-111.9366710831269
 10
89.13632355927626
 20
-111.9366710831269
 10
89.13632355927626
 20
-111.9366710831269
 10
88.00598831033574
 20
-111.9370238609047
 10
88.00598831033574
 20
-111.9370238609047
 10
85.24440865856728
 20
-111.9370238609047
 10
83.00578886813757
 20
-114.1756458047894
 10
83.00578886813757
 20
-116.9372255263212
 10
83.00578886813757
 20
-116.9372255263212
 10
83.0068098267643
 20
-116.9372255263212
 10
83.0068098267643
 20
-116.9372255263212
 10
83.0068098267643
 20
-116.9372255263212
 10
83.0068098267643
 20
-130.937388022821
 10
83.0068098267643
 20
-130.937388022821
 10
83.0068098267643
 20
-130.937388022821
 10
83.0068098267643
 20
-131.9371602447935
 10
83.0068098267643
 20
-131.9371602447935
 10
83.0068098267643
 20
-131.9371602447935
 10
84.0065820234802
 20
-131.9371602447935
 10
84.0065820234802
 20
-131.9371602447935
 10
84.0065820234802
 20
-131.9371602447935
 10
90.0069085370658
 20
-131.9371602447935
 10
90.0069085370658
 20
-131.9371602447935
 10
90.0069085370658
 20
-131.9371602447935
 10
90.0069085370658
 20
-138.6599405208903
 10
90.0069085370658
 20
-138.6599405208903
 10
90.0069085370658
 20
-138.6599405208903
 10
90.28906019653417
 20
-138.936553576377
 10
90.28906019653417
 20
-138.936553576377
 10
90.28906019653417
 20
-138.936553576377
 10
90.0069085370658
 20
-139.2135546874189
 10
90.0069085370658
 20
-139.2135546874189
 10
90.0069085370658
 20
-139.2135546874189
 10
90.0069085370658
 20
-145.9373580190715
 10
90.0069085370658
 20
-145.9373580190715
 10
90.0069085370658
 20
-145.9373580190715
 10
91.0066807337817
 20
-145.9373580190715
 10
91.0066807337817
 20
-145.9373580190715
 10
91.0066807337817
 20
-145.9373580190715
 10
91.0066807337817
 20
-131.9371602447935
 10
91.0066807337817
 20
-131.9371602447935
 10
91.0066807337817
 20
-131.9371602447935
 10
91.0066807337817
 20
-130.937388022821
 10
91.0066807337817
 20
-130.937388022821
 10
91.0066807337817
 20
-130.937388022821
 10
90.0069085370658
 20
-130.937388022821
 10
90.0069085370658
 20
-130.937388022821
 10
90.0069085370658
 20
-130.937388022821
 10
87.00656889138861
 20
-130.937388022821
 10
87.00656889138861
 20
-130.937388022821
 10
87.00656889138861
 20
-130.937388022821
 10
87.00656889138861
 20
-130.3372777451931
 10
87.00656889138861
 20
-130.3372777451931
 10
87.00656889138861
 20
-130.3372777451931
 10
86.20661002290838
 20
-130.3372777451931
 10
86.20661002290838
 20
-130.3372777451931
 10
86.20661002290838
 20
-130.3372777451931
 10
86.20661002290838
 20
-130.937388022821
 10
86.20661002290838
 20
-130.937388022821
 10
86.20661002290838
 20
-130.937388022821
 10
84.0065820234802
 20
-130.937388022821
 10
84.0065820234802
 20
-130.937388022821
 10
84.0065820234802
 20
-130.937388022821
 10
84.0065820234802
 20
-117.5680274706081
 10
84.0065820234802
 20
-117.5680274706081
 10
84.0065820234802
 20
-117.5680274706081
 10
84.00622924571144
 20
-116.9372255263212
 10
84.00622924571144
 20
-116.9372255263212
 10
84.00622924571144
 20
-114.7282369157623
 10
85.79699975558063
 20
-112.9374663606546
 10
88.00598831033574
 20
-112.9374663606546
 10
88.00598831033574
 20
-112.9374663606546
 10
89.07017772763045
 20
-112.9364433050992
 10
89.07017772763045
 20
-112.9364433050992
 10
89.07017772763045
 20
-112.9364433050992
 10
101.0360468668001
 20
-112.9364433050992
 10
101.0360468668001
 20
-112.9364433050992
 10
101.0360468668001
 20
-112.9364433050992
 10
101.0360468668001
 20
-115.1368241378823
 10
101.0360468668001
 20
-115.1368241378823
 10
101.0360468668001
 20
-115.1368241378823
 10
100.4359013265556
 20
-115.1368241378823
 10
100.4359013265556
 20
-115.1368241378823
 10
100.4359013265556
 20
-115.1368241378823
 10
100.4359013265556
 20
-115.9367477487937
 10
100.4359013265556
 20
-115.9367477487937
 10
100.4359013265556
 20
-115.9367477487937
 10
101.0360468668001
 20
-115.9367477487937
 10
101.0360468668001
 20
-115.9367477487937
 10
101.0360468668001
 20
-115.9367477487937
 10
101.0360468668001
 20
-118.9370874702659
 10
101.0360468668001
 20
-118.9370874702659
 10
101.0360468668001
 20
-118.9370874702659
 10
101.0360468668001
 20
-119.9368596922381
 10
101.0360468668001
 20
-119.9368596922381
 10
101.0360468668001
 20
-119.9368596922381
 10
102.036136563508
 20
-119.9368596922381
 10
102.036136563508
 20
-119.9368596922381
 10
102.036136563508
 20
-119.9368596922381
 10
115.1530166378783
 20
-119.9368596922381
 10
115.1530166378783
 20
-119.9368596922381
 10
115.1530166378783
 20
-119.9368596922381
 10
115.1530166378783
 20
-118.9370874702659
 10
115.1530166378783
 20
-118.9370874702659
 10
115.1530166378783
 20
-118.9370874702659
 10
108.3758027506839
 20
-118.9370874702659
 10
108.3758027506839
 20
-118.9370874702659
 97
        0
 97
        0
 75
     2
 76
     1
 98
        0
  0
SPLINE
  5
43
330
1F
100
AcDbEntity
  8
_U+30EC_U+30A4_U+30E4_U+30FC 1
 62
     7
420
 16777215
370
     9
100
AcDbSpline
210
0.0
220
0.0
230
1.0
 70
    11
 71
     3
 72
    17
 73
    13
 74
     0
 42
0.0000000001
 43
0.0000000001
 12
1.0
 22
0.0
 32
0.0
 13
1.0
 23
0.0
 33
0.0
 40
0.0
 40
0.0
 40
0.0
 40
0.0
 40
1.0
 40
1.0
 40
1.0
 40
2.0
 40
2.0
 40
2.0
 40
3.0
 40
3.0
 40
3.0
 40
4.0
 40
4.0
 40
4.0
 40
4.0
 10
77.7571944051376
 20
-145.9373580190715
 30
0.0
 10
77.7571944051376
 20
-145.8822188524184
 30
0.0
 10
77.71239162850283
 20
-145.8374513524292
 30
0.0
 10
77.65728774101976
 20
-145.8374513524292
 30
0.0
 10
77.60214857575981
 20
-145.8374513524292
 30
0.0
 10
77.55738107690192
 20
-145.8822188524184
 30
0.0
 10
77.55738107690192
 20
-145.9373580190715
 30
0.0
 10
77.55738107690192
 20
-145.9924619079464
 30
0.0
 10
77.60214857575981
 20
-146.0372646857132
 30
0.0
 10
77.65728774101976
 20
-146.0372646857132
 30
0.0
 10
77.71239162850283
 20
-146.0372646857132
 30
0.0
 10
77.7571944051376
 20
-145.9924619079464
 30
0.0
 10
77.7571944051376
 20
-145.9373580190715
 30
0.0
  0
SPLINE
  5
44
330
1F
100
AcDbEntity
  8
_U+30EC_U+30A4_U+30E4_U+30FC 1
 62
     7
420
 16777215
370
     9
100
AcDbSpline
210
0.0
220
0.0
230
1.0
 70
    11
 71
     3
 72
    17
 73
    13
 74
     0
 42
0.0000000001
 43
0.0000000001
 12
1.0
 22
0.0
 32
0.0
 13
1.0
 23
0.0
 33
0.0
 40
0.0
 40
0.0
 40
0.0
 40
0.0
 40
1.0
 40
1.0
 40
1.0
 40
2.0
 40
2.0
 40
2.0
 40
3.0
 40
3.0
 40
3.0
 40
4.0
 40
4.0
 40
4.0
 40
4.0
 10
77.7571944051376
 20
-131.9368074670158
 30
0.0
 10
77.7571944051376
 20
-131.8817035781408
 30
0.0
 10
77.71239162850283
 20
-131.8369008003741
 30
0.0
 10
77.65728774101976
 20
-131.8369008003741
 30
0.0
 10
77.60214857575981
 20
-131.8369008003741
 30
0.0
 10
77.55738107690192
 20
-131.8817035781408
 30
0.0
 10
77.55738107690192
 20
-131.9368074670158
 30
0.0
 10
77.55738107690192
 20
-131.9919466336688
 30
0.0
 10
77.60214857575981
 20
-132.0367141336574
 30
0.0
 10
77.65728774101976
 20
-132.0367141336574
 30
0.0
 10
77.71239162850283
 20
-132.0367141336574
 30
0.0
 10
77.7571944051376
 20
-131.9919466336688
 30
0.0
 10
77.7571944051376
 20
-131.9368074670158
 30
0.0
  0
POLYLINE
  5
45
330
1F
100
AcDbEntity
  8
_U+30EC_U+30A4_U+30E4_U+30FC 1
 62
     7
420
 16777215
370
     9
100
AcDb2dPolyline
 66
     1
 10
0.0
 20
0.0
 30
0.0
  0
VERTEX
  5
46
330
45
100
AcDbEntity
  8
_U+30EC_U+30A4_U+30E4_U+30FC 1
 62
     7
420
 16777215
370
     9
100
AcDbVertex
100
AcDb2dVertex
 10
77.65728774101976
 20
-142.9373710753765
 30
0.0
  0
VERTEX
  5
47
330
45
100
AcDbEntity
  8
_U+30EC_U+30A4_U+30E4_U+30FC 1
 62
     7
420
 16777215
370
     9
100
AcDbVertex
100
AcDb2dVertex
 10
77.65728774101976
 20
-136.4371582992241
 30
0.0
  0
SEQEND
  5
48
330
45
100
AcDbEntity
  8
_U+30EC_U+30A4_U+30E4_U+30FC 1
 62
     7
420
 16777215
370
     9
  0
POLYLINE
  5
49
330
1F
100
AcDbEntity
  8
_U+30EC_U+30A4_U+30E4_U+30FC 1
 62
     7
420
 16777215
370
     9
100
AcDb2dPolyline
 66
     1
 10
0.0
 20
0.0
 30
0.0
  0
VERTEX
  5
4A
330
49
100
AcDbEntity
  8
_U+30EC_U+30A4_U+30E4_U+30FC 1
 62
     7
420
 16777215
370
     9
100
AcDbVertex
100
AcDb2dVertex
 10
80.6865551637367
 20
-131.9368074670158
 30
0.0
  0
VERTEX
  5
4B
330
49
100
AcDbEntity
  8
_U+30EC_U+30A4_U+30E4_U+30FC 1
 62
     7
420
 16777215
370
     9
100
AcDbVertex
100
AcDb2dVertex
 10
75.90959139671831
 20
-131.9368074670158
 30
0.0
  0
SEQEND
  5
4C
330
49
100
AcDbEntity
  8
_U+30EC_U+30A4_U+30E4_U+30FC 1
 62
     7
420
 16777215
370
     9
  0
POLYLINE
  5
4D
330
1F
100
AcDbEntity
  8
_U+30EC_U+30A4_U+30E4_U+30FC 1
 62
     7
420
 16777215
370
     9
100
AcDb2dPolyline
 66
     1
 10
0.0
 20
0.0
 30
0.0
  0
VERTEX
  5
4E
330
4D
100
AcDbEntity
  8
_U+30EC_U+30A4_U+30E4_U+30FC 1
 62
     7
420
 16777215
370
     9
100
AcDbVertex
100
AcDb2dVertex
 10
77.65728774101976
 20
-131.9368074670158
 30
0.0
  0
VERTEX
  5
4F
330
4D
100
AcDbEntity
  8
_U+30EC_U+30A4_U+30E4_U+30FC 1
 62
     7
420
 16777215
370
     9
100
AcDbVertex
100
AcDb2dVertex
 10
77.65728774101976
 20
-145.9373580190715
 30
0.0
  0
SEQEND
  5
50
330
4D
100
AcDbEntity
  8
_U+30EC_U+30A4_U+30E4_U+30FC 1
 62
     7
420
 16777215
370
     9
  0
POLYLINE
  5
51
330
1F
100
AcDbEntity
  8
_U+30EC_U+30A4_U+30E4_U+30FC 1
 62
     7
420
 16777215
370
     9
100
AcDb2dPolyline
 66
     1
 10
0.0
 20
0.0
 30
0.0
  0
VERTEX
  5
52
330
51
100
AcDbEntity
  8
_U+30EC_U+30A4_U+30E4_U+30FC 1
 62
     7
420
 16777215
370
     9
100
AcDbVertex
100
AcDb2dVertex
 10
89.19488466889337
 20
-145.9373580190715
 30
0.0
  0
VERTEX
  5
53
330
51
100
AcDbEntity
  8
_U+30EC_U+30A4_U+30E4_U+30FC 1
 62
     7
420
 16777215
370
     9
100
AcDbVertex
100
AcDb2dVertex
 10
69.90958238312463
 20
-145.9373580190715
 30
0.0
  0
SEQEND
  5
54
330
51
100
AcDbEntity
  8
_U+30EC_U+30A4_U+30E4_U+30FC 1
 62
     7
420
 16777215
370
     9
  0
INSERT
  5
56
330
1F
100
AcDbEntity
  8
_U+30EC_U+30A4_U+30E4_U+30FC 1
100
AcDbBlockReference
  2
block 2
 10
0.0
 20
0.0
 30
0.0
  0
INSERT
  5
71
330
1F
100
AcDbEntity
  8
_U+30EC_U+30A4_U+30E4_U+30FC 1
100
AcDbBlockReference
  2
block 3
 10
0.0
 20
0.0
 30
0.0
  0
INSERT
  5
8C
330
1F
100
AcDbEntity
  8
_U+30EC_U+30A4_U+30E4_U+30FC 1
100
AcDbBlockReference
  2
block 4
 10
0.0
 20
0.0
 30
0.0
  0
SPLINE
  5
94
330
1F
100
AcDbEntity
  8
_U+30EC_U+30A4_U+30E4_U+30FC 1
 62
     7
420
 16777215
370
     9
100
AcDbSpline
210
0.0
220
0.0
230
1.0
 70
    11
 71
     3
 72
    17
 73
    13
 74
     0
 42
0.0000000001
 43
0.0000000001
 12
1.0
 22
0.0
 32
0.0
 13
1.0
 23
0.0
 33
0.0
 40
0.0
 40
0.0
 40
0.0
 40
0.0
 40
1.0
 40
1.0
 40
1.0
 40
2.0
 40
2.0
 40
2.0
 40
3.0
 40
3.0
 40
3.0
 40
4.0
 40
4.0
 40
4.0
 40
4.0
 10
77.7571944051376
 20
-111.9366710831269
 30
0.0
 10
77.7571944051376
 20
-111.8815319164742
 30
0.0
 10
77.71239162850283
 20
-111.8367644164853
 30
0.0
 10
77.65728774101976
 20
-111.8367644164853
 30
0.0
 10
77.60214857575981
 20
-111.8367644164853
 30
0.0
 10
77.55738107690192
 20
-111.8815319164742
 30
0.0
 10
77.55738107690192
 20
-111.9366710831269
 30
0.0
 10
77.55738107690192
 20
-111.9917749720022
 30
0.0
 10
77.60214857575981
 20
-112.0365777497686
 30
0.0
 10
77.65728774101976
 20
-112.0365777497686
 30
0.0
 10
77.71239162850283
 20
-112.0365777497686
 30
0.0
 10
77.7571944051376
 20
-111.9917749720022
 30
0.0
 10
77.7571944051376
 20
-111.9366710831269
 30
0.0
  0
POLYLINE
  5
95
330
1F
100
AcDbEntity
  8
_U+30EC_U+30A4_U+30E4_U+30FC 1
 62
     7
420
 16777215
370
     9
100
AcDb2dPolyline
 66
     1
 10
0.0
 20
0.0
 30
0.0
  0
VERTEX
  5
96
330
95
100
AcDbEntity
  8
_U+30EC_U+30A4_U+30E4_U+30FC 1
 62
     7
420
 16777215
370
     9
100
AcDbVertex
100
AcDb2dVertex
 10
84.60877367478369
 20
-111.9366710831269
 30
0.0
  0
VERTEX
  5
97
330
95
100
AcDbEntity
  8
_U+30EC_U+30A4_U+30E4_U+30FC 1
 62
     7
420
 16777215
370
     9
100
AcDbVertex
100
AcDb2dVertex
 10
69.90993516089341
 20
-111.9366710831269
 30
0.0
  0
SEQEND
  5
98
330
95
100
AcDbEntity
  8
_U+30EC_U+30A4_U+30E4_U+30FC 1
 62
     7
420
 16777215
370
     9
  0
POLYLINE
  5
99
330
1F
100
AcDbEntity
  8
_U+30EC_U+30A4_U+30E4_U+30FC 1
 62
     7
420
 16777215
370
     9
100
AcDb2dPolyline
 66
     1
 10
0.0
 20
0.0
 30
0.0
  0
VERTEX
  5
9A
330
99
100
AcDbEntity
  8
_U+30EC_U+30A4_U+30E4_U+30FC 1
 62
     7
420
 16777215
370
     9
100
AcDbVertex
100
AcDb2dVertex
 10
77.65728774101976
 20
-111.9366710831269
 30
0.0
  0
VERTEX
  5
9B
330
99
100
AcDbEntity
  8
_U+30EC_U+30A4_U+30E4_U+30FC 1
 62
     7
420
 16777215
370
     9
100
AcDbVertex
100
AcDb2dVertex
 10
77.65728774101976
 20
-131.9368074670158
 30
0.0
  0
SEQEND
  5
9C
330
99
100
AcDbEntity
  8
_U+30EC_U+30A4_U+30E4_U+30FC 1
 62
     7
420
 16777215
370
     9
  0
SPLINE
  5
9D
330
1F
100
AcDbEntity
  8
_U+30EC_U+30A4_U+30E4_U+30FC 1
 62
     7
420
 16777215
370
     9
100
AcDbSpline
210
0.0
220
0.0
230
1.0
 70
    11
 71
     3
 72
    17
 73
    13
 74
     0
 42
0.0000000001
 43
0.0000000001
 12
1.0
 22
0.0
 32
0.0
 13
1.0
 23
0.0
 33
0.0
 40
0.0
 40
0.0
 40
0.0
 40
0.0
 40
1.0
 40
1.0
 40
1.0
 40
2.0
 40
2.0
 40
2.0
 40
3.0
 40
3.0
 40
3.0
 40
4.0
 40
4.0
 40
4.0
 40
4.0
 10
71.73929955866689
 20
-111.9366710831269
 30
0.0
 10
71.73929955866689
 20
-111.8815319164742
 30
0.0
 10
71.69449678203212
 20
-111.8367644164853
 30
0.0
 10
71.63939289454905
 20
-111.8367644164853
 30
0.0
 10
71.58425553765956
 20
-111.8367644164853
 30
0.0
 10
71.53948623043121
 20
-111.8815319164742
 30
0.0
 10
71.53948623043121
 20
-111.9366710831269
 30
0.0
 10
71.53948623043121
 20
-111.9917749720022
 30
0.0
 10
71.58425553765956
 20
-112.0365777497686
 30
0.0
 10
71.63939289454905
 20
-112.0365777497686
 30
0.0
 10
71.69449678203212
 20
-112.0365777497686
 30
0.0
 10
71.73929955866689
 20
-111.9917749720022
 30
0.0
 10
71.73929955866689
 20
-111.9366710831269
 30
0.0
  0
POLYLINE
  5
9E
330
1F
100
AcDbEntity
  8
_U+30EC_U+30A4_U+30E4_U+30FC 1
 62
     7
420
 16777215
370
     9
100
AcDb2dPolyline
 66
     1
 10
0.0
 20
0.0
 30
0.0
  0
VERTEX
  5
9F
330
9E
100
AcDbEntity
  8
_U+30EC_U+30A4_U+30E4_U+30FC 1
 62
     7
420
 16777215
370
     9
100
AcDbVertex
100
AcDb2dVertex
 10
71.63939289454905
 20
-111.9366710831269
 30
0.0
  0
VERTEX
  5
A0
330
9E
100
AcDbEntity
  8
_U+30EC_U+30A4_U+30E4_U+30FC 1
 62
     7
420
 16777215
370
     9
100
AcDbVertex
100
AcDb2dVertex
 10
71.63939289454905
 20
-145.9418382968479
 30
0.0
  0
SEQEND
  5
A1
330
9E
100
AcDbEntity
  8
_U+30EC_U+30A4_U+30E4_U+30FC 1
 62
     7
420
 16777215
370
     9
  0
SPLINE
  5
A2
330
1F
100
AcDbEntity
  8
_U+30EC_U+30A4_U+30E4_U+30FC 1
 62
     7
420
 16777215
370
     9
100
AcDbSpline
210
0.0
220
0.0
230
1.0
 70
    11
 71
     3
 72
    17
 73
    13
 74
     0
 42
0.0000000001
 43
0.0000000001
 12
1.0
 22
0.0
 32
0.0
 13
1.0
 23
0.0
 33
0.0
 40
0.0
 40
0.0
 40
0.0
 40
0.0
 40
1.0
 40
1.0
 40
1.0
 40
2.0
 40
2.0
 40
2.0
 40
3.0
 40
3.0
 40
3.0
 40
4.0
 40
4.0
 40
4.0
 40
4.0
 10
71.73929955866689
 20
-145.9373580190715
 30
0.0
 10
71.73929955866689
 20
-145.8822188524184
 30
0.0
 10
71.69449678203212
 20
-145.8374513524292
 30
0.0
 10
71.63939289454905
 20
-145.8374513524292
 30
0.0
 10
71.58425553765956
 20
-145.8374513524292
 30
0.0
 10
71.53948623043121
 20
-145.8822188524184
 30
0.0
 10
71.53948623043121
 20
-145.9373580190715
 30
0.0
 10
71.53948623043121
 20
-145.9924619079464
 30
0.0
 10
71.58425553765956
 20
-146.0372646857132
 30
0.0
 10
71.63939289454905
 20
-146.0372646857132
 30
0.0
 10
71.69449678203212
 20
-146.0372646857132
 30
0.0
 10
71.73929955866689
 20
-145.9924619079464
 30
0.0
 10
71.73929955866689
 20
-145.9373580190715
 30
0.0
  0
INSERT
  5
A4
330
1F
100
AcDbEntity
  8
_U+30EC_U+30A4_U+30E4_U+30FC 1
100
AcDbBlockReference
  2
block 5
 10
0.0
 20
0.0
 30
0.0
  0
POLYLINE
  5
AC
330
1F
100
AcDbEntity
  8
_U+30EC_U+30A4_U+30E4_U+30FC 1
 62
     7
420
 16777215
370
     9
100
AcDb2dPolyline
 66
     1
 10
0.0
 20
0.0
 30
0.0
  0
VERTEX
  5
AD
330
AC
100
AcDbEntity
  8
_U+30EC_U+30A4_U+30E4_U+30FC 1
 62
     7
420
 16777215
370
     9
100
AcDbVertex
100
AcDb2dVertex
 10
83.7915992511871
 20
-114.2541741381032
 30
0.0
  0
VERTEX
  5
AE
330
AC
100
AcDbEntity
  8
_U+30EC_U+30A4_U+30E4_U+30FC 1
 62
     7
420
 16777215
370
     9
100
AcDbVertex
100
AcDb2dVertex
 10
76.10386611398418
 20
-108.4595169173296
 30
0.0
  0
VERTEX
  5
AF
330
AC
100
AcDbEntity
  8
_U+30EC_U+30A4_U+30E4_U+30FC 1
 62
     7
420
 16777215
370
     9
100
AcDbVertex
100
AcDb2dVertex
 10
69.90958238312463
 20
-108.4595169173296
 30
0.0
  0
SEQEND
  5
B0
330
AC
100
AcDbEntity
  8
_U+30EC_U+30A4_U+30E4_U+30FC 1
 62
     7
420
 16777215
370
     9
  0
POLYLINE
  5
B1
330
1F
100
AcDbEntity
  8
_U+30EC_U+30A4_U+30E4_U+30FC 1
 62
     7
420
 16777215
370
     9
100
AcDb2dPolyline
 66
     1
 10
0.0
 20
0.0
 30
0.0
  0
VERTEX
  5
B2
330
B1
100
AcDbEntity
  8
_U+30EC_U+30A4_U+30E4_U+30FC 1
 62
     7
420
 16777215
370
     9
100
AcDbVertex
100
AcDb2dVertex
 10
83.7915992511871
 20
-114.2541741381032
 30
0.0
  0
VERTEX
  5
B3
330
B1
100
AcDbEntity
  8
_U+30EC_U+30A4_U+30E4_U+30FC 1
 62
     7
420
 16777215
370
     9
100
AcDbVertex
100
AcDb2dVertex
 10
83.16358426720909
 20
-113.4215127494223
 30
0.0
  0
SEQEND
  5
B4
330
B1
100
AcDbEntity
  8
_U+30EC_U+30A4_U+30E4_U+30FC 1
 62
     7
420
 16777215
370
     9
  0
POLYLINE
  5
B5
330
1F
100
AcDbEntity
  8
_U+30EC_U+30A4_U+30E4_U+30FC 1
 62
     7
420
 16777215
370
     9
100
AcDb2dPolyline
 66
     1
 10
0.0
 20
0.0
 30
0.0
  0
VERTEX
  5
B6
330
B5
100
AcDbEntity
  8
_U+30EC_U+30A4_U+30E4_U+30FC 1
 62
     7
420
 16777215
370
     9
100
AcDbVertex
100
AcDb2dVertex
 10
83.7915992511871
 20
-114.2541741381032
 30
0.0
  0
VERTEX
  5
B7
330
B5
100
AcDbEntity
  8
_U+30EC_U+30A4_U+30E4_U+30FC 1
 62
     7
420
 16777215
370
     9
100
AcDbVertex
100
AcDb2dVertex
 10
82.8317967756737
 20
-113.8462924715383
 30
0.0
  0
SEQEND
  5
B8
330
B5
100
AcDbEntity
  8
_U+30EC_U+30A4_U+30E4_U+30FC 1
 62
     7
420
 16777215
370
     9
  0
SPLINE
  5
B9
330
1F
100
AcDbEntity
  8
_U+30EC_U+30A4_U+30E4_U+30FC 1
 62
     7
420
 16777215
370
     9
100
AcDbSpline
210
0.0
220
0.0
230
1.0
 70
    11
 71
     3
 72
    17
 73
    13
 74
     0
 42
0.0000000001
 43
0.0000000001
 12
1.0
 22
0.0
 32
0.0
 13
1.0
 23
0.0
 33
0.0
 40
0.0
 40
0.0
 40
0.0
 40
0.0
 40
1.0
 40
1.0
 40
1.0
 40
2.0
 40
2.0
 40
2.0
 40
3.0
 40
3.0
 40
3.0
 40
4.0
 40
4.0
 40
4.0
 40
4.0
 10
90.10508886636268
 20
-149.209513018253
 30
0.0
 10
90.10508886636268
 20
-149.1543738516006
 30
0.0
 10
90.06031909125873
 20
-149.1096063516113
 30
0.0
 10
90.00517992599879
 20
-149.1096063516113
 30
0.0
 10
89.9500760385157
 20
-149.1096063516113
 30
0.0
 10
89.90527326188095
 20
-149.1543738516006
 30
0.0
 10
89.90527326188095
 20
-149.209513018253
 30
0.0
 10
89.90527326188095
 20
-149.2646169071285
 30
0.0
 10
89.9500760385157
 20
-149.3094196848946
 30
0.0
 10
90.00517992599879
 20
-149.3094196848946
 30
0.0
 10
90.06031909125873
 20
-149.3094196848946
 30
0.0
 10
90.10508886636268
 20
-149.2646169071285
 30
0.0
 10
90.10508886636268
 20
-149.209513018253
 30
0.0
  0
SPLINE
  5
BA
330
1F
100
AcDbEntity
  8
_U+30EC_U+30A4_U+30E4_U+30FC 1
 62
     7
420
 16777215
370
     9
100
AcDbSpline
210
0.0
220
0.0
230
1.0
 70
    11
 71
     3
 72
    17
 73
    13
 74
     0
 42
0.0000000001
 43
0.0000000001
 12
1.0
 22
0.0
 32
0.0
 13
1.0
 23
0.0
 33
0.0
 40
0.0
 40
0.0
 40
0.0
 40
0.0
 40
1.0
 40
1.0
 40
1.0
 40
2.0
 40
2.0
 40
2.0
 40
3.0
 40
3.0
 40
3.0
 40
4.0
 40
4.0
 40
4.0
 40
4.0
 10
83.10467037982322
 20
-149.209513018253
 30
0.0
 10
83.10467037982322
 20
-149.1543738516006
 30
0.0
 10
83.05986760318847
 20
-149.1096063516113
 30
0.0
 10
83.0047637157054
 20
-149.1096063516113
 30
0.0
 10
82.94962455044544
 20
-149.1096063516113
 30
0.0
 10
82.90485705158756
 20
-149.1543738516006
 30
0.0
 10
82.90485705158756
 20
-149.209513018253
 30
0.0
 10
82.90485705158756
 20
-149.2646169071285
 30
0.0
 10
82.94962455044544
 20
-149.3094196848946
 30
0.0
 10
83.0047637157054
 20
-149.3094196848946
 30
0.0
 10
83.05986760318847
 20
-149.3094196848946
 30
0.0
 10
83.10467037982322
 20
-149.2646169071285
 30
0.0
 10
83.10467037982322
 20
-149.209513018253
 30
0.0
  0
POLYLINE
  5
BB
330
1F
100
AcDbEntity
  8
_U+30EC_U+30A4_U+30E4_U+30FC 1
 62
     7
420
 16777215
370
     9
100
AcDb2dPolyline
 66
     1
 10
0.0
 20
0.0
 30
0.0
  0
VERTEX
  5
BC
330
BB
100
AcDbEntity
  8
_U+30EC_U+30A4_U+30E4_U+30FC 1
 62
     7
420
 16777215
370
     9
100
AcDbVertex
100
AcDb2dVertex
 10
83.0047637157054
 20
-149.209513018253
 30
0.0
  0
VERTEX
  5
BD
330
BB
100
AcDbEntity
  8
_U+30EC_U+30A4_U+30E4_U+30FC 1
 62
     7
420
 16777215
370
     9
100
AcDbVertex
100
AcDb2dVertex
 10
90.00517992599879
 20
-149.209513018253
 30
0.0
  0
SEQEND
  5
BE
330
BB
100
AcDbEntity
  8
_U+30EC_U+30A4_U+30E4_U+30FC 1
 62
     7
420
 16777215
370
     9
  0
POLYLINE
  5
BF
330
1F
100
AcDbEntity
  8
_U+30EC_U+30A4_U+30E4_U+30FC 1
 62
     7
420
 16777215
370
     9
100
AcDb2dPolyline
 66
     1
 10
0.0
 20
0.0
 30
0.0
  0
VERTEX
  5
C0
330
BF
100
AcDbEntity
  8
_U+30EC_U+30A4_U+30E4_U+30FC 1
 62
     7
420
 16777215
370
     9
100
AcDbVertex
100
AcDb2dVertex
 10
83.0047637157054
 20
-134.455534966386
 30
0.0
  0
VERTEX
  5
C1
330
BF
100
AcDbEntity
  8
_U+30EC_U+30A4_U+30E4_U+30FC 1
 62
     7
420
 16777215
370
     9
100
AcDbVertex
100
AcDb2dVertex
 10
83.0047637157054
 20
-150.209249962448
 30
0.0
  0
SEQEND
  5
C2
330
BF
100
AcDbEntity
  8
_U+30EC_U+30A4_U+30E4_U+30FC 1
 62
     7
420
 16777215
370
     9
  0
POLYLINE
  5
C3
330
1F
100
AcDbEntity
  8
_U+30EC_U+30A4_U+30E4_U+30FC 1
 62
     7
420
 16777215
370
     9
100
AcDb2dPolyline
 66
     1
 10
0.0
 20
0.0
 30
0.0
  0
VERTEX
  5
C4
330
C3
100
AcDbEntity
  8
_U+30EC_U+30A4_U+30E4_U+30FC 1
 62
     7
420
 16777215
370
     9
100
AcDbVertex
100
AcDb2dVertex
 10
90.00517992599879
 20
-147.7494716297293
 30
0.0
  0
VERTEX
  5
C5
330
C3
100
AcDbEntity
  8
_U+30EC_U+30A4_U+30E4_U+30FC 1
 62
     7
420
 16777215
370
     9
100
AcDbVertex
100
AcDb2dVertex
 10
90.00517992599879
 20
-150.209249962448
 30
0.0
  0
SEQEND
  5
C6
330
C3
100
AcDbEntity
  8
_U+30EC_U+30A4_U+30E4_U+30FC 1
 62
     7
420
 16777215
370
     9
  0
INSERT
  5
C8
330
1F
100
AcDbEntity
  8
_U+30EC_U+30A4_U+30E4_U+30FC 1
100
AcDbBlockReference
  2
block 6
 10
0.0
 20
0.0
 30
0.0
  0
INSERT
  5
CE
330
1F
100
AcDbEntity
  8
_U+30EC_U+30A4_U+30E4_U+30FC 1
100
AcDbBlockReference
  2
block 7
 10
0.0
 20
0.0
 30
0.0
  0
SPLINE
  5
D3
330
1F
100
AcDbEntity
  8
_U+30EC_U+30A4_U+30E4_U+30FC 1
 62
     7
420
 16777215
370
     9
100
AcDbSpline
210
0.0
220
0.0
230
1.0
 70
    11
 71
     3
 72
    17
 73
    13
 74
     0
 42
0.0000000001
 43
0.0000000001
 12
1.0
 22
0.0
 32
0.0
 13
1.0
 23
0.0
 33
0.0
 40
0.0
 40
0.0
 40
0.0
 40
0.0
 40
1.0
 40
1.0
 40
1.0
 40
2.0
 40
2.0
 40
2.0
 40
3.0
 40
3.0
 40
3.0
 40
4.0
 40
4.0
 40
4.0
 40
4.0
 10
91.10694017566831
 20
-149.209513018253
 30
0.0
 10
91.10694017566831
 20
-149.1543738516006
 30
0.0
 10
91.06213739903355
 20
-149.1096063516113
 30
0.0
 10
91.0066807337817
 20
-149.1096063516113
 30
0.0
 10
90.95154156852175
 20
-149.1096063516113
 30
0.0
 10
90.90677406966387
 20
-149.1543738516006
 30
0.0
 10
90.90677406966387
 20
-149.209513018253
 30
0.0
 10
90.90677406966387
 20
-149.2646169071285
 30
0.0
 10
90.95154156852175
 20
-149.3094196848946
 30
0.0
 10
91.0066807337817
 20
-149.3094196848946
 30
0.0
 10
91.06213739903355
 20
-149.3094196848946
 30
0.0
 10
91.10694017566831
 20
-149.2646169071285
 30
0.0
 10
91.10694017566831
 20
-149.209513018253
 30
0.0
  0
POLYLINE
  5
D4
330
1F
100
AcDbEntity
  8
_U+30EC_U+30A4_U+30E4_U+30FC 1
 62
     7
420
 16777215
370
     9
100
AcDb2dPolyline
 66
     1
 10
0.0
 20
0.0
 30
0.0
  0
VERTEX
  5
D5
330
D4
100
AcDbEntity
  8
_U+30EC_U+30A4_U+30E4_U+30FC 1
 62
     7
420
 16777215
370
     9
100
AcDbVertex
100
AcDb2dVertex
 10
90.00517992599879
 20
-149.209513018253
 30
0.0
  0
VERTEX
  5
D6
330
D4
100
AcDbEntity
  8
_U+30EC_U+30A4_U+30E4_U+30FC 1
 62
     7
420
 16777215
370
     9
100
AcDbVertex
100
AcDb2dVertex
 10
93.19672512235346
 20
-149.209513018253
 30
0.0
  0
SEQEND
  5
D7
330
D4
100
AcDbEntity
  8
_U+30EC_U+30A4_U+30E4_U+30FC 1
 62
     7
420
 16777215
370
     9
  0
POLYLINE
  5
D8
330
1F
100
AcDbEntity
  8
_U+30EC_U+30A4_U+30E4_U+30FC 1
 62
     7
420
 16777215
370
     9
100
AcDb2dPolyline
 66
     1
 10
0.0
 20
0.0
 30
0.0
  0
VERTEX
  5
D9
330
D8
100
AcDbEntity
  8
_U+30EC_U+30A4_U+30E4_U+30FC 1
 62
     7
420
 16777215
370
     9
100
AcDbVertex
100
AcDb2dVertex
 10
91.0066807337817
 20
-147.7494716297293
 30
0.0
  0
VERTEX
  5
DA
330
D8
100
AcDbEntity
  8
_U+30EC_U+30A4_U+30E4_U+30FC 1
 62
     7
420
 16777215
370
     9
100
AcDbVertex
100
AcDb2dVertex
 10
91.0066807337817
 20
-150.209249962448
 30
0.0
  0
SEQEND
  5
DB
330
D8
100
AcDbEntity
  8
_U+30EC_U+30A4_U+30E4_U+30FC 1
 62
     7
420
 16777215
370
     9
  0
ENDSEC
  0
SECTION
  2
OBJECTS
  0
DICTIONARY
  5
C
330
0
100
AcDbDictionary
281
     1
  3
ACAD_GROUP
350
D
  3
ACAD_LAYOUT
350
1A
  3
ACAD_MATERIAL
350
3B
  3
ACAD_MLEADERSTYLE
350
DD
  3
ACAD_MLINESTYLE
350
17
  3
ACAD_PLOTSETTINGS
350
19
  3
ACAD_PLOTSTYLENAME
350
E
  3
ACAD_TABLESTYLE
350
DC
  3
ACAD_VISUALSTYLE
350
2A
  0
SUN
  5
3F
330
29
100
AcDbSun
 90
        1
290
     0
 63
     7
421
 16777215
 40
1.0
291
     1
 91
  2455826
 92
 54000000
292
     0
 70
     2
 71
   256
280
     1
  0
DICTIONARY
  5
D
102
{ACAD_REACTORS
330
C
102
}
330
C
100
AcDbDictionary
281
     1
  0
DICTIONARY
  5
1A
102
{ACAD_REACTORS
330
C
102
}
330
C
100
AcDbDictionary
281
     1
  3
Layout1
350
1E
  3
Layout2
350
26
  3
Model
350
22
  0
DICTIONARY
  5
3B
102
{ACAD_REACTORS
330
C
102
}
330
C
100
AcDbDictionary
281
     1
  3
ByBlock
350
3D
  3
ByLayer
350
3C
  3
Global
350
3E
  0
DICTIONARY
  5
DD
102
{ACAD_REACTORS
330
C
102
}
330
C
100
AcDbDictionary
281
     1
  0
DICTIONARY
  5
17
102
{ACAD_REACTORS
330
C
102
}
330
C
100
AcDbDictionary
281
     1
  3
Standard
350
18
  0
DICTIONARY
  5
19
102
{ACAD_REACTORS
330
C
102
}
330
C
100
AcDbDictionary
281
     1
  0
ACDBDICTIONARYWDFLT
  5
E
102
{ACAD_REACTORS
330
C
102
}
330
C
100
AcDbDictionary
281
     1
  3
Normal
350
F
100
AcDbDictionaryWithDefault
340
F
  0
DICTIONARY
  5
DC
102
{ACAD_REACTORS
330
C
102
}
330
C
100
AcDbDictionary
281
     1
  0
DICTIONARY
  5
2A
102
{ACAD_REACTORS
330
C
102
}
330
C
100
AcDbDictionary
281
     1
  3
2dWireframe
350
2F
  3
3D Hidden
350
31
  3
3dWireframe
350
30
  3
Basic
350
32
  3
Brighten
350
36
  3
ColorChange
350
3A
  3
Conceptual
350
34
  3
Dim
350
35
  3
Facepattern
350
39
  3
Flat
350
2B
  3
FlatWithEdges
350
2C
  3
Gouraud
350
2D
  3
GouraudWithEdges
350
2E
  3
Linepattern
350
38
  3
Realistic
350
33
  3
Thicken
350
37
  0
LAYOUT
  5
1E
102
{ACAD_REACTORS
330
1A
102
}
330
1A
100
AcDbPlotSettings
  1

  2
none_device
  4

  6

 40
0.0
 41
0.0
 42
0.0
 43
0.0
 44
0.0
 45
0.0
 46
0.0
 47
0.0
 48
0.0
 49
0.0
140
0.0
141
0.0
142
1.0
143
1.0
 70
   688
 72
     0
 73
     0
 74
     5
  7

 75
    16
 76
     0
 77
     2
 78
   300
147
1.0
148
0.0
149
0.0
100
AcDbLayout
  1
Layout1
 70
     1
 71
     1
 10
0.0
 20
0.0
 11
12.0
 21
9.0
 12
0.0
 22
0.0
 32
0.0
 14
1.000000000000000E+20
 24
1.000000000000000E+20
 34
1.000000000000000E+20
 15
-1.000000000000000E+20
 25
-1.000000000000000E+20
 35
-1.000000000000000E+20
146
0.0
 13
0.0
 23
0.0
 33
0.0
 16
1.0
 26
0.0
 36
0.0
 17
0.0
 27
1.0
 37
0.0
 76
     0
330
1B
  0
LAYOUT
  5
26
102
{ACAD_REACTORS
330
1A
102
}
330
1A
100
AcDbPlotSettings
  1

  2
none_device
  4

  6

 40
0.0
 41
0.0
 42
0.0
 43
0.0
 44
0.0
 45
0.0
 46
0.0
 47
0.0
 48
0.0
 49
0.0
140
0.0
141
0.0
142
1.0
143
1.0
 70
   688
 72
     0
 73
     0
 74
     5
  7

 75
    16
 76
     0
 77
     2
 78
   300
147
1.0
148
0.0
149
0.0
100
AcDbLayout
  1
Layout2
 70
     1
 71
     2
 10
0.0
 20
0.0
 11
0.0
 21
0.0
 12
0.0
 22
0.0
 32
0.0
 14
0.0
 24
0.0
 34
0.0
 15
0.0
 25
0.0
 35
0.0
146
0.0
 13
0.0
 23
0.0
 33
0.0
 16
1.0
 26
0.0
 36
0.0
 17
0.0
 27
1.0
 37
0.0
 76
     0
330
23
  0
LAYOUT
  5
22
102
{ACAD_REACTORS
330
1A
102
}
330
1A
100
AcDbPlotSettings
  1

  2
none_device
  4

  6

 40
0.0
 41
0.0
 42
0.0
 43
0.0
 44
0.0
 45
0.0
 46
0.0
 47
0.0
 48
0.0
 49
0.0
140
0.0
141
0.0
142
1.0
143
1.0
 70
  1712
 72
     0
 73
     0
 74
     0
  7

 75
     0
 76
     0
 77
     2
 78
   300
147
1.0
148
0.0
149
0.0
100
AcDbLayout
  1
Model
 70
     1
 71
     0
 10
0.0
 20
0.0
 11
12.0
 21
9.0
 12
0.0
 22
0.0
 32
0.0
 14
1.000000000000000E+20
 24
1.000000000000000E+20
 34
1.000000000000000E+20
 15
-1.000000000000000E+20
 25
-1.000000000000000E+20
 35
-1.000000000000000E+20
146
0.0
 13
0.0
 23
0.0
 33
0.0
 16
1.0
 26
0.0
 36
0.0
 17
0.0
 27
1.0
 37
0.0
 76
     0
330
1F
331
29
  0
MATERIAL
  5
3D
102
{ACAD_REACTORS
330
3B
102
}
330
3B
100
AcDbMaterial
  1
ByBlock
 72
     1
 94
      127
  0
MATERIAL
  5
3C
102
{ACAD_REACTORS
330
3B
102
}
330
3B
100
AcDbMaterial
  1
ByLayer
 72
     1
 94
      127
  0
MATERIAL
  5
3E
102
{ACAD_REACTORS
330
3B
102
}
330
3B
100
AcDbMaterial
  1
Global
 72
     1
 94
      127
  0
MLINESTYLE
  5
18
102
{ACAD_REACTORS
330
17
102
}
330
17
100
AcDbMlineStyle
  2
Standard
 70
     0
  3

 62
   256
 51
90.0
 52
90.0
 71
     2
 49
0.5
 62
   256
  6
BYLAYER
 49
-0.5
 62
   256
  6
BYLAYER
  0
ACDBPLACEHOLDER
  5
F
102
{ACAD_REACTORS
330
E
102
}
330
E
  0
VISUALSTYLE
  5
2F
102
{ACAD_REACTORS
330
2A
102
}
330
2A
100
AcDbVisualStyle
  2
2dWireframe
 70
     4
177
     2
291
     0
 71
     0
176
     1
 72
     2
176
     1
 73
     0
176
     1
 90
        0
176
     1
 40
-0.6
176
     1
 41
-30.0
176
     1
 62
     5
 63
     7
421
 16777215
176
     1
 74
     1
176
     1
 91
        4
176
     1
 64
     7
176
     1
 65
   257
176
     1
 75
     1
176
     1
175
     1
176
     1
 42
1.0
176
     1
 92
        0
176
     1
 66
   257
176
     1
 43
1.0
176
     1
 76
     1
176
     1
 77
     6
176
     1
 78
     2
176
     1
 67
     7
176
     1
 79
     5
176
     1
170
     0
176
     1
171
     0
176
     1
290
     0
176
     1
 93
        1
176
     1
 44
0.0
176
     1
173
     0
176
     1
  0
VISUALSTYLE
  5
31
102
{ACAD_REACTORS
330
2A
102
}
330
2A
100
AcDbVisualStyle
  2
3D Hidden
 70
     6
177
     2
291
     0
 71
     1
176
     1
 72
     2
176
     1
 73
     2
176
     1
 90
        0
176
     1
 40
-0.6
176
     1
 41
-30.0
176
     1
 62
     5
 63
     7
421
 16777215
176
     1
 74
     2
176
     1
 91
        2
176
     1
 64
     7
176
     1
 65
   257
176
     1
 75
     2
176
     1
175
     1
176
     1
 42
40.0
176
     1
 92
        0
176
     1
 66
   257
176
     1
 43
1.0
176
     1
 76
     1
176
     1
 77
     6
176
     1
 78
     2
176
     1
 67
     7
176
     1
 79
     3
176
     1
170
     0
176
     1
171
     0
176
     1
290
     0
176
     1
 93
        1
176
     1
 44
0.0
176
     1
173
     0
176
     1
  0
VISUALSTYLE
  5
30
102
{ACAD_REACTORS
330
2A
102
}
330
2A
100
AcDbVisualStyle
  2
3dWireframe
 70
     5
177
     2
291
     0
 71
     0
176
     1
 72
     2
176
     1
 73
     0
176
     1
 90
        0
176
     1
 40
-0.6
176
     1
 41
-30.0
176
     1
 62
     5
 63
     7
421
 16777215
176
     1
 74
     1
176
     1
 91
        4
176
     1
 64
     7
176
     1
 65
   257
176
     1
 75
     1
176
     1
175
     1
176
     1
 42
1.0
176
     1
 92
        0
176
     1
 66
   257
176
     1
 43
1.0
176
     1
 76
     1
176
     1
 77
     6
176
     1
 78
     2
176
     1
 67
     7
176
     1
 79
     5
176
     1
170
     0
176
     1
171
     0
176
     1
290
     0
176
     1
 93
        1
176
     1
 44
0.0
176
     1
173
     0
176
     1
  0
VISUALSTYLE
  5
32
102
{ACAD_REACTORS
330
2A
102
}
330
2A
100
AcDbVisualStyle
  2
Basic
 70
     7
177
     2
291
     1
 71
     1
176
     1
 72
     0
176
     1
 73
     1
176
     1
 90
        0
176
     1
 40
-0.6
176
     1
 41
-30.0
176
     1
 62
     5
 63
     7
421
 16777215
176
     1
 74
     0
176
     1
 91
        4
176
     1
 64
     7
176
     1
 65
   257
176
     1
 75
     1
176
     1
175
     1
176
     1
 42
1.0
176
     1
 92
        8
176
     1
 66
     7
176
     1
 43
1.0
176
     1
 76
     1
176
     1
 77
     6
176
     1
 78
     2
176
     1
 67
     7
176
     1
 79
     5
176
     1
170
     0
176
     1
171
     0
176
     1
290
     0
176
     1
 93
        1
176
     1
 44
0.0
176
     1
173
     0
176
     1
  0
VISUALSTYLE
  5
36
102
{ACAD_REACTORS
330
2A
102
}
330
2A
100
AcDbVisualStyle
  2
Brighten
 70
    12
177
     2
291
     1
 71
     2
176
     1
 72
     2
176
     1
 73
     0
176
     1
 90
        0
176
     1
 40
-0.6
176
     1
 41
-30.0
176
     1
 62
     5
 63
     7
421
 16777215
176
     1
 74
     1
176
     1
 91
        4
176
     1
 64
     7
176
     1
 65
   257
176
     1
 75
     1
176
     1
175
     1
176
     1
 42
1.0
176
     1
 92
        8
176
     1
 66
     7
176
     1
 43
1.0
176
     1
 76
     1
176
     1
 77
     6
176
     1
 78
     2
176
     1
 67
     7
176
     1
 79
     5
176
     1
170
     0
176
     1
171
     0
176
     1
290
     0
176
     1
 93
        1
176
     1
 44
50.0
176
     1
173
     0
176
     1
  0
VISUALSTYLE
  5
3A
102
{ACAD_REACTORS
330
2A
102
}
330
2A
100
AcDbVisualStyle
  2
ColorChange
 70
    16
177
     2
291
     1
 71
     2
176
     1
 72
     2
176
     1
 73
     3
176
     1
 90
        0
176
     1
 40
-0.6
176
     1
 41
-30.0
176
     1
 62
     5
 63
     8
421
  8421504
176
     1
 74
     1
176
     1
 91
        4
176
     1
 64
     7
176
     1
 65
   257
176
     1
 75
     1
176
     1
175
     1
176
     1
 42
1.0
176
     1
 92
        8
176
     1
 66
     8
424
  8421504
176
     1
 43
1.0
176
     1
 76
     1
176
     1
 77
     6
176
     1
 78
     2
176
     1
 67
     7
176
     1
 79
     5
176
     1
170
     0
176
     1
171
     0
176
     1
290
     0
176
     1
 93
        1
176
     1
 44
0.0
176
     1
173
     0
176
     1
  0
VISUALSTYLE
  5
34
102
{ACAD_REACTORS
330
2A
102
}
330
2A
100
AcDbVisualStyle
  2
Conceptual
 70
     9
177
     2
291
     0
 71
     3
176
     1
 72
     2
176
     1
 73
     0
176
     1
 90
        0
176
     1
 40
-0.6
176
     1
 41
-30.0
176
     1
 62
     5
 63
     7
421
 16777215
176
     1
 74
     2
176
     1
 91
        2
176
     1
 64
     7
176
     1
 65
   257
176
     1
 75
     1
176
     1
175
     1
176
     1
 42
40.0
176
     1
 92
        8
176
     1
 66
     7
176
     1
 43
1.0
176
     1
 76
     1
176
     1
 77
     6
176
     1
 78
     2
176
     1
 67
     7
176
     1
 79
     3
176
     1
170
     0
176
     1
171
     0
176
     1
290
     0
176
     1
 93
        1
176
     1
 44
0.0
176
     1
173
     0
176
     1
  0
VISUALSTYLE
  5
35
102
{ACAD_REACTORS
330
2A
102
}
330
2A
100
AcDbVisualStyle
  2
Dim
 70
    11
177
     2
291
     1
 71
     2
176
     1
 72
     2
176
     1
 73
     0
176
     1
 90
        0
176
     1
 40
-0.6
176
     1
 41
-30.0
176
     1
 62
     5
 63
     7
421
 16777215
176
     1
 74
     1
176
     1
 91
        4
176
     1
 64
     7
176
     1
 65
   257
176
     1
 75
     1
176
     1
175
     1
176
     1
 42
1.0
176
     1
 92
        8
176
     1
 66
     7
176
     1
 43
1.0
176
     1
 76
     1
176
     1
 77
     6
176
     1
 78
     2
176
     1
 67
     7
176
     1
 79
     5
176
     1
170
     0
176
     1
171
     0
176
     1
290
     0
176
     1
 93
        1
176
     1
 44
-50.0
176
     1
173
     0
176
     1
  0
VISUALSTYLE
  5
39
102
{ACAD_REACTORS
330
2A
102
}
330
2A
100
AcDbVisualStyle
  2
Facepattern
 70
    15
177
     2
291
     1
 71
     2
176
     1
 72
     2
176
     1
 73
     0
176
     1
 90
        0
176
     1
 40
-0.6
176
     1
 41
-30.0
176
     1
 62
     5
 63
     7
421
 16777215
176
     1
 74
     1
176
     1
 91
        4
176
     1
 64
     7
176
     1
 65
   257
176
     1
 75
     1
176
     1
175
     1
176
     1
 42
1.0
176
     1
 92
        8
176
     1
 66
     7
176
     1
 43
1.0
176
     1
 76
     1
176
     1
 77
     6
176
     1
 78
     2
176
     1
 67
     7
176
     1
 79
     5
176
     1
170
     0
176
     1
171
     0
176
     1
290
     0
176
     1
 93
        1
176
     1
 44
0.0
176
     1
173
     0
176
     1
  0
VISUALSTYLE
  5
2B
102
{ACAD_REACTORS
330
2A
102
}
330
2A
100
AcDbVisualStyle
  2
Flat
 70
     0
177
     2
291
     1
 71
     2
176
     1
 72
     1
176
     1
 73
     1
176
     1
 90
        2
176
     1
 40
-0.6
176
     1
 41
30.0
176
     1
 62
     5
 63
     7
421
 16777215
176
     1
 74
     0
176
     1
 91
        4
176
     1
 64
     7
176
     1
 65
   257
176
     1
 75
     1
176
     1
175
     1
176
     1
 42
1.0
176
     1
 92
        8
176
     1
 66
     7
176
     1
 43
1.0
176
     1
 76
     1
176
     1
 77
     6
176
     1
 78
     2
176
     1
 67
     7
176
     1
 79
     5
176
     1
170
     0
176
     1
171
     0
176
     1
290
     0
176
     1
 93
       13
176
     1
 44
0.0
176
     1
173
     0
176
     1
  0
VISUALSTYLE
  5
2C
102
{ACAD_REACTORS
330
2A
102
}
330
2A
100
AcDbVisualStyle
  2
FlatWithEdges
 70
     1
177
     2
291
     1
 71
     2
176
     1
 72
     1
176
     1
 73
     1
176
     1
 90
        2
176
     1
 40
-0.6
176
     1
 41
30.0
176
     1
 62
     5
 63
     7
421
 16777215
176
     1
 74
     1
176
     1
 91
        4
176
     1
 64
     7
176
     1
 65
   257
176
     1
 75
     1
176
     1
175
     1
176
     1
 42
1.0
176
     1
 92
        0
176
     1
 66
   257
176
     1
 43
1.0
176
     1
 76
     1
176
     1
 77
     6
176
     1
 78
     2
176
     1
 67
     7
176
     1
 79
     5
176
     1
170
     0
176
     1
171
     0
176
     1
290
     0
176
     1
 93
       13
176
     1
 44
0.0
176
     1
173
     0
176
     1
  0
VISUALSTYLE
  5
2D
102
{ACAD_REACTORS
330
2A
102
}
330
2A
100
AcDbVisualStyle
  2
Gouraud
 70
     2
177
     2
291
     1
 71
     2
176
     1
 72
     2
176
     1
 73
     1
176
     1
 90
        2
176
     1
 40
-0.6
176
     1
 41
30.0
176
     1
 62
     5
 63
     7
421
 16777215
176
     1
 74
     0
176
     1
 91
        4
176
     1
 64
     7
176
     1
 65
   257
176
     1
 75
     1
176
     1
175
     1
176
     1
 42
1.0
176
     1
 92
        0
176
     1
 66
     7
176
     1
 43
1.0
176
     1
 76
     1
176
     1
 77
     6
176
     1
 78
     2
176
     1
 67
     7
176
     1
 79
     5
176
     1
170
     0
176
     1
171
     0
176
     1
290
     0
176
     1
 93
       13
176
     1
 44
0.0
176
     1
173
     0
176
     1
  0
VISUALSTYLE
  5
2E
102
{ACAD_REACTORS
330
2A
102
}
330
2A
100
AcDbVisualStyle
  2
GouraudWithEdges
 70
     3
177
     2
291
     1
 71
     2
176
     1
 72
     2
176
     1
 73
     1
176
     1
 90
        2
176
     1
 40
-0.6
176
     1
 41
30.0
176
     1
 62
     5
 63
     7
421
 16777215
176
     1
 74
     1
176
     1
 91
        4
176
     1
 64
     7
176
     1
 65
   257
176
     1
 75
     1
176
     1
175
     1
176
     1
 42
1.0
176
     1
 92
        0
176
     1
 66
   257
176
     1
 43
1.0
176
     1
 76
     1
176
     1
 77
     6
176
     1
 78
     2
176
     1
 67
     7
176
     1
 79
     5
176
     1
170
     0
176
     1
171
     0
176
     1
290
     0
176
     1
 93
       13
176
     1
 44
0.0
176
     1
173
     0
176
     1
  0
VISUALSTYLE
  5
38
102
{ACAD_REACTORS
330
2A
102
}
330
2A
100
AcDbVisualStyle
  2
Linepattern
 70
    14
177
     2
291
     1
 71
     2
176
     1
 72
     2
176
     1
 73
     0
176
     1
 90
        0
176
     1
 40
-0.6
176
     1
 41
-30.0
176
     1
 62
     5
 63
     7
421
 16777215
176
     1
 74
     1
176
     1
 91
        4
176
     1
 64
     7
176
     1
 65
   257
176
     1
 75
     7
176
     1
175
     7
176
     1
 42
1.0
176
     1
 92
        8
176
     1
 66
     7
176
     1
 43
1.0
176
     1
 76
     1
176
     1
 77
     6
176
     1
 78
     2
176
     1
 67
     7
176
     1
 79
     5
176
     1
170
     0
176
     1
171
     0
176
     1
290
     0
176
     1
 93
        1
176
     1
 44
0.0
176
     1
173
     0
176
     1
  0
VISUALSTYLE
  5
33
102
{ACAD_REACTORS
330
2A
102
}
330
2A
100
AcDbVisualStyle
  2
Realistic
 70
     8
177
     2
291
     0
 71
     2
176
     1
 72
     2
176
     1
 73
     0
176
     1
 90
        0
176
     1
 40
-0.6
176
     1
 41
-30.0
176
     1
 62
     5
 63
     7
421
 16777215
176
     1
 74
     1
176
     1
 91
        0
176
     1
 64
     7
176
     1
 65
   257
176
     1
 75
     1
176
     1
175
     1
176
     1
 42
1.0
176
     1
 92
        8
176
     1
 66
     8
424
  7895160
176
     1
 43
1.0
176
     1
 76
     1
176
     1
 77
     6
176
     1
 78
     2
176
     1
 67
     7
176
     1
 79
     5
176
     1
170
     0
176
     1
171
     0
176
     1
290
     0
176
     1
 93
       13
176
     1
 44
0.0
176
     1
173
     0
176
     1
  0
VISUALSTYLE
  5
37
102
{ACAD_REACTORS
330
2A
102
}
330
2A
100
AcDbVisualStyle
  2
Thicken
 70
    13
177
     2
291
     1
 71
     2
176
     1
 72
     2
176
     1
 73
     0
176
     1
 90
        0
176
     1
 40
-0.6
176
     1
 41
-30.0
176
     1
 62
     5
 63
     7
421
 16777215
176
     1
 74
     1
176
     1
 91
        4
176
     1
 64
     7
176
     1
 65
   257
176
     1
 75
     1
176
     1
175
     1
176
     1
 42
1.0
176
     1
 92
       12
176
     1
 66
     7
176
     1
 43
1.0
176
     1
 76
     1
176
     1
 77
     6
176
     1
 78
     2
176
     1
 67
     7
176
     1
 79
     5
176
     1
170
     0
176
     1
171
     0
176
     1
290
     0
176
     1
 93
        1
176
     1
 44
0.0
176
     1
173
     0
176
     1
  0
ENDSEC
  0
EOF
