  0
SECTION
  2
HEADER
  9
$ACADVER
  1
AC1024
  9
$ACADMAINTVER
 70
     6
  9
$DWGCODEPAGE
  3
UNDEFINED
  9
$INSBASE
 10
0.0
 20
0.0
 30
0.0
  9
$EXTMIN
 10
1.000000000000000E+20
 20
1.000000000000000E+20
 30
1.000000000000000E+20
  9
$EXTMAX
 10
-1.000000000000000E+20
 20
-1.000000000000000E+20
 30
-1.000000000000000E+20
  9
$LIMMIN
 10
0.0
 20
0.0
  9
$LIMMAX
 10
12.0
 20
9.0
  9
$ORTHOMODE
 70
     0
  9
$REGENMODE
 70
     1
  9
$FILLMODE
 70
     1
  9
$QTEXTMODE
 70
     0
  9
$MIRRTEXT
 70
     1
  9
$LTSCALE
 40
1.0
  9
$ATTMODE
 70
     1
  9
$TEXTSIZE
 40
0.2
  9
$TRACEWID
 40
0.05
  9
$TEXTSTYLE
  7
Standard
  9
$CLAYER
  8
0
  9
$CELTYPE
  6
ByLayer
  9
$CECOLOR
 62
   256
  9
$CELTSCALE
 40
1.0
  9
$DISPSILH
 70
     0
  9
$DIMSCALE
 40
1.0
  9
$DIMASZ
 40
0.18
  9
$DIMEXO
 40
0.0625
  9
$DIMDLI
 40
0.38
  9
$DIMRND
 40
0.0
  9
$DIMDLE
 40
0.0
  9
$DIMEXE
 40
0.18
  9
$DIMTP
 40
0.0
  9
$DIMTM
 40
0.0
  9
$DIMTXT
 40
0.18
  9
$DIMCEN
 40
0.09
  9
$DIMTSZ
 40
0.0
  9
$DIMTOL
 70
     0
  9
$DIMLIM
 70
     0
  9
$DIMTIH
 70
     1
  9
$DIMTOH
 70
     1
  9
$DIMSE1
 70
     0
  9
$DIMSE2
 70
     0
  9
$DIMTAD
 70
     0
  9
$DIMZIN
 70
     0
  9
$DIMBLK
  1

  9
$DIMASO
 70
     1
  9
$DIMSHO
 70
     1
  9
$DIMPOST
  1

  9
$DIMAPOST
  1

  9
$DIMALT
 70
     0
  9
$DIMALTD
 70
     2
  9
$DIMALTF
 40
25.4
  9
$DIMLFAC
 40
1.0
  9
$DIMTOFL
 70
     0
  9
$DIMTVP
 40
0.0
  9
$DIMTIX
 70
     0
  9
$DIMSOXD
 70
     0
  9
$DIMSAH
 70
     0
  9
$DIMBLK1
  1

  9
$DIMBLK2
  1

  9
$DIMSTYLE
  2
Standard
  9
$DIMCLRD
 70
     0
  9
$DIMCLRE
 70
     0
  9
$DIMCLRT
 70
     0
  9
$DIMTFAC
 40
1.0
  9
$DIMGAP
 40
0.09
  9
$DIMJUST
 70
     0
  9
$DIMSD1
 70
     0
  9
$DIMSD2
 70
     0
  9
$DIMTOLJ
 70
     1
  9
$DIMTZIN
 70
     0
  9
$DIMALTZ
 70
     0
  9
$DIMALTTZ
 70
     0
  9
$DIMUPT
 70
     0
  9
$DIMDEC
 70
     4
  9
$DIMTDEC
 70
     4
  9
$DIMALTU
 70
     2
  9
$DIMALTTD
 70
     2
  9
$DIMTXSTY
  7
Standard
  9
$DIMAUNIT
 70
     0
  9
$DIMADEC
 70
     0
  9
$DIMALTRND
 40
0.0
  9
$DIMAZIN
 70
     0
  9
$DIMDSEP
 70
    46
  9
$DIMATFIT
 70
     3
  9
$DIMFRAC
 70
     0
  9
$DIMLDRBLK
  1

  9
$DIMLUNIT
 70
     2
  9
$DIMLWD
 70
    -2
  9
$DIMLWE
 70
    -2
  9
$DIMTMOVE
 70
     0
  9
$DIMFXL
 40
1.0
  9
$DIMFXLON
 70
     0
  9
$DIMJOGANG
 40
0.7853981633974483
  9
$DIMTFILL
 70
     0
  9
$DIMTFILLCLR
 70
     0
  9
$DIMARCSYM
 70
     0
  9
$DIMLTYPE
  6

  9
$DIMLTEX1
  6

  9
$DIMLTEX2
  6

  9
$DIMTXTDIRECTION
 70
     0
  9
$LUNITS
 70
     2
  9
$LUPREC
 70
     4
  9
$SKETCHINC
 40
0.1
  9
$FILLETRAD
 40
0.5
  9
$AUNITS
 70
     0
  9
$AUPREC
 70
     0
  9
$MENU
  1
.
  9
$ELEVATION
 40
0.0
  9
$PELEVATION
 40
0.0
  9
$THICKNESS
 40
0.0
  9
$LIMCHECK
 70
     0
  9
$CHAMFERA
 40
0.5
  9
$CHAMFERB
 40
0.5
  9
$CHAMFERC
 40
1.0
  9
$CHAMFERD
 40
0.0
  9
$SKPOLY
 70
     0
  9
$TDCREATE
 40
2457917.617256945
  9
$TDUCREATE
 40
2457917.242256945
  9
$TDUPDATE
 40
2457917.617256945
  9
$TDUUPDATE
 40
2457917.242256945
  9
$TDINDWG
 40
0.0000000116
  9
$TDUSRTIMER
 40
0.0000000116
  9
$USRTIMER
 70
     1
  9
$ANGBASE
 50
0.0
  9
$ANGDIR
 70
     0
  9
$PDMODE
 70
     0
  9
$PDSIZE
 40
0.0
  9
$PLINEWID
 40
0.0
  9
$SPLFRAME
 70
     0
  9
$SPLINETYPE
 70
     6
  9
$SPLINESEGS
 70
     8
  9
$HANDSEED
  5
EF
  9
$SURFTAB1
 70
     6
  9
$SURFTAB2
 70
     6
  9
$SURFTYPE
 70
     6
  9
$SURFU
 70
     6
  9
$SURFV
 70
     6
  9
$UCSBASE
  2

  9
$UCSNAME
  2

  9
$UCSORG
 10
0.0
 20
0.0
 30
0.0
  9
$UCSXDIR
 10
1.0
 20
0.0
 30
0.0
  9
$UCSYDIR
 10
0.0
 20
1.0
 30
0.0
  9
$UCSORTHOREF
  2

  9
$UCSORTHOVIEW
 70
     0
  9
$UCSORGTOP
 10
0.0
 20
0.0
 30
0.0
  9
$UCSORGBOTTOM
 10
0.0
 20
0.0
 30
0.0
  9
$UCSORGLEFT
 10
0.0
 20
0.0
 30
0.0
  9
$UCSORGRIGHT
 10
0.0
 20
0.0
 30
0.0
  9
$UCSORGFRONT
 10
0.0
 20
0.0
 30
0.0
  9
$UCSORGBACK
 10
0.0
 20
0.0
 30
0.0
  9
$PUCSBASE
  2

  9
$PUCSNAME
  2

  9
$PUCSORG
 10
0.0
 20
0.0
 30
0.0
  9
$PUCSXDIR
 10
1.0
 20
0.0
 30
0.0
  9
$PUCSYDIR
 10
0.0
 20
1.0
 30
0.0
  9
$PUCSORTHOREF
  2

  9
$PUCSORTHOVIEW
 70
     0
  9
$PUCSORGTOP
 10
0.0
 20
0.0
 30
0.0
  9
$PUCSORGBOTTOM
 10
0.0
 20
0.0
 30
0.0
  9
$PUCSORGLEFT
 10
0.0
 20
0.0
 30
0.0
  9
$PUCSORGRIGHT
 10
0.0
 20
0.0
 30
0.0
  9
$PUCSORGFRONT
 10
0.0
 20
0.0
 30
0.0
  9
$PUCSORGBACK
 10
0.0
 20
0.0
 30
0.0
  9
$USERI1
 70
     0
  9
$USERI2
 70
     0
  9
$USERI3
 70
     0
  9
$USERI4
 70
     0
  9
$USERI5
 70
     0
  9
$USERR1
 40
0.0
  9
$USERR2
 40
0.0
  9
$USERR3
 40
0.0
  9
$USERR4
 40
0.0
  9
$USERR5
 40
0.0
  9
$WORLDVIEW
 70
     1
  9
$SHADEDGE
 70
     3
  9
$SHADEDIF
 70
    70
  9
$TILEMODE
 70
     1
  9
$MAXACTVP
 70
    64
  9
$PINSBASE
 10
0.0
 20
0.0
 30
0.0
  9
$PLIMCHECK
 70
     0
  9
$PEXTMIN
 10
1.000000000000000E+20
 20
1.000000000000000E+20
 30
1.000000000000000E+20
  9
$PEXTMAX
 10
-1.000000000000000E+20
 20
-1.000000000000000E+20
 30
-1.000000000000000E+20
  9
$PLIMMIN
 10
0.0
 20
0.0
  9
$PLIMMAX
 10
12.0
 20
9.0
  9
$UNITMODE
 70
     0
  9
$VISRETAIN
 70
     1
  9
$PLINEGEN
 70
     0
  9
$PSLTSCALE
 70
     1
  9
$TREEDEPTH
 70
  3020
  9
$CMLSTYLE
  2
Standard
  9
$CMLJUST
 70
     0
  9
$CMLSCALE
 40
1.0
  9
$PROXYGRAPHICS
 70
     1
  9
$MEASUREMENT
 70
     0
  9
$CELWEIGHT
370
    -1
  9
$ENDCAPS
280
     0
  9
$JOINSTYLE
280
     0
  9
$LWDISPLAY
290
     1
  9
$INSUNITS
 70
     1
  9
$HYPERLINKBASE
  1

  9
$STYLESHEET
  1

  9
$XEDIT
290
     1
  9
$CEPSNTYPE
380
     0
  9
$PSTYLEMODE
290
     1
  9
$FINGERPRINTGUID
  2
{4F032324-2E4E-BF86-E015-4B2EB4DD5A61}
  9
$VERSIONGUID
  2
{FAEB1C32-E019-11D5-929B-00C0DF256EC4}
  9
$EXTNAMES
290
     1
  9
$PSVPSCALE
 40
0.0
  9
$OLESTARTUP
290
     0
  9
$SORTENTS
280
   127
  9
$INDEXCTL
280
     0
  9
$HIDETEXT
280
     1
  9
$XCLIPFRAME
280
     2
  9
$HALOGAP
280
     0
  9
$OBSCOLOR
 70
   257
  9
$OBSLTYPE
280
     0
  9
$INTERSECTIONDISPLAY
280
     0
  9
$INTERSECTIONCOLOR
 70
   257
  9
$DIMASSOC
280
     2
  9
$PROJECTNAME
  1

  9
$CAMERADISPLAY
290
     0
  9
$LENSLENGTH
 40
50.0
  9
$CAMERAHEIGHT
 40
0.0
  9
$STEPSPERSEC
 40
2.0
  9
$STEPSIZE
 40
6.0
  9
$3DDWFPREC
 40
2.0
  9
$PSOLWIDTH
 40
0.25
  9
$PSOLHEIGHT
 40
4.0
  9
$LOFTANG1
 40
1.570796326794897
  9
$LOFTANG2
 40
1.570796326794897
  9
$LOFTMAG1
 40
0.0
  9
$LOFTMAG2
 40
0.0
  9
$LOFTPARAM
 70
     7
  9
$LOFTNORMALS
280
     1
  9
$LATITUDE
 40
37.795
  9
$LONGITUDE
 40
-122.394
  9
$NORTHDIRECTION
 40
0.0
  9
$TIMEZONE
 70
 -8000
  9
$LIGHTGLYPHDISPLAY
280
     1
  9
$TILEMODELIGHTSYNCH
280
     1
  9
$CMATERIAL
347
3C
  9
$SOLIDHIST
280
     1
  9
$SHOWHIST
280
     1
  9
$DWFFRAME
280
     2
  9
$DGNFRAME
280
     2
  9
$REALWORLDSCALE
290
     1
  9
$INTERFERECOLOR
 62
   256
  9
$CSHADOW
280
     0
  9
$SHADOWPLANELOCATION
 40
0.0
  0
ENDSEC
  0
SECTION
  2
CLASSES
  0
CLASS
  1
ACDBDICTIONARYWDFLT
  2
AcDbDictionaryWithDefault
  3
ObjectDBX Classes
 90
        0
 91
        4
280
     0
281
     0
  0
CLASS
  1
VISUALSTYLE
  2
AcDbVisualStyle
  3
ObjectDBX Classes
 90
     4095
 91
        4
280
     0
281
     0
  0
CLASS
  1
MATERIAL
  2
AcDbMaterial
  3
ObjectDBX Classes
 90
     1153
 91
        4
280
     0
281
     0
  0
CLASS
  1
SUN
  2
AcDbSun
  3
SCENEOE
 90
     1024
 91
        4
280
     0
281
     0
  0
ENDSEC
  0
SECTION
  2
TABLES
  0
TABLE
  2
VPORT
  5
8
330
0
100
AcDbSymbolTable
 70
     1
  0
VPORT
  5
29
330
8
100
AcDbSymbolTableRecord
100
AcDbViewportTableRecord
  2
*Active
 70
     0
 10
0.0
 20
0.0
 11
1.0
 21
1.0
 12
0.0
 22
0.0
 13
0.0
 23
0.0
 14
0.5
 24
0.5
 15
0.5
 25
0.5
 16
0.0
 26
0.0
 36
1.0
 17
91.00082462281999
 27
-128.4993055234307
 37
0.0
 40
256.9986110468615
 41
0.7081814508812795
 42
50.0
 43
0.0
 44
0.0
 50
0.0
 51
0.0
 71
     0
 72
   100
 73
     1
 74
     3
 75
     0
 76
     0
 77
     0
 78
     0
281
     0
 65
     1
110
0.0
120
0.0
130
0.0
111
1.0
121
0.0
131
0.0
112
0.0
122
1.0
132
0.0
 79
     0
146
0.0
 60
     3
 61
     5
292
     1
282
     1
141
0.0
142
0.0
 63
   250
361
3F
  0
ENDTAB
  0
TABLE
  2
LTYPE
  5
5
330
0
100
AcDbSymbolTable
 70
     1
  0
LTYPE
  5
14
330
5
100
AcDbSymbolTableRecord
100
AcDbLinetypeTableRecord
  2
ByBlock
 70
     0
  3

 72
    65
 73
     0
 40
0.0
  0
LTYPE
  5
15
330
5
100
AcDbSymbolTableRecord
100
AcDbLinetypeTableRecord
  2
ByLayer
 70
     0
  3

 72
    65
 73
     0
 40
0.0
  0
LTYPE
  5
16
330
5
100
AcDbSymbolTableRecord
100
AcDbLinetypeTableRecord
  2
Continuous
 70
     0
  3
Solid line
 72
    65
 73
     0
 40
0.0
  0
ENDTAB
  0
TABLE
  2
LAYER
  5
2
330
0
100
AcDbSymbolTable
 70
     2
  0
LAYER
  5
10
330
2
100
AcDbSymbolTableRecord
100
AcDbLayerTableRecord
  2
0
 70
     0
 62
     7
  6
Continuous
370
    -3
390
F
347
3E
  0
LAYER
  5
40
330
2
100
AcDbSymbolTableRecord
100
AcDbLayerTableRecord
  2
_U+30EC_U+30A4_U+30E4_U+30FC 1
 70
     0
 62
     7
  6
Continuous
370
    -3
390
F
347
3E
  0
ENDTAB
  0
TABLE
  2
STYLE
  5
3
330
0
100
AcDbSymbolTable
 70
     1
  0
STYLE
  5
11
330
3
100
AcDbSymbolTableRecord
100
AcDbTextStyleTableRecord
  2
Standard
 70
     0
 40
0.0
 41
1.0
 50
0.0
 71
     0
 42
0.2
  3
txt
  4

  0
ENDTAB
  0
TABLE
  2
VIEW
  5
6
330
0
100
AcDbSymbolTable
 70
     0
  0
ENDTAB
  0
TABLE
  2
UCS
  5
7
330
0
100
AcDbSymbolTable
 70
     0
  0
ENDTAB
  0
TABLE
  2
APPID
  5
9
330
0
100
AcDbSymbolTable
 70
     1
  0
APPID
  5
12
330
9
100
AcDbSymbolTableRecord
100
AcDbRegAppTableRecord
  2
ACAD
 70
     0
  0
ENDTAB
  0
TABLE
  2
DIMSTYLE
  5
A
330
0
100
AcDbSymbolTable
 70
     1
100
AcDbDimStyleTable
  0
DIMSTYLE
105
27
330
A
100
AcDbSymbolTableRecord
100
AcDbDimStyleTableRecord
  2
Standard
 70
     0
178
     0
340
11
  0
ENDTAB
  0
TABLE
  2
BLOCK_RECORD
  5
1
330
0
100
AcDbSymbolTable
 70
     8
  0
BLOCK_RECORD
  5
1F
330
1
100
AcDbSymbolTableRecord
100
AcDbBlockTableRecord
  2
*Model_Space
340
22
 70
     0
280
     1
281
     0
  0
BLOCK_RECORD
  5
1B
330
1
100
AcDbSymbolTableRecord
100
AcDbBlockTableRecord
  2
*Paper_Space
340
1E
 70
     0
280
     1
281
     0
  0
BLOCK_RECORD
  5
23
330
1
100
AcDbSymbolTableRecord
100
AcDbBlockTableRecord
  2
*Paper_Space0
340
26
 70
     0
280
     1
281
     0
  0
BLOCK_RECORD
  5
55
330
1
100
AcDbSymbolTableRecord
100
AcDbBlockTableRecord
  2
block 2
340
0
102
{BLKREFS
331
56
102
}
 70
     0
280
     1
281
     0
  0
BLOCK_RECORD
  5
70
330
1
100
AcDbSymbolTableRecord
100
AcDbBlockTableRecord
  2
block 3
340
0
102
{BLKREFS
331
71
102
}
 70
     0
280
     1
281
     0
  0
BLOCK_RECORD
  5
79
330
1
100
AcDbSymbolTableRecord
100
AcDbBlockTableRecord
  2
block 4
340
0
102
{BLKREFS
331
7A
102
}
 70
     0
280
     1
281
     0
  0
BLOCK_RECORD
  5
90
330
1
100
AcDbSymbolTableRecord
100
AcDbBlockTableRecord
  2
block 5
340
0
102
{BLKREFS
331
91
102
}
 70
     0
280
     1
281
     0
  0
BLOCK_RECORD
  5
BE
330
1
100
AcDbSymbolTableRecord
100
AcDbBlockTableRecord
  2
block 6
340
0
102
{BLKREFS
331
BF
102
}
 70
     0
280
     1
281
     0
  0
BLOCK_RECORD
  5
C4
330
1
100
AcDbSymbolTableRecord
100
AcDbBlockTableRecord
  2
block 7
340
0
102
{BLKREFS
331
C5
102
}
 70
     0
280
     1
281
     0
  0
BLOCK_RECORD
  5
D4
330
1
100
AcDbSymbolTableRecord
100
AcDbBlockTableRecord
  2
block 8
340
0
102
{BLKREFS
331
D5
102
}
 70
     0
280
     1
281
     0
  0
ENDTAB
  0
ENDSEC
  0
SECTION
  2
BLOCKS
  0
BLOCK
  5
20
330
1F
100
AcDbEntity
  8
0
100
AcDbBlockBegin
  2
*Model_Space
 70
     0
 10
0.0
 20
0.0
 30
0.0
  3
*Model_Space
  1

  0
ENDBLK
  5
21
330
1F
100
AcDbEntity
  8
0
100
AcDbBlockEnd
  0
BLOCK
  5
1C
330
1B
100
AcDbEntity
 67
     1
  8
0
100
AcDbBlockBegin
  2
*Paper_Space
 70
     0
 10
0.0
 20
0.0
 30
0.0
  3
*Paper_Space
  1

  0
ENDBLK
  5
1D
330
1B
100
AcDbEntity
 67
     1
  8
0
100
AcDbBlockEnd
  0
BLOCK
  5
24
330
23
100
AcDbEntity
  8
0
100
AcDbBlockBegin
  2
*Paper_Space0
 70
     0
 10
0.0
 20
0.0
 30
0.0
  3
*Paper_Space0
  1

  0
ENDBLK
  5
25
330
23
100
AcDbEntity
  8
0
100
AcDbBlockEnd
  0
BLOCK
  5
57
330
55
100
AcDbEntity
  8
0
100
AcDbBlockBegin
  2
block 2
 70
     0
 10
0.0
 20
0.0
 30
0.0
  3
block 2
  1

  0
SPLINE
  5
59
330
55
100
AcDbEntity
  8
_U+30EC_U+30A4_U+30E4_U+30FC 1
370
     0
100
AcDbSpline
210
0.0
220
0.0
230
1.0
 70
    11
 71
     3
 72
    26
 73
    22
 74
     0
 42
0.0000000001
 43
0.0000000001
 12
1.0
 22
0.0
 32
0.0
 13
1.0
 23
0.0
 33
0.0
 40
0.0
 40
0.0
 40
0.0
 40
0.0
 40
1.0
 40
1.0
 40
1.0
 40
2.0
 40
2.0
 40
2.0
 40
3.0
 40
3.0
 40
3.0
 40
4.0
 40
4.0
 40
4.0
 40
5.0
 40
5.0
 40
5.0
 40
6.0
 40
6.0
 40
6.0
 40
7.0
 40
7.0
 40
7.0
 40
7.0
 10
81.34662812636473
 20
-136.2269992063947
 30
0.0
 10
81.34662812636473
 20
-136.2269992063947
 30
0.0
 10
80.24247502334217
 20
-136.2269992063947
 30
0.0
 10
80.24247502334217
 20
-136.2269992063947
 30
0.0
 10
80.24247502334217
 20
-136.2269992063947
 30
0.0
 10
80.24247502334217
 20
-136.5794324745357
 30
0.0
 10
80.24247502334217
 20
-136.5794324745357
 30
0.0
 10
80.24247502334217
 20
-136.5794324745357
 30
0.0
 10
80.09433591747641
 20
-136.5794324745357
 30
0.0
 10
80.09433591747641
 20
-136.5794324745357
 30
0.0
 10
80.07952200688985
 20
-136.224587639555
 30
0.0
 10
79.91656899043753
 20
-136.1749782645674
 30
0.0
 10
79.80219182032724
 20
-136.1432833861031
 30
0.0
 10
79.80219182032724
 20
-136.1432833861031
 30
0.0
 10
79.80219182032724
 20
-135.9872205606213
 30
0.0
 10
79.80219182032724
 20
-135.9872205606213
 30
0.0
 10
79.80219182032724
 20
-135.9872205606213
 30
0.0
 10
81.34662812636473
 20
-135.9872205606213
 30
0.0
 10
81.34662812636473
 20
-135.9872205606213
 30
0.0
 10
81.34662812636473
 20
-135.9872205606213
 30
0.0
 10
81.34662812636473
 20
-136.2269992063947
 30
0.0
 10
81.34662812636473
 20
-136.2269992063947
 30
0.0
  0
HATCH
  5
5A
330
55
100
AcDbEntity
  8
_U+30EC_U+30A4_U+30E4_U+30FC 1
 62
     7
420
 16777215
100
AcDbHatch
 10
0.0
 20
0.0
 30
0.0
210
0.0
220
0.0
230
1.0
  2
SOLID
 70
     1
 71
     0
 91
        1
 92
        1
 93
        1
 72
     4
 94
        3
 73
     0
 74
     1
 95
       26
 96
       22
 40
0.0
 40
0.0
 40
0.0
 40
0.0
 40
1.0
 40
1.0
 40
1.0
 40
2.0
 40
2.0
 40
2.0
 40
3.0
 40
3.0
 40
3.0
 40
4.0
 40
4.0
 40
4.0
 40
5.0
 40
5.0
 40
5.0
 40
6.0
 40
6.0
 40
6.0
 40
7.0
 40
7.0
 40
7.0
 40
7.0
 10
81.34662812636473
 20
-136.2269992063947
 10
81.34662812636473
 20
-136.2269992063947
 10
80.24247502334217
 20
-136.2269992063947
 10
80.24247502334217
 20
-136.2269992063947
 10
80.24247502334217
 20
-136.2269992063947
 10
80.24247502334217
 20
-136.5794324745357
 10
80.24247502334217
 20
-136.5794324745357
 10
80.24247502334217
 20
-136.5794324745357
 10
80.09433591747641
 20
-136.5794324745357
 10
80.09433591747641
 20
-136.5794324745357
 10
80.07952200688985
 20
-136.224587639555
 10
79.91656899043753
 20
-136.1749782645674
 10
79.80219182032724
 20
-136.1432833861031
 10
79.80219182032724
 20
-136.1432833861031
 10
79.80219182032724
 20
-135.9872205606213
 10
79.80219182032724
 20
-135.9872205606213
 10
79.80219182032724
 20
-135.9872205606213
 10
81.34662812636473
 20
-135.9872205606213
 10
81.34662812636473
 20
-135.9872205606213
 10
81.34662812636473
 20
-135.9872205606213
 10
81.34662812636473
 20
-136.2269992063947
 10
81.34662812636473
 20
-136.2269992063947
 97
        0
 97
        0
 75
     2
 76
     1
 98
        0
  0
POLYLINE
  5
5B
330
55
100
AcDbEntity
  8
_U+30EC_U+30A4_U+30E4_U+30FC 1
370
     0
100
AcDb2dPolyline
 66
     1
 10
0.0
 20
0.0
 30
0.0
  0
VERTEX
  5
5C
330
5B
100
AcDbEntity
  8
_U+30EC_U+30A4_U+30E4_U+30FC 1
370
     0
100
AcDbVertex
100
AcDb2dVertex
 10
80.99970701100008
 20
-134.5619845583734
 30
0.0
  0
VERTEX
  5
5D
330
5B
100
AcDbEntity
  8
_U+30EC_U+30A4_U+30E4_U+30FC 1
370
     0
100
AcDbVertex
100
AcDb2dVertex
 10
81.34662812636473
 20
-134.5619845583734
 30
0.0
  0
VERTEX
  5
5E
330
5B
100
AcDbEntity
  8
_U+30EC_U+30A4_U+30E4_U+30FC 1
370
     0
100
AcDbVertex
100
AcDb2dVertex
 10
81.34662812636473
 20
-134.7948730131763
 30
0.0
  0
VERTEX
  5
5F
330
5B
100
AcDbEntity
  8
_U+30EC_U+30A4_U+30E4_U+30FC 1
370
     0
100
AcDbVertex
100
AcDb2dVertex
 10
80.99970701100008
 20
-134.7948730131763
 30
0.0
  0
VERTEX
  5
60
330
5B
100
AcDbEntity
  8
_U+30EC_U+30A4_U+30E4_U+30FC 1
370
     0
100
AcDbVertex
100
AcDb2dVertex
 10
80.99970701100008
 20
-135.4959499444246
 30
0.0
  0
VERTEX
  5
61
330
5B
100
AcDbEntity
  8
_U+30EC_U+30A4_U+30E4_U+30FC 1
370
     0
100
AcDbVertex
100
AcDb2dVertex
 10
80.77543129491032
 20
-135.4959499444246
 30
0.0
  0
VERTEX
  5
62
330
5B
100
AcDbEntity
  8
_U+30EC_U+30A4_U+30E4_U+30FC 1
370
     0
100
AcDbVertex
100
AcDb2dVertex
 10
79.80219182032724
 20
-134.7700683256825
 30
0.0
  0
VERTEX
  5
63
330
5B
100
AcDbEntity
  8
_U+30EC_U+30A4_U+30E4_U+30FC 1
370
     0
100
AcDbVertex
100
AcDb2dVertex
 10
79.80219182032724
 20
-134.5619845583734
 30
0.0
  0
VERTEX
  5
64
330
5B
100
AcDbEntity
  8
_U+30EC_U+30A4_U+30E4_U+30FC 1
370
     0
100
AcDbVertex
100
AcDb2dVertex
 10
80.80092500150116
 20
-134.5619845583734
 30
0.0
  0
VERTEX
  5
65
330
5B
100
AcDbEntity
  8
_U+30EC_U+30A4_U+30E4_U+30FC 1
370
     0
100
AcDbVertex
100
AcDb2dVertex
 10
80.80092500150116
 20
-134.3404649186718
 30
0.0
  0
VERTEX
  5
66
330
5B
100
AcDbEntity
  8
_U+30EC_U+30A4_U+30E4_U+30FC 1
370
     0
100
AcDbVertex
100
AcDb2dVertex
 10
80.99970701100008
 20
-134.3404649186718
 30
0.0
  0
VERTEX
  5
67
330
5B
100
AcDbEntity
  8
_U+30EC_U+30A4_U+30E4_U+30FC 1
370
     0
100
AcDbVertex
100
AcDb2dVertex
 10
80.99970701100008
 20
-134.5619845583734
 30
0.0
  0
SEQEND
  5
68
330
5B
100
AcDbEntity
  8
_U+30EC_U+30A4_U+30E4_U+30FC 1
370
     0
  0
POLYLINE
  5
69
330
55
100
AcDbEntity
  8
_U+30EC_U+30A4_U+30E4_U+30FC 1
370
     0
100
AcDb2dPolyline
 66
     1
 10
0.0
 20
0.0
 30
0.0
  0
VERTEX
  5
6A
330
69
100
AcDbEntity
  8
_U+30EC_U+30A4_U+30E4_U+30FC 1
370
     0
100
AcDbVertex
100
AcDb2dVertex
 10
80.14497882110959
 20
-134.7948730131763
 30
0.0
  0
VERTEX
  5
6B
330
69
100
AcDbEntity
  8
_U+30EC_U+30A4_U+30E4_U+30FC 1
370
     0
100
AcDbVertex
100
AcDb2dVertex
 10
80.80092500150116
 20
-135.2833875529847
 30
0.0
  0
VERTEX
  5
6C
330
69
100
AcDbEntity
  8
_U+30EC_U+30A4_U+30E4_U+30FC 1
370
     0
100
AcDbVertex
100
AcDb2dVertex
 10
80.80092500150116
 20
-134.7948730131763
 30
0.0
  0
VERTEX
  5
6D
330
69
100
AcDbEntity
  8
_U+30EC_U+30A4_U+30E4_U+30FC 1
370
     0
100
AcDbVertex
100
AcDb2dVertex
 10
80.14497882110959
 20
-134.7948730131763
 30
0.0
  0
SEQEND
  5
6E
330
69
100
AcDbEntity
  8
_U+30EC_U+30A4_U+30E4_U+30FC 1
370
     0
  0
HATCH
  5
6F
330
55
100
AcDbEntity
  8
_U+30EC_U+30A4_U+30E4_U+30FC 1
 62
     7
420
 16777215
100
AcDbHatch
 10
0.0
 20
0.0
 30
0.0
210
0.0
220
0.0
230
1.0
  2
SOLID
 70
     1
 71
     0
 91
        2
 92
        1
 93
       11
 72
     1
 10
80.99970701100008
 20
-134.5619845583734
 11
81.34662812636473
 21
-134.5619845583734
 72
     1
 10
81.34662812636473
 20
-134.5619845583734
 11
81.34662812636473
 21
-134.7948730131763
 72
     1
 10
81.34662812636473
 20
-134.7948730131763
 11
80.99970701100008
 21
-134.7948730131763
 72
     1
 10
80.99970701100008
 20
-134.7948730131763
 11
80.99970701100008
 21
-135.4959499444246
 72
     1
 10
80.99970701100008
 20
-135.4959499444246
 11
80.77543129491032
 21
-135.4959499444246
 72
     1
 10
80.77543129491032
 20
-135.4959499444246
 11
79.80219182032724
 21
-134.7700683256825
 72
     1
 10
79.80219182032724
 20
-134.7700683256825
 11
79.80219182032724
 21
-134.5619845583734
 72
     1
 10
79.80219182032724
 20
-134.5619845583734
 11
80.80092500150116
 21
-134.5619845583734
 72
     1
 10
80.80092500150116
 20
-134.5619845583734
 11
80.80092500150116
 21
-134.3404649186718
 72
     1
 10
80.80092500150116
 20
-134.3404649186718
 11
80.99970701100008
 21
-134.3404649186718
 72
     1
 10
80.99970701100008
 20
-134.3404649186718
 11
80.99970701100008
 21
-134.5619845583734
 97
        0
 92
        1
 93
        3
 72
     1
 10
80.14497882110959
 20
-134.7948730131763
 11
80.80092500150116
 21
-135.2833875529847
 72
     1
 10
80.80092500150116
 20
-135.2833875529847
 11
80.80092500150116
 21
-134.7948730131763
 72
     1
 10
80.80092500150116
 20
-134.7948730131763
 11
80.14497882110959
 21
-134.7948730131763
 97
        0
 75
     2
 76
     1
 98
        0
  0
ENDBLK
  5
58
330
55
100
AcDbEntity
  8
0
100
AcDbBlockEnd
  0
BLOCK
  5
72
330
70
100
AcDbEntity
  8
0
100
AcDbBlockBegin
  2
block 3
 70
     0
 10
0.0
 20
0.0
 30
0.0
  3
block 3
  1

  0
SPLINE
  5
74
330
70
100
AcDbEntity
  8
_U+30EC_U+30A4_U+30E4_U+30FC 1
370
     0
100
AcDbSpline
210
0.0
220
0.0
230
1.0
 70
    11
 71
     3
 72
    44
 73
    40
 74
     0
 42
0.0000000001
 43
0.0000000001
 12
1.0
 22
0.0
 32
0.0
 13
1.0
 23
0.0
 33
0.0
 40
0.0
 40
0.0
 40
0.0
 40
0.0
 40
1.0
 40
1.0
 40
1.0
 40
2.0
 40
2.0
 40
2.0
 40
3.0
 40
3.0
 40
3.0
 40
4.0
 40
4.0
 40
4.0
 40
5.0
 40
5.0
 40
5.0
 40
6.0
 40
6.0
 40
6.0
 40
7.0
 40
7.0
 40
7.0
 40
8.0
 40
8.0
 40
8.0
 40
9.0
 40
9.0
 40
9.0
 40
10.0
 40
10.0
 40
10.0
 40
11.0
 40
11.0
 40
11.0
 40
12.0
 40
12.0
 40
12.0
 40
13.0
 40
13.0
 40
13.0
 40
13.0
 10
74.6472954457479
 20
-130.0775037652237
 30
0.0
 10
74.80611434761792
 20
-130.3103922200266
 30
0.0
 10
74.88018390055079
 20
-130.4099554795503
 30
0.0
 10
75.0238443822857
 20
-130.461631911829
 30
0.0
 10
75.0238443822857
 20
-130.461631911829
 30
0.0
 10
75.0238443822857
 20
-129.6299858616897
 30
0.0
 10
75.0238443822857
 20
-129.6299858616897
 30
0.0
 10
75.0238443822857
 20
-129.6299858616897
 30
0.0
 10
75.2291720732066
 20
-129.6299858616897
 30
0.0
 10
75.2291720732066
 20
-129.6299858616897
 30
0.0
 10
75.2291720732066
 20
-129.6299858616897
 30
0.0
 10
75.2291720732066
 20
-130.7286268119359
 30
0.0
 10
75.2291720732066
 20
-130.7286268119359
 30
0.0
 10
74.87157116183766
 20
-130.6945203666319
 30
0.0
 10
74.7933674943225
 20
-130.6245849282814
 30
0.0
 10
74.49502222529986
 20
-130.2132405273425
 30
0.0
 10
74.29624021580095
 20
-129.9396999458137
 30
0.0
 10
74.22837183474152
 20
-129.8694199979146
 30
0.0
 10
74.09091252488005
 20
-129.8694199979146
 30
0.0
 10
73.97240124018745
 20
-129.8694199979146
 30
0.0
 10
73.84148761174797
 20
-129.9462456272357
 30
0.0
 10
73.84148761174797
 20
-130.1567409613844
 30
0.0
 10
73.84148761174797
 20
-130.4347601670441
 30
0.0
 10
74.07196449971119
 20
-130.4437174153057
 30
0.0
 10
74.18840872711263
 20
-130.4481960394366
 30
0.0
 10
74.18840872711263
 20
-130.4481960394366
 30
0.0
 10
74.18840872711263
 20
-130.68797468521
 30
0.0
 10
74.18840872711263
 20
-130.68797468521
 30
0.0
 10
74.0612847037069
 20
-130.6786729273998
 30
0.0
 10
73.94931910043628
 20
-130.667648621847
 30
0.0
 10
73.8308078157437
 20
-130.5815212347157
 30
0.0
 10
73.66992185658252
 20
-130.4640434786687
 30
0.0
 10
73.63615992082707
 20
-130.2652614691698
 30
0.0
 10
73.63615992082707
 20
-130.1408935221523
 30
0.0
 10
73.63615992082707
 20
-129.8446153104208
 30
0.0
 10
73.82012801973941
 20
-129.6230956707192
 30
0.0
 10
74.0929795821712
 20
-129.6230956707192
 30
0.0
 10
74.32173392239179
 20
-129.6230956707192
 30
0.0
 10
74.420952672367
 20
-129.7474636177367
 30
0.0
 10
74.6472954457479
 20
-130.0775037652237
 30
0.0
  0
HATCH
  5
75
330
70
100
AcDbEntity
  8
_U+30EC_U+30A4_U+30E4_U+30FC 1
 62
     7
420
 16777215
100
AcDbHatch
 10
0.0
 20
0.0
 30
0.0
210
0.0
220
0.0
230
1.0
  2
SOLID
 70
     1
 71
     0
 91
        1
 92
        1
 93
        1
 72
     4
 94
        3
 73
     0
 74
     1
 95
       44
 96
       40
 40
0.0
 40
0.0
 40
0.0
 40
0.0
 40
1.0
 40
1.0
 40
1.0
 40
2.0
 40
2.0
 40
2.0
 40
3.0
 40
3.0
 40
3.0
 40
4.0
 40
4.0
 40
4.0
 40
5.0
 40
5.0
 40
5.0
 40
6.0
 40
6.0
 40
6.0
 40
7.0
 40
7.0
 40
7.0
 40
8.0
 40
8.0
 40
8.0
 40
9.0
 40
9.0
 40
9.0
 40
10.0
 40
10.0
 40
10.0
 40
11.0
 40
11.0
 40
11.0
 40
12.0
 40
12.0
 40
12.0
 40
13.0
 40
13.0
 40
13.0
 40
13.0
 10
74.6472954457479
 20
-130.0775037652237
 10
74.80611434761792
 20
-130.3103922200266
 10
74.88018390055079
 20
-130.4099554795503
 10
75.0238443822857
 20
-130.461631911829
 10
75.0238443822857
 20
-130.461631911829
 10
75.0238443822857
 20
-129.6299858616897
 10
75.0238443822857
 20
-129.6299858616897
 10
75.0238443822857
 20
-129.6299858616897
 10
75.2291720732066
 20
-129.6299858616897
 10
75.2291720732066
 20
-129.6299858616897
 10
75.2291720732066
 20
-129.6299858616897
 10
75.2291720732066
 20
-130.7286268119359
 10
75.2291720732066
 20
-130.7286268119359
 10
74.87157116183766
 20
-130.6945203666319
 10
74.7933674943225
 20
-130.6245849282814
 10
74.49502222529986
 20
-130.2132405273425
 10
74.29624021580095
 20
-129.9396999458137
 10
74.22837183474152
 20
-129.8694199979146
 10
74.09091252488005
 20
-129.8694199979146
 10
73.97240124018745
 20
-129.8694199979146
 10
73.84148761174797
 20
-129.9462456272357
 10
73.84148761174797
 20
-130.1567409613844
 10
73.84148761174797
 20
-130.4347601670441
 10
74.07196449971119
 20
-130.4437174153057
 10
74.18840872711263
 20
-130.4481960394366
 10
74.18840872711263
 20
-130.4481960394366
 10
74.18840872711263
 20
-130.68797468521
 10
74.18840872711263
 20
-130.68797468521
 10
74.0612847037069
 20
-130.6786729273998
 10
73.94931910043628
 20
-130.667648621847
 10
73.8308078157437
 20
-130.5815212347157
 10
73.66992185658252
 20
-130.4640434786687
 10
73.63615992082707
 20
-130.2652614691698
 10
73.63615992082707
 20
-130.1408935221523
 10
73.63615992082707
 20
-129.8446153104208
 10
73.82012801973941
 20
-129.6230956707192
 10
74.0929795821712
 20
-129.6230956707192
 10
74.32173392239179
 20
-129.6230956707192
 10
74.420952672367
 20
-129.7474636177367
 10
74.6472954457479
 20
-130.0775037652237
 97
        0
 97
        0
 75
     2
 76
     1
 98
        0
  0
SPLINE
  5
76
330
70
100
AcDbEntity
  8
_U+30EC_U+30A4_U+30E4_U+30FC 1
370
     0
100
AcDbSpline
210
0.0
220
0.0
230
1.0
 70
    11
 71
     3
 72
    32
 73
    28
 74
     0
 42
0.0000000001
 43
0.0000000001
 12
1.0
 22
0.0
 32
0.0
 13
1.0
 23
0.0
 33
0.0
 40
0.0
 40
0.0
 40
0.0
 40
0.0
 40
1.0
 40
1.0
 40
1.0
 40
2.0
 40
2.0
 40
2.0
 40
3.0
 40
3.0
 40
3.0
 40
4.0
 40
4.0
 40
4.0
 40
5.0
 40
5.0
 40
5.0
 40
6.0
 40
6.0
 40
6.0
 40
7.0
 40
7.0
 40
7.0
 40
8.0
 40
8.0
 40
8.0
 40
9.0
 40
9.0
 40
9.0
 40
9.0
 10
75.27981497683977
 20
-128.9147840389519
 30
0.0
 10
75.27981497683977
 20
-129.4663438261404
 30
0.0
 10
74.7258436228116
 20
-129.475301074402
 30
0.0
 10
74.51190319317759
 20
-129.475301074402
 30
0.0
 10
74.28142630521437
 20
-129.475301074402
 30
0.0
 10
73.63409286353593
 20
-129.454975011039
 30
0.0
 10
73.63409286353593
 20
-128.8737874026774
 30
0.0
 10
73.63409286353593
 20
-128.688441265571
 30
0.0
 10
73.7040283018865
 20
-128.4262694991434
 30
0.0
 10
74.03613550666458
 20
-128.3856173724175
 30
0.0
 10
74.03613550666458
 20
-128.3856173724175
 30
0.0
 10
74.03613550666458
 20
-128.6140272030896
 30
0.0
 10
74.03613550666458
 20
-128.6140272030896
 30
0.0
 10
73.97894692160943
 20
-128.6253960181909
 30
0.0
 10
73.8308078157437
 20
-128.6591579539463
 30
0.0
 10
73.8308078157437
 20
-128.8761989695171
 30
0.0
 10
73.8308078157437
 20
-129.1883246204807
 30
0.0
 10
74.15878090593948
 20
-129.2310438044978
 30
0.0
 10
74.36376408731184
 20
-129.2448241864388
 30
0.0
 10
74.28556041979667
 20
-129.1452609269151
 30
0.0
 10
74.22630477745037
 20
-129.0729139217248
 30
0.0
 10
74.22630477745037
 20
-128.8782660268082
 30
0.0
 10
74.22630477745037
 20
-128.6863742082798
 30
0.0
 10
74.33448077568721
 20
-128.3628797422148
 30
0.0
 10
74.74065753339818
 20
-128.3628797422148
 30
0.0
 10
75.06001788488084
 20
-128.3628797422148
 30
0.0
 10
75.27981497683977
 20
-128.5754421336547
 30
0.0
 10
75.27981497683977
 20
-128.9147840389519
 30
0.0
  0
SPLINE
  5
77
330
70
100
AcDbEntity
  8
_U+30EC_U+30A4_U+30E4_U+30FC 1
370
     0
100
AcDbSpline
210
0.0
220
0.0
230
1.0
 70
    11
 71
     3
 72
    17
 73
    13
 74
     0
 42
0.0000000001
 43
0.0000000001
 12
1.0
 22
0.0
 32
0.0
 13
1.0
 23
0.0
 33
0.0
 40
0.0
 40
0.0
 40
0.0
 40
0.0
 40
1.0
 40
1.0
 40
1.0
 40
2.0
 40
2.0
 40
2.0
 40
3.0
 40
3.0
 40
3.0
 40
4.0
 40
4.0
 40
4.0
 40
4.0
 10
74.420952672367
 20
-128.89652503288
 30
0.0
 10
74.420952672367
 20
-129.1769558053794
 30
0.0
 10
74.63248153516133
 20
-129.2176079321053
 30
0.0
 10
74.74892576256278
 20
-129.2176079321053
 30
0.0
 10
74.92462563231051
 20
-129.2176079321053
 30
0.0
 10
75.08757864876283
 20
-129.1159776152905
 30
0.0
 10
75.08757864876283
 20
-128.9192626630827
 30
0.0
 10
75.08757864876283
 20
-128.7904160919343
 30
0.0
 10
75.02832300641653
 20
-128.6026583879882
 30
0.0
 10
74.74272459068932
 20
-128.6026583879882
 30
0.0
 10
74.51844887459956
 20
-128.6026583879882
 30
0.0
 10
74.420952672367
 20
-128.7518310224995
 30
0.0
 10
74.420952672367
 20
-128.89652503288
 30
0.0
  0
HATCH
  5
78
330
70
100
AcDbEntity
  8
_U+30EC_U+30A4_U+30E4_U+30FC 1
 62
     7
420
 16777215
100
AcDbHatch
 10
0.0
 20
0.0
 30
0.0
210
0.0
220
0.0
230
1.0
  2
SOLID
 70
     1
 71
     0
 91
        2
 92
        1
 93
        1
 72
     4
 94
        3
 73
     0
 74
     1
 95
       32
 96
       28
 40
0.0
 40
0.0
 40
0.0
 40
0.0
 40
1.0
 40
1.0
 40
1.0
 40
2.0
 40
2.0
 40
2.0
 40
3.0
 40
3.0
 40
3.0
 40
4.0
 40
4.0
 40
4.0
 40
5.0
 40
5.0
 40
5.0
 40
6.0
 40
6.0
 40
6.0
 40
7.0
 40
7.0
 40
7.0
 40
8.0
 40
8.0
 40
8.0
 40
9.0
 40
9.0
 40
9.0
 40
9.0
 10
75.27981497683977
 20
-128.9147840389519
 10
75.27981497683977
 20
-129.4663438261404
 10
74.7258436228116
 20
-129.475301074402
 10
74.51190319317759
 20
-129.475301074402
 10
74.28142630521437
 20
-129.475301074402
 10
73.63409286353593
 20
-129.454975011039
 10
73.63409286353593
 20
-128.8737874026774
 10
73.63409286353593
 20
-128.688441265571
 10
73.7040283018865
 20
-128.4262694991434
 10
74.03613550666458
 20
-128.3856173724175
 10
74.03613550666458
 20
-128.3856173724175
 10
74.03613550666458
 20
-128.6140272030896
 10
74.03613550666458
 20
-128.6140272030896
 10
73.97894692160943
 20
-128.6253960181909
 10
73.8308078157437
 20
-128.6591579539463
 10
73.8308078157437
 20
-128.8761989695171
 10
73.8308078157437
 20
-129.1883246204807
 10
74.15878090593948
 20
-129.2310438044978
 10
74.36376408731184
 20
-129.2448241864388
 10
74.28556041979667
 20
-129.1452609269151
 10
74.22630477745037
 20
-129.0729139217248
 10
74.22630477745037
 20
-128.8782660268082
 10
74.22630477745037
 20
-128.6863742082798
 10
74.33448077568721
 20
-128.3628797422148
 10
74.74065753339818
 20
-128.3628797422148
 10
75.06001788488084
 20
-128.3628797422148
 10
75.27981497683977
 20
-128.5754421336547
 10
75.27981497683977
 20
-128.9147840389519
 97
        0
 97
        0
 92
        1
 93
        1
 72
     4
 94
        3
 73
     0
 74
     1
 95
       17
 96
       13
 40
0.0
 40
0.0
 40
0.0
 40
0.0
 40
1.0
 40
1.0
 40
1.0
 40
2.0
 40
2.0
 40
2.0
 40
3.0
 40
3.0
 40
3.0
 40
4.0
 40
4.0
 40
4.0
 40
4.0
 10
74.420952672367
 20
-128.89652503288
 10
74.420952672367
 20
-129.1769558053794
 10
74.63248153516133
 20
-129.2176079321053
 10
74.74892576256278
 20
-129.2176079321053
 10
74.92462563231051
 20
-129.2176079321053
 10
75.08757864876283
 20
-129.1159776152905
 10
75.08757864876283
 20
-128.9192626630827
 10
75.08757864876283
 20
-128.7904160919343
 10
75.02832300641653
 20
-128.6026583879882
 10
74.74272459068932
 20
-128.6026583879882
 10
74.51844887459956
 20
-128.6026583879882
 10
74.420952672367
 20
-128.7518310224995
 10
74.420952672367
 20
-128.89652503288
 97
        0
 97
        0
 75
     2
 76
     1
 98
        0
  0
ENDBLK
  5
73
330
70
100
AcDbEntity
  8
0
100
AcDbBlockEnd
  0
BLOCK
  5
7B
330
79
100
AcDbEntity
  8
0
100
AcDbBlockBegin
  2
block 4
 70
     0
 10
0.0
 20
0.0
 30
0.0
  3
block 4
  1

  0
SPLINE
  5
7D
330
79
100
AcDbEntity
  8
_U+30EC_U+30A4_U+30E4_U+30FC 1
370
     0
100
AcDbSpline
210
0.0
220
0.0
230
1.0
 70
    11
 71
     3
 72
    26
 73
    22
 74
     0
 42
0.0000000001
 43
0.0000000001
 12
1.0
 22
0.0
 32
0.0
 13
1.0
 23
0.0
 33
0.0
 40
0.0
 40
0.0
 40
0.0
 40
0.0
 40
1.0
 40
1.0
 40
1.0
 40
2.0
 40
2.0
 40
2.0
 40
3.0
 40
3.0
 40
3.0
 40
4.0
 40
4.0
 40
4.0
 40
5.0
 40
5.0
 40
5.0
 40
6.0
 40
6.0
 40
6.0
 40
7.0
 40
7.0
 40
7.0
 40
7.0
 10
81.34662812636473
 20
-123.2289984500955
 30
0.0
 10
81.34662812636473
 20
-123.2289984500955
 30
0.0
 10
80.24247502334217
 20
-123.2289984500955
 30
0.0
 10
80.24247502334217
 20
-123.2289984500955
 30
0.0
 10
80.24247502334217
 20
-123.2289984500955
 30
0.0
 10
80.24247502334217
 20
-123.5814317182366
 30
0.0
 10
80.24247502334217
 20
-123.5814317182366
 30
0.0
 10
80.24247502334217
 20
-123.5814317182366
 30
0.0
 10
80.09433591747641
 20
-123.5814317182366
 30
0.0
 10
80.09433591747641
 20
-123.5814317182366
 30
0.0
 10
80.07952200688985
 20
-123.2265868832559
 30
0.0
 10
79.91656899043753
 20
-123.1769775082683
 30
0.0
 10
79.80219182032724
 20
-123.145282629804
 30
0.0
 10
79.80219182032724
 20
-123.145282629804
 30
0.0
 10
79.80219182032724
 20
-122.9892198043221
 30
0.0
 10
79.80219182032724
 20
-122.9892198043221
 30
0.0
 10
79.80219182032724
 20
-122.9892198043221
 30
0.0
 10
81.34662812636473
 20
-122.9892198043221
 30
0.0
 10
81.34662812636473
 20
-122.9892198043221
 30
0.0
 10
81.34662812636473
 20
-122.9892198043221
 30
0.0
 10
81.34662812636473
 20
-123.2289984500955
 30
0.0
 10
81.34662812636473
 20
-123.2289984500955
 30
0.0
  0
HATCH
  5
7E
330
79
100
AcDbEntity
  8
_U+30EC_U+30A4_U+30E4_U+30FC 1
 62
     7
420
 16777215
100
AcDbHatch
 10
0.0
 20
0.0
 30
0.0
210
0.0
220
0.0
230
1.0
  2
SOLID
 70
     1
 71
     0
 91
        1
 92
        1
 93
        1
 72
     4
 94
        3
 73
     0
 74
     1
 95
       26
 96
       22
 40
0.0
 40
0.0
 40
0.0
 40
0.0
 40
1.0
 40
1.0
 40
1.0
 40
2.0
 40
2.0
 40
2.0
 40
3.0
 40
3.0
 40
3.0
 40
4.0
 40
4.0
 40
4.0
 40
5.0
 40
5.0
 40
5.0
 40
6.0
 40
6.0
 40
6.0
 40
7.0
 40
7.0
 40
7.0
 40
7.0
 10
81.34662812636473
 20
-123.2289984500955
 10
81.34662812636473
 20
-123.2289984500955
 10
80.24247502334217
 20
-123.2289984500955
 10
80.24247502334217
 20
-123.2289984500955
 10
80.24247502334217
 20
-123.2289984500955
 10
80.24247502334217
 20
-123.5814317182366
 10
80.24247502334217
 20
-123.5814317182366
 10
80.24247502334217
 20
-123.5814317182366
 10
80.09433591747641
 20
-123.5814317182366
 10
80.09433591747641
 20
-123.5814317182366
 10
80.07952200688985
 20
-123.2265868832559
 10
79.91656899043753
 20
-123.1769775082683
 10
79.80219182032724
 20
-123.145282629804
 10
79.80219182032724
 20
-123.145282629804
 10
79.80219182032724
 20
-122.9892198043221
 10
79.80219182032724
 20
-122.9892198043221
 10
79.80219182032724
 20
-122.9892198043221
 10
81.34662812636473
 20
-122.9892198043221
 10
81.34662812636473
 20
-122.9892198043221
 10
81.34662812636473
 20
-122.9892198043221
 10
81.34662812636473
 20
-123.2289984500955
 10
81.34662812636473
 20
-123.2289984500955
 97
        0
 97
        0
 75
     2
 76
     1
 98
        0
  0
SPLINE
  5
7F
330
79
100
AcDbEntity
  8
_U+30EC_U+30A4_U+30E4_U+30FC 1
370
     0
100
AcDbSpline
210
0.0
220
0.0
230
1.0
 70
    11
 71
     3
 72
    44
 73
    40
 74
     0
 42
0.0000000001
 43
0.0000000001
 12
1.0
 22
0.0
 32
0.0
 13
1.0
 23
0.0
 33
0.0
 40
0.0
 40
0.0
 40
0.0
 40
0.0
 40
1.0
 40
1.0
 40
1.0
 40
2.0
 40
2.0
 40
2.0
 40
3.0
 40
3.0
 40
3.0
 40
4.0
 40
4.0
 40
4.0
 40
5.0
 40
5.0
 40
5.0
 40
6.0
 40
6.0
 40
6.0
 40
7.0
 40
7.0
 40
7.0
 40
8.0
 40
8.0
 40
8.0
 40
9.0
 40
9.0
 40
9.0
 40
10.0
 40
10.0
 40
10.0
 40
11.0
 40
11.0
 40
11.0
 40
12.0
 40
12.0
 40
12.0
 40
13.0
 40
13.0
 40
13.0
 40
13.0
 10
80.76475149890604
 20
-121.8196098870798
 30
0.0
 10
80.92357040077606
 20
-122.0524983418827
 30
0.0
 10
80.99763995370893
 20
-122.1520616014064
 30
0.0
 10
81.14130043544384
 20
-122.2037380336852
 30
0.0
 10
81.14130043544384
 20
-122.2037380336852
 30
0.0
 10
81.14130043544384
 20
-121.3720919835459
 30
0.0
 10
81.14130043544384
 20
-121.3720919835459
 30
0.0
 10
81.14130043544384
 20
-121.3720919835459
 30
0.0
 10
81.34662812636473
 20
-121.3720919835459
 30
0.0
 10
81.34662812636473
 20
-121.3720919835459
 30
0.0
 10
81.34662812636473
 20
-121.3720919835459
 30
0.0
 10
81.34662812636473
 20
-122.470732933792
 30
0.0
 10
81.34662812636473
 20
-122.470732933792
 30
0.0
 10
80.9890272149958
 20
-122.4366264884881
 30
0.0
 10
80.91082354748063
 20
-122.3666910501375
 30
0.0
 10
80.612478278458
 20
-121.9553466491987
 30
0.0
 10
80.41369626895909
 20
-121.6818060676698
 30
0.0
 10
80.34582788789966
 20
-121.6115261197707
 30
0.0
 10
80.20836857803819
 20
-121.6115261197707
 30
0.0
 10
80.08985729334559
 20
-121.6115261197707
 30
0.0
 10
79.9589436649061
 20
-121.6883517490918
 30
0.0
 10
79.9589436649061
 20
-121.8988470832406
 30
0.0
 10
79.9589436649061
 20
-122.1768662889002
 30
0.0
 10
80.18942055286932
 20
-122.1858235371619
 30
0.0
 10
80.30586478027077
 20
-122.1903021612927
 30
0.0
 10
80.30586478027077
 20
-122.1903021612927
 30
0.0
 10
80.30586478027077
 20
-122.4300808070661
 30
0.0
 10
80.30586478027077
 20
-122.4300808070661
 30
0.0
 10
80.17874075686504
 20
-122.4207790492559
 30
0.0
 10
80.06677515359442
 20
-122.4097547437031
 30
0.0
 10
79.94826386890183
 20
-122.3236273565719
 30
0.0
 10
79.78737790974066
 20
-122.2061496005249
 30
0.0
 10
79.7536159739852
 20
-122.0073675910259
 30
0.0
 10
79.7536159739852
 20
-121.8829996440084
 30
0.0
 10
79.7536159739852
 20
-121.5867214322769
 30
0.0
 10
79.93758407289755
 20
-121.3652017925754
 30
0.0
 10
80.21043563532933
 20
-121.3652017925754
 30
0.0
 10
80.43918997554992
 20
-121.3652017925754
 30
0.0
 10
80.53840872552513
 20
-121.4895697395929
 30
0.0
 10
80.76475149890604
 20
-121.8196098870798
 30
0.0
  0
HATCH
  5
80
330
79
100
AcDbEntity
  8
_U+30EC_U+30A4_U+30E4_U+30FC 1
 62
     7
420
 16777215
100
AcDbHatch
 10
0.0
 20
0.0
 30
0.0
210
0.0
220
0.0
230
1.0
  2
SOLID
 70
     1
 71
     0
 91
        1
 92
        1
 93
        1
 72
     4
 94
        3
 73
     0
 74
     1
 95
       44
 96
       40
 40
0.0
 40
0.0
 40
0.0
 40
0.0
 40
1.0
 40
1.0
 40
1.0
 40
2.0
 40
2.0
 40
2.0
 40
3.0
 40
3.0
 40
3.0
 40
4.0
 40
4.0
 40
4.0
 40
5.0
 40
5.0
 40
5.0
 40
6.0
 40
6.0
 40
6.0
 40
7.0
 40
7.0
 40
7.0
 40
8.0
 40
8.0
 40
8.0
 40
9.0
 40
9.0
 40
9.0
 40
10.0
 40
10.0
 40
10.0
 40
11.0
 40
11.0
 40
11.0
 40
12.0
 40
12.0
 40
12.0
 40
13.0
 40
13.0
 40
13.0
 40
13.0
 10
80.76475149890604
 20
-121.8196098870798
 10
80.92357040077606
 20
-122.0524983418827
 10
80.99763995370893
 20
-122.1520616014064
 10
81.14130043544384
 20
-122.2037380336852
 10
81.14130043544384
 20
-122.2037380336852
 10
81.14130043544384
 20
-121.3720919835459
 10
81.14130043544384
 20
-121.3720919835459
 10
81.14130043544384
 20
-121.3720919835459
 10
81.34662812636473
 20
-121.3720919835459
 10
81.34662812636473
 20
-121.3720919835459
 10
81.34662812636473
 20
-121.3720919835459
 10
81.34662812636473
 20
-122.470732933792
 10
81.34662812636473
 20
-122.470732933792
 10
80.9890272149958
 20
-122.4366264884881
 10
80.91082354748063
 20
-122.3666910501375
 10
80.612478278458
 20
-121.9553466491987
 10
80.41369626895909
 20
-121.6818060676698
 10
80.34582788789966
 20
-121.6115261197707
 10
80.20836857803819
 20
-121.6115261197707
 10
80.08985729334559
 20
-121.6115261197707
 10
79.9589436649061
 20
-121.6883517490918
 10
79.9589436649061
 20
-121.8988470832406
 10
79.9589436649061
 20
-122.1768662889002
 10
80.18942055286932
 20
-122.1858235371619
 10
80.30586478027077
 20
-122.1903021612927
 10
80.30586478027077
 20
-122.1903021612927
 10
80.30586478027077
 20
-122.4300808070661
 10
80.30586478027077
 20
-122.4300808070661
 10
80.17874075686504
 20
-122.4207790492559
 10
80.06677515359442
 20
-122.4097547437031
 10
79.94826386890183
 20
-122.3236273565719
 10
79.78737790974066
 20
-122.2061496005249
 10
79.7536159739852
 20
-122.0073675910259
 10
79.7536159739852
 20
-121.8829996440084
 10
79.7536159739852
 20
-121.5867214322769
 10
79.93758407289755
 20
-121.3652017925754
 10
80.21043563532933
 20
-121.3652017925754
 10
80.43918997554992
 20
-121.3652017925754
 10
80.53840872552513
 20
-121.4895697395929
 10
80.76475149890604
 20
-121.8196098870798
 97
        0
 97
        0
 75
     2
 76
     1
 98
        0
  0
ENDBLK
  5
7C
330
79
100
AcDbEntity
  8
0
100
AcDbBlockEnd
  0
BLOCK
  5
92
330
90
100
AcDbEntity
  8
0
100
AcDbBlockBegin
  2
block 5
 70
     0
 10
0.0
 20
0.0
 30
0.0
  3
block 5
  1

  0
SPLINE
  5
94
330
90
100
AcDbEntity
  8
_U+30EC_U+30A4_U+30E4_U+30FC 1
370
     0
100
AcDbSpline
210
0.0
220
0.0
230
1.0
 70
    11
 71
     3
 72
    44
 73
    40
 74
     0
 42
0.0000000001
 43
0.0000000001
 12
1.0
 22
0.0
 32
0.0
 13
1.0
 23
0.0
 33
0.0
 40
0.0
 40
0.0
 40
0.0
 40
0.0
 40
1.0
 40
1.0
 40
1.0
 40
2.0
 40
2.0
 40
2.0
 40
3.0
 40
3.0
 40
3.0
 40
4.0
 40
4.0
 40
4.0
 40
5.0
 40
5.0
 40
5.0
 40
6.0
 40
6.0
 40
6.0
 40
7.0
 40
7.0
 40
7.0
 40
8.0
 40
8.0
 40
8.0
 40
9.0
 40
9.0
 40
9.0
 40
10.0
 40
10.0
 40
10.0
 40
11.0
 40
11.0
 40
11.0
 40
12.0
 40
12.0
 40
12.0
 40
13.0
 40
13.0
 40
13.0
 40
13.0
 10
76.03549667152933
 20
-111.0033881015894
 30
0.0
 10
76.01207002222962
 20
-110.9589463698297
 30
0.0
 10
75.9910549397696
 20
-110.9060641541311
 30
0.0
 10
75.98881562770418
 20
-110.6754150113937
 30
0.0
 10
75.98468151312188
 20
-110.432191270135
 30
0.0
 10
75.9254258707756
 20
-110.3624280865587
 30
0.0
 10
75.7476589437367
 20
-110.3624280865587
 30
0.0
 10
75.7476589437367
 20
-110.3624280865587
 30
0.0
 10
75.3394151287346
 20
-110.3624280865587
 30
0.0
 10
75.3394151287346
 20
-110.3624280865587
 30
0.0
 10
75.3394151287346
 20
-110.3624280865587
 30
0.0
 10
75.3394151287346
 20
-111.0033881015894
 30
0.0
 10
75.3394151287346
 20
-111.0033881015894
 30
0.0
 10
75.3394151287346
 20
-111.0033881015894
 30
0.0
 10
75.10463187141482
 20
-111.0033881015894
 30
0.0
 10
75.10463187141482
 20
-111.0033881015894
 30
0.0
 10
75.10463187141482
 20
-111.0033881015894
 30
0.0
 10
75.10463187141482
 20
-109.4591240503262
 30
0.0
 10
75.10463187141482
 20
-109.4591240503262
 30
0.0
 10
75.10463187141482
 20
-109.4591240503262
 30
0.0
 10
75.77952607697526
 20
-109.4591240503262
 30
0.0
 10
75.77952607697526
 20
-109.4591240503262
 30
0.0
 10
76.08613957516249
 20
-109.4591240503262
 30
0.0
 10
76.25322670619711
 20
-109.6303452959431
 30
0.0
 10
76.25322670619711
 20
-109.8864881452714
 30
0.0
 10
76.25322670619711
 20
-109.9371310489046
 30
0.0
 10
76.24478622225826
 20
-110.0196410857763
 30
0.0
 10
76.20034449049852
 20
-110.1000840653569
 30
0.0
 10
76.14126110292649
 20
-110.2037814394629
 30
0.0
 10
76.07563203393248
 20
-110.2227294646318
 30
0.0
 10
76.01430933429504
 20
-110.2396104325096
 30
0.0
 10
76.1517686441565
 20
-110.2819851069781
 30
0.0
 10
76.21946477044166
 20
-110.3307332080944
 30
0.0
 10
76.22377113979823
 20
-110.6457871902205
 30
0.0
 10
76.22790525438053
 20
-110.9165716953611
 30
0.0
 10
76.2639065022014
 20
-110.9484388285997
 30
0.0
 10
76.33160262848655
 20
-111.0033881015894
 30
0.0
 10
76.33160262848655
 20
-111.0033881015894
 30
0.0
 10
76.03549667152933
 20
-111.0033881015894
 30
0.0
 10
76.03549667152933
 20
-111.0033881015894
 30
0.0
  0
SPLINE
  5
95
330
90
100
AcDbEntity
  8
_U+30EC_U+30A4_U+30E4_U+30FC 1
370
     0
100
AcDbSpline
210
0.0
220
0.0
230
1.0
 70
    11
 71
     3
 72
    20
 73
    16
 74
     0
 42
0.0000000001
 43
0.0000000001
 12
1.0
 22
0.0
 32
0.0
 13
1.0
 23
0.0
 33
0.0
 40
0.0
 40
0.0
 40
0.0
 40
0.0
 40
1.0
 40
1.0
 40
1.0
 40
2.0
 40
2.0
 40
2.0
 40
3.0
 40
3.0
 40
3.0
 40
4.0
 40
4.0
 40
4.0
 40
5.0
 40
5.0
 40
5.0
 40
5.0
 10
75.78366019155756
 20
-109.6706529131205
 30
0.0
 10
75.78366019155756
 20
-109.6706529131205
 30
0.0
 10
75.3394151287346
 20
-109.6706529131205
 30
0.0
 10
75.3394151287346
 20
-109.6706529131205
 30
0.0
 10
75.3394151287346
 20
-109.6706529131205
 30
0.0
 10
75.3394151287346
 20
-110.1508992237644
 30
0.0
 10
75.3394151287346
 20
-110.1508992237644
 30
0.0
 10
75.3394151287346
 20
-110.1508992237644
 30
0.0
 10
75.78159313426642
 20
-110.1508992237644
 30
0.0
 10
75.78159313426642
 20
-110.1508992237644
 30
0.0
 10
75.88098413901587
 20
-110.1508992237644
 30
0.0
 10
76.01637639158619
 20
-110.0747626135403
 30
0.0
 10
76.01637639158619
 20
-109.9033691131492
 30
0.0
 10
76.01637639158619
 20
-109.8249931908597
 30
0.0
 10
75.98244220105647
 20
-109.6706529131205
 30
0.0
 10
75.78366019155756
 20
-109.6706529131205
 30
0.0
  0
HATCH
  5
96
330
90
100
AcDbEntity
  8
_U+30EC_U+30A4_U+30E4_U+30FC 1
 62
     7
420
 16777215
100
AcDbHatch
 10
0.0
 20
0.0
 30
0.0
210
0.0
220
0.0
230
1.0
  2
SOLID
 70
     1
 71
     0
 91
        2
 92
        1
 93
        1
 72
     4
 94
        3
 73
     0
 74
     1
 95
       44
 96
       40
 40
0.0
 40
0.0
 40
0.0
 40
0.0
 40
1.0
 40
1.0
 40
1.0
 40
2.0
 40
2.0
 40
2.0
 40
3.0
 40
3.0
 40
3.0
 40
4.0
 40
4.0
 40
4.0
 40
5.0
 40
5.0
 40
5.0
 40
6.0
 40
6.0
 40
6.0
 40
7.0
 40
7.0
 40
7.0
 40
8.0
 40
8.0
 40
8.0
 40
9.0
 40
9.0
 40
9.0
 40
10.0
 40
10.0
 40
10.0
 40
11.0
 40
11.0
 40
11.0
 40
12.0
 40
12.0
 40
12.0
 40
13.0
 40
13.0
 40
13.0
 40
13.0
 10
76.03549667152933
 20
-111.0033881015894
 10
76.01207002222962
 20
-110.9589463698297
 10
75.9910549397696
 20
-110.9060641541311
 10
75.98881562770418
 20
-110.6754150113937
 10
75.98468151312188
 20
-110.432191270135
 10
75.9254258707756
 20
-110.3624280865587
 10
75.7476589437367
 20
-110.3624280865587
 10
75.7476589437367
 20
-110.3624280865587
 10
75.3394151287346
 20
-110.3624280865587
 10
75.3394151287346
 20
-110.3624280865587
 10
75.3394151287346
 20
-110.3624280865587
 10
75.3394151287346
 20
-111.0033881015894
 10
75.3394151287346
 20
-111.0033881015894
 10
75.3394151287346
 20
-111.0033881015894
 10
75.10463187141482
 20
-111.0033881015894
 10
75.10463187141482
 20
-111.0033881015894
 10
75.10463187141482
 20
-111.0033881015894
 10
75.10463187141482
 20
-109.4591240503262
 10
75.10463187141482
 20
-109.4591240503262
 10
75.10463187141482
 20
-109.4591240503262
 10
75.77952607697526
 20
-109.4591240503262
 10
75.77952607697526
 20
-109.4591240503262
 10
76.08613957516249
 20
-109.4591240503262
 10
76.25322670619711
 20
-109.6303452959431
 10
76.25322670619711
 20
-109.8864881452714
 10
76.25322670619711
 20
-109.9371310489046
 10
76.24478622225826
 20
-110.0196410857763
 10
76.20034449049852
 20
-110.1000840653569
 10
76.14126110292649
 20
-110.2037814394629
 10
76.07563203393248
 20
-110.2227294646318
 10
76.01430933429504
 20
-110.2396104325096
 10
76.1517686441565
 20
-110.2819851069781
 10
76.21946477044166
 20
-110.3307332080944
 10
76.22377113979823
 20
-110.6457871902205
 10
76.22790525438053
 20
-110.9165716953611
 10
76.2639065022014
 20
-110.9484388285997
 10
76.33160262848655
 20
-111.0033881015894
 10
76.33160262848655
 20
-111.0033881015894
 10
76.03549667152933
 20
-111.0033881015894
 10
76.03549667152933
 20
-111.0033881015894
 97
        0
 97
        0
 92
        1
 93
        1
 72
     4
 94
        3
 73
     0
 74
     1
 95
       20
 96
       16
 40
0.0
 40
0.0
 40
0.0
 40
0.0
 40
1.0
 40
1.0
 40
1.0
 40
2.0
 40
2.0
 40
2.0
 40
3.0
 40
3.0
 40
3.0
 40
4.0
 40
4.0
 40
4.0
 40
5.0
 40
5.0
 40
5.0
 40
5.0
 10
75.78366019155756
 20
-109.6706529131205
 10
75.78366019155756
 20
-109.6706529131205
 10
75.3394151287346
 20
-109.6706529131205
 10
75.3394151287346
 20
-109.6706529131205
 10
75.3394151287346
 20
-109.6706529131205
 10
75.3394151287346
 20
-110.1508992237644
 10
75.3394151287346
 20
-110.1508992237644
 10
75.3394151287346
 20
-110.1508992237644
 10
75.78159313426642
 20
-110.1508992237644
 10
75.78159313426642
 20
-110.1508992237644
 10
75.88098413901587
 20
-110.1508992237644
 10
76.01637639158619
 20
-110.0747626135403
 10
76.01637639158619
 20
-109.9033691131492
 10
76.01637639158619
 20
-109.8249931908597
 10
75.98244220105647
 20
-109.6706529131205
 10
75.78366019155756
 20
-109.6706529131205
 97
        0
 97
        0
 75
     2
 76
     1
 98
        0
  0
SPLINE
  5
97
330
90
100
AcDbEntity
  8
_U+30EC_U+30A4_U+30E4_U+30FC 1
370
     0
100
AcDbSpline
210
0.0
220
0.0
230
1.0
 70
    11
 71
     3
 72
    62
 73
    58
 74
     0
 42
0.0000000001
 43
0.0000000001
 12
1.0
 22
0.0
 32
0.0
 13
1.0
 23
0.0
 33
0.0
 40
0.0
 40
0.0
 40
0.0
 40
0.0
 40
1.0
 40
1.0
 40
1.0
 40
2.0
 40
2.0
 40
2.0
 40
3.0
 40
3.0
 40
3.0
 40
4.0
 40
4.0
 40
4.0
 40
5.0
 40
5.0
 40
5.0
 40
6.0
 40
6.0
 40
6.0
 40
7.0
 40
7.0
 40
7.0
 40
8.0
 40
8.0
 40
8.0
 40
9.0
 40
9.0
 40
9.0
 40
10.0
 40
10.0
 40
10.0
 40
11.0
 40
11.0
 40
11.0
 40
12.0
 40
12.0
 40
12.0
 40
13.0
 40
13.0
 40
13.0
 40
14.0
 40
14.0
 40
14.0
 40
15.0
 40
15.0
 40
15.0
 40
16.0
 40
16.0
 40
16.0
 40
17.0
 40
17.0
 40
17.0
 40
18.0
 40
18.0
 40
18.0
 40
19.0
 40
19.0
 40
19.0
 40
19.0
 10
76.96274412138432
 20
-111.0542032599969
 30
0.0
 10
76.86748723121715
 20
-111.0542032599969
 30
0.0
 10
76.6495849417751
 20
-111.0330159227626
 30
0.0
 10
76.52487248520906
 20
-110.8468085117848
 30
0.0
 10
76.45080293227619
 20
-110.73467065374
 30
0.0
 10
76.44649656291963
 20
-110.6352796489905
 30
0.0
 10
76.44236244833733
 20
-110.5507025548276
 30
0.0
 10
76.44236244833733
 20
-110.5507025548276
 30
0.0
 10
76.66233179507053
 20
-110.5507025548276
 30
0.0
 10
76.66233179507053
 20
-110.5507025548276
 30
0.0
 10
76.66439885236169
 20
-110.6247721077605
 30
0.0
 10
76.67507864836595
 20
-110.8595553650803
 30
0.0
 10
76.95843775202775
 20
-110.8595553650803
 30
0.0
 10
77.09606931666349
 20
-110.8595553650803
 30
0.0
 10
77.24834253711153
 20
-110.7897921815039
 30
0.0
 10
77.24834253711153
 20
-110.5612100960576
 30
0.0
 10
77.24834253711153
 20
-110.4449381234304
 30
0.0
 10
77.21027423199952
 20
-110.3961900223142
 30
0.0
 10
77.17857935353521
 20
-110.3644951438499
 30
0.0
 10
77.10450980060234
 20
-110.290425590917
 30
0.0
 10
76.9880655732009
 20
-110.2778509923958
 30
0.0
 10
76.93311630021117
 20
-110.2778509923958
 30
0.0
 10
76.9141682750423
 20
-110.2778509923958
 30
0.0
 10
76.87816702722144
 20
-110.279918049687
 30
0.0
 10
76.85060626333943
 20
-110.2840521642693
 30
0.0
 10
76.85060626333943
 20
-110.2840521642693
 30
0.0
 10
76.85060626333943
 20
-110.0894042693527
 30
0.0
 10
76.85060626333943
 20
-110.0894042693527
 30
0.0
 10
76.88867456845145
 20
-110.0957776960004
 30
0.0
 10
76.93104924292003
 20
-110.0980170080658
 30
0.0
 10
76.93742266956774
 20
-110.0980170080658
 30
0.0
 10
77.00287948378748
 20
-110.0980170080658
 30
0.0
 10
77.20183374806065
 20
-110.0768296708315
 30
0.0
 10
77.20183374806065
 20
-109.8398071014463
 30
0.0
 10
77.20183374806065
 20
-109.6622124291817
 30
0.0
 10
77.07057561007264
 20
-109.6070909014177
 30
0.0
 10
76.96067706409316
 20
-109.6070909014177
 30
0.0
 10
76.69626598560025
 20
-109.6070909014177
 30
0.0
 10
76.68765324688712
 20
-109.8398071014463
 30
0.0
 10
76.68351913230482
 20
-109.911809597088
 30
0.0
 10
76.68351913230482
 20
-109.911809597088
 30
0.0
 10
76.48043075344934
 20
-109.911809597088
 30
0.0
 10
76.48043075344934
 20
-109.911809597088
 30
0.0
 10
76.4888712373882
 20
-109.7869248857477
 30
0.0
 10
76.5164320012702
 20
-109.4103759492099
 30
0.0
 10
76.97325166261433
 20
-109.4103759492099
 30
0.0
 10
77.1975273787041
 20
-109.4103759492099
 30
0.0
 10
77.43868406267158
 20
-109.5373277178414
 30
0.0
 10
77.43868406267158
 20
-109.8334336747986
 30
0.0
 10
77.43868406267158
 20
-110.0196410857763
 30
0.0
 10
77.34359942727869
 20
-110.1021511226481
 30
0.0
 10
77.24403616775497
 20
-110.1634738222855
 30
0.0
 10
77.30553112216667
 20
-110.1910345861675
 30
0.0
 10
77.48743216378787
 20
-110.2714775657481
 30
0.0
 10
77.48743216378787
 20
-110.5486354975365
 30
0.0
 10
77.48743216378787
 20
-110.8871161289622
 30
0.0
 10
77.23990205317267
 20
-111.0542032599969
 30
0.0
 10
76.96274412138432
 20
-111.0542032599969
 30
0.0
  0
HATCH
  5
98
330
90
100
AcDbEntity
  8
_U+30EC_U+30A4_U+30E4_U+30FC 1
 62
     7
420
 16777215
100
AcDbHatch
 10
0.0
 20
0.0
 30
0.0
210
0.0
220
0.0
230
1.0
  2
SOLID
 70
     1
 71
     0
 91
        1
 92
        1
 93
        1
 72
     4
 94
        3
 73
     0
 74
     1
 95
       62
 96
       58
 40
0.0
 40
0.0
 40
0.0
 40
0.0
 40
1.0
 40
1.0
 40
1.0
 40
2.0
 40
2.0
 40
2.0
 40
3.0
 40
3.0
 40
3.0
 40
4.0
 40
4.0
 40
4.0
 40
5.0
 40
5.0
 40
5.0
 40
6.0
 40
6.0
 40
6.0
 40
7.0
 40
7.0
 40
7.0
 40
8.0
 40
8.0
 40
8.0
 40
9.0
 40
9.0
 40
9.0
 40
10.0
 40
10.0
 40
10.0
 40
11.0
 40
11.0
 40
11.0
 40
12.0
 40
12.0
 40
12.0
 40
13.0
 40
13.0
 40
13.0
 40
14.0
 40
14.0
 40
14.0
 40
15.0
 40
15.0
 40
15.0
 40
16.0
 40
16.0
 40
16.0
 40
17.0
 40
17.0
 40
17.0
 40
18.0
 40
18.0
 40
18.0
 40
19.0
 40
19.0
 40
19.0
 40
19.0
 10
76.96274412138432
 20
-111.0542032599969
 10
76.86748723121715
 20
-111.0542032599969
 10
76.6495849417751
 20
-111.0330159227626
 10
76.52487248520906
 20
-110.8468085117848
 10
76.45080293227619
 20
-110.73467065374
 10
76.44649656291963
 20
-110.6352796489905
 10
76.44236244833733
 20
-110.5507025548276
 10
76.44236244833733
 20
-110.5507025548276
 10
76.66233179507053
 20
-110.5507025548276
 10
76.66233179507053
 20
-110.5507025548276
 10
76.66439885236169
 20
-110.6247721077605
 10
76.67507864836595
 20
-110.8595553650803
 10
76.95843775202775
 20
-110.8595553650803
 10
77.09606931666349
 20
-110.8595553650803
 10
77.24834253711153
 20
-110.7897921815039
 10
77.24834253711153
 20
-110.5612100960576
 10
77.24834253711153
 20
-110.4449381234304
 10
77.21027423199952
 20
-110.3961900223142
 10
77.17857935353521
 20
-110.3644951438499
 10
77.10450980060234
 20
-110.290425590917
 10
76.9880655732009
 20
-110.2778509923958
 10
76.93311630021117
 20
-110.2778509923958
 10
76.9141682750423
 20
-110.2778509923958
 10
76.87816702722144
 20
-110.279918049687
 10
76.85060626333943
 20
-110.2840521642693
 10
76.85060626333943
 20
-110.2840521642693
 10
76.85060626333943
 20
-110.0894042693527
 10
76.85060626333943
 20
-110.0894042693527
 10
76.88867456845145
 20
-110.0957776960004
 10
76.93104924292003
 20
-110.0980170080658
 10
76.93742266956774
 20
-110.0980170080658
 10
77.00287948378748
 20
-110.0980170080658
 10
77.20183374806065
 20
-110.0768296708315
 10
77.20183374806065
 20
-109.8398071014463
 10
77.20183374806065
 20
-109.6622124291817
 10
77.07057561007264
 20
-109.6070909014177
 10
76.96067706409316
 20
-109.6070909014177
 10
76.69626598560025
 20
-109.6070909014177
 10
76.68765324688712
 20
-109.8398071014463
 10
76.68351913230482
 20
-109.911809597088
 10
76.68351913230482
 20
-109.911809597088
 10
76.48043075344934
 20
-109.911809597088
 10
76.48043075344934
 20
-109.911809597088
 10
76.4888712373882
 20
-109.7869248857477
 10
76.5164320012702
 20
-109.4103759492099
 10
76.97325166261433
 20
-109.4103759492099
 10
77.1975273787041
 20
-109.4103759492099
 10
77.43868406267158
 20
-109.5373277178414
 10
77.43868406267158
 20
-109.8334336747986
 10
77.43868406267158
 20
-110.0196410857763
 10
77.34359942727869
 20
-110.1021511226481
 10
77.24403616775497
 20
-110.1634738222855
 10
77.30553112216667
 20
-110.1910345861675
 10
77.48743216378787
 20
-110.2714775657481
 10
77.48743216378787
 20
-110.5486354975365
 10
77.48743216378787
 20
-110.8871161289622
 10
77.23990205317267
 20
-111.0542032599969
 10
76.96274412138432
 20
-111.0542032599969
 97
        0
 97
        0
 75
     2
 76
     1
 98
        0
  0
POLYLINE
  5
99
330
90
100
AcDbEntity
  8
_U+30EC_U+30A4_U+30E4_U+30FC 1
370
     0
100
AcDb2dPolyline
 66
     1
 10
0.0
 20
0.0
 30
0.0
  0
VERTEX
  5
9A
330
99
100
AcDbEntity
  8
_U+30EC_U+30A4_U+30E4_U+30FC 1
370
     0
100
AcDbVertex
100
AcDb2dVertex
 10
77.70809052961812
 20
-111.0033881015894
 30
0.0
  0
VERTEX
  5
9B
330
99
100
AcDbEntity
  8
_U+30EC_U+30A4_U+30E4_U+30FC 1
370
     0
100
AcDbVertex
100
AcDb2dVertex
 10
77.70809052961812
 20
-110.7517238763919
 30
0.0
  0
VERTEX
  5
9C
330
99
100
AcDbEntity
  8
_U+30EC_U+30A4_U+30E4_U+30FC 1
370
     0
100
AcDbVertex
100
AcDb2dVertex
 10
77.95975475481562
 20
-110.7517238763919
 30
0.0
  0
VERTEX
  5
9D
330
99
100
AcDbEntity
  8
_U+30EC_U+30A4_U+30E4_U+30FC 1
370
     0
100
AcDbVertex
100
AcDb2dVertex
 10
77.95975475481562
 20
-111.0033881015894
 30
0.0
  0
VERTEX
  5
9E
330
99
100
AcDbEntity
  8
_U+30EC_U+30A4_U+30E4_U+30FC 1
370
     0
100
AcDbVertex
100
AcDb2dVertex
 10
77.70809052961812
 20
-111.0033881015894
 30
0.0
  0
SEQEND
  5
9F
330
99
100
AcDbEntity
  8
_U+30EC_U+30A4_U+30E4_U+30FC 1
370
     0
  0
HATCH
  5
A0
330
90
100
AcDbEntity
  8
_U+30EC_U+30A4_U+30E4_U+30FC 1
 62
     7
420
 16777215
100
AcDbHatch
 10
0.0
 20
0.0
 30
0.0
210
0.0
220
0.0
230
1.0
  2
SOLID
 70
     1
 71
     0
 91
        1
 92
        1
 93
        4
 72
     1
 10
77.70809052961812
 20
-111.0033881015894
 11
77.70809052961812
 21
-110.7517238763919
 72
     1
 10
77.70809052961812
 20
-110.7517238763919
 11
77.95975475481562
 21
-110.7517238763919
 72
     1
 10
77.95975475481562
 20
-110.7517238763919
 11
77.95975475481562
 21
-111.0033881015894
 72
     1
 10
77.95975475481562
 20
-111.0033881015894
 11
77.70809052961812
 21
-111.0033881015894
 97
        0
 75
     2
 76
     1
 98
        0
  0
SPLINE
  5
A1
330
90
100
AcDbEntity
  8
_U+30EC_U+30A4_U+30E4_U+30FC 1
370
     0
100
AcDbSpline
210
0.0
220
0.0
230
1.0
 70
    11
 71
     3
 72
    53
 73
    49
 74
     0
 42
0.0000000001
 43
0.0000000001
 12
1.0
 22
0.0
 32
0.0
 13
1.0
 23
0.0
 33
0.0
 40
0.0
 40
0.0
 40
0.0
 40
0.0
 40
1.0
 40
1.0
 40
1.0
 40
2.0
 40
2.0
 40
2.0
 40
3.0
 40
3.0
 40
3.0
 40
4.0
 40
4.0
 40
4.0
 40
5.0
 40
5.0
 40
5.0
 40
6.0
 40
6.0
 40
6.0
 40
7.0
 40
7.0
 40
7.0
 40
8.0
 40
8.0
 40
8.0
 40
9.0
 40
9.0
 40
9.0
 40
10.0
 40
10.0
 40
10.0
 40
11.0
 40
11.0
 40
11.0
 40
12.0
 40
12.0
 40
12.0
 40
13.0
 40
13.0
 40
13.0
 40
14.0
 40
14.0
 40
14.0
 40
15.0
 40
15.0
 40
15.0
 40
16.0
 40
16.0
 40
16.0
 40
16.0
 10
78.67736814439316
 20
-111.0542032599969
 30
0.0
 10
78.59899222210373
 20
-111.0542032599969
 30
0.0
 10
78.49753416006313
 20
-111.0371500373449
 30
0.0
 10
78.39590384324825
 20
-110.9737602804163
 30
0.0
 10
78.22244328556592
 20
-110.8636894796626
 30
0.0
 10
78.20125594833164
 20
-110.7326035964488
 30
0.0
 10
78.18230792316275
 20
-110.6247721077605
 30
0.0
 10
78.18230792316275
 20
-110.6247721077605
 30
0.0
 10
78.40434432718712
 20
-110.6247721077605
 30
0.0
 10
78.40434432718712
 20
-110.6247721077605
 30
0.0
 10
78.4594658549511
 20
-110.8235541172594
 30
0.0
 10
78.58641762358256
 20
-110.8531819384325
 30
0.0
 10
78.67943520168431
 20
-110.8531819384325
 30
0.0
 10
78.8191338236112
 20
-110.8531819384325
 30
0.0
 10
78.97140704405923
 20
-110.7537909336831
 30
0.0
 10
78.97140704405923
 20
-110.5210747336545
 30
0.0
 10
78.97140704405923
 20
-110.2651041391004
 30
0.0
 10
78.79157305972919
 20
-110.1953409555241
 30
0.0
 10
78.67099471774544
 20
-110.1953409555241
 30
0.0
 10
78.63929983928115
 20
-110.1953409555241
 30
0.0
 10
78.49753416006313
 20
-110.1953409555241
 30
0.0
 10
78.40865069654367
 20
-110.3243597814467
 30
0.0
 10
78.40865069654367
 20
-110.3243597814467
 30
0.0
 10
78.2331230815702
 20
-110.3052395015036
 30
0.0
 10
78.2331230815702
 20
-110.3052395015036
 30
0.0
 10
78.2331230815702
 20
-110.3052395015036
 30
0.0
 10
78.35370142355394
 20
-109.4591240503262
 30
0.0
 10
78.35370142355394
 20
-109.4591240503262
 30
0.0
 10
78.35370142355394
 20
-109.4591240503262
 30
0.0
 10
79.13212074844614
 20
-109.4591240503262
 30
0.0
 10
79.13212074844614
 20
-109.4591240503262
 30
0.0
 10
79.13212074844614
 20
-109.4591240503262
 30
0.0
 10
79.13212074844614
 20
-109.6537719452428
 30
0.0
 10
79.13212074844614
 20
-109.6537719452428
 30
0.0
 10
79.13212074844614
 20
-109.6537719452428
 30
0.0
 10
78.516482185232
 20
-109.6537719452428
 30
0.0
 10
78.516482185232
 20
-109.6537719452428
 30
0.0
 10
78.516482185232
 20
-109.6537719452428
 30
0.0
 10
78.45102537101225
 20
-110.0768296708315
 30
0.0
 10
78.45102537101225
 20
-110.0768296708315
 30
0.0
 10
78.5123480706497
 20
-110.0428954803018
 30
0.0
 10
78.59485810752143
 20
-110.0027601178986
 30
0.0
 10
78.71319713743976
 20
-110.0027601178986
 30
0.0
 10
78.96710067470268
 20
-110.0027601178986
 30
0.0
 10
79.20412324408787
 20
-110.1889675288764
 30
0.0
 10
79.20412324408787
 20
-110.5019544537113
 30
0.0
 10
79.20412324408787
 20
-110.8194200026771
 30
0.0
 10
78.9798475279981
 20
-111.0542032599969
 30
0.0
 10
78.67736814439316
 20
-111.0542032599969
 30
0.0
  0
HATCH
  5
A2
330
90
100
AcDbEntity
  8
_U+30EC_U+30A4_U+30E4_U+30FC 1
 62
     7
420
 16777215
100
AcDbHatch
 10
0.0
 20
0.0
 30
0.0
210
0.0
220
0.0
230
1.0
  2
SOLID
 70
     1
 71
     0
 91
        1
 92
        1
 93
        1
 72
     4
 94
        3
 73
     0
 74
     1
 95
       53
 96
       49
 40
0.0
 40
0.0
 40
0.0
 40
0.0
 40
1.0
 40
1.0
 40
1.0
 40
2.0
 40
2.0
 40
2.0
 40
3.0
 40
3.0
 40
3.0
 40
4.0
 40
4.0
 40
4.0
 40
5.0
 40
5.0
 40
5.0
 40
6.0
 40
6.0
 40
6.0
 40
7.0
 40
7.0
 40
7.0
 40
8.0
 40
8.0
 40
8.0
 40
9.0
 40
9.0
 40
9.0
 40
10.0
 40
10.0
 40
10.0
 40
11.0
 40
11.0
 40
11.0
 40
12.0
 40
12.0
 40
12.0
 40
13.0
 40
13.0
 40
13.0
 40
14.0
 40
14.0
 40
14.0
 40
15.0
 40
15.0
 40
15.0
 40
16.0
 40
16.0
 40
16.0
 40
16.0
 10
78.67736814439316
 20
-111.0542032599969
 10
78.59899222210373
 20
-111.0542032599969
 10
78.49753416006313
 20
-111.0371500373449
 10
78.39590384324825
 20
-110.9737602804163
 10
78.22244328556592
 20
-110.8636894796626
 10
78.20125594833164
 20
-110.7326035964488
 10
78.18230792316275
 20
-110.6247721077605
 10
78.18230792316275
 20
-110.6247721077605
 10
78.40434432718712
 20
-110.6247721077605
 10
78.40434432718712
 20
-110.6247721077605
 10
78.4594658549511
 20
-110.8235541172594
 10
78.58641762358256
 20
-110.8531819384325
 10
78.67943520168431
 20
-110.8531819384325
 10
78.8191338236112
 20
-110.8531819384325
 10
78.97140704405923
 20
-110.7537909336831
 10
78.97140704405923
 20
-110.5210747336545
 10
78.97140704405923
 20
-110.2651041391004
 10
78.79157305972919
 20
-110.1953409555241
 10
78.67099471774544
 20
-110.1953409555241
 10
78.63929983928115
 20
-110.1953409555241
 10
78.49753416006313
 20
-110.1953409555241
 10
78.40865069654367
 20
-110.3243597814467
 10
78.40865069654367
 20
-110.3243597814467
 10
78.2331230815702
 20
-110.3052395015036
 10
78.2331230815702
 20
-110.3052395015036
 10
78.2331230815702
 20
-110.3052395015036
 10
78.35370142355394
 20
-109.4591240503262
 10
78.35370142355394
 20
-109.4591240503262
 10
78.35370142355394
 20
-109.4591240503262
 10
79.13212074844614
 20
-109.4591240503262
 10
79.13212074844614
 20
-109.4591240503262
 10
79.13212074844614
 20
-109.4591240503262
 10
79.13212074844614
 20
-109.6537719452428
 10
79.13212074844614
 20
-109.6537719452428
 10
79.13212074844614
 20
-109.6537719452428
 10
78.516482185232
 20
-109.6537719452428
 10
78.516482185232
 20
-109.6537719452428
 10
78.516482185232
 20
-109.6537719452428
 10
78.45102537101225
 20
-110.0768296708315
 10
78.45102537101225
 20
-110.0768296708315
 10
78.5123480706497
 20
-110.0428954803018
 10
78.59485810752143
 20
-110.0027601178986
 10
78.71319713743976
 20
-110.0027601178986
 10
78.96710067470268
 20
-110.0027601178986
 10
79.20412324408787
 20
-110.1889675288764
 10
79.20412324408787
 20
-110.5019544537113
 10
79.20412324408787
 20
-110.8194200026771
 10
78.9798475279981
 20
-111.0542032599969
 10
78.67736814439316
 20
-111.0542032599969
 97
        0
 97
        0
 75
     2
 76
     1
 98
        0
  0
ENDBLK
  5
93
330
90
100
AcDbEntity
  8
0
100
AcDbBlockEnd
  0
BLOCK
  5
C0
330
BE
100
AcDbEntity
  8
0
100
AcDbBlockBegin
  2
block 6
 70
     0
 10
0.0
 20
0.0
 30
0.0
  3
block 6
  1

  0
SPLINE
  5
C2
330
BE
100
AcDbEntity
  8
_U+30EC_U+30A4_U+30E4_U+30FC 1
370
     0
100
AcDbSpline
210
0.0
220
0.0
230
1.0
 70
    11
 71
     3
 72
    26
 73
    22
 74
     0
 42
0.0000000001
 43
0.0000000001
 12
1.0
 22
0.0
 32
0.0
 13
1.0
 23
0.0
 33
0.0
 40
0.0
 40
0.0
 40
0.0
 40
0.0
 40
1.0
 40
1.0
 40
1.0
 40
2.0
 40
2.0
 40
2.0
 40
3.0
 40
3.0
 40
3.0
 40
4.0
 40
4.0
 40
4.0
 40
5.0
 40
5.0
 40
5.0
 40
6.0
 40
6.0
 40
6.0
 40
7.0
 40
7.0
 40
7.0
 40
7.0
 10
90.7029906999805
 20
-145.2186984228967
 30
0.0
 10
90.7029906999805
 20
-145.2186984228967
 30
0.0
 10
90.44977618181464
 20
-145.2186984228967
 30
0.0
 10
90.44977618181464
 20
-145.2186984228967
 30
0.0
 10
90.47682018137385
 20
-144.9096733578698
 30
0.0
 10
90.68249238184328
 20
-144.3915309968882
 30
0.0
 10
91.11657441298475
 20
-143.8857909796536
 30
0.0
 10
91.11657441298475
 20
-143.8857909796536
 30
0.0
 10
90.22136635114258
 20
-143.8857909796536
 30
0.0
 10
90.22136635114258
 20
-143.8857909796536
 30
0.0
 10
90.22136635114258
 20
-143.8857909796536
 30
0.0
 10
90.22136635114258
 20
-143.6742621168592
 30
0.0
 10
90.22136635114258
 20
-143.6742621168592
 30
0.0
 10
90.22136635114258
 20
-143.6742621168592
 30
0.0
 10
91.36978893115061
 20
-143.6742621168592
 30
0.0
 10
91.36978893115061
 20
-143.6742621168592
 30
0.0
 10
91.36978893115061
 20
-143.6742621168592
 30
0.0
 10
91.36978893115061
 20
-143.8857909796536
 30
0.0
 10
91.36978893115061
 20
-143.8857909796536
 30
0.0
 10
91.02390134443152
 20
-144.1758680195116
 30
0.0
 10
90.73916420257564
 20
-144.768079933426
 30
0.0
 10
90.7029906999805
 20
-145.2186984228967
 30
0.0
  0
HATCH
  5
C3
330
BE
100
AcDbEntity
  8
_U+30EC_U+30A4_U+30E4_U+30FC 1
 62
     7
420
 16777215
100
AcDbHatch
 10
0.0
 20
0.0
 30
0.0
210
0.0
220
0.0
230
1.0
  2
SOLID
 70
     1
 71
     0
 91
        1
 92
        1
 93
        1
 72
     4
 94
        3
 73
     0
 74
     1
 95
       26
 96
       22
 40
0.0
 40
0.0
 40
0.0
 40
0.0
 40
1.0
 40
1.0
 40
1.0
 40
2.0
 40
2.0
 40
2.0
 40
3.0
 40
3.0
 40
3.0
 40
4.0
 40
4.0
 40
4.0
 40
5.0
 40
5.0
 40
5.0
 40
6.0
 40
6.0
 40
6.0
 40
7.0
 40
7.0
 40
7.0
 40
7.0
 10
90.7029906999805
 20
-145.2186984228967
 10
90.7029906999805
 20
-145.2186984228967
 10
90.44977618181464
 20
-145.2186984228967
 10
90.44977618181464
 20
-145.2186984228967
 10
90.47682018137385
 20
-144.9096733578698
 10
90.68249238184328
 20
-144.3915309968882
 10
91.11657441298475
 20
-143.8857909796536
 10
91.11657441298475
 20
-143.8857909796536
 10
90.22136635114258
 20
-143.8857909796536
 10
90.22136635114258
 20
-143.8857909796536
 10
90.22136635114258
 20
-143.8857909796536
 10
90.22136635114258
 20
-143.6742621168592
 10
90.22136635114258
 20
-143.6742621168592
 10
90.22136635114258
 20
-143.6742621168592
 10
91.36978893115061
 20
-143.6742621168592
 10
91.36978893115061
 20
-143.6742621168592
 10
91.36978893115061
 20
-143.6742621168592
 10
91.36978893115061
 20
-143.8857909796536
 10
91.36978893115061
 20
-143.8857909796536
 10
91.02390134443152
 20
-144.1758680195116
 10
90.73916420257564
 20
-144.768079933426
 10
90.7029906999805
 20
-145.2186984228967
 97
        0
 97
        0
 75
     2
 76
     1
 98
        0
  0
ENDBLK
  5
C1
330
BE
100
AcDbEntity
  8
0
100
AcDbBlockEnd
  0
BLOCK
  5
C6
330
C4
100
AcDbEntity
  8
0
100
AcDbBlockBegin
  2
block 7
 70
     0
 10
0.0
 20
0.0
 30
0.0
  3
block 7
  1

  0
SPLINE
  5
C8
330
C4
100
AcDbEntity
  8
_U+30EC_U+30A4_U+30E4_U+30FC 1
370
     0
100
AcDbSpline
210
0.0
220
0.0
230
1.0
 70
    11
 71
     3
 72
    26
 73
    22
 74
     0
 42
0.0000000001
 43
0.0000000001
 12
1.0
 22
0.0
 32
0.0
 13
1.0
 23
0.0
 33
0.0
 40
0.0
 40
0.0
 40
0.0
 40
0.0
 40
1.0
 40
1.0
 40
1.0
 40
2.0
 40
2.0
 40
2.0
 40
3.0
 40
3.0
 40
3.0
 40
4.0
 40
4.0
 40
4.0
 40
5.0
 40
5.0
 40
5.0
 40
6.0
 40
6.0
 40
6.0
 40
7.0
 40
7.0
 40
7.0
 40
7.0
 10
89.12565373205886
 20
-131.9251084739632
 30
0.0
 10
89.12565373205886
 20
-131.9251084739632
 30
0.0
 10
89.12565373205886
 20
-130.8209553709406
 30
0.0
 10
89.12565373205886
 20
-130.8209553709406
 30
0.0
 10
89.12565373205886
 20
-130.8209553709406
 30
0.0
 10
88.77287595436928
 20
-130.8209553709406
 30
0.0
 10
88.77287595436928
 20
-130.8209553709406
 30
0.0
 10
88.77287595436928
 20
-130.8209553709406
 30
0.0
 10
88.77287595436928
 20
-130.6728162650749
 30
0.0
 10
88.77287595436928
 20
-130.6728162650749
 30
0.0
 10
89.12789304412428
 20
-130.6580023544883
 30
0.0
 10
89.17767467388614
 20
-130.495049338036
 30
0.0
 10
89.20936955235044
 20
-130.3806721679257
 30
0.0
 10
89.20936955235044
 20
-130.3806721679257
 30
0.0
 10
89.365260123058
 20
-130.3806721679257
 30
0.0
 10
89.365260123058
 20
-130.3806721679257
 30
0.0
 10
89.365260123058
 20
-130.3806721679257
 30
0.0
 10
89.365260123058
 20
-131.9251084739632
 30
0.0
 10
89.365260123058
 20
-131.9251084739632
 30
0.0
 10
89.365260123058
 20
-131.9251084739632
 30
0.0
 10
89.12565373205886
 20
-131.9251084739632
 30
0.0
 10
89.12565373205886
 20
-131.9251084739632
 30
0.0
  0
HATCH
  5
C9
330
C4
100
AcDbEntity
  8
_U+30EC_U+30A4_U+30E4_U+30FC 1
 62
     7
420
 16777215
100
AcDbHatch
 10
0.0
 20
0.0
 30
0.0
210
0.0
220
0.0
230
1.0
  2
SOLID
 70
     1
 71
     0
 91
        1
 92
        1
 93
        1
 72
     4
 94
        3
 73
     0
 74
     1
 95
       26
 96
       22
 40
0.0
 40
0.0
 40
0.0
 40
0.0
 40
1.0
 40
1.0
 40
1.0
 40
2.0
 40
2.0
 40
2.0
 40
3.0
 40
3.0
 40
3.0
 40
4.0
 40
4.0
 40
4.0
 40
5.0
 40
5.0
 40
5.0
 40
6.0
 40
6.0
 40
6.0
 40
7.0
 40
7.0
 40
7.0
 40
7.0
 10
89.12565373205886
 20
-131.9251084739632
 10
89.12565373205886
 20
-131.9251084739632
 10
89.12565373205886
 20
-130.8209553709406
 10
89.12565373205886
 20
-130.8209553709406
 10
89.12565373205886
 20
-130.8209553709406
 10
88.77287595436928
 20
-130.8209553709406
 10
88.77287595436928
 20
-130.8209553709406
 10
88.77287595436928
 20
-130.8209553709406
 10
88.77287595436928
 20
-130.6728162650749
 10
88.77287595436928
 20
-130.6728162650749
 10
89.12789304412428
 20
-130.6580023544883
 10
89.17767467388614
 20
-130.495049338036
 10
89.20936955235044
 20
-130.3806721679257
 10
89.20936955235044
 20
-130.3806721679257
 10
89.365260123058
 20
-130.3806721679257
 10
89.365260123058
 20
-130.3806721679257
 10
89.365260123058
 20
-130.3806721679257
 10
89.365260123058
 20
-131.9251084739632
 10
89.365260123058
 20
-131.9251084739632
 10
89.365260123058
 20
-131.9251084739632
 10
89.12565373205886
 20
-131.9251084739632
 10
89.12565373205886
 20
-131.9251084739632
 97
        0
 97
        0
 75
     2
 76
     1
 98
        0
  0
POLYLINE
  5
CA
330
C4
100
AcDbEntity
  8
_U+30EC_U+30A4_U+30E4_U+30FC 1
370
     0
100
AcDb2dPolyline
 66
     1
 10
0.0
 20
0.0
 30
0.0
  0
VERTEX
  5
CB
330
CA
100
AcDbEntity
  8
_U+30EC_U+30A4_U+30E4_U+30FC 1
370
     0
100
AcDbVertex
100
AcDb2dVertex
 10
89.96522350181425
 20
-131.9251084739632
 30
0.0
  0
VERTEX
  5
CC
330
CA
100
AcDbEntity
  8
_U+30EC_U+30A4_U+30E4_U+30FC 1
370
     0
100
AcDbVertex
100
AcDb2dVertex
 10
89.96522350181425
 20
-131.6732719939914
 30
0.0
  0
VERTEX
  5
CD
330
CA
100
AcDbEntity
  8
_U+30EC_U+30A4_U+30E4_U+30FC 1
370
     0
100
AcDbVertex
100
AcDb2dVertex
 10
90.23428545921226
 20
-131.6732719939914
 30
0.0
  0
VERTEX
  5
CE
330
CA
100
AcDbEntity
  8
_U+30EC_U+30A4_U+30E4_U+30FC 1
370
     0
100
AcDbVertex
100
AcDb2dVertex
 10
90.23428545921226
 20
-131.9251084739632
 30
0.0
  0
VERTEX
  5
CF
330
CA
100
AcDbEntity
  8
_U+30EC_U+30A4_U+30E4_U+30FC 1
370
     0
100
AcDbVertex
100
AcDb2dVertex
 10
89.96522350181425
 20
-131.9251084739632
 30
0.0
  0
SEQEND
  5
D0
330
CA
100
AcDbEntity
  8
_U+30EC_U+30A4_U+30E4_U+30FC 1
370
     0
  0
HATCH
  5
D1
330
C4
100
AcDbEntity
  8
_U+30EC_U+30A4_U+30E4_U+30FC 1
 62
     7
420
 16777215
100
AcDbHatch
 10
0.0
 20
0.0
 30
0.0
210
0.0
220
0.0
230
1.0
  2
SOLID
 70
     1
 71
     0
 91
        1
 92
        1
 93
        4
 72
     1
 10
89.96522350181425
 20
-131.9251084739632
 11
89.96522350181425
 21
-131.6732719939914
 72
     1
 10
89.96522350181425
 20
-131.6732719939914
 11
90.23428545921226
 21
-131.6732719939914
 72
     1
 10
90.23428545921226
 20
-131.6732719939914
 11
90.23428545921226
 21
-131.9251084739632
 72
     1
 10
90.23428545921226
 20
-131.9251084739632
 11
89.96522350181425
 21
-131.9251084739632
 97
        0
 75
     2
 76
     1
 98
        0
  0
SPLINE
  5
D2
330
C4
100
AcDbEntity
  8
_U+30EC_U+30A4_U+30E4_U+30FC 1
370
     0
100
AcDbSpline
210
0.0
220
0.0
230
1.0
 70
    11
 71
     3
 72
    44
 73
    40
 74
     0
 42
0.0000000001
 43
0.0000000001
 12
1.0
 22
0.0
 32
0.0
 13
1.0
 23
0.0
 33
0.0
 40
0.0
 40
0.0
 40
0.0
 40
0.0
 40
1.0
 40
1.0
 40
1.0
 40
2.0
 40
2.0
 40
2.0
 40
3.0
 40
3.0
 40
3.0
 40
4.0
 40
4.0
 40
4.0
 40
5.0
 40
5.0
 40
5.0
 40
6.0
 40
6.0
 40
6.0
 40
7.0
 40
7.0
 40
7.0
 40
8.0
 40
8.0
 40
8.0
 40
9.0
 40
9.0
 40
9.0
 40
10.0
 40
10.0
 40
10.0
 40
11.0
 40
11.0
 40
11.0
 40
12.0
 40
12.0
 40
12.0
 40
13.0
 40
13.0
 40
13.0
 40
13.0
 10
91.12070852756705
 20
-131.3432318465045
 30
0.0
 10
90.88782007276416
 20
-131.5020507483745
 30
0.0
 10
90.78842906801471
 20
-131.5761203013074
 30
0.0
 10
90.73640812618743
 20
-131.7197807830423
 30
0.0
 10
90.73640812618743
 20
-131.7197807830423
 30
0.0
 10
91.56822643110101
 20
-131.7197807830423
 30
0.0
 10
91.56822643110101
 20
-131.7197807830423
 30
0.0
 10
91.56822643110101
 20
-131.7197807830423
 30
0.0
 10
91.56822643110101
 20
-131.9251084739632
 30
0.0
 10
91.56822643110101
 20
-131.9251084739632
 30
0.0
 10
91.56822643110101
 20
-131.9251084739632
 30
0.0
 10
90.46958548085483
 20
-131.9251084739632
 30
0.0
 10
90.46958548085483
 20
-131.9251084739632
 30
0.0
 10
90.50351967138454
 20
-131.5675075625942
 30
0.0
 10
90.57362736450938
 20
-131.4893038950791
 30
0.0
 10
90.98514402022246
 20
-131.1909586260564
 30
0.0
 10
91.2586846017513
 20
-130.9921766165575
 30
0.0
 10
91.32879229487614
 20
-130.9243082354981
 30
0.0
 10
91.32879229487614
 20
-130.7868489256366
 30
0.0
 10
91.32879229487614
 20
-130.668337640944
 30
0.0
 10
91.25196666555507
 20
-130.5374240125045
 30
0.0
 10
91.04164358618057
 20
-130.5374240125045
 30
0.0
 10
90.76345212574664
 20
-130.5374240125045
 30
0.0
 10
90.75449487748499
 20
-130.7679009004678
 30
0.0
 10
90.75001625335416
 20
-130.8843451278692
 30
0.0
 10
90.75001625335416
 20
-130.8843451278692
 30
0.0
 10
90.51023760758078
 20
-130.8843451278692
 30
0.0
 10
90.51023760758078
 20
-130.8843451278692
 30
0.0
 10
90.51936711061668
 20
-130.7572211044635
 30
0.0
 10
90.53073592571802
 20
-130.6452555011928
 30
0.0
 10
90.61651880330074
 20
-130.5267442165003
 30
0.0
 10
90.73416881412201
 20
-130.3658582573391
 30
0.0
 10
90.9331230783952
 20
-130.3320963215836
 30
0.0
 10
91.05749102541272
 20
-130.3320963215836
 30
0.0
 10
91.35359698236994
 20
-130.3320963215836
 30
0.0
 10
91.5751166220715
 20
-130.516064420496
 30
0.0
 10
91.5751166220715
 20
-130.7889159829278
 30
0.0
 10
91.5751166220715
 20
-131.0176703231484
 30
0.0
 10
91.45074867505399
 20
-131.1168890731236
 30
0.0
 10
91.12070852756705
 20
-131.3432318465045
 30
0.0
  0
HATCH
  5
D3
330
C4
100
AcDbEntity
  8
_U+30EC_U+30A4_U+30E4_U+30FC 1
 62
     7
420
 16777215
100
AcDbHatch
 10
0.0
 20
0.0
 30
0.0
210
0.0
220
0.0
230
1.0
  2
SOLID
 70
     1
 71
     0
 91
        1
 92
        1
 93
        1
 72
     4
 94
        3
 73
     0
 74
     1
 95
       44
 96
       40
 40
0.0
 40
0.0
 40
0.0
 40
0.0
 40
1.0
 40
1.0
 40
1.0
 40
2.0
 40
2.0
 40
2.0
 40
3.0
 40
3.0
 40
3.0
 40
4.0
 40
4.0
 40
4.0
 40
5.0
 40
5.0
 40
5.0
 40
6.0
 40
6.0
 40
6.0
 40
7.0
 40
7.0
 40
7.0
 40
8.0
 40
8.0
 40
8.0
 40
9.0
 40
9.0
 40
9.0
 40
10.0
 40
10.0
 40
10.0
 40
11.0
 40
11.0
 40
11.0
 40
12.0
 40
12.0
 40
12.0
 40
13.0
 40
13.0
 40
13.0
 40
13.0
 10
91.12070852756705
 20
-131.3432318465045
 10
90.88782007276416
 20
-131.5020507483745
 10
90.78842906801471
 20
-131.5761203013074
 10
90.73640812618743
 20
-131.7197807830423
 10
90.73640812618743
 20
-131.7197807830423
 10
91.56822643110101
 20
-131.7197807830423
 10
91.56822643110101
 20
-131.7197807830423
 10
91.56822643110101
 20
-131.7197807830423
 10
91.56822643110101
 20
-131.9251084739632
 10
91.56822643110101
 20
-131.9251084739632
 10
91.56822643110101
 20
-131.9251084739632
 10
90.46958548085483
 20
-131.9251084739632
 10
90.46958548085483
 20
-131.9251084739632
 10
90.50351967138454
 20
-131.5675075625942
 10
90.57362736450938
 20
-131.4893038950791
 10
90.98514402022246
 20
-131.1909586260564
 10
91.2586846017513
 20
-130.9921766165575
 10
91.32879229487614
 20
-130.9243082354981
 10
91.32879229487614
 20
-130.7868489256366
 10
91.32879229487614
 20
-130.668337640944
 10
91.25196666555507
 20
-130.5374240125045
 10
91.04164358618057
 20
-130.5374240125045
 10
90.76345212574664
 20
-130.5374240125045
 10
90.75449487748499
 20
-130.7679009004678
 10
90.75001625335416
 20
-130.8843451278692
 10
90.75001625335416
 20
-130.8843451278692
 10
90.51023760758078
 20
-130.8843451278692
 10
90.51023760758078
 20
-130.8843451278692
 10
90.51936711061668
 20
-130.7572211044635
 10
90.53073592571802
 20
-130.6452555011928
 10
90.61651880330074
 20
-130.5267442165003
 10
90.73416881412201
 20
-130.3658582573391
 10
90.9331230783952
 20
-130.3320963215836
 10
91.05749102541272
 20
-130.3320963215836
 10
91.35359698236994
 20
-130.3320963215836
 10
91.5751166220715
 20
-130.516064420496
 10
91.5751166220715
 20
-130.7889159829278
 10
91.5751166220715
 20
-131.0176703231484
 10
91.45074867505399
 20
-131.1168890731236
 10
91.12070852756705
 20
-131.3432318465045
 97
        0
 97
        0
 75
     2
 76
     1
 98
        0
  0
ENDBLK
  5
C7
330
C4
100
AcDbEntity
  8
0
100
AcDbBlockEnd
  0
BLOCK
  5
D6
330
D4
100
AcDbEntity
  8
0
100
AcDbBlockBegin
  2
block 8
 70
     0
 10
0.0
 20
0.0
 30
0.0
  3
block 8
  1

  0
SPLINE
  5
D8
330
D4
100
AcDbEntity
  8
_U+30EC_U+30A4_U+30E4_U+30FC 1
370
     0
100
AcDbSpline
210
0.0
220
0.0
230
1.0
 70
    11
 71
     3
 72
    26
 73
    22
 74
     0
 42
0.0000000001
 43
0.0000000001
 12
1.0
 22
0.0
 32
0.0
 13
1.0
 23
0.0
 33
0.0
 40
0.0
 40
0.0
 40
0.0
 40
0.0
 40
1.0
 40
1.0
 40
1.0
 40
2.0
 40
2.0
 40
2.0
 40
3.0
 40
3.0
 40
3.0
 40
4.0
 40
4.0
 40
4.0
 40
5.0
 40
5.0
 40
5.0
 40
6.0
 40
6.0
 40
6.0
 40
7.0
 40
7.0
 40
7.0
 40
7.0
 10
96.74792749317413
 20
-145.2186984228967
 30
0.0
 10
96.74792749317413
 20
-145.2186984228967
 30
0.0
 10
96.74792749317413
 20
-144.1145453198741
 30
0.0
 10
96.74792749317413
 20
-144.1145453198741
 30
0.0
 10
96.74792749317413
 20
-144.1145453198741
 30
0.0
 10
96.39514971548455
 20
-144.1145453198741
 30
0.0
 10
96.39514971548455
 20
-144.1145453198741
 30
0.0
 10
96.39514971548455
 20
-144.1145453198741
 30
0.0
 10
96.39514971548455
 20
-143.9664062140084
 30
0.0
 10
96.39514971548455
 20
-143.9664062140084
 30
0.0
 10
96.75033906001381
 20
-143.9515923034218
 30
0.0
 10
96.79994843500141
 20
-143.7886392869695
 30
0.0
 10
96.8316433134657
 20
-143.6742621168592
 30
0.0
 10
96.8316433134657
 20
-143.6742621168592
 30
0.0
 10
96.98770613894752
 20
-143.6742621168592
 30
0.0
 10
96.98770613894752
 20
-143.6742621168592
 30
0.0
 10
96.98770613894752
 20
-143.6742621168592
 30
0.0
 10
96.98770613894752
 20
-145.2186984228967
 30
0.0
 10
96.98770613894752
 20
-145.2186984228967
 30
0.0
 10
96.98770613894752
 20
-145.2186984228967
 30
0.0
 10
96.74792749317413
 20
-145.2186984228967
 30
0.0
 10
96.74792749317413
 20
-145.2186984228967
 30
0.0
  0
HATCH
  5
D9
330
D4
100
AcDbEntity
  8
_U+30EC_U+30A4_U+30E4_U+30FC 1
 62
     7
420
 16777215
100
AcDbHatch
 10
0.0
 20
0.0
 30
0.0
210
0.0
220
0.0
230
1.0
  2
SOLID
 70
     1
 71
     0
 91
        1
 92
        1
 93
        1
 72
     4
 94
        3
 73
     0
 74
     1
 95
       26
 96
       22
 40
0.0
 40
0.0
 40
0.0
 40
0.0
 40
1.0
 40
1.0
 40
1.0
 40
2.0
 40
2.0
 40
2.0
 40
3.0
 40
3.0
 40
3.0
 40
4.0
 40
4.0
 40
4.0
 40
5.0
 40
5.0
 40
5.0
 40
6.0
 40
6.0
 40
6.0
 40
7.0
 40
7.0
 40
7.0
 40
7.0
 10
96.74792749317413
 20
-145.2186984228967
 10
96.74792749317413
 20
-145.2186984228967
 10
96.74792749317413
 20
-144.1145453198741
 10
96.74792749317413
 20
-144.1145453198741
 10
96.74792749317413
 20
-144.1145453198741
 10
96.39514971548455
 20
-144.1145453198741
 10
96.39514971548455
 20
-144.1145453198741
 10
96.39514971548455
 20
-144.1145453198741
 10
96.39514971548455
 20
-143.9664062140084
 10
96.39514971548455
 20
-143.9664062140084
 10
96.75033906001381
 20
-143.9515923034218
 10
96.79994843500141
 20
-143.7886392869695
 10
96.8316433134657
 20
-143.6742621168592
 10
96.8316433134657
 20
-143.6742621168592
 10
96.98770613894752
 20
-143.6742621168592
 10
96.98770613894752
 20
-143.6742621168592
 10
96.98770613894752
 20
-143.6742621168592
 10
96.98770613894752
 20
-145.2186984228967
 10
96.98770613894752
 20
-145.2186984228967
 10
96.98770613894752
 20
-145.2186984228967
 10
96.74792749317413
 20
-145.2186984228967
 10
96.74792749317413
 20
-145.2186984228967
 97
        0
 97
        0
 75
     2
 76
     1
 98
        0
  0
ENDBLK
  5
D7
330
D4
100
AcDbEntity
  8
0
100
AcDbBlockEnd
  0
ENDSEC
  0
SECTION
  2
ENTITIES
  0
SPLINE
  5
41
330
1F
100
AcDbEntity
  8
_U+30EC_U+30A4_U+30E4_U+30FC 1
 62
     7
420
 16777215
370
    25
100
AcDbSpline
210
0.0
220
0.0
230
1.0
 70
    11
 71
     3
 72
   104
 73
   100
 74
     0
 42
0.0000000001
 43
0.0000000001
 12
1.0
 22
0.0
 32
0.0
 13
1.0
 23
0.0
 33
0.0
 40
0.0
 40
0.0
 40
0.0
 40
0.0
 40
1.0
 40
1.0
 40
1.0
 40
2.0
 40
2.0
 40
2.0
 40
3.0
 40
3.0
 40
3.0
 40
4.0
 40
4.0
 40
4.0
 40
5.0
 40
5.0
 40
5.0
 40
6.0
 40
6.0
 40
6.0
 40
7.0
 40
7.0
 40
7.0
 40
8.0
 40
8.0
 40
8.0
 40
9.0
 40
9.0
 40
9.0
 40
10.0
 40
10.0
 40
10.0
 40
11.0
 40
11.0
 40
11.0
 40
12.0
 40
12.0
 40
12.0
 40
13.0
 40
13.0
 40
13.0
 40
14.0
 40
14.0
 40
14.0
 40
15.0
 40
15.0
 40
15.0
 40
16.0
 40
16.0
 40
16.0
 40
17.0
 40
17.0
 40
17.0
 40
18.0
 40
18.0
 40
18.0
 40
19.0
 40
19.0
 40
19.0
 40
20.0
 40
20.0
 40
20.0
 40
21.0
 40
21.0
 40
21.0
 40
22.0
 40
22.0
 40
22.0
 40
23.0
 40
23.0
 40
23.0
 40
24.0
 40
24.0
 40
24.0
 40
25.0
 40
25.0
 40
25.0
 40
26.0
 40
26.0
 40
26.0
 40
27.0
 40
27.0
 40
27.0
 40
28.0
 40
28.0
 40
28.0
 40
29.0
 40
29.0
 40
29.0
 40
30.0
 40
30.0
 40
30.0
 40
31.0
 40
31.0
 40
31.0
 40
32.0
 40
32.0
 40
32.0
 40
33.0
 40
33.0
 40
33.0
 40
33.0
 10
98.53732193054793
 20
-123.5535374691115
 30
0.0
 10
98.53732193054793
 20
-123.5535374691115
 30
0.0
 10
98.53732193054793
 20
-117.753694415006
 30
0.0
 10
98.53732193054793
 20
-117.753694415006
 30
0.0
 10
98.53732193054793
 20
-117.753694415006
 30
0.0
 10
98.53732193054793
 20
-116.5537913597506
 30
0.0
 10
98.53732193054793
 20
-116.5537913597506
 30
0.0
 10
98.53732193054793
 20
-116.5537913597506
 30
0.0
 10
97.33773886455434
 20
-116.5537913597506
 30
0.0
 10
97.33773886455434
 20
-116.5537913597506
 30
0.0
 10
95.46222867566676
 20
-116.5537913597506
 30
0.0
 10
91.74426849274205
 20
-116.5537913597506
 30
0.0
 10
91.74426849274205
 20
-116.5537913597506
 30
0.0
 10
91.74426849274205
 20
-116.5537913597506
 30
0.0
 10
90.79582775507875
 20
-116.5537913597506
 30
0.0
 10
90.79582775507875
 20
-116.5537913597506
 30
0.0
 10
88.86313245513485
 20
-116.5537913597506
 30
0.0
 10
87.29595249511694
 20
-118.120618581581
 30
0.0
 10
87.29595249511694
 20
-120.0543346922086
 30
0.0
 10
87.29595249511694
 20
-120.0543346922086
 30
0.0
 10
87.29821027283711
 20
-120.0543346922086
 30
0.0
 10
87.29821027283711
 20
-120.0543346922086
 30
0.0
 10
87.29821027283711
 20
-120.0543346922086
 30
0.0
 10
87.29821027283711
 20
-127.3493205237183
 30
0.0
 10
87.29821027283711
 20
-127.3493205237183
 30
0.0
 10
87.29821027283711
 20
-127.3493205237183
 30
0.0
 10
87.29821027283711
 20
-128.5492588567515
 30
0.0
 10
87.29821027283711
 20
-128.5492588567515
 30
0.0
 10
87.29821027283711
 20
-128.5492588567515
 30
0.0
 10
87.29821027283711
 20
-128.5537391345283
 30
0.0
 10
87.29821027283711
 20
-128.5537391345283
 30
0.0
 10
87.29821027283711
 20
-128.5537391345283
 30
0.0
 10
88.49811329778059
 20
-128.5537391345283
 30
0.0
 10
88.49811329778059
 20
-128.5537391345283
 30
0.0
 10
88.49811329778059
 20
-128.5537391345283
 30
0.0
 10
88.49811329778059
 20
-128.5499644123071
 30
0.0
 10
88.49811329778059
 20
-128.5492588567515
 30
0.0
 10
88.49811329778059
 20
-128.5492588567515
 30
0.0
 10
94.29813259425421
 20
-128.5492588567515
 30
0.0
 10
94.29813259425421
 20
-128.5492588567515
 30
0.0
 10
94.29813259425421
 20
-128.5492588567515
 30
0.0
 10
94.29813259425421
 20
-142.5494213532517
 30
0.0
 10
94.29813259425421
 20
-142.5494213532517
 30
0.0
 10
94.29813259425421
 20
-142.5494213532517
 30
0.0
 10
95.29822229096202
 20
-142.5494213532517
 30
0.0
 10
95.29822229096202
 20
-142.5494213532517
 30
0.0
 10
95.29822229096202
 20
-142.5494213532517
 30
0.0
 10
95.29822229096202
 20
-127.3493205237183
 30
0.0
 10
95.29822229096202
 20
-127.3493205237183
 30
0.0
 10
95.29822229096202
 20
-127.3493205237183
 30
0.0
 10
94.29813259425421
 20
-127.3493205237183
 30
0.0
 10
94.29813259425421
 20
-127.3493205237183
 30
0.0
 10
94.29813259425421
 20
-127.3493205237183
 30
0.0
 10
88.49797218667308
 20
-127.3493205237183
 30
0.0
 10
88.49797218667308
 20
-127.3493205237183
 30
0.0
 10
88.49797218667308
 20
-125.2636630242395
 30
0.0
 10
88.49797218667308
 20
-121.1988163585892
 30
0.0
 10
88.49797218667308
 20
-121.1988163585892
 30
0.0
 10
88.49797218667308
 20
-121.1988163585892
 30
0.0
 10
88.49811329778059
 20
-120.6537746920587
 30
0.0
 10
88.49811329778059
 20
-120.6537746920587
 30
0.0
 10
88.49811329778059
 20
-120.6537746920587
 30
0.0
 10
88.49811329778059
 20
-120.0536644144309
 30
0.0
 10
88.49811329778059
 20
-120.0536644144309
 30
0.0
 10
88.49811329778059
 20
-118.7838055258596
 30
0.0
 10
89.5278716048426
 20
-117.753694415006
 30
0.0
 10
90.79825962798786
 20
-117.753694415006
 30
0.0
 10
90.79825962798786
 20
-117.753694415006
 30
0.0
 10
91.39805239046365
 20
-117.753694415006
 30
0.0
 10
91.39805239046365
 20
-117.753694415006
 30
0.0
 10
91.39805239046365
 20
-117.753694415006
 30
0.0
 10
92.40572680920017
 20
-117.753694415006
 30
0.0
 10
92.40572680920017
 20
-117.753694415006
 30
0.0
 10
92.40572680920017
 20
-117.753694415006
 30
0.0
 10
95.63170553164775
 20
-117.753694415006
 30
0.0
 10
97.33773886455434
 20
-117.753694415006
 30
0.0
 10
97.33773886455434
 20
-117.753694415006
 30
0.0
 10
97.33773886455434
 20
-123.5535374691115
 30
0.0
 10
97.33773886455434
 20
-123.5535374691115
 30
0.0
 10
97.33773886455434
 20
-123.5535374691115
 30
0.0
 10
97.33773886455434
 20
-124.7534405243672
 30
0.0
 10
97.33773886455434
 20
-124.7534405243672
 30
0.0
 10
97.33773886455434
 20
-124.7534405243672
 30
0.0
 10
97.33773886455434
 20
-124.753793302145
 30
0.0
 10
97.33773886455434
 20
-124.753793302145
 30
0.0
 10
97.33773886455434
 20
-124.753793302145
 30
0.0
 10
98.53732193054793
 20
-124.753793302145
 30
0.0
 10
98.53732193054793
 20
-124.753793302145
 30
0.0
 10
98.53732193054793
 20
-124.753793302145
 30
0.0
 10
98.53732193054793
 20
-124.7534405243672
 30
0.0
 10
98.53732193054793
 20
-124.7534405243672
 30
0.0
 10
98.53732193054793
 20
-124.7534405243672
 30
0.0
 10
110.6309671775689
 20
-124.7534405243672
 30
0.0
 10
110.6309671775689
 20
-124.7534405243672
 30
0.0
 10
110.6309671775689
 20
-124.7534405243672
 30
0.0
 10
110.6309671775689
 20
-123.5535374691115
 30
0.0
 10
110.6309671775689
 20
-123.5535374691115
 30
0.0
 10
110.6309671775689
 20
-123.5535374691115
 30
0.0
 10
98.53732193054793
 20
-123.5535374691115
 30
0.0
 10
98.53732193054793
 20
-123.5535374691115
 30
0.0
  0
HATCH
  5
42
330
1F
100
AcDbEntity
  8
_U+30EC_U+30A4_U+30E4_U+30FC 1
 62
     9
420
 12566464
100
AcDbHatch
 10
0.0
 20
0.0
 30
0.0
210
0.0
220
0.0
230
1.0
  2
SOLID
 70
     1
 71
     0
 91
        1
 92
        1
 93
        1
 72
     4
 94
        3
 73
     0
 74
     1
 95
      104
 96
      100
 40
0.0
 40
0.0
 40
0.0
 40
0.0
 40
1.0
 40
1.0
 40
1.0
 40
2.0
 40
2.0
 40
2.0
 40
3.0
 40
3.0
 40
3.0
 40
4.0
 40
4.0
 40
4.0
 40
5.0
 40
5.0
 40
5.0
 40
6.0
 40
6.0
 40
6.0
 40
7.0
 40
7.0
 40
7.0
 40
8.0
 40
8.0
 40
8.0
 40
9.0
 40
9.0
 40
9.0
 40
10.0
 40
10.0
 40
10.0
 40
11.0
 40
11.0
 40
11.0
 40
12.0
 40
12.0
 40
12.0
 40
13.0
 40
13.0
 40
13.0
 40
14.0
 40
14.0
 40
14.0
 40
15.0
 40
15.0
 40
15.0
 40
16.0
 40
16.0
 40
16.0
 40
17.0
 40
17.0
 40
17.0
 40
18.0
 40
18.0
 40
18.0
 40
19.0
 40
19.0
 40
19.0
 40
20.0
 40
20.0
 40
20.0
 40
21.0
 40
21.0
 40
21.0
 40
22.0
 40
22.0
 40
22.0
 40
23.0
 40
23.0
 40
23.0
 40
24.0
 40
24.0
 40
24.0
 40
25.0
 40
25.0
 40
25.0
 40
26.0
 40
26.0
 40
26.0
 40
27.0
 40
27.0
 40
27.0
 40
28.0
 40
28.0
 40
28.0
 40
29.0
 40
29.0
 40
29.0
 40
30.0
 40
30.0
 40
30.0
 40
31.0
 40
31.0
 40
31.0
 40
32.0
 40
32.0
 40
32.0
 40
33.0
 40
33.0
 40
33.0
 40
33.0
 10
98.53732193054793
 20
-123.5535374691115
 10
98.53732193054793
 20
-123.5535374691115
 10
98.53732193054793
 20
-117.753694415006
 10
98.53732193054793
 20
-117.753694415006
 10
98.53732193054793
 20
-117.753694415006
 10
98.53732193054793
 20
-116.5537913597506
 10
98.53732193054793
 20
-116.5537913597506
 10
98.53732193054793
 20
-116.5537913597506
 10
97.33773886455434
 20
-116.5537913597506
 10
97.33773886455434
 20
-116.5537913597506
 10
95.46222867566676
 20
-116.5537913597506
 10
91.74426849274205
 20
-116.5537913597506
 10
91.74426849274205
 20
-116.5537913597506
 10
91.74426849274205
 20
-116.5537913597506
 10
90.79582775507875
 20
-116.5537913597506
 10
90.79582775507875
 20
-116.5537913597506
 10
88.86313245513485
 20
-116.5537913597506
 10
87.29595249511694
 20
-118.120618581581
 10
87.29595249511694
 20
-120.0543346922086
 10
87.29595249511694
 20
-120.0543346922086
 10
87.29821027283711
 20
-120.0543346922086
 10
87.29821027283711
 20
-120.0543346922086
 10
87.29821027283711
 20
-120.0543346922086
 10
87.29821027283711
 20
-127.3493205237183
 10
87.29821027283711
 20
-127.3493205237183
 10
87.29821027283711
 20
-127.3493205237183
 10
87.29821027283711
 20
-128.5492588567515
 10
87.29821027283711
 20
-128.5492588567515
 10
87.29821027283711
 20
-128.5492588567515
 10
87.29821027283711
 20
-128.5537391345283
 10
87.29821027283711
 20
-128.5537391345283
 10
87.29821027283711
 20
-128.5537391345283
 10
88.49811329778059
 20
-128.5537391345283
 10
88.49811329778059
 20
-128.5537391345283
 10
88.49811329778059
 20
-128.5537391345283
 10
88.49811329778059
 20
-128.5499644123071
 10
88.49811329778059
 20
-128.5492588567515
 10
88.49811329778059
 20
-128.5492588567515
 10
94.29813259425421
 20
-128.5492588567515
 10
94.29813259425421
 20
-128.5492588567515
 10
94.29813259425421
 20
-128.5492588567515
 10
94.29813259425421
 20
-142.5494213532517
 10
94.29813259425421
 20
-142.5494213532517
 10
94.29813259425421
 20
-142.5494213532517
 10
95.29822229096202
 20
-142.5494213532517
 10
95.29822229096202
 20
-142.5494213532517
 10
95.29822229096202
 20
-142.5494213532517
 10
95.29822229096202
 20
-127.3493205237183
 10
95.29822229096202
 20
-127.3493205237183
 10
95.29822229096202
 20
-127.3493205237183
 10
94.29813259425421
 20
-127.3493205237183
 10
94.29813259425421
 20
-127.3493205237183
 10
94.29813259425421
 20
-127.3493205237183
 10
88.49797218667308
 20
-127.3493205237183
 10
88.49797218667308
 20
-127.3493205237183
 10
88.49797218667308
 20
-125.2636630242395
 10
88.49797218667308
 20
-121.1988163585892
 10
88.49797218667308
 20
-121.1988163585892
 10
88.49797218667308
 20
-121.1988163585892
 10
88.49811329778059
 20
-120.6537746920587
 10
88.49811329778059
 20
-120.6537746920587
 10
88.49811329778059
 20
-120.6537746920587
 10
88.49811329778059
 20
-120.0536644144309
 10
88.49811329778059
 20
-120.0536644144309
 10
88.49811329778059
 20
-118.7838055258596
 10
89.5278716048426
 20
-117.753694415006
 10
90.79825962798786
 20
-117.753694415006
 10
90.79825962798786
 20
-117.753694415006
 10
91.39805239046365
 20
-117.753694415006
 10
91.39805239046365
 20
-117.753694415006
 10
91.39805239046365
 20
-117.753694415006
 10
92.40572680920017
 20
-117.753694415006
 10
92.40572680920017
 20
-117.753694415006
 10
92.40572680920017
 20
-117.753694415006
 10
95.63170553164775
 20
-117.753694415006
 10
97.33773886455434
 20
-117.753694415006
 10
97.33773886455434
 20
-117.753694415006
 10
97.33773886455434
 20
-123.5535374691115
 10
97.33773886455434
 20
-123.5535374691115
 10
97.33773886455434
 20
-123.5535374691115
 10
97.33773886455434
 20
-124.7534405243672
 10
97.33773886455434
 20
-124.7534405243672
 10
97.33773886455434
 20
-124.7534405243672
 10
97.33773886455434
 20
-124.753793302145
 10
97.33773886455434
 20
-124.753793302145
 10
97.33773886455434
 20
-124.753793302145
 10
98.53732193054793
 20
-124.753793302145
 10
98.53732193054793
 20
-124.753793302145
 10
98.53732193054793
 20
-124.753793302145
 10
98.53732193054793
 20
-124.7534405243672
 10
98.53732193054793
 20
-124.7534405243672
 10
98.53732193054793
 20
-124.7534405243672
 10
110.6309671775689
 20
-124.7534405243672
 10
110.6309671775689
 20
-124.7534405243672
 10
110.6309671775689
 20
-124.7534405243672
 10
110.6309671775689
 20
-123.5535374691115
 10
110.6309671775689
 20
-123.5535374691115
 10
110.6309671775689
 20
-123.5535374691115
 10
98.53732193054793
 20
-123.5535374691115
 10
98.53732193054793
 20
-123.5535374691115
 97
        0
 97
        0
 75
     2
 76
     1
 98
        0
  0
SPLINE
  5
43
330
1F
100
AcDbEntity
  8
_U+30EC_U+30A4_U+30E4_U+30FC 1
 62
     7
420
 16777215
370
     9
100
AcDbSpline
210
0.0
220
0.0
230
1.0
 70
    11
 71
     3
 72
    17
 73
    13
 74
     0
 42
0.0000000001
 43
0.0000000001
 12
1.0
 22
0.0
 32
0.0
 13
1.0
 23
0.0
 33
0.0
 40
0.0
 40
0.0
 40
0.0
 40
0.0
 40
1.0
 40
1.0
 40
1.0
 40
2.0
 40
2.0
 40
2.0
 40
3.0
 40
3.0
 40
3.0
 40
4.0
 40
4.0
 40
4.0
 40
4.0
 10
82.04855957343352
 20
-142.5494213532517
 30
0.0
 10
82.04855957343352
 20
-142.4943174643761
 30
0.0
 10
82.00379207457564
 20
-142.4495146866101
 30
0.0
 10
81.94865290931568
 20
-142.4495146866101
 30
0.0
 10
81.89354902183261
 20
-142.4495146866101
 30
0.0
 10
81.84874624519786
 20
-142.4943174643761
 30
0.0
 10
81.84874624519786
 20
-142.5494213532517
 30
0.0
 10
81.84874624519786
 20
-142.6045605199041
 30
0.0
 10
81.89354902183261
 20
-142.6493632976708
 30
0.0
 10
81.94865290931568
 20
-142.6493632976708
 30
0.0
 10
82.00379207457564
 20
-142.6493632976708
 30
0.0
 10
82.04855957343352
 20
-142.6045605199041
 30
0.0
 10
82.04855957343352
 20
-142.5494213532517
 30
0.0
  0
SPLINE
  5
44
330
1F
100
AcDbEntity
  8
_U+30EC_U+30A4_U+30E4_U+30FC 1
 62
     7
420
 16777215
370
     9
100
AcDbSpline
210
0.0
220
0.0
230
1.0
 70
    11
 71
     3
 72
    17
 73
    13
 74
     0
 42
0.0000000001
 43
0.0000000001
 12
1.0
 22
0.0
 32
0.0
 13
1.0
 23
0.0
 33
0.0
 40
0.0
 40
0.0
 40
0.0
 40
0.0
 40
1.0
 40
1.0
 40
1.0
 40
2.0
 40
2.0
 40
2.0
 40
3.0
 40
3.0
 40
3.0
 40
4.0
 40
4.0
 40
4.0
 40
4.0
 10
82.04855957343352
 20
-128.5489060789738
 30
0.0
 10
82.04855957343352
 20
-128.4938021900989
 30
0.0
 10
82.00379207457564
 20
-128.4489994123321
 30
0.0
 10
81.94865290931568
 20
-128.4489994123321
 30
0.0
 10
81.89354902183261
 20
-128.4489994123321
 30
0.0
 10
81.84874624519786
 20
-128.4938021900989
 30
0.0
 10
81.84874624519786
 20
-128.5489060789738
 30
0.0
 10
81.84874624519786
 20
-128.6040452456269
 30
0.0
 10
81.89354902183261
 20
-128.6488127456157
 30
0.0
 10
81.94865290931568
 20
-128.6488127456157
 30
0.0
 10
82.00379207457564
 20
-128.6488127456157
 30
0.0
 10
82.04855957343352
 20
-128.6040452456269
 30
0.0
 10
82.04855957343352
 20
-128.5489060789738
 30
0.0
  0
POLYLINE
  5
45
330
1F
100
AcDbEntity
  8
_U+30EC_U+30A4_U+30E4_U+30FC 1
 62
     7
420
 16777215
370
     9
100
AcDb2dPolyline
 66
     1
 10
0.0
 20
0.0
 30
0.0
  0
VERTEX
  5
46
330
45
100
AcDbEntity
  8
_U+30EC_U+30A4_U+30E4_U+30FC 1
 62
     7
420
 16777215
370
     9
100
AcDbVertex
100
AcDb2dVertex
 10
81.94865290931568
 20
-139.5494344095573
 30
0.0
  0
VERTEX
  5
47
330
45
100
AcDbEntity
  8
_U+30EC_U+30A4_U+30E4_U+30FC 1
 62
     7
420
 16777215
370
     9
100
AcDbVertex
100
AcDb2dVertex
 10
81.94865290931568
 20
-133.0492569111818
 30
0.0
  0
SEQEND
  5
48
330
45
100
AcDbEntity
  8
_U+30EC_U+30A4_U+30E4_U+30FC 1
 62
     7
420
 16777215
370
     9
  0
POLYLINE
  5
49
330
1F
100
AcDbEntity
  8
_U+30EC_U+30A4_U+30E4_U+30FC 1
 62
     7
420
 16777215
370
     9
100
AcDb2dPolyline
 66
     1
 10
0.0
 20
0.0
 30
0.0
  0
VERTEX
  5
4A
330
49
100
AcDbEntity
  8
_U+30EC_U+30A4_U+30E4_U+30FC 1
 62
     7
420
 16777215
370
     9
100
AcDbVertex
100
AcDb2dVertex
 10
84.97792033203264
 20
-128.5489060789738
 30
0.0
  0
VERTEX
  5
4B
330
49
100
AcDbEntity
  8
_U+30EC_U+30A4_U+30E4_U+30FC 1
 62
     7
420
 16777215
370
     9
100
AcDbVertex
100
AcDb2dVertex
 10
80.20095656501425
 20
-128.5489060789738
 30
0.0
  0
SEQEND
  5
4C
330
49
100
AcDbEntity
  8
_U+30EC_U+30A4_U+30E4_U+30FC 1
 62
     7
420
 16777215
370
     9
  0
POLYLINE
  5
4D
330
1F
100
AcDbEntity
  8
_U+30EC_U+30A4_U+30E4_U+30FC 1
 62
     7
420
 16777215
370
     9
100
AcDb2dPolyline
 66
     1
 10
0.0
 20
0.0
 30
0.0
  0
VERTEX
  5
4E
330
4D
100
AcDbEntity
  8
_U+30EC_U+30A4_U+30E4_U+30FC 1
 62
     7
420
 16777215
370
     9
100
AcDbVertex
100
AcDb2dVertex
 10
81.94865290931568
 20
-128.5489060789738
 30
0.0
  0
VERTEX
  5
4F
330
4D
100
AcDbEntity
  8
_U+30EC_U+30A4_U+30E4_U+30FC 1
 62
     7
420
 16777215
370
     9
100
AcDbVertex
100
AcDb2dVertex
 10
81.94865290931568
 20
-142.5494213532517
 30
0.0
  0
SEQEND
  5
50
330
4D
100
AcDbEntity
  8
_U+30EC_U+30A4_U+30E4_U+30FC 1
 62
     7
420
 16777215
370
     9
  0
POLYLINE
  5
51
330
1F
100
AcDbEntity
  8
_U+30EC_U+30A4_U+30E4_U+30FC 1
 62
     7
420
 16777215
370
     9
100
AcDb2dPolyline
 66
     1
 10
0.0
 20
0.0
 30
0.0
  0
VERTEX
  5
52
330
51
100
AcDbEntity
  8
_U+30EC_U+30A4_U+30E4_U+30FC 1
 62
     7
420
 16777215
370
     9
100
AcDbVertex
100
AcDb2dVertex
 10
93.48611108773959
 20
-142.5494213532517
 30
0.0
  0
VERTEX
  5
53
330
51
100
AcDbEntity
  8
_U+30EC_U+30A4_U+30E4_U+30FC 1
 62
     7
420
 16777215
370
     9
100
AcDbVertex
100
AcDb2dVertex
 10
74.20098282919744
 20
-142.5494213532517
 30
0.0
  0
SEQEND
  5
54
330
51
100
AcDbEntity
  8
_U+30EC_U+30A4_U+30E4_U+30FC 1
 62
     7
420
 16777215
370
     9
  0
INSERT
  5
56
330
1F
100
AcDbEntity
  8
_U+30EC_U+30A4_U+30E4_U+30FC 1
100
AcDbBlockReference
  2
block 2
 10
0.0
 20
0.0
 30
0.0
  0
INSERT
  5
71
330
1F
100
AcDbEntity
  8
_U+30EC_U+30A4_U+30E4_U+30FC 1
100
AcDbBlockReference
  2
block 3
 10
0.0
 20
0.0
 30
0.0
  0
INSERT
  5
7A
330
1F
100
AcDbEntity
  8
_U+30EC_U+30A4_U+30E4_U+30FC 1
100
AcDbBlockReference
  2
block 4
 10
0.0
 20
0.0
 30
0.0
  0
SPLINE
  5
81
330
1F
100
AcDbEntity
  8
_U+30EC_U+30A4_U+30E4_U+30FC 1
 62
     7
420
 16777215
370
     9
100
AcDbSpline
210
0.0
220
0.0
230
1.0
 70
    11
 71
     3
 72
    17
 73
    13
 74
     0
 42
0.0000000001
 43
0.0000000001
 12
1.0
 22
0.0
 32
0.0
 13
1.0
 23
0.0
 33
0.0
 40
0.0
 40
0.0
 40
0.0
 40
0.0
 40
1.0
 40
1.0
 40
1.0
 40
2.0
 40
2.0
 40
2.0
 40
3.0
 40
3.0
 40
3.0
 40
4.0
 40
4.0
 40
4.0
 40
4.0
 10
82.04855957343352
 20
-116.5537913597506
 30
0.0
 10
82.04855957343352
 20
-116.4986521930975
 30
0.0
 10
82.00379207457564
 20
-116.4538846931086
 30
0.0
 10
81.94865290931568
 20
-116.4538846931086
 30
0.0
 10
81.89354902183261
 20
-116.4538846931086
 30
0.0
 10
81.84874624519786
 20
-116.4986521930975
 30
0.0
 10
81.84874624519786
 20
-116.5537913597506
 30
0.0
 10
81.84874624519786
 20
-116.6088952486255
 30
0.0
 10
81.89354902183261
 20
-116.6536980263922
 30
0.0
 10
81.94865290931568
 20
-116.6536980263922
 30
0.0
 10
82.00379207457564
 20
-116.6536980263922
 30
0.0
 10
82.04855957343352
 20
-116.6088952486255
 30
0.0
 10
82.04855957343352
 20
-116.5537913597506
 30
0.0
  0
POLYLINE
  5
82
330
1F
100
AcDbEntity
  8
_U+30EC_U+30A4_U+30E4_U+30FC 1
 62
     7
420
 16777215
370
     9
100
AcDb2dPolyline
 66
     1
 10
0.0
 20
0.0
 30
0.0
  0
VERTEX
  5
83
330
82
100
AcDbEntity
  8
_U+30EC_U+30A4_U+30E4_U+30FC 1
 62
     7
420
 16777215
370
     9
100
AcDbVertex
100
AcDb2dVertex
 10
88.89999997777501
 20
-116.5537913597506
 30
0.0
  0
VERTEX
  5
84
330
82
100
AcDbEntity
  8
_U+30EC_U+30A4_U+30E4_U+30FC 1
 62
     7
420
 16777215
370
     9
100
AcDbVertex
100
AcDb2dVertex
 10
74.20116109256077
 20
-116.5537913597506
 30
0.0
  0
SEQEND
  5
85
330
82
100
AcDbEntity
  8
_U+30EC_U+30A4_U+30E4_U+30FC 1
 62
     7
420
 16777215
370
     9
  0
POLYLINE
  5
86
330
1F
100
AcDbEntity
  8
_U+30EC_U+30A4_U+30E4_U+30FC 1
 62
     7
420
 16777215
370
     9
100
AcDb2dPolyline
 66
     1
 10
0.0
 20
0.0
 30
0.0
  0
VERTEX
  5
87
330
86
100
AcDbEntity
  8
_U+30EC_U+30A4_U+30E4_U+30FC 1
 62
     7
420
 16777215
370
     9
100
AcDbVertex
100
AcDb2dVertex
 10
81.94865290931568
 20
-116.5537913597506
 30
0.0
  0
VERTEX
  5
88
330
86
100
AcDbEntity
  8
_U+30EC_U+30A4_U+30E4_U+30FC 1
 62
     7
420
 16777215
370
     9
100
AcDbVertex
100
AcDb2dVertex
 10
81.94865290931568
 20
-128.5489060789738
 30
0.0
  0
SEQEND
  5
89
330
86
100
AcDbEntity
  8
_U+30EC_U+30A4_U+30E4_U+30FC 1
 62
     7
420
 16777215
370
     9
  0
SPLINE
  5
8A
330
1F
100
AcDbEntity
  8
_U+30EC_U+30A4_U+30E4_U+30FC 1
 62
     7
420
 16777215
370
     9
100
AcDbSpline
210
0.0
220
0.0
230
1.0
 70
    11
 71
     3
 72
    17
 73
    13
 74
     0
 42
0.0000000001
 43
0.0000000001
 12
1.0
 22
0.0
 32
0.0
 13
1.0
 23
0.0
 33
0.0
 40
0.0
 40
0.0
 40
0.0
 40
0.0
 40
1.0
 40
1.0
 40
1.0
 40
2.0
 40
2.0
 40
2.0
 40
3.0
 40
3.0
 40
3.0
 40
4.0
 40
4.0
 40
4.0
 40
4.0
 10
76.03066664765916
 20
-116.5537913597506
 30
0.0
 10
76.03066664765916
 20
-116.4986521930975
 30
0.0
 10
75.98589722810493
 20
-116.4538846931086
 30
0.0
 10
75.93075806284497
 20
-116.4538846931086
 30
0.0
 10
75.8756541753619
 20
-116.4538846931086
 30
0.0
 10
75.83085139872713
 20
-116.4986521930975
 30
0.0
 10
75.83085139872713
 20
-116.5537913597506
 30
0.0
 10
75.83085139872713
 20
-116.6088952486255
 30
0.0
 10
75.8756541753619
 20
-116.6536980263922
 30
0.0
 10
75.93075806284497
 20
-116.6536980263922
 30
0.0
 10
75.98589722810493
 20
-116.6536980263922
 30
0.0
 10
76.03066664765916
 20
-116.6088952486255
 30
0.0
 10
76.03066664765916
 20
-116.5537913597506
 30
0.0
  0
POLYLINE
  5
8B
330
1F
100
AcDbEntity
  8
_U+30EC_U+30A4_U+30E4_U+30FC 1
 62
     7
420
 16777215
370
     9
100
AcDb2dPolyline
 66
     1
 10
0.0
 20
0.0
 30
0.0
  0
VERTEX
  5
8C
330
8B
100
AcDbEntity
  8
_U+30EC_U+30A4_U+30E4_U+30FC 1
 62
     7
420
 16777215
370
     9
100
AcDbVertex
100
AcDb2dVertex
 10
75.93075806284497
 20
-116.5537913597506
 30
0.0
  0
VERTEX
  5
8D
330
8B
100
AcDbEntity
  8
_U+30EC_U+30A4_U+30E4_U+30FC 1
 62
     7
420
 16777215
370
     9
100
AcDbVertex
100
AcDb2dVertex
 10
75.93075806284497
 20
-142.5539016310281
 30
0.0
  0
SEQEND
  5
8E
330
8B
100
AcDbEntity
  8
_U+30EC_U+30A4_U+30E4_U+30FC 1
 62
     7
420
 16777215
370
     9
  0
SPLINE
  5
8F
330
1F
100
AcDbEntity
  8
_U+30EC_U+30A4_U+30E4_U+30FC 1
 62
     7
420
 16777215
370
     9
100
AcDbSpline
210
0.0
220
0.0
230
1.0
 70
    11
 71
     3
 72
    17
 73
    13
 74
     0
 42
0.0000000001
 43
0.0000000001
 12
1.0
 22
0.0
 32
0.0
 13
1.0
 23
0.0
 33
0.0
 40
0.0
 40
0.0
 40
0.0
 40
0.0
 40
1.0
 40
1.0
 40
1.0
 40
2.0
 40
2.0
 40
2.0
 40
3.0
 40
3.0
 40
3.0
 40
4.0
 40
4.0
 40
4.0
 40
4.0
 10
76.03066664765916
 20
-142.5494213532517
 30
0.0
 10
76.03066664765916
 20
-142.4943174643761
 30
0.0
 10
75.98589722810493
 20
-142.4495146866101
 30
0.0
 10
75.93075806284497
 20
-142.4495146866101
 30
0.0
 10
75.8756541753619
 20
-142.4495146866101
 30
0.0
 10
75.83085139872713
 20
-142.4943174643761
 30
0.0
 10
75.83085139872713
 20
-142.5494213532517
 30
0.0
 10
75.83085139872713
 20
-142.6045605199041
 30
0.0
 10
75.8756541753619
 20
-142.6493632976708
 30
0.0
 10
75.93075806284497
 20
-142.6493632976708
 30
0.0
 10
75.98589722810493
 20
-142.6493632976708
 30
0.0
 10
76.03066664765916
 20
-142.6045605199041
 30
0.0
 10
76.03066664765916
 20
-142.5494213532517
 30
0.0
  0
INSERT
  5
91
330
1F
100
AcDbEntity
  8
_U+30EC_U+30A4_U+30E4_U+30FC 1
100
AcDbBlockReference
  2
block 5
 10
0.0
 20
0.0
 30
0.0
  0
POLYLINE
  5
A3
330
1F
100
AcDbEntity
  8
_U+30EC_U+30A4_U+30E4_U+30FC 1
 62
     7
420
 16777215
370
     9
100
AcDb2dPolyline
 66
     1
 10
0.0
 20
0.0
 30
0.0
  0
VERTEX
  5
A4
330
A3
100
AcDbEntity
  8
_U+30EC_U+30A4_U+30E4_U+30FC 1
 62
     7
420
 16777215
370
     9
100
AcDbVertex
100
AcDb2dVertex
 10
88.08317608614429
 20
-117.3919560817633
 30
0.0
  0
VERTEX
  5
A5
330
A3
100
AcDbEntity
  8
_U+30EC_U+30A4_U+30E4_U+30FC 1
 62
     7
420
 16777215
370
     9
100
AcDbVertex
100
AcDb2dVertex
 10
80.39526656005698
 20
-111.5973341387673
 30
0.0
  0
VERTEX
  5
A6
330
A3
100
AcDbEntity
  8
_U+30EC_U+30A4_U+30E4_U+30FC 1
 62
     7
420
 16777215
370
     9
100
AcDbVertex
100
AcDb2dVertex
 10
74.20098282919744
 20
-111.5973341387673
 30
0.0
  0
SEQEND
  5
A7
330
A3
100
AcDbEntity
  8
_U+30EC_U+30A4_U+30E4_U+30FC 1
 62
     7
420
 16777215
370
     9
  0
POLYLINE
  5
A8
330
1F
100
AcDbEntity
  8
_U+30EC_U+30A4_U+30E4_U+30FC 1
 62
     7
420
 16777215
370
     9
100
AcDb2dPolyline
 66
     1
 10
0.0
 20
0.0
 30
0.0
  0
VERTEX
  5
A9
330
A8
100
AcDbEntity
  8
_U+30EC_U+30A4_U+30E4_U+30FC 1
 62
     7
420
 16777215
370
     9
100
AcDbVertex
100
AcDb2dVertex
 10
88.08317608614429
 20
-117.3919560817633
 30
0.0
  0
VERTEX
  5
AA
330
A8
100
AcDbEntity
  8
_U+30EC_U+30A4_U+30E4_U+30FC 1
 62
     7
420
 16777215
370
     9
100
AcDbVertex
100
AcDb2dVertex
 10
87.45494943550503
 20
-116.5592946930824
 30
0.0
  0
SEQEND
  5
AB
330
A8
100
AcDbEntity
  8
_U+30EC_U+30A4_U+30E4_U+30FC 1
 62
     7
420
 16777215
370
     9
  0
POLYLINE
  5
AC
330
1F
100
AcDbEntity
  8
_U+30EC_U+30A4_U+30E4_U+30FC 1
 62
     7
420
 16777215
370
     9
100
AcDb2dPolyline
 66
     1
 10
0.0
 20
0.0
 30
0.0
  0
VERTEX
  5
AD
330
AC
100
AcDbEntity
  8
_U+30EC_U+30A4_U+30E4_U+30FC 1
 62
     7
420
 16777215
370
     9
100
AcDbVertex
100
AcDb2dVertex
 10
88.08317608614429
 20
-117.3919560817633
 30
0.0
  0
VERTEX
  5
AE
330
AC
100
AcDbEntity
  8
_U+30EC_U+30A4_U+30E4_U+30FC 1
 62
     7
420
 16777215
370
     9
100
AcDbVertex
100
AcDb2dVertex
 10
87.12319722174651
 20
-116.9840744151985
 30
0.0
  0
SEQEND
  5
AF
330
AC
100
AcDbEntity
  8
_U+30EC_U+30A4_U+30E4_U+30FC 1
 62
     7
420
 16777215
370
     9
  0
SPLINE
  5
B0
330
1F
100
AcDbEntity
  8
_U+30EC_U+30A4_U+30E4_U+30FC 1
 62
     7
420
 16777215
370
     9
100
AcDbSpline
210
0.0
220
0.0
230
1.0
 70
    11
 71
     3
 72
    17
 73
    13
 74
     0
 42
0.0000000001
 43
0.0000000001
 12
1.0
 22
0.0
 32
0.0
 13
1.0
 23
0.0
 33
0.0
 40
0.0
 40
0.0
 40
0.0
 40
0.0
 40
1.0
 40
1.0
 40
1.0
 40
2.0
 40
2.0
 40
2.0
 40
3.0
 40
3.0
 40
3.0
 40
4.0
 40
4.0
 40
4.0
 40
4.0
 10
94.39666342507381
 20
-145.8215763524338
 30
0.0
 10
94.39666342507381
 20
-145.7664724635582
 30
0.0
 10
94.35186064843906
 20
-145.7216696857915
 30
0.0
 10
94.2964039831872
 20
-145.7216696857915
 30
0.0
 10
94.24126481792726
 20
-145.7216696857915
 30
0.0
 10
94.19649731906937
 20
-145.7664724635582
 30
0.0
 10
94.19649731906937
 20
-145.8215763524338
 30
0.0
 10
94.19649731906937
 20
-145.8767155190862
 30
0.0
 10
94.24126481792726
 20
-145.9214830190755
 30
0.0
 10
94.2964039831872
 20
-145.9214830190755
 30
0.0
 10
94.35186064843906
 20
-145.9214830190755
 30
0.0
 10
94.39666342507381
 20
-145.8767155190862
 30
0.0
 10
94.39666342507381
 20
-145.8215763524338
 30
0.0
  0
SPLINE
  5
B1
330
1F
100
AcDbEntity
  8
_U+30EC_U+30A4_U+30E4_U+30FC 1
 62
     7
420
 16777215
370
     9
100
AcDbSpline
210
0.0
220
0.0
230
1.0
 70
    11
 71
     3
 72
    17
 73
    13
 74
     0
 42
0.0000000001
 43
0.0000000001
 12
1.0
 22
0.0
 32
0.0
 13
1.0
 23
0.0
 33
0.0
 40
0.0
 40
0.0
 40
0.0
 40
0.0
 40
1.0
 40
1.0
 40
1.0
 40
2.0
 40
2.0
 40
2.0
 40
3.0
 40
3.0
 40
3.0
 40
4.0
 40
4.0
 40
4.0
 40
4.0
 10
87.39585915923477
 20
-145.8215763524338
 30
0.0
 10
87.39585915923477
 20
-145.7664724635582
 30
0.0
 10
87.35109166037688
 20
-145.7216696857915
 30
0.0
 10
87.29595249511694
 20
-145.7216696857915
 30
0.0
 10
87.24084860763386
 20
-145.7216696857915
 30
0.0
 10
87.1960458309991
 20
-145.7664724635582
 30
0.0
 10
87.1960458309991
 20
-145.8215763524338
 30
0.0
 10
87.1960458309991
 20
-145.8767155190862
 30
0.0
 10
87.24084860763386
 20
-145.9214830190755
 30
0.0
 10
87.29595249511694
 20
-145.9214830190755
 30
0.0
 10
87.35109166037688
 20
-145.9214830190755
 30
0.0
 10
87.39585915923477
 20
-145.8767155190862
 30
0.0
 10
87.39585915923477
 20
-145.8215763524338
 30
0.0
  0
POLYLINE
  5
B2
330
1F
100
AcDbEntity
  8
_U+30EC_U+30A4_U+30E4_U+30FC 1
 62
     7
420
 16777215
370
     9
100
AcDb2dPolyline
 66
     1
 10
0.0
 20
0.0
 30
0.0
  0
VERTEX
  5
B3
330
B2
100
AcDbEntity
  8
_U+30EC_U+30A4_U+30E4_U+30FC 1
 62
     7
420
 16777215
370
     9
100
AcDbVertex
100
AcDb2dVertex
 10
87.29595249511694
 20
-145.8215763524338
 30
0.0
  0
VERTEX
  5
B4
330
B2
100
AcDbEntity
  8
_U+30EC_U+30A4_U+30E4_U+30FC 1
 62
     7
420
 16777215
370
     9
100
AcDbVertex
100
AcDb2dVertex
 10
94.2964039831872
 20
-145.8215763524338
 30
0.0
  0
SEQEND
  5
B5
330
B2
100
AcDbEntity
  8
_U+30EC_U+30A4_U+30E4_U+30FC 1
 62
     7
420
 16777215
370
     9
  0
POLYLINE
  5
B6
330
1F
100
AcDbEntity
  8
_U+30EC_U+30A4_U+30E4_U+30FC 1
 62
     7
420
 16777215
370
     9
100
AcDb2dPolyline
 66
     1
 10
0.0
 20
0.0
 30
0.0
  0
VERTEX
  5
B7
330
B6
100
AcDbEntity
  8
_U+30EC_U+30A4_U+30E4_U+30FC 1
 62
     7
420
 16777215
370
     9
100
AcDbVertex
100
AcDb2dVertex
 10
87.29595249511694
 20
-131.0676335783443
 30
0.0
  0
VERTEX
  5
B8
330
B6
100
AcDbEntity
  8
_U+30EC_U+30A4_U+30E4_U+30FC 1
 62
     7
420
 16777215
370
     9
100
AcDbVertex
100
AcDb2dVertex
 10
87.29595249511694
 20
-146.8213485744057
 30
0.0
  0
SEQEND
  5
B9
330
B6
100
AcDbEntity
  8
_U+30EC_U+30A4_U+30E4_U+30FC 1
 62
     7
420
 16777215
370
     9
  0
POLYLINE
  5
BA
330
1F
100
AcDbEntity
  8
_U+30EC_U+30A4_U+30E4_U+30FC 1
 62
     7
420
 16777215
370
     9
100
AcDb2dPolyline
 66
     1
 10
0.0
 20
0.0
 30
0.0
  0
VERTEX
  5
BB
330
BA
100
AcDbEntity
  8
_U+30EC_U+30A4_U+30E4_U+30FC 1
 62
     7
420
 16777215
370
     9
100
AcDbVertex
100
AcDb2dVertex
 10
94.2964039831872
 20
-144.3615702416876
 30
0.0
  0
VERTEX
  5
BC
330
BA
100
AcDbEntity
  8
_U+30EC_U+30A4_U+30E4_U+30FC 1
 62
     7
420
 16777215
370
     9
100
AcDbVertex
100
AcDb2dVertex
 10
94.2964039831872
 20
-146.8213485744057
 30
0.0
  0
SEQEND
  5
BD
330
BA
100
AcDbEntity
  8
_U+30EC_U+30A4_U+30E4_U+30FC 1
 62
     7
420
 16777215
370
     9
  0
INSERT
  5
BF
330
1F
100
AcDbEntity
  8
_U+30EC_U+30A4_U+30E4_U+30FC 1
100
AcDbBlockReference
  2
block 6
 10
0.0
 20
0.0
 30
0.0
  0
INSERT
  5
C5
330
1F
100
AcDbEntity
  8
_U+30EC_U+30A4_U+30E4_U+30FC 1
100
AcDbBlockReference
  2
block 7
 10
0.0
 20
0.0
 30
0.0
  0
INSERT
  5
D5
330
1F
100
AcDbEntity
  8
_U+30EC_U+30A4_U+30E4_U+30FC 1
100
AcDbBlockReference
  2
block 8
 10
0.0
 20
0.0
 30
0.0
  0
SPLINE
  5
DA
330
1F
100
AcDbEntity
  8
_U+30EC_U+30A4_U+30E4_U+30FC 1
 62
     7
420
 16777215
370
     9
100
AcDbSpline
210
0.0
220
0.0
230
1.0
 70
    11
 71
     3
 72
    17
 73
    13
 74
     0
 42
0.0000000001
 43
0.0000000001
 12
1.0
 22
0.0
 32
0.0
 13
1.0
 23
0.0
 33
0.0
 40
0.0
 40
0.0
 40
0.0
 40
0.0
 40
1.0
 40
1.0
 40
1.0
 40
2.0
 40
2.0
 40
2.0
 40
3.0
 40
3.0
 40
3.0
 40
4.0
 40
4.0
 40
4.0
 40
4.0
 10
95.39812895507986
 20
-145.8215763524338
 30
0.0
 10
95.39812895507986
 20
-145.7664724635582
 30
0.0
 10
95.35336386505044
 20
-145.7216696857915
 30
0.0
 10
95.29822229096202
 20
-145.7216696857915
 30
0.0
 10
95.24311840347895
 20
-145.7216696857915
 30
0.0
 10
95.19831562684419
 20
-145.7664724635582
 30
0.0
 10
95.19831562684419
 20
-145.8215763524338
 30
0.0
 10
95.19831562684419
 20
-145.8767155190862
 30
0.0
 10
95.24311840347895
 20
-145.9214830190755
 30
0.0
 10
95.29822229096202
 20
-145.9214830190755
 30
0.0
 10
95.35336386505044
 20
-145.9214830190755
 30
0.0
 10
95.39812895507986
 20
-145.8767155190862
 30
0.0
 10
95.39812895507986
 20
-145.8215763524338
 30
0.0
  0
POLYLINE
  5
DB
330
1F
100
AcDbEntity
  8
_U+30EC_U+30A4_U+30E4_U+30FC 1
 62
     7
420
 16777215
370
     9
100
AcDb2dPolyline
 66
     1
 10
0.0
 20
0.0
 30
0.0
  0
VERTEX
  5
DC
330
DB
100
AcDbEntity
  8
_U+30EC_U+30A4_U+30E4_U+30FC 1
 62
     7
420
 16777215
370
     9
100
AcDbVertex
100
AcDb2dVertex
 10
94.2964039831872
 20
-145.8215763524338
 30
0.0
  0
VERTEX
  5
DD
330
DB
100
AcDbEntity
  8
_U+30EC_U+30A4_U+30E4_U+30FC 1
 62
     7
420
 16777215
370
     9
100
AcDbVertex
100
AcDb2dVertex
 10
97.48794917954189
 20
-145.8215763524338
 30
0.0
  0
SEQEND
  5
DE
330
DB
100
AcDbEntity
  8
_U+30EC_U+30A4_U+30E4_U+30FC 1
 62
     7
420
 16777215
370
     9
  0
POLYLINE
  5
DF
330
1F
100
AcDbEntity
  8
_U+30EC_U+30A4_U+30E4_U+30FC 1
 62
     7
420
 16777215
370
     9
100
AcDb2dPolyline
 66
     1
 10
0.0
 20
0.0
 30
0.0
  0
VERTEX
  5
E0
330
DF
100
AcDbEntity
  8
_U+30EC_U+30A4_U+30E4_U+30FC 1
 62
     7
420
 16777215
370
     9
100
AcDbVertex
100
AcDb2dVertex
 10
95.29822229096202
 20
-144.3615702416876
 30
0.0
  0
VERTEX
  5
E1
330
DF
100
AcDbEntity
  8
_U+30EC_U+30A4_U+30E4_U+30FC 1
 62
     7
420
 16777215
370
     9
100
AcDbVertex
100
AcDb2dVertex
 10
95.29822229096202
 20
-146.8213485744057
 30
0.0
  0
SEQEND
  5
E2
330
DF
100
AcDbEntity
  8
_U+30EC_U+30A4_U+30E4_U+30FC 1
 62
     7
420
 16777215
370
     9
  0
SPLINE
  5
E3
330
1F
100
AcDbEntity
  8
_U+30EC_U+30A4_U+30E4_U+30FC 1
 62
     7
420
 16777215
370
     9
100
AcDbSpline
210
0.0
220
0.0
230
1.0
 70
    11
 71
     3
 72
    17
 73
    13
 74
     0
 42
0.0000000001
 43
0.0000000001
 12
1.0
 22
0.0
 32
0.0
 13
1.0
 23
0.0
 33
0.0
 40
0.0
 40
0.0
 40
0.0
 40
0.0
 40
1.0
 40
1.0
 40
1.0
 40
2.0
 40
2.0
 40
2.0
 40
3.0
 40
3.0
 40
3.0
 40
4.0
 40
4.0
 40
4.0
 40
4.0
 10
88.5978788507909
 20
-132.5276396890905
 30
0.0
 10
88.5978788507909
 20
-132.472535800215
 30
0.0
 10
88.55307607415615
 20
-132.4277330224489
 30
0.0
 10
88.4976194089043
 20
-132.4277330224489
 30
0.0
 10
88.44248024364435
 20
-132.4277330224489
 30
0.0
 10
88.39771274478646
 20
-132.472535800215
 30
0.0
 10
88.39771274478646
 20
-132.5276396890905
 30
0.0
 10
88.39771274478646
 20
-132.582778855743
 30
0.0
 10
88.44248024364435
 20
-132.6275463557322
 30
0.0
 10
88.4976194089043
 20
-132.6275463557322
 30
0.0
 10
88.55307607415615
 20
-132.6275463557322
 30
0.0
 10
88.5978788507909
 20
-132.582778855743
 30
0.0
 10
88.5978788507909
 20
-132.5276396890905
 30
0.0
  0
POLYLINE
  5
E4
330
1F
100
AcDbEntity
  8
_U+30EC_U+30A4_U+30E4_U+30FC 1
 62
     7
420
 16777215
370
     9
100
AcDb2dPolyline
 66
     1
 10
0.0
 20
0.0
 30
0.0
  0
VERTEX
  5
E5
330
E4
100
AcDbEntity
  8
_U+30EC_U+30A4_U+30E4_U+30FC 1
 62
     7
420
 16777215
370
     9
100
AcDbVertex
100
AcDb2dVertex
 10
87.29821027283711
 20
-132.5276396890905
 30
0.0
  0
VERTEX
  5
E6
330
E4
100
AcDbEntity
  8
_U+30EC_U+30A4_U+30E4_U+30FC 1
 62
     7
420
 16777215
370
     9
100
AcDbVertex
100
AcDb2dVertex
 10
92.21833125842548
 20
-132.5276396890905
 30
0.0
  0
SEQEND
  5
E7
330
E4
100
AcDbEntity
  8
_U+30EC_U+30A4_U+30E4_U+30FC 1
 62
     7
420
 16777215
370
     9
  0
POLYLINE
  5
E8
330
1F
100
AcDbEntity
  8
_U+30EC_U+30A4_U+30E4_U+30FC 1
 62
     7
420
 16777215
370
     9
100
AcDb2dPolyline
 66
     1
 10
0.0
 20
0.0
 30
0.0
  0
VERTEX
  5
E9
330
E8
100
AcDbEntity
  8
_U+30EC_U+30A4_U+30E4_U+30FC 1
 62
     7
420
 16777215
370
     9
100
AcDbVertex
100
AcDb2dVertex
 10
88.4976194089043
 20
-131.0676335783443
 30
0.0
  0
VERTEX
  5
EA
330
E8
100
AcDbEntity
  8
_U+30EC_U+30A4_U+30E4_U+30FC 1
 62
     7
420
 16777215
370
     9
100
AcDbVertex
100
AcDb2dVertex
 10
88.4976194089043
 20
-133.5274119110624
 30
0.0
  0
SEQEND
  5
EB
330
E8
100
AcDbEntity
  8
_U+30EC_U+30A4_U+30E4_U+30FC 1
 62
     7
420
 16777215
370
     9
  0
SPLINE
  5
EC
330
1F
100
AcDbEntity
  8
_U+30EC_U+30A4_U+30E4_U+30FC 1
 62
     7
420
 16777215
370
     9
100
AcDbSpline
210
0.0
220
0.0
230
1.0
 70
    11
 71
     3
 72
    17
 73
    13
 74
     0
 42
0.0000000001
 43
0.0000000001
 12
1.0
 22
0.0
 32
0.0
 13
1.0
 23
0.0
 33
0.0
 40
0.0
 40
0.0
 40
0.0
 40
0.0
 40
1.0
 40
1.0
 40
1.0
 40
2.0
 40
2.0
 40
2.0
 40
3.0
 40
3.0
 40
3.0
 40
4.0
 40
4.0
 40
4.0
 40
4.0
 10
87.39585915923477
 20
-132.5276396890905
 30
0.0
 10
87.39585915923477
 20
-132.472535800215
 30
0.0
 10
87.35109166037688
 20
-132.4277330224489
 30
0.0
 10
87.29595249511694
 20
-132.4277330224489
 30
0.0
 10
87.24084860763386
 20
-132.4277330224489
 30
0.0
 10
87.1960458309991
 20
-132.472535800215
 30
0.0
 10
87.1960458309991
 20
-132.5276396890905
 30
0.0
 10
87.1960458309991
 20
-132.582778855743
 30
0.0
 10
87.24084860763386
 20
-132.6275463557322
 30
0.0
 10
87.29595249511694
 20
-132.6275463557322
 30
0.0
 10
87.35109166037688
 20
-132.6275463557322
 30
0.0
 10
87.39585915923477
 20
-132.582778855743
 30
0.0
 10
87.39585915923477
 20
-132.5276396890905
 30
0.0
  0
ENDSEC
  0
SECTION
  2
OBJECTS
  0
DICTIONARY
  5
C
330
0
100
AcDbDictionary
281
     1
  3
ACAD_GROUP
350
D
  3
ACAD_LAYOUT
350
1A
  3
ACAD_MATERIAL
350
3B
  3
ACAD_MLEADERSTYLE
350
EE
  3
ACAD_MLINESTYLE
350
17
  3
ACAD_PLOTSETTINGS
350
19
  3
ACAD_PLOTSTYLENAME
350
E
  3
ACAD_TABLESTYLE
350
ED
  3
ACAD_VISUALSTYLE
350
2A
  0
SUN
  5
3F
330
29
100
AcDbSun
 90
        1
290
     0
 63
     7
421
 16777215
 40
1.0
291
     1
 91
  2455826
 92
 54000000
292
     0
 70
     2
 71
   256
280
     1
  0
DICTIONARY
  5
D
102
{ACAD_REACTORS
330
C
102
}
330
C
100
AcDbDictionary
281
     1
  0
DICTIONARY
  5
1A
102
{ACAD_REACTORS
330
C
102
}
330
C
100
AcDbDictionary
281
     1
  3
Layout1
350
1E
  3
Layout2
350
26
  3
Model
350
22
  0
DICTIONARY
  5
3B
102
{ACAD_REACTORS
330
C
102
}
330
C
100
AcDbDictionary
281
     1
  3
ByBlock
350
3D
  3
ByLayer
350
3C
  3
Global
350
3E
  0
DICTIONARY
  5
EE
102
{ACAD_REACTORS
330
C
102
}
330
C
100
AcDbDictionary
281
     1
  0
DICTIONARY
  5
17
102
{ACAD_REACTORS
330
C
102
}
330
C
100
AcDbDictionary
281
     1
  3
Standard
350
18
  0
DICTIONARY
  5
19
102
{ACAD_REACTORS
330
C
102
}
330
C
100
AcDbDictionary
281
     1
  0
ACDBDICTIONARYWDFLT
  5
E
102
{ACAD_REACTORS
330
C
102
}
330
C
100
AcDbDictionary
281
     1
  3
Normal
350
F
100
AcDbDictionaryWithDefault
340
F
  0
DICTIONARY
  5
ED
102
{ACAD_REACTORS
330
C
102
}
330
C
100
AcDbDictionary
281
     1
  0
DICTIONARY
  5
2A
102
{ACAD_REACTORS
330
C
102
}
330
C
100
AcDbDictionary
281
     1
  3
2dWireframe
350
2F
  3
3D Hidden
350
31
  3
3dWireframe
350
30
  3
Basic
350
32
  3
Brighten
350
36
  3
ColorChange
350
3A
  3
Conceptual
350
34
  3
Dim
350
35
  3
Facepattern
350
39
  3
Flat
350
2B
  3
FlatWithEdges
350
2C
  3
Gouraud
350
2D
  3
GouraudWithEdges
350
2E
  3
Linepattern
350
38
  3
Realistic
350
33
  3
Thicken
350
37
  0
LAYOUT
  5
1E
102
{ACAD_REACTORS
330
1A
102
}
330
1A
100
AcDbPlotSettings
  1

  2
none_device
  4

  6

 40
0.0
 41
0.0
 42
0.0
 43
0.0
 44
0.0
 45
0.0
 46
0.0
 47
0.0
 48
0.0
 49
0.0
140
0.0
141
0.0
142
1.0
143
1.0
 70
   688
 72
     0
 73
     0
 74
     5
  7

 75
    16
 76
     0
 77
     2
 78
   300
147
1.0
148
0.0
149
0.0
100
AcDbLayout
  1
Layout1
 70
     1
 71
     1
 10
0.0
 20
0.0
 11
12.0
 21
9.0
 12
0.0
 22
0.0
 32
0.0
 14
1.000000000000000E+20
 24
1.000000000000000E+20
 34
1.000000000000000E+20
 15
-1.000000000000000E+20
 25
-1.000000000000000E+20
 35
-1.000000000000000E+20
146
0.0
 13
0.0
 23
0.0
 33
0.0
 16
1.0
 26
0.0
 36
0.0
 17
0.0
 27
1.0
 37
0.0
 76
     0
330
1B
  0
LAYOUT
  5
26
102
{ACAD_REACTORS
330
1A
102
}
330
1A
100
AcDbPlotSettings
  1

  2
none_device
  4

  6

 40
0.0
 41
0.0
 42
0.0
 43
0.0
 44
0.0
 45
0.0
 46
0.0
 47
0.0
 48
0.0
 49
0.0
140
0.0
141
0.0
142
1.0
143
1.0
 70
   688
 72
     0
 73
     0
 74
     5
  7

 75
    16
 76
     0
 77
     2
 78
   300
147
1.0
148
0.0
149
0.0
100
AcDbLayout
  1
Layout2
 70
     1
 71
     2
 10
0.0
 20
0.0
 11
0.0
 21
0.0
 12
0.0
 22
0.0
 32
0.0
 14
0.0
 24
0.0
 34
0.0
 15
0.0
 25
0.0
 35
0.0
146
0.0
 13
0.0
 23
0.0
 33
0.0
 16
1.0
 26
0.0
 36
0.0
 17
0.0
 27
1.0
 37
0.0
 76
     0
330
23
  0
LAYOUT
  5
22
102
{ACAD_REACTORS
330
1A
102
}
330
1A
100
AcDbPlotSettings
  1

  2
none_device
  4

  6

 40
0.0
 41
0.0
 42
0.0
 43
0.0
 44
0.0
 45
0.0
 46
0.0
 47
0.0
 48
0.0
 49
0.0
140
0.0
141
0.0
142
1.0
143
1.0
 70
  1712
 72
     0
 73
     0
 74
     0
  7

 75
     0
 76
     0
 77
     2
 78
   300
147
1.0
148
0.0
149
0.0
100
AcDbLayout
  1
Model
 70
     1
 71
     0
 10
0.0
 20
0.0
 11
12.0
 21
9.0
 12
0.0
 22
0.0
 32
0.0
 14
1.000000000000000E+20
 24
1.000000000000000E+20
 34
1.000000000000000E+20
 15
-1.000000000000000E+20
 25
-1.000000000000000E+20
 35
-1.000000000000000E+20
146
0.0
 13
0.0
 23
0.0
 33
0.0
 16
1.0
 26
0.0
 36
0.0
 17
0.0
 27
1.0
 37
0.0
 76
     0
330
1F
331
29
  0
MATERIAL
  5
3D
102
{ACAD_REACTORS
330
3B
102
}
330
3B
100
AcDbMaterial
  1
ByBlock
 72
     1
 94
      127
  0
MATERIAL
  5
3C
102
{ACAD_REACTORS
330
3B
102
}
330
3B
100
AcDbMaterial
  1
ByLayer
 72
     1
 94
      127
  0
MATERIAL
  5
3E
102
{ACAD_REACTORS
330
3B
102
}
330
3B
100
AcDbMaterial
  1
Global
 72
     1
 94
      127
  0
MLINESTYLE
  5
18
102
{ACAD_REACTORS
330
17
102
}
330
17
100
AcDbMlineStyle
  2
Standard
 70
     0
  3

 62
   256
 51
90.0
 52
90.0
 71
     2
 49
0.5
 62
   256
  6
BYLAYER
 49
-0.5
 62
   256
  6
BYLAYER
  0
ACDBPLACEHOLDER
  5
F
102
{ACAD_REACTORS
330
E
102
}
330
E
  0
VISUALSTYLE
  5
2F
102
{ACAD_REACTORS
330
2A
102
}
330
2A
100
AcDbVisualStyle
  2
2dWireframe
 70
     4
177
     2
291
     0
 71
     0
176
     1
 72
     2
176
     1
 73
     0
176
     1
 90
        0
176
     1
 40
-0.6
176
     1
 41
-30.0
176
     1
 62
     5
 63
     7
421
 16777215
176
     1
 74
     1
176
     1
 91
        4
176
     1
 64
     7
176
     1
 65
   257
176
     1
 75
     1
176
     1
175
     1
176
     1
 42
1.0
176
     1
 92
        0
176
     1
 66
   257
176
     1
 43
1.0
176
     1
 76
     1
176
     1
 77
     6
176
     1
 78
     2
176
     1
 67
     7
176
     1
 79
     5
176
     1
170
     0
176
     1
171
     0
176
     1
290
     0
176
     1
 93
        1
176
     1
 44
0.0
176
     1
173
     0
176
     1
  0
VISUALSTYLE
  5
31
102
{ACAD_REACTORS
330
2A
102
}
330
2A
100
AcDbVisualStyle
  2
3D Hidden
 70
     6
177
     2
291
     0
 71
     1
176
     1
 72
     2
176
     1
 73
     2
176
     1
 90
        0
176
     1
 40
-0.6
176
     1
 41
-30.0
176
     1
 62
     5
 63
     7
421
 16777215
176
     1
 74
     2
176
     1
 91
        2
176
     1
 64
     7
176
     1
 65
   257
176
     1
 75
     2
176
     1
175
     1
176
     1
 42
40.0
176
     1
 92
        0
176
     1
 66
   257
176
     1
 43
1.0
176
     1
 76
     1
176
     1
 77
     6
176
     1
 78
     2
176
     1
 67
     7
176
     1
 79
     3
176
     1
170
     0
176
     1
171
     0
176
     1
290
     0
176
     1
 93
        1
176
     1
 44
0.0
176
     1
173
     0
176
     1
  0
VISUALSTYLE
  5
30
102
{ACAD_REACTORS
330
2A
102
}
330
2A
100
AcDbVisualStyle
  2
3dWireframe
 70
     5
177
     2
291
     0
 71
     0
176
     1
 72
     2
176
     1
 73
     0
176
     1
 90
        0
176
     1
 40
-0.6
176
     1
 41
-30.0
176
     1
 62
     5
 63
     7
421
 16777215
176
     1
 74
     1
176
     1
 91
        4
176
     1
 64
     7
176
     1
 65
   257
176
     1
 75
     1
176
     1
175
     1
176
     1
 42
1.0
176
     1
 92
        0
176
     1
 66
   257
176
     1
 43
1.0
176
     1
 76
     1
176
     1
 77
     6
176
     1
 78
     2
176
     1
 67
     7
176
     1
 79
     5
176
     1
170
     0
176
     1
171
     0
176
     1
290
     0
176
     1
 93
        1
176
     1
 44
0.0
176
     1
173
     0
176
     1
  0
VISUALSTYLE
  5
32
102
{ACAD_REACTORS
330
2A
102
}
330
2A
100
AcDbVisualStyle
  2
Basic
 70
     7
177
     2
291
     1
 71
     1
176
     1
 72
     0
176
     1
 73
     1
176
     1
 90
        0
176
     1
 40
-0.6
176
     1
 41
-30.0
176
     1
 62
     5
 63
     7
421
 16777215
176
     1
 74
     0
176
     1
 91
        4
176
     1
 64
     7
176
     1
 65
   257
176
     1
 75
     1
176
     1
175
     1
176
     1
 42
1.0
176
     1
 92
        8
176
     1
 66
     7
176
     1
 43
1.0
176
     1
 76
     1
176
     1
 77
     6
176
     1
 78
     2
176
     1
 67
     7
176
     1
 79
     5
176
     1
170
     0
176
     1
171
     0
176
     1
290
     0
176
     1
 93
        1
176
     1
 44
0.0
176
     1
173
     0
176
     1
  0
VISUALSTYLE
  5
36
102
{ACAD_REACTORS
330
2A
102
}
330
2A
100
AcDbVisualStyle
  2
Brighten
 70
    12
177
     2
291
     1
 71
     2
176
     1
 72
     2
176
     1
 73
     0
176
     1
 90
        0
176
     1
 40
-0.6
176
     1
 41
-30.0
176
     1
 62
     5
 63
     7
421
 16777215
176
     1
 74
     1
176
     1
 91
        4
176
     1
 64
     7
176
     1
 65
   257
176
     1
 75
     1
176
     1
175
     1
176
     1
 42
1.0
176
     1
 92
        8
176
     1
 66
     7
176
     1
 43
1.0
176
     1
 76
     1
176
     1
 77
     6
176
     1
 78
     2
176
     1
 67
     7
176
     1
 79
     5
176
     1
170
     0
176
     1
171
     0
176
     1
290
     0
176
     1
 93
        1
176
     1
 44
50.0
176
     1
173
     0
176
     1
  0
VISUALSTYLE
  5
3A
102
{ACAD_REACTORS
330
2A
102
}
330
2A
100
AcDbVisualStyle
  2
ColorChange
 70
    16
177
     2
291
     1
 71
     2
176
     1
 72
     2
176
     1
 73
     3
176
     1
 90
        0
176
     1
 40
-0.6
176
     1
 41
-30.0
176
     1
 62
     5
 63
     8
421
  8421504
176
     1
 74
     1
176
     1
 91
        4
176
     1
 64
     7
176
     1
 65
   257
176
     1
 75
     1
176
     1
175
     1
176
     1
 42
1.0
176
     1
 92
        8
176
     1
 66
     8
424
  8421504
176
     1
 43
1.0
176
     1
 76
     1
176
     1
 77
     6
176
     1
 78
     2
176
     1
 67
     7
176
     1
 79
     5
176
     1
170
     0
176
     1
171
     0
176
     1
290
     0
176
     1
 93
        1
176
     1
 44
0.0
176
     1
173
     0
176
     1
  0
VISUALSTYLE
  5
34
102
{ACAD_REACTORS
330
2A
102
}
330
2A
100
AcDbVisualStyle
  2
Conceptual
 70
     9
177
     2
291
     0
 71
     3
176
     1
 72
     2
176
     1
 73
     0
176
     1
 90
        0
176
     1
 40
-0.6
176
     1
 41
-30.0
176
     1
 62
     5
 63
     7
421
 16777215
176
     1
 74
     2
176
     1
 91
        2
176
     1
 64
     7
176
     1
 65
   257
176
     1
 75
     1
176
     1
175
     1
176
     1
 42
40.0
176
     1
 92
        8
176
     1
 66
     7
176
     1
 43
1.0
176
     1
 76
     1
176
     1
 77
     6
176
     1
 78
     2
176
     1
 67
     7
176
     1
 79
     3
176
     1
170
     0
176
     1
171
     0
176
     1
290
     0
176
     1
 93
        1
176
     1
 44
0.0
176
     1
173
     0
176
     1
  0
VISUALSTYLE
  5
35
102
{ACAD_REACTORS
330
2A
102
}
330
2A
100
AcDbVisualStyle
  2
Dim
 70
    11
177
     2
291
     1
 71
     2
176
     1
 72
     2
176
     1
 73
     0
176
     1
 90
        0
176
     1
 40
-0.6
176
     1
 41
-30.0
176
     1
 62
     5
 63
     7
421
 16777215
176
     1
 74
     1
176
     1
 91
        4
176
     1
 64
     7
176
     1
 65
   257
176
     1
 75
     1
176
     1
175
     1
176
     1
 42
1.0
176
     1
 92
        8
176
     1
 66
     7
176
     1
 43
1.0
176
     1
 76
     1
176
     1
 77
     6
176
     1
 78
     2
176
     1
 67
     7
176
     1
 79
     5
176
     1
170
     0
176
     1
171
     0
176
     1
290
     0
176
     1
 93
        1
176
     1
 44
-50.0
176
     1
173
     0
176
     1
  0
VISUALSTYLE
  5
39
102
{ACAD_REACTORS
330
2A
102
}
330
2A
100
AcDbVisualStyle
  2
Facepattern
 70
    15
177
     2
291
     1
 71
     2
176
     1
 72
     2
176
     1
 73
     0
176
     1
 90
        0
176
     1
 40
-0.6
176
     1
 41
-30.0
176
     1
 62
     5
 63
     7
421
 16777215
176
     1
 74
     1
176
     1
 91
        4
176
     1
 64
     7
176
     1
 65
   257
176
     1
 75
     1
176
     1
175
     1
176
     1
 42
1.0
176
     1
 92
        8
176
     1
 66
     7
176
     1
 43
1.0
176
     1
 76
     1
176
     1
 77
     6
176
     1
 78
     2
176
     1
 67
     7
176
     1
 79
     5
176
     1
170
     0
176
     1
171
     0
176
     1
290
     0
176
     1
 93
        1
176
     1
 44
0.0
176
     1
173
     0
176
     1
  0
VISUALSTYLE
  5
2B
102
{ACAD_REACTORS
330
2A
102
}
330
2A
100
AcDbVisualStyle
  2
Flat
 70
     0
177
     2
291
     1
 71
     2
176
     1
 72
     1
176
     1
 73
     1
176
     1
 90
        2
176
     1
 40
-0.6
176
     1
 41
30.0
176
     1
 62
     5
 63
     7
421
 16777215
176
     1
 74
     0
176
     1
 91
        4
176
     1
 64
     7
176
     1
 65
   257
176
     1
 75
     1
176
     1
175
     1
176
     1
 42
1.0
176
     1
 92
        8
176
     1
 66
     7
176
     1
 43
1.0
176
     1
 76
     1
176
     1
 77
     6
176
     1
 78
     2
176
     1
 67
     7
176
     1
 79
     5
176
     1
170
     0
176
     1
171
     0
176
     1
290
     0
176
     1
 93
       13
176
     1
 44
0.0
176
     1
173
     0
176
     1
  0
VISUALSTYLE
  5
2C
102
{ACAD_REACTORS
330
2A
102
}
330
2A
100
AcDbVisualStyle
  2
FlatWithEdges
 70
     1
177
     2
291
     1
 71
     2
176
     1
 72
     1
176
     1
 73
     1
176
     1
 90
        2
176
     1
 40
-0.6
176
     1
 41
30.0
176
     1
 62
     5
 63
     7
421
 16777215
176
     1
 74
     1
176
     1
 91
        4
176
     1
 64
     7
176
     1
 65
   257
176
     1
 75
     1
176
     1
175
     1
176
     1
 42
1.0
176
     1
 92
        0
176
     1
 66
   257
176
     1
 43
1.0
176
     1
 76
     1
176
     1
 77
     6
176
     1
 78
     2
176
     1
 67
     7
176
     1
 79
     5
176
     1
170
     0
176
     1
171
     0
176
     1
290
     0
176
     1
 93
       13
176
     1
 44
0.0
176
     1
173
     0
176
     1
  0
VISUALSTYLE
  5
2D
102
{ACAD_REACTORS
330
2A
102
}
330
2A
100
AcDbVisualStyle
  2
Gouraud
 70
     2
177
     2
291
     1
 71
     2
176
     1
 72
     2
176
     1
 73
     1
176
     1
 90
        2
176
     1
 40
-0.6
176
     1
 41
30.0
176
     1
 62
     5
 63
     7
421
 16777215
176
     1
 74
     0
176
     1
 91
        4
176
     1
 64
     7
176
     1
 65
   257
176
     1
 75
     1
176
     1
175
     1
176
     1
 42
1.0
176
     1
 92
        0
176
     1
 66
     7
176
     1
 43
1.0
176
     1
 76
     1
176
     1
 77
     6
176
     1
 78
     2
176
     1
 67
     7
176
     1
 79
     5
176
     1
170
     0
176
     1
171
     0
176
     1
290
     0
176
     1
 93
       13
176
     1
 44
0.0
176
     1
173
     0
176
     1
  0
VISUALSTYLE
  5
2E
102
{ACAD_REACTORS
330
2A
102
}
330
2A
100
AcDbVisualStyle
  2
GouraudWithEdges
 70
     3
177
     2
291
     1
 71
     2
176
     1
 72
     2
176
     1
 73
     1
176
     1
 90
        2
176
     1
 40
-0.6
176
     1
 41
30.0
176
     1
 62
     5
 63
     7
421
 16777215
176
     1
 74
     1
176
     1
 91
        4
176
     1
 64
     7
176
     1
 65
   257
176
     1
 75
     1
176
     1
175
     1
176
     1
 42
1.0
176
     1
 92
        0
176
     1
 66
   257
176
     1
 43
1.0
176
     1
 76
     1
176
     1
 77
     6
176
     1
 78
     2
176
     1
 67
     7
176
     1
 79
     5
176
     1
170
     0
176
     1
171
     0
176
     1
290
     0
176
     1
 93
       13
176
     1
 44
0.0
176
     1
173
     0
176
     1
  0
VISUALSTYLE
  5
38
102
{ACAD_REACTORS
330
2A
102
}
330
2A
100
AcDbVisualStyle
  2
Linepattern
 70
    14
177
     2
291
     1
 71
     2
176
     1
 72
     2
176
     1
 73
     0
176
     1
 90
        0
176
     1
 40
-0.6
176
     1
 41
-30.0
176
     1
 62
     5
 63
     7
421
 16777215
176
     1
 74
     1
176
     1
 91
        4
176
     1
 64
     7
176
     1
 65
   257
176
     1
 75
     7
176
     1
175
     7
176
     1
 42
1.0
176
     1
 92
        8
176
     1
 66
     7
176
     1
 43
1.0
176
     1
 76
     1
176
     1
 77
     6
176
     1
 78
     2
176
     1
 67
     7
176
     1
 79
     5
176
     1
170
     0
176
     1
171
     0
176
     1
290
     0
176
     1
 93
        1
176
     1
 44
0.0
176
     1
173
     0
176
     1
  0
VISUALSTYLE
  5
33
102
{ACAD_REACTORS
330
2A
102
}
330
2A
100
AcDbVisualStyle
  2
Realistic
 70
     8
177
     2
291
     0
 71
     2
176
     1
 72
     2
176
     1
 73
     0
176
     1
 90
        0
176
     1
 40
-0.6
176
     1
 41
-30.0
176
     1
 62
     5
 63
     7
421
 16777215
176
     1
 74
     1
176
     1
 91
        0
176
     1
 64
     7
176
     1
 65
   257
176
     1
 75
     1
176
     1
175
     1
176
     1
 42
1.0
176
     1
 92
        8
176
     1
 66
     8
424
  7895160
176
     1
 43
1.0
176
     1
 76
     1
176
     1
 77
     6
176
     1
 78
     2
176
     1
 67
     7
176
     1
 79
     5
176
     1
170
     0
176
     1
171
     0
176
     1
290
     0
176
     1
 93
       13
176
     1
 44
0.0
176
     1
173
     0
176
     1
  0
VISUALSTYLE
  5
37
102
{ACAD_REACTORS
330
2A
102
}
330
2A
100
AcDbVisualStyle
  2
Thicken
 70
    13
177
     2
291
     1
 71
     2
176
     1
 72
     2
176
     1
 73
     0
176
     1
 90
        0
176
     1
 40
-0.6
176
     1
 41
-30.0
176
     1
 62
     5
 63
     7
421
 16777215
176
     1
 74
     1
176
     1
 91
        4
176
     1
 64
     7
176
     1
 65
   257
176
     1
 75
     1
176
     1
175
     1
176
     1
 42
1.0
176
     1
 92
       12
176
     1
 66
     7
176
     1
 43
1.0
176
     1
 76
     1
176
     1
 77
     6
176
     1
 78
     2
176
     1
 67
     7
176
     1
 79
     5
176
     1
170
     0
176
     1
171
     0
176
     1
290
     0
176
     1
 93
        1
176
     1
 44
0.0
176
     1
173
     0
176
     1
  0
ENDSEC
  0
EOF
