  0
SECTION
  2
HEADER
  9
$ACADVER
  1
AC1024
  9
$ACADMAINTVER
 70
     6
  9
$DWGCODEPAGE
  3
UNDEFINED
  9
$INSBASE
 10
0.0
 20
0.0
 30
0.0
  9
$EXTMIN
 10
1.000000000000000E+20
 20
1.000000000000000E+20
 30
1.000000000000000E+20
  9
$EXTMAX
 10
-1.000000000000000E+20
 20
-1.000000000000000E+20
 30
-1.000000000000000E+20
  9
$LIMMIN
 10
0.0
 20
0.0
  9
$LIMMAX
 10
12.0
 20
9.0
  9
$ORTHOMODE
 70
     0
  9
$REGENMODE
 70
     1
  9
$FILLMODE
 70
     1
  9
$QTEXTMODE
 70
     0
  9
$MIRRTEXT
 70
     1
  9
$LTSCALE
 40
1.0
  9
$ATTMODE
 70
     1
  9
$TEXTSIZE
 40
0.2
  9
$TRACEWID
 40
0.05
  9
$TEXTSTYLE
  7
Standard
  9
$CLAYER
  8
0
  9
$CELTYPE
  6
ByLayer
  9
$CECOLOR
 62
   256
  9
$CELTSCALE
 40
1.0
  9
$DISPSILH
 70
     0
  9
$DIMSCALE
 40
1.0
  9
$DIMASZ
 40
0.18
  9
$DIMEXO
 40
0.0625
  9
$DIMDLI
 40
0.38
  9
$DIMRND
 40
0.0
  9
$DIMDLE
 40
0.0
  9
$DIMEXE
 40
0.18
  9
$DIMTP
 40
0.0
  9
$DIMTM
 40
0.0
  9
$DIMTXT
 40
0.18
  9
$DIMCEN
 40
0.09
  9
$DIMTSZ
 40
0.0
  9
$DIMTOL
 70
     0
  9
$DIMLIM
 70
     0
  9
$DIMTIH
 70
     1
  9
$DIMTOH
 70
     1
  9
$DIMSE1
 70
     0
  9
$DIMSE2
 70
     0
  9
$DIMTAD
 70
     0
  9
$DIMZIN
 70
     0
  9
$DIMBLK
  1

  9
$DIMASO
 70
     1
  9
$DIMSHO
 70
     1
  9
$DIMPOST
  1

  9
$DIMAPOST
  1

  9
$DIMALT
 70
     0
  9
$DIMALTD
 70
     2
  9
$DIMALTF
 40
25.4
  9
$DIMLFAC
 40
1.0
  9
$DIMTOFL
 70
     0
  9
$DIMTVP
 40
0.0
  9
$DIMTIX
 70
     0
  9
$DIMSOXD
 70
     0
  9
$DIMSAH
 70
     0
  9
$DIMBLK1
  1

  9
$DIMBLK2
  1

  9
$DIMSTYLE
  2
Standard
  9
$DIMCLRD
 70
     0
  9
$DIMCLRE
 70
     0
  9
$DIMCLRT
 70
     0
  9
$DIMTFAC
 40
1.0
  9
$DIMGAP
 40
0.09
  9
$DIMJUST
 70
     0
  9
$DIMSD1
 70
     0
  9
$DIMSD2
 70
     0
  9
$DIMTOLJ
 70
     1
  9
$DIMTZIN
 70
     0
  9
$DIMALTZ
 70
     0
  9
$DIMALTTZ
 70
     0
  9
$DIMUPT
 70
     0
  9
$DIMDEC
 70
     4
  9
$DIMTDEC
 70
     4
  9
$DIMALTU
 70
     2
  9
$DIMALTTD
 70
     2
  9
$DIMTXSTY
  7
Standard
  9
$DIMAUNIT
 70
     0
  9
$DIMADEC
 70
     0
  9
$DIMALTRND
 40
0.0
  9
$DIMAZIN
 70
     0
  9
$DIMDSEP
 70
    46
  9
$DIMATFIT
 70
     3
  9
$DIMFRAC
 70
     0
  9
$DIMLDRBLK
  1

  9
$DIMLUNIT
 70
     2
  9
$DIMLWD
 70
    -2
  9
$DIMLWE
 70
    -2
  9
$DIMTMOVE
 70
     0
  9
$DIMFXL
 40
1.0
  9
$DIMFXLON
 70
     0
  9
$DIMJOGANG
 40
0.7853981633974483
  9
$DIMTFILL
 70
     0
  9
$DIMTFILLCLR
 70
     0
  9
$DIMARCSYM
 70
     0
  9
$DIMLTYPE
  6

  9
$DIMLTEX1
  6

  9
$DIMLTEX2
  6

  9
$DIMTXTDIRECTION
 70
     0
  9
$LUNITS
 70
     2
  9
$LUPREC
 70
     4
  9
$SKETCHINC
 40
0.1
  9
$FILLETRAD
 40
0.5
  9
$AUNITS
 70
     0
  9
$AUPREC
 70
     0
  9
$MENU
  1
.
  9
$ELEVATION
 40
0.0
  9
$PELEVATION
 40
0.0
  9
$THICKNESS
 40
0.0
  9
$LIMCHECK
 70
     0
  9
$CHAMFERA
 40
0.5
  9
$CHAMFERB
 40
0.5
  9
$CHAMFERC
 40
1.0
  9
$CHAMFERD
 40
0.0
  9
$SKPOLY
 70
     0
  9
$TDCREATE
 40
2457917.617581019
  9
$TDUCREATE
 40
2457917.242581019
  9
$TDUPDATE
 40
2457917.617581019
  9
$TDUUPDATE
 40
2457917.242581019
  9
$TDINDWG
 40
0.0000000116
  9
$TDUSRTIMER
 40
0.0000000116
  9
$USRTIMER
 70
     1
  9
$ANGBASE
 50
0.0
  9
$ANGDIR
 70
     0
  9
$PDMODE
 70
     0
  9
$PDSIZE
 40
0.0
  9
$PLINEWID
 40
0.0
  9
$SPLFRAME
 70
     0
  9
$SPLINETYPE
 70
     6
  9
$SPLINESEGS
 70
     8
  9
$HANDSEED
  5
A9
  9
$SURFTAB1
 70
     6
  9
$SURFTAB2
 70
     6
  9
$SURFTYPE
 70
     6
  9
$SURFU
 70
     6
  9
$SURFV
 70
     6
  9
$UCSBASE
  2

  9
$UCSNAME
  2

  9
$UCSORG
 10
0.0
 20
0.0
 30
0.0
  9
$UCSXDIR
 10
1.0
 20
0.0
 30
0.0
  9
$UCSYDIR
 10
0.0
 20
1.0
 30
0.0
  9
$UCSORTHOREF
  2

  9
$UCSORTHOVIEW
 70
     0
  9
$UCSORGTOP
 10
0.0
 20
0.0
 30
0.0
  9
$UCSORGBOTTOM
 10
0.0
 20
0.0
 30
0.0
  9
$UCSORGLEFT
 10
0.0
 20
0.0
 30
0.0
  9
$UCSORGRIGHT
 10
0.0
 20
0.0
 30
0.0
  9
$UCSORGFRONT
 10
0.0
 20
0.0
 30
0.0
  9
$UCSORGBACK
 10
0.0
 20
0.0
 30
0.0
  9
$PUCSBASE
  2

  9
$PUCSNAME
  2

  9
$PUCSORG
 10
0.0
 20
0.0
 30
0.0
  9
$PUCSXDIR
 10
1.0
 20
0.0
 30
0.0
  9
$PUCSYDIR
 10
0.0
 20
1.0
 30
0.0
  9
$PUCSORTHOREF
  2

  9
$PUCSORTHOVIEW
 70
     0
  9
$PUCSORGTOP
 10
0.0
 20
0.0
 30
0.0
  9
$PUCSORGBOTTOM
 10
0.0
 20
0.0
 30
0.0
  9
$PUCSORGLEFT
 10
0.0
 20
0.0
 30
0.0
  9
$PUCSORGRIGHT
 10
0.0
 20
0.0
 30
0.0
  9
$PUCSORGFRONT
 10
0.0
 20
0.0
 30
0.0
  9
$PUCSORGBACK
 10
0.0
 20
0.0
 30
0.0
  9
$USERI1
 70
     0
  9
$USERI2
 70
     0
  9
$USERI3
 70
     0
  9
$USERI4
 70
     0
  9
$USERI5
 70
     0
  9
$USERR1
 40
0.0
  9
$USERR2
 40
0.0
  9
$USERR3
 40
0.0
  9
$USERR4
 40
0.0
  9
$USERR5
 40
0.0
  9
$WORLDVIEW
 70
     1
  9
$SHADEDGE
 70
     3
  9
$SHADEDIF
 70
    70
  9
$TILEMODE
 70
     1
  9
$MAXACTVP
 70
    64
  9
$PINSBASE
 10
0.0
 20
0.0
 30
0.0
  9
$PLIMCHECK
 70
     0
  9
$PEXTMIN
 10
1.000000000000000E+20
 20
1.000000000000000E+20
 30
1.000000000000000E+20
  9
$PEXTMAX
 10
-1.000000000000000E+20
 20
-1.000000000000000E+20
 30
-1.000000000000000E+20
  9
$PLIMMIN
 10
0.0
 20
0.0
  9
$PLIMMAX
 10
12.0
 20
9.0
  9
$UNITMODE
 70
     0
  9
$VISRETAIN
 70
     1
  9
$PLINEGEN
 70
     0
  9
$PSLTSCALE
 70
     1
  9
$TREEDEPTH
 70
  3020
  9
$CMLSTYLE
  2
Standard
  9
$CMLJUST
 70
     0
  9
$CMLSCALE
 40
1.0
  9
$PROXYGRAPHICS
 70
     1
  9
$MEASUREMENT
 70
     0
  9
$CELWEIGHT
370
    -1
  9
$ENDCAPS
280
     0
  9
$JOINSTYLE
280
     0
  9
$LWDISPLAY
290
     1
  9
$INSUNITS
 70
     1
  9
$HYPERLINKBASE
  1

  9
$STYLESHEET
  1

  9
$XEDIT
290
     1
  9
$CEPSNTYPE
380
     0
  9
$PSTYLEMODE
290
     1
  9
$FINGERPRINTGUID
  2
{148F4A97-1179-339E-65D3-DBC44C2F09A9}
  9
$VERSIONGUID
  2
{FAEB1C32-E019-11D5-929B-00C0DF256EC4}
  9
$EXTNAMES
290
     1
  9
$PSVPSCALE
 40
0.0
  9
$OLESTARTUP
290
     0
  9
$SORTENTS
280
   127
  9
$INDEXCTL
280
     0
  9
$HIDETEXT
280
     1
  9
$XCLIPFRAME
280
     2
  9
$HALOGAP
280
     0
  9
$OBSCOLOR
 70
   257
  9
$OBSLTYPE
280
     0
  9
$INTERSECTIONDISPLAY
280
     0
  9
$INTERSECTIONCOLOR
 70
   257
  9
$DIMASSOC
280
     2
  9
$PROJECTNAME
  1

  9
$CAMERADISPLAY
290
     0
  9
$LENSLENGTH
 40
50.0
  9
$CAMERAHEIGHT
 40
0.0
  9
$STEPSPERSEC
 40
2.0
  9
$STEPSIZE
 40
6.0
  9
$3DDWFPREC
 40
2.0
  9
$PSOLWIDTH
 40
0.25
  9
$PSOLHEIGHT
 40
4.0
  9
$LOFTANG1
 40
1.570796326794897
  9
$LOFTANG2
 40
1.570796326794897
  9
$LOFTMAG1
 40
0.0
  9
$LOFTMAG2
 40
0.0
  9
$LOFTPARAM
 70
     7
  9
$LOFTNORMALS
280
     1
  9
$LATITUDE
 40
37.795
  9
$LONGITUDE
 40
-122.394
  9
$NORTHDIRECTION
 40
0.0
  9
$TIMEZONE
 70
 -8000
  9
$LIGHTGLYPHDISPLAY
280
     1
  9
$TILEMODELIGHTSYNCH
280
     1
  9
$CMATERIAL
347
3C
  9
$SOLIDHIST
280
     1
  9
$SHOWHIST
280
     1
  9
$DWFFRAME
280
     2
  9
$DGNFRAME
280
     2
  9
$REALWORLDSCALE
290
     1
  9
$INTERFERECOLOR
 62
   256
  9
$CSHADOW
280
     0
  9
$SHADOWPLANELOCATION
 40
0.0
  0
ENDSEC
  0
SECTION
  2
CLASSES
  0
CLASS
  1
ACDBDICTIONARYWDFLT
  2
AcDbDictionaryWithDefault
  3
ObjectDBX Classes
 90
        0
 91
        4
280
     0
281
     0
  0
CLASS
  1
VISUALSTYLE
  2
AcDbVisualStyle
  3
ObjectDBX Classes
 90
     4095
 91
        4
280
     0
281
     0
  0
CLASS
  1
MATERIAL
  2
AcDbMaterial
  3
ObjectDBX Classes
 90
     1153
 91
        4
280
     0
281
     0
  0
CLASS
  1
SUN
  2
AcDbSun
  3
SCENEOE
 90
     1024
 91
        4
280
     0
281
     0
  0
ENDSEC
  0
SECTION
  2
TABLES
  0
TABLE
  2
VPORT
  5
8
330
0
100
AcDbSymbolTable
 70
     1
  0
VPORT
  5
29
330
8
100
AcDbSymbolTableRecord
100
AcDbViewportTableRecord
  2
*Active
 70
     0
 10
0.0
 20
0.0
 11
1.0
 21
1.0
 12
0.0
 22
0.0
 13
0.0
 23
0.0
 14
0.5
 24
0.5
 15
0.5
 25
0.5
 16
0.0
 26
0.0
 36
1.0
 17
91.00082462281999
 27
-128.4993055234307
 37
0.0
 40
256.9986110468615
 41
0.7081814508812795
 42
50.0
 43
0.0
 44
0.0
 50
0.0
 51
0.0
 71
     0
 72
   100
 73
     1
 74
     3
 75
     0
 76
     0
 77
     0
 78
     0
281
     0
 65
     1
110
0.0
120
0.0
130
0.0
111
1.0
121
0.0
131
0.0
112
0.0
122
1.0
132
0.0
 79
     0
146
0.0
 60
     3
 61
     5
292
     1
282
     1
141
0.0
142
0.0
 63
   250
361
3F
  0
ENDTAB
  0
TABLE
  2
LTYPE
  5
5
330
0
100
AcDbSymbolTable
 70
     1
  0
LTYPE
  5
14
330
5
100
AcDbSymbolTableRecord
100
AcDbLinetypeTableRecord
  2
ByBlock
 70
     0
  3

 72
    65
 73
     0
 40
0.0
  0
LTYPE
  5
15
330
5
100
AcDbSymbolTableRecord
100
AcDbLinetypeTableRecord
  2
ByLayer
 70
     0
  3

 72
    65
 73
     0
 40
0.0
  0
LTYPE
  5
16
330
5
100
AcDbSymbolTableRecord
100
AcDbLinetypeTableRecord
  2
Continuous
 70
     0
  3
Solid line
 72
    65
 73
     0
 40
0.0
  0
ENDTAB
  0
TABLE
  2
LAYER
  5
2
330
0
100
AcDbSymbolTable
 70
     2
  0
LAYER
  5
10
330
2
100
AcDbSymbolTableRecord
100
AcDbLayerTableRecord
  2
0
 70
     0
 62
     7
  6
Continuous
370
    -3
390
F
347
3E
  0
LAYER
  5
40
330
2
100
AcDbSymbolTableRecord
100
AcDbLayerTableRecord
  2
_U+30EC_U+30A4_U+30E4_U+30FC 1
 70
     0
 62
     7
  6
Continuous
370
    -3
390
F
347
3E
  0
ENDTAB
  0
TABLE
  2
STYLE
  5
3
330
0
100
AcDbSymbolTable
 70
     1
  0
STYLE
  5
11
330
3
100
AcDbSymbolTableRecord
100
AcDbTextStyleTableRecord
  2
Standard
 70
     0
 40
0.0
 41
1.0
 50
0.0
 71
     0
 42
0.2
  3
txt
  4

  0
ENDTAB
  0
TABLE
  2
VIEW
  5
6
330
0
100
AcDbSymbolTable
 70
     0
  0
ENDTAB
  0
TABLE
  2
UCS
  5
7
330
0
100
AcDbSymbolTable
 70
     0
  0
ENDTAB
  0
TABLE
  2
APPID
  5
9
330
0
100
AcDbSymbolTable
 70
     1
  0
APPID
  5
12
330
9
100
AcDbSymbolTableRecord
100
AcDbRegAppTableRecord
  2
ACAD
 70
     0
  0
ENDTAB
  0
TABLE
  2
DIMSTYLE
  5
A
330
0
100
AcDbSymbolTable
 70
     1
100
AcDbDimStyleTable
  0
DIMSTYLE
105
27
330
A
100
AcDbSymbolTableRecord
100
AcDbDimStyleTableRecord
  2
Standard
 70
     0
178
     0
340
11
  0
ENDTAB
  0
TABLE
  2
BLOCK_RECORD
  5
1
330
0
100
AcDbSymbolTable
 70
     4
  0
BLOCK_RECORD
  5
1F
330
1
100
AcDbSymbolTableRecord
100
AcDbBlockTableRecord
  2
*Model_Space
340
22
 70
     0
280
     1
281
     0
  0
BLOCK_RECORD
  5
1B
330
1
100
AcDbSymbolTableRecord
100
AcDbBlockTableRecord
  2
*Paper_Space
340
1E
 70
     0
280
     1
281
     0
  0
BLOCK_RECORD
  5
23
330
1
100
AcDbSymbolTableRecord
100
AcDbBlockTableRecord
  2
*Paper_Space0
340
26
 70
     0
280
     1
281
     0
  0
BLOCK_RECORD
  5
41
330
1
100
AcDbSymbolTableRecord
100
AcDbBlockTableRecord
  2
block 2
340
0
102
{BLKREFS
331
42
102
}
 70
     0
280
     1
281
     0
  0
BLOCK_RECORD
  5
5D
330
1
100
AcDbSymbolTableRecord
100
AcDbBlockTableRecord
  2
block 3
340
0
102
{BLKREFS
331
5E
102
}
 70
     0
280
     1
281
     0
  0
BLOCK_RECORD
  5
79
330
1
100
AcDbSymbolTableRecord
100
AcDbBlockTableRecord
  2
block 4
340
0
102
{BLKREFS
331
7A
102
}
 70
     0
280
     1
281
     0
  0
ENDTAB
  0
ENDSEC
  0
SECTION
  2
BLOCKS
  0
BLOCK
  5
20
330
1F
100
AcDbEntity
  8
0
100
AcDbBlockBegin
  2
*Model_Space
 70
     0
 10
0.0
 20
0.0
 30
0.0
  3
*Model_Space
  1

  0
ENDBLK
  5
21
330
1F
100
AcDbEntity
  8
0
100
AcDbBlockEnd
  0
BLOCK
  5
1C
330
1B
100
AcDbEntity
 67
     1
  8
0
100
AcDbBlockBegin
  2
*Paper_Space
 70
     0
 10
0.0
 20
0.0
 30
0.0
  3
*Paper_Space
  1

  0
ENDBLK
  5
1D
330
1B
100
AcDbEntity
 67
     1
  8
0
100
AcDbBlockEnd
  0
BLOCK
  5
24
330
23
100
AcDbEntity
  8
0
100
AcDbBlockBegin
  2
*Paper_Space0
 70
     0
 10
0.0
 20
0.0
 30
0.0
  3
*Paper_Space0
  1

  0
ENDBLK
  5
25
330
23
100
AcDbEntity
  8
0
100
AcDbBlockEnd
  0
BLOCK
  5
43
330
41
100
AcDbEntity
  8
0
100
AcDbBlockBegin
  2
block 2
 70
     0
 10
0.0
 20
0.0
 30
0.0
  3
block 2
  1

  0
SPLINE
  5
45
330
41
100
AcDbEntity
  8
_U+30EC_U+30A4_U+30E4_U+30FC 1
370
     0
100
AcDbSpline
210
0.0
220
0.0
230
1.0
 70
    11
 71
     3
 72
    62
 73
    58
 74
     0
 42
0.0000000001
 43
0.0000000001
 12
1.0
 22
0.0
 32
0.0
 13
1.0
 23
0.0
 33
0.0
 40
0.0
 40
0.0
 40
0.0
 40
0.0
 40
1.0
 40
1.0
 40
1.0
 40
2.0
 40
2.0
 40
2.0
 40
3.0
 40
3.0
 40
3.0
 40
4.0
 40
4.0
 40
4.0
 40
5.0
 40
5.0
 40
5.0
 40
6.0
 40
6.0
 40
6.0
 40
7.0
 40
7.0
 40
7.0
 40
8.0
 40
8.0
 40
8.0
 40
9.0
 40
9.0
 40
9.0
 40
10.0
 40
10.0
 40
10.0
 40
11.0
 40
11.0
 40
11.0
 40
12.0
 40
12.0
 40
12.0
 40
13.0
 40
13.0
 40
13.0
 40
14.0
 40
14.0
 40
14.0
 40
15.0
 40
15.0
 40
15.0
 40
16.0
 40
16.0
 40
16.0
 40
17.0
 40
17.0
 40
17.0
 40
18.0
 40
18.0
 40
18.0
 40
19.0
 40
19.0
 40
19.0
 40
19.0
 10
82.85868053484089
 20
-140.1034206463978
 30
0.0
 10
82.7691080522244
 20
-140.0706922392879
 30
0.0
 10
82.57170408091957
 20
-139.976296622992
 30
0.0
 10
82.51813284612395
 20
-139.7585665883242
 30
0.0
 10
82.48695473198244
 20
-139.6279974694333
 30
0.0
 10
82.51675480792984
 20
-139.5329128340404
 30
0.0
 10
82.54190400497217
 20
-139.4522975996856
 30
0.0
 10
82.54190400497217
 20
-139.4522975996856
 30
0.0
 10
82.7484374793129
 20
-139.527400681264
 30
0.0
 10
82.7484374793129
 20
-139.527400681264
 30
0.0
 10
82.72518308478746
 20
-139.5976806291631
 30
0.0
 10
82.6547308821141
 20
-139.8219563452529
 30
0.0
 10
82.92138127267243
 20
-139.9187635283884
 30
0.0
 10
83.0505723533693
 20
-139.9659613365363
 30
0.0
 10
83.2173149748554
 20
-139.9525254641438
 30
0.0
 10
83.29551864237057
 20
-139.7375515058642
 30
0.0
 10
83.3353094952252
 20
-139.6283419789818
 30
0.0
 10
83.31636147005634
 20
-139.569430846184
 30
0.0
 10
83.2972411901132
 20
-139.5287787194581
 30
0.0
 10
83.25314396790199
 20
-139.4340385936137
 30
0.0
 10
83.14772404605336
 20
-139.382362161335
 30
0.0
 10
83.09639212332313
 20
-139.3634141361661
 30
0.0
 10
83.07847762679982
 20
-139.3572129642926
 30
0.0
 10
83.04402667194734
 20
-139.3468776778369
 30
0.0
 10
83.01681041761385
 20
-139.341021015512
 30
0.0
 10
83.01681041761385
 20
-139.341021015512
 30
0.0
 10
83.08330076047918
 20
-139.1584309547937
 30
0.0
 10
83.08330076047918
 20
-139.1584309547937
 30
0.0
 10
83.1167181866861
 20
-139.1773789799626
 30
0.0
 10
83.15582002044368
 20
-139.1939154382918
 30
0.0
 10
83.16184893754287
 20
-139.195982495583
 30
0.0
 10
83.22334389195458
 20
-139.2183756162371
 30
0.0
 10
83.41764727732267
 20
-139.2666069530306
 30
0.0
 10
83.4987792760003
 20
-139.0437092751349
 30
0.0
 10
83.55941295654071
 20
-138.8769666536488
 30
0.0
 10
83.45502656333764
 20
-138.7801594705133
 30
0.0
 10
83.35167369878015
 20
-138.7426079297241
 30
0.0
 10
83.10328231429362
 20
-138.6523464280105
 30
0.0
 10
83.01577688896828
 20
-138.8680094053872
 30
0.0
 10
82.98683808689218
 20
-138.934155238704
 30
0.0
 10
82.98683808689218
 20
-138.934155238704
 30
0.0
 10
82.79597979700934
 20
-138.8649088194504
 30
0.0
 10
82.79597979700934
 20
-138.8649088194504
 30
0.0
 10
82.84662270064251
 20
-138.7501871397916
 30
0.0
 10
83.00147974270449
 20
-138.4056775912667
 30
0.0
 10
83.43073864016662
 20
-138.562084926297
 30
0.0
 10
83.64140622908965
 20
-138.6385660460695
 30
0.0
 10
83.82468530890495
 20
-138.8404486415052
 30
0.0
 10
83.7233995016386
 20
-139.1188123567134
 30
0.0
 10
83.65966523516147
 20
-139.2938232073641
 30
0.0
 10
83.54218747911446
 20
-139.3389539582208
 30
0.0
 10
83.4276380542299
 20
-139.3623806075205
 30
0.0
 10
83.4758693910234
 20
-139.4092339061199
 30
0.0
 10
83.61935761798405
 20
-139.5473822350784
 30
0.0
 10
83.52461749213968
 20
-139.8078314537633
 30
0.0
 10
83.40886228383529
 20
-140.1254692575034
 30
0.0
 10
83.11912975352578
 20
-140.1981607722421
 30
0.0
 10
82.85868053484089
 20
-140.1034206463978
 30
0.0
  0
HATCH
  5
46
330
41
100
AcDbEntity
  8
_U+30EC_U+30A4_U+30E4_U+30FC 1
 62
   179
420
  2234388
100
AcDbHatch
 10
0.0
 20
0.0
 30
0.0
210
0.0
220
0.0
230
1.0
  2
SOLID
 70
     1
 71
     0
 91
        1
 92
        1
 93
        1
 72
     4
 94
        3
 73
     0
 74
     1
 95
       62
 96
       58
 40
0.0
 40
0.0
 40
0.0
 40
0.0
 40
1.0
 40
1.0
 40
1.0
 40
2.0
 40
2.0
 40
2.0
 40
3.0
 40
3.0
 40
3.0
 40
4.0
 40
4.0
 40
4.0
 40
5.0
 40
5.0
 40
5.0
 40
6.0
 40
6.0
 40
6.0
 40
7.0
 40
7.0
 40
7.0
 40
8.0
 40
8.0
 40
8.0
 40
9.0
 40
9.0
 40
9.0
 40
10.0
 40
10.0
 40
10.0
 40
11.0
 40
11.0
 40
11.0
 40
12.0
 40
12.0
 40
12.0
 40
13.0
 40
13.0
 40
13.0
 40
14.0
 40
14.0
 40
14.0
 40
15.0
 40
15.0
 40
15.0
 40
16.0
 40
16.0
 40
16.0
 40
17.0
 40
17.0
 40
17.0
 40
18.0
 40
18.0
 40
18.0
 40
19.0
 40
19.0
 40
19.0
 40
19.0
 10
82.85868053484089
 20
-140.1034206463978
 10
82.7691080522244
 20
-140.0706922392879
 10
82.57170408091957
 20
-139.976296622992
 10
82.51813284612395
 20
-139.7585665883242
 10
82.48695473198244
 20
-139.6279974694333
 10
82.51675480792984
 20
-139.5329128340404
 10
82.54190400497217
 20
-139.4522975996856
 10
82.54190400497217
 20
-139.4522975996856
 10
82.7484374793129
 20
-139.527400681264
 10
82.7484374793129
 20
-139.527400681264
 10
82.72518308478746
 20
-139.5976806291631
 10
82.6547308821141
 20
-139.8219563452529
 10
82.92138127267243
 20
-139.9187635283884
 10
83.0505723533693
 20
-139.9659613365363
 10
83.2173149748554
 20
-139.9525254641438
 10
83.29551864237057
 20
-139.7375515058642
 10
83.3353094952252
 20
-139.6283419789818
 10
83.31636147005634
 20
-139.569430846184
 10
83.2972411901132
 20
-139.5287787194581
 10
83.25314396790199
 20
-139.4340385936137
 10
83.14772404605336
 20
-139.382362161335
 10
83.09639212332313
 20
-139.3634141361661
 10
83.07847762679982
 20
-139.3572129642926
 10
83.04402667194734
 20
-139.3468776778369
 10
83.01681041761385
 20
-139.341021015512
 10
83.01681041761385
 20
-139.341021015512
 10
83.08330076047918
 20
-139.1584309547937
 10
83.08330076047918
 20
-139.1584309547937
 10
83.1167181866861
 20
-139.1773789799626
 10
83.15582002044368
 20
-139.1939154382918
 10
83.16184893754287
 20
-139.195982495583
 10
83.22334389195458
 20
-139.2183756162371
 10
83.41764727732267
 20
-139.2666069530306
 10
83.4987792760003
 20
-139.0437092751349
 10
83.55941295654071
 20
-138.8769666536488
 10
83.45502656333764
 20
-138.7801594705133
 10
83.35167369878015
 20
-138.7426079297241
 10
83.10328231429362
 20
-138.6523464280105
 10
83.01577688896828
 20
-138.8680094053872
 10
82.98683808689218
 20
-138.934155238704
 10
82.98683808689218
 20
-138.934155238704
 10
82.79597979700934
 20
-138.8649088194504
 10
82.79597979700934
 20
-138.8649088194504
 10
82.84662270064251
 20
-138.7501871397916
 10
83.00147974270449
 20
-138.4056775912667
 10
83.43073864016662
 20
-138.562084926297
 10
83.64140622908965
 20
-138.6385660460695
 10
83.82468530890495
 20
-138.8404486415052
 10
83.7233995016386
 20
-139.1188123567134
 10
83.65966523516147
 20
-139.2938232073641
 10
83.54218747911446
 20
-139.3389539582208
 10
83.4276380542299
 20
-139.3623806075205
 10
83.4758693910234
 20
-139.4092339061199
 10
83.61935761798405
 20
-139.5473822350784
 10
83.52461749213968
 20
-139.8078314537633
 10
83.40886228383529
 20
-140.1254692575034
 10
83.11912975352578
 20
-140.1981607722421
 10
82.85868053484089
 20
-140.1034206463978
 97
        0
 97
        0
 75
     2
 76
     1
 98
        0
  0
SPLINE
  5
47
330
41
100
AcDbEntity
  8
_U+30EC_U+30A4_U+30E4_U+30FC 1
370
     0
100
AcDbSpline
210
0.0
220
0.0
230
1.0
 70
    11
 71
     3
 72
    29
 73
    25
 74
     0
 42
0.0000000001
 43
0.0000000001
 12
1.0
 22
0.0
 32
0.0
 13
1.0
 23
0.0
 33
0.0
 40
0.0
 40
0.0
 40
0.0
 40
0.0
 40
1.0
 40
1.0
 40
1.0
 40
2.0
 40
2.0
 40
2.0
 40
3.0
 40
3.0
 40
3.0
 40
4.0
 40
4.0
 40
4.0
 40
5.0
 40
5.0
 40
5.0
 40
6.0
 40
6.0
 40
6.0
 40
7.0
 40
7.0
 40
7.0
 40
8.0
 40
8.0
 40
8.0
 40
8.0
 10
84.42430417811268
 20
-140.4300156983994
 30
0.0
 10
84.25136038475314
 20
-140.589868128915
 30
0.0
 10
84.08203394165311
 20
-140.548526983092
 30
0.0
 10
83.97247990522216
 20
-140.5085638754632
 30
0.0
 10
83.82158472296823
 20
-140.4537868572477
 30
0.0
 10
83.7041069669212
 20
-140.361458298243
 30
0.0
 10
83.67689071258772
 20
-140.1578531550647
 30
0.0
 10
83.646229362769
 20
-139.9394341012999
 30
0.0
 10
83.70927461014908
 20
-139.7103352515308
 30
0.0
 10
83.76508515701012
 20
-139.5573730119857
 30
0.0
 10
83.81417776767493
 20
-139.4219807594153
 30
0.0
 10
83.91598033926407
 20
-139.1911593619036
 30
0.0
 10
84.08341197984721
 20
-139.0406086891982
 30
0.0
 10
84.25446097068986
 20
-138.8866129210075
 30
0.0
 10
84.41327987255988
 20
-138.9196858376659
 30
0.0
 10
84.53454723364067
 20
-138.9637830598771
 30
0.0
 10
84.683719868152
 20
-139.0182155685441
 30
0.0
 10
84.80360919103869
 20
-139.1091660893547
 30
0.0
 10
84.83099770014643
 20
-139.3124267229844
 30
0.0
 10
84.85855846402842
 20
-139.5277451908125
 30
0.0
 10
84.80223115284458
 20
-139.7502983591596
 30
0.0
 10
84.74280325572403
 20
-139.913251375612
 30
0.0
 10
84.68423663247478
 20
-140.0741373347731
 30
0.0
 10
84.58553464682237
 20
-140.2839436498249
 30
0.0
 10
84.42430417811268
 20
-140.4300156983994
 30
0.0
  0
SPLINE
  5
48
330
41
100
AcDbEntity
  8
_U+30EC_U+30A4_U+30E4_U+30FC 1
370
     0
100
AcDbSpline
210
0.0
220
0.0
230
1.0
 70
    11
 71
     3
 72
    17
 73
    13
 74
     0
 42
0.0000000001
 43
0.0000000001
 12
1.0
 22
0.0
 32
0.0
 13
1.0
 23
0.0
 33
0.0
 40
0.0
 40
0.0
 40
0.0
 40
0.0
 40
1.0
 40
1.0
 40
1.0
 40
2.0
 40
2.0
 40
2.0
 40
3.0
 40
3.0
 40
3.0
 40
4.0
 40
4.0
 40
4.0
 40
4.0
 10
84.4687459098724
 20
-139.1449950824013
 30
0.0
 10
84.23430716210115
 20
-139.0595567143671
 30
0.0
 10
84.0935750115287
 20
-139.3100151561447
 30
0.0
 10
83.97558049115888
 20
-139.6338541317582
 30
0.0
 10
83.86637096427647
 20
-139.934266458072
 30
0.0
 10
83.79436846863474
 20
-140.2367458416769
 30
0.0
 10
84.03897024808748
 20
-140.3256293051964
 30
0.0
 10
84.27151419334184
 20
-140.4103786541335
 30
0.0
 10
84.41379663688267
 20
-140.1626762887441
 30
0.0
 10
84.53230792157527
 20
-139.8367702558394
 30
0.0
 10
84.64151744845768
 20
-139.5363579295256
 30
0.0
 10
84.71145288680825
 20
-139.2331895268237
 30
0.0
 10
84.4687459098724
 20
-139.1449950824013
 30
0.0
  0
HATCH
  5
49
330
41
100
AcDbEntity
  8
_U+30EC_U+30A4_U+30E4_U+30FC 1
 62
   179
420
  2234388
100
AcDbHatch
 10
0.0
 20
0.0
 30
0.0
210
0.0
220
0.0
230
1.0
  2
SOLID
 70
     1
 71
     0
 91
        2
 92
        1
 93
        1
 72
     4
 94
        3
 73
     0
 74
     1
 95
       29
 96
       25
 40
0.0
 40
0.0
 40
0.0
 40
0.0
 40
1.0
 40
1.0
 40
1.0
 40
2.0
 40
2.0
 40
2.0
 40
3.0
 40
3.0
 40
3.0
 40
4.0
 40
4.0
 40
4.0
 40
5.0
 40
5.0
 40
5.0
 40
6.0
 40
6.0
 40
6.0
 40
7.0
 40
7.0
 40
7.0
 40
8.0
 40
8.0
 40
8.0
 40
8.0
 10
84.42430417811268
 20
-140.4300156983994
 10
84.25136038475314
 20
-140.589868128915
 10
84.08203394165311
 20
-140.548526983092
 10
83.97247990522216
 20
-140.5085638754632
 10
83.82158472296823
 20
-140.4537868572477
 10
83.7041069669212
 20
-140.361458298243
 10
83.67689071258772
 20
-140.1578531550647
 10
83.646229362769
 20
-139.9394341012999
 10
83.70927461014908
 20
-139.7103352515308
 10
83.76508515701012
 20
-139.5573730119857
 10
83.81417776767493
 20
-139.4219807594153
 10
83.91598033926407
 20
-139.1911593619036
 10
84.08341197984721
 20
-139.0406086891982
 10
84.25446097068986
 20
-138.8866129210075
 10
84.41327987255988
 20
-138.9196858376659
 10
84.53454723364067
 20
-138.9637830598771
 10
84.683719868152
 20
-139.0182155685441
 10
84.80360919103869
 20
-139.1091660893547
 10
84.83099770014643
 20
-139.3124267229844
 10
84.85855846402842
 20
-139.5277451908125
 10
84.80223115284458
 20
-139.7502983591596
 10
84.74280325572403
 20
-139.913251375612
 10
84.68423663247478
 20
-140.0741373347731
 10
84.58553464682237
 20
-140.2839436498249
 10
84.42430417811268
 20
-140.4300156983994
 97
        0
 97
        0
 92
        1
 93
        1
 72
     4
 94
        3
 73
     0
 74
     1
 95
       17
 96
       13
 40
0.0
 40
0.0
 40
0.0
 40
0.0
 40
1.0
 40
1.0
 40
1.0
 40
2.0
 40
2.0
 40
2.0
 40
3.0
 40
3.0
 40
3.0
 40
4.0
 40
4.0
 40
4.0
 40
4.0
 10
84.4687459098724
 20
-139.1449950824013
 10
84.23430716210115
 20
-139.0595567143671
 10
84.0935750115287
 20
-139.3100151561447
 10
83.97558049115888
 20
-139.6338541317582
 10
83.86637096427647
 20
-139.934266458072
 10
83.79436846863474
 20
-140.2367458416769
 10
84.03897024808748
 20
-140.3256293051964
 10
84.27151419334184
 20
-140.4103786541335
 10
84.41379663688267
 20
-140.1626762887441
 10
84.53230792157527
 20
-139.8367702558394
 10
84.64151744845768
 20
-139.5363579295256
 10
84.71145288680825
 20
-139.2331895268237
 10
84.4687459098724
 20
-139.1449950824013
 97
        0
 97
        0
 75
     2
 76
     1
 98
        0
  0
POLYLINE
  5
4A
330
41
100
AcDbEntity
  8
_U+30EC_U+30A4_U+30E4_U+30FC 1
370
     0
100
AcDb2dPolyline
 66
     1
 10
0.0
 20
0.0
 30
0.0
  0
VERTEX
  5
4B
330
4A
100
AcDbEntity
  8
_U+30EC_U+30A4_U+30E4_U+30FC 1
370
     0
100
AcDbVertex
100
AcDb2dVertex
 10
85.6504136613131
 20
-141.0652913058795
 30
0.0
  0
VERTEX
  5
4C
330
4A
100
AcDbEntity
  8
_U+30EC_U+30A4_U+30E4_U+30FC 1
370
     0
100
AcDbVertex
100
AcDb2dVertex
 10
85.89139809050631
 20
-140.4031439536145
 30
0.0
  0
VERTEX
  5
4D
330
4A
100
AcDbEntity
  8
_U+30EC_U+30A4_U+30E4_U+30FC 1
370
     0
100
AcDbVertex
100
AcDb2dVertex
 10
85.18756508286978
 20
-140.1468288495119
 30
0.0
  0
VERTEX
  5
4E
330
4A
100
AcDbEntity
  8
_U+30EC_U+30A4_U+30E4_U+30FC 1
370
     0
100
AcDbVertex
100
AcDb2dVertex
 10
84.94658065367655
 20
-140.8089762017769
 30
0.0
  0
VERTEX
  5
4F
330
4A
100
AcDbEntity
  8
_U+30EC_U+30A4_U+30E4_U+30FC 1
370
     0
100
AcDbVertex
100
AcDb2dVertex
 10
84.7259222878463
 20
-140.7290499865191
 30
0.0
  0
VERTEX
  5
50
330
4A
100
AcDbEntity
  8
_U+30EC_U+30A4_U+30E4_U+30FC 1
370
     0
100
AcDbVertex
100
AcDb2dVertex
 10
85.2540554257351
 20
-139.2776312585834
 30
0.0
  0
VERTEX
  5
51
330
4A
100
AcDbEntity
  8
_U+30EC_U+30A4_U+30E4_U+30FC 1
370
     0
100
AcDbVertex
100
AcDb2dVertex
 10
85.47488604633962
 20
-139.3579019833897
 30
0.0
  0
VERTEX
  5
52
330
4A
100
AcDbEntity
  8
_U+30EC_U+30A4_U+30E4_U+30FC 1
370
     0
100
AcDbVertex
100
AcDb2dVertex
 10
85.25991208806002
 20
-139.9483913495615
 30
0.0
  0
VERTEX
  5
53
330
4A
100
AcDbEntity
  8
_U+30EC_U+30A4_U+30E4_U+30FC 1
370
     0
100
AcDbVertex
100
AcDb2dVertex
 10
85.96374509569657
 20
-140.2043619441156
 30
0.0
  0
VERTEX
  5
54
330
4A
100
AcDbEntity
  8
_U+30EC_U+30A4_U+30E4_U+30FC 1
370
     0
100
AcDbVertex
100
AcDb2dVertex
 10
86.17871905397615
 20
-139.6142170874923
 30
0.0
  0
VERTEX
  5
55
330
4A
100
AcDbEntity
  8
_U+30EC_U+30A4_U+30E4_U+30FC 1
370
     0
100
AcDbVertex
100
AcDb2dVertex
 10
86.39920516503214
 20
-139.6944878122986
 30
0.0
  0
VERTEX
  5
56
330
4A
100
AcDbEntity
  8
_U+30EC_U+30A4_U+30E4_U+30FC 1
370
     0
100
AcDbVertex
100
AcDb2dVertex
 10
85.87089977236909
 20
-141.1455620306859
 30
0.0
  0
VERTEX
  5
57
330
4A
100
AcDbEntity
  8
_U+30EC_U+30A4_U+30E4_U+30FC 1
370
     0
100
AcDbVertex
100
AcDb2dVertex
 10
85.6504136613131
 20
-141.0652913058795
 30
0.0
  0
SEQEND
  5
58
330
4A
100
AcDbEntity
  8
_U+30EC_U+30A4_U+30E4_U+30FC 1
370
     0
  0
HATCH
  5
59
330
41
100
AcDbEntity
  8
_U+30EC_U+30A4_U+30E4_U+30FC 1
 62
   179
420
  2234388
100
AcDbHatch
 10
0.0
 20
0.0
 30
0.0
210
0.0
220
0.0
230
1.0
  2
SOLID
 70
     1
 71
     0
 91
        1
 92
        1
 93
       12
 72
     1
 10
85.6504136613131
 20
-141.0652913058795
 11
85.89139809050631
 21
-140.4031439536145
 72
     1
 10
85.89139809050631
 20
-140.4031439536145
 11
85.18756508286978
 21
-140.1468288495119
 72
     1
 10
85.18756508286978
 20
-140.1468288495119
 11
84.94658065367655
 21
-140.8089762017769
 72
     1
 10
84.94658065367655
 20
-140.8089762017769
 11
84.7259222878463
 21
-140.7290499865191
 72
     1
 10
84.7259222878463
 20
-140.7290499865191
 11
85.2540554257351
 21
-139.2776312585834
 72
     1
 10
85.2540554257351
 20
-139.2776312585834
 11
85.47488604633962
 21
-139.3579019833897
 72
     1
 10
85.47488604633962
 20
-139.3579019833897
 11
85.25991208806002
 21
-139.9483913495615
 72
     1
 10
85.25991208806002
 20
-139.9483913495615
 11
85.96374509569657
 21
-140.2043619441156
 72
     1
 10
85.96374509569657
 20
-140.2043619441156
 11
86.17871905397615
 21
-139.6142170874923
 72
     1
 10
86.17871905397615
 20
-139.6142170874923
 11
86.39920516503214
 21
-139.6944878122986
 72
     1
 10
86.39920516503214
 20
-139.6944878122986
 11
85.87089977236909
 21
-141.1455620306859
 72
     1
 10
85.87089977236909
 20
-141.1455620306859
 11
85.6504136613131
 21
-141.0652913058795
 97
        0
 75
     2
 76
     1
 98
        0
  0
SPLINE
  5
5A
330
41
100
AcDbEntity
  8
_U+30EC_U+30A4_U+30E4_U+30FC 1
370
     0
100
AcDbSpline
210
0.0
220
0.0
230
1.0
 70
    11
 71
     3
 72
    44
 73
    40
 74
     0
 42
0.0000000001
 43
0.0000000001
 12
1.0
 22
0.0
 32
0.0
 13
1.0
 23
0.0
 33
0.0
 40
0.0
 40
0.0
 40
0.0
 40
0.0
 40
1.0
 40
1.0
 40
1.0
 40
2.0
 40
2.0
 40
2.0
 40
3.0
 40
3.0
 40
3.0
 40
4.0
 40
4.0
 40
4.0
 40
5.0
 40
5.0
 40
5.0
 40
6.0
 40
6.0
 40
6.0
 40
7.0
 40
7.0
 40
7.0
 40
8.0
 40
8.0
 40
8.0
 40
9.0
 40
9.0
 40
9.0
 40
10.0
 40
10.0
 40
10.0
 40
11.0
 40
11.0
 40
11.0
 40
12.0
 40
12.0
 40
12.0
 40
13.0
 40
13.0
 40
13.0
 40
13.0
 10
87.08856877163063
 20
-141.5889458196375
 30
0.0
 10
87.08167858066014
 20
-141.5389919351014
 30
0.0
 10
87.07995603291751
 20
-141.4821478595948
 30
0.0
 10
87.15678166223859
 20
-141.264417824927
 30
0.0
 10
87.23636336794786
 20
-141.0346299560608
 30
0.0
 10
87.20432397993504
 20
-140.9488470784781
 30
0.0
 10
87.03740910367468
 20
-140.8878688883892
 30
0.0
 10
87.03740910367468
 20
-140.8878688883892
 30
0.0
 10
86.65362546661785
 20
-140.7483425212365
 30
0.0
 10
86.65362546661785
 20
-140.7483425212365
 30
0.0
 10
86.65362546661785
 20
-140.7483425212365
 30
0.0
 10
86.4343451389817
 20
-141.3505452120582
 30
0.0
 10
86.4343451389817
 20
-141.3505452120582
 30
0.0
 10
86.4343451389817
 20
-141.3505452120582
 30
0.0
 10
86.21385902792571
 20
-141.2706189968004
 30
0.0
 10
86.21385902792571
 20
-141.2706189968004
 30
0.0
 10
86.21385902792571
 20
-141.2706189968004
 30
0.0
 10
86.74199216581451
 20
-139.8192002688646
 30
0.0
 10
86.74199216581451
 20
-139.8192002688646
 30
0.0
 10
86.74199216581451
 20
-139.8192002688646
 30
0.0
 10
87.37588973510047
 20
-140.0500216663764
 30
0.0
 10
87.37588973510047
 20
-140.0500216663764
 30
0.0
 10
87.66424422721589
 20
-140.154752569128
 30
0.0
 10
87.76277395809403
 20
-140.3728271133443
 30
0.0
 10
87.67526853276868
 20
-140.6139837973118
 30
0.0
 10
87.65804305534243
 20
-140.6615261150082
 30
0.0
 10
87.62152504319879
 20
-140.7359401774896
 30
0.0
 10
87.55227862394527
 20
-140.7962293484815
 30
0.0
 10
87.46150035790893
 20
-140.8737439968996
 30
0.0
 10
87.393287467301
 20
-140.8689208632203
 30
0.0
 10
87.32972545559812
 20
-140.8637532199924
 30
0.0
 10
87.44444713525695
 20
-140.9505696262207
 30
0.0
 10
87.49130043385635
 20
-141.0194715359257
 30
0.0
 10
87.38777531452459
 20
-141.3171277858513
 30
0.0
 10
87.29906410577941
 20
-141.5730983804054
 30
0.0
 10
87.32214624553058
 20
-141.6151285453254
 30
0.0
 10
87.36676023206456
 20
-141.6902316269038
 30
0.0
 10
87.36676023206456
 20
-141.6902316269038
 30
0.0
 10
87.08856877163063
 20
-141.5889458196375
 30
0.0
 10
87.08856877163063
 20
-141.5889458196375
 30
0.0
  0
SPLINE
  5
5B
330
41
100
AcDbEntity
  8
_U+30EC_U+30A4_U+30E4_U+30FC 1
370
     0
100
AcDbSpline
210
0.0
220
0.0
230
1.0
 70
    11
 71
     3
 72
    20
 73
    16
 74
     0
 42
0.0000000001
 43
0.0000000001
 12
1.0
 22
0.0
 32
0.0
 13
1.0
 23
0.0
 33
0.0
 40
0.0
 40
0.0
 40
0.0
 40
0.0
 40
1.0
 40
1.0
 40
1.0
 40
2.0
 40
2.0
 40
2.0
 40
3.0
 40
3.0
 40
3.0
 40
4.0
 40
4.0
 40
4.0
 40
5.0
 40
5.0
 40
5.0
 40
5.0
 10
87.30767684449253
 20
-140.2501817140694
 30
0.0
 10
87.30767684449253
 20
-140.2501817140694
 30
0.0
 10
86.89013127168025
 20
-140.0982530031699
 30
0.0
 10
86.89013127168025
 20
-140.0982530031699
 30
0.0
 10
86.89013127168025
 20
-140.0982530031699
 30
0.0
 10
86.72597247180809
 20
-140.5495605117376
 30
0.0
 10
86.72597247180809
 20
-140.5495605117376
 30
0.0
 10
86.72597247180809
 20
-140.5495605117376
 30
0.0
 10
87.14162324210349
 20
-140.7008002035401
 30
0.0
 10
87.14162324210349
 20
-140.7008002035401
 30
0.0
 10
87.23498532975375
 20
-140.7349066488441
 30
0.0
 10
87.38811982407312
 20
-140.7097574518017
 30
0.0
 10
87.44685870209662
 20
-140.548526983092
 30
0.0
 10
87.4735581921073
 20
-140.4748019397077
 30
0.0
 10
87.4947455293416
 20
-140.3183946046774
 30
0.0
 10
87.30767684449253
 20
-140.2501817140694
 30
0.0
  0
HATCH
  5
5C
330
41
100
AcDbEntity
  8
_U+30EC_U+30A4_U+30E4_U+30FC 1
 62
   179
420
  2234388
100
AcDbHatch
 10
0.0
 20
0.0
 30
0.0
210
0.0
220
0.0
230
1.0
  2
SOLID
 70
     1
 71
     0
 91
        2
 92
        1
 93
        1
 72
     4
 94
        3
 73
     0
 74
     1
 95
       44
 96
       40
 40
0.0
 40
0.0
 40
0.0
 40
0.0
 40
1.0
 40
1.0
 40
1.0
 40
2.0
 40
2.0
 40
2.0
 40
3.0
 40
3.0
 40
3.0
 40
4.0
 40
4.0
 40
4.0
 40
5.0
 40
5.0
 40
5.0
 40
6.0
 40
6.0
 40
6.0
 40
7.0
 40
7.0
 40
7.0
 40
8.0
 40
8.0
 40
8.0
 40
9.0
 40
9.0
 40
9.0
 40
10.0
 40
10.0
 40
10.0
 40
11.0
 40
11.0
 40
11.0
 40
12.0
 40
12.0
 40
12.0
 40
13.0
 40
13.0
 40
13.0
 40
13.0
 10
87.08856877163063
 20
-141.5889458196375
 10
87.08167858066014
 20
-141.5389919351014
 10
87.07995603291751
 20
-141.4821478595948
 10
87.15678166223859
 20
-141.264417824927
 10
87.23636336794786
 20
-141.0346299560608
 10
87.20432397993504
 20
-140.9488470784781
 10
87.03740910367468
 20
-140.8878688883892
 10
87.03740910367468
 20
-140.8878688883892
 10
86.65362546661785
 20
-140.7483425212365
 10
86.65362546661785
 20
-140.7483425212365
 10
86.65362546661785
 20
-140.7483425212365
 10
86.4343451389817
 20
-141.3505452120582
 10
86.4343451389817
 20
-141.3505452120582
 10
86.4343451389817
 20
-141.3505452120582
 10
86.21385902792571
 20
-141.2706189968004
 10
86.21385902792571
 20
-141.2706189968004
 10
86.21385902792571
 20
-141.2706189968004
 10
86.74199216581451
 20
-139.8192002688646
 10
86.74199216581451
 20
-139.8192002688646
 10
86.74199216581451
 20
-139.8192002688646
 10
87.37588973510047
 20
-140.0500216663764
 10
87.37588973510047
 20
-140.0500216663764
 10
87.66424422721589
 20
-140.154752569128
 10
87.76277395809403
 20
-140.3728271133443
 10
87.67526853276868
 20
-140.6139837973118
 10
87.65804305534243
 20
-140.6615261150082
 10
87.62152504319879
 20
-140.7359401774896
 10
87.55227862394527
 20
-140.7962293484815
 10
87.46150035790893
 20
-140.8737439968996
 10
87.393287467301
 20
-140.8689208632203
 10
87.32972545559812
 20
-140.8637532199924
 10
87.44444713525695
 20
-140.9505696262207
 10
87.49130043385635
 20
-141.0194715359257
 10
87.38777531452459
 20
-141.3171277858513
 10
87.29906410577941
 20
-141.5730983804054
 10
87.32214624553058
 20
-141.6151285453254
 10
87.36676023206456
 20
-141.6902316269038
 10
87.36676023206456
 20
-141.6902316269038
 10
87.08856877163063
 20
-141.5889458196375
 10
87.08856877163063
 20
-141.5889458196375
 97
        0
 97
        0
 92
        1
 93
        1
 72
     4
 94
        3
 73
     0
 74
     1
 95
       20
 96
       16
 40
0.0
 40
0.0
 40
0.0
 40
0.0
 40
1.0
 40
1.0
 40
1.0
 40
2.0
 40
2.0
 40
2.0
 40
3.0
 40
3.0
 40
3.0
 40
4.0
 40
4.0
 40
4.0
 40
5.0
 40
5.0
 40
5.0
 40
5.0
 10
87.30767684449253
 20
-140.2501817140694
 10
87.30767684449253
 20
-140.2501817140694
 10
86.89013127168025
 20
-140.0982530031699
 10
86.89013127168025
 20
-140.0982530031699
 10
86.89013127168025
 20
-140.0982530031699
 10
86.72597247180809
 20
-140.5495605117376
 10
86.72597247180809
 20
-140.5495605117376
 10
86.72597247180809
 20
-140.5495605117376
 10
87.14162324210349
 20
-140.7008002035401
 10
87.14162324210349
 20
-140.7008002035401
 10
87.23498532975375
 20
-140.7349066488441
 10
87.38811982407312
 20
-140.7097574518017
 10
87.44685870209662
 20
-140.548526983092
 10
87.4735581921073
 20
-140.4748019397077
 10
87.4947455293416
 20
-140.3183946046774
 10
87.30767684449253
 20
-140.2501817140694
 97
        0
 97
        0
 75
     2
 76
     1
 98
        0
  0
ENDBLK
  5
44
330
41
100
AcDbEntity
  8
0
100
AcDbBlockEnd
  0
BLOCK
  5
5F
330
5D
100
AcDbEntity
  8
0
100
AcDbBlockBegin
  2
block 3
 70
     0
 10
0.0
 20
0.0
 30
0.0
  3
block 3
  1

  0
SPLINE
  5
61
330
5D
100
AcDbEntity
  8
_U+30EC_U+30A4_U+30E4_U+30FC 1
370
     0
100
AcDbSpline
210
0.0
220
0.0
230
1.0
 70
    11
 71
     3
 72
    62
 73
    58
 74
     0
 42
0.0000000001
 43
0.0000000001
 12
1.0
 22
0.0
 32
0.0
 13
1.0
 23
0.0
 33
0.0
 40
0.0
 40
0.0
 40
0.0
 40
0.0
 40
1.0
 40
1.0
 40
1.0
 40
2.0
 40
2.0
 40
2.0
 40
3.0
 40
3.0
 40
3.0
 40
4.0
 40
4.0
 40
4.0
 40
5.0
 40
5.0
 40
5.0
 40
6.0
 40
6.0
 40
6.0
 40
7.0
 40
7.0
 40
7.0
 40
8.0
 40
8.0
 40
8.0
 40
9.0
 40
9.0
 40
9.0
 40
10.0
 40
10.0
 40
10.0
 40
11.0
 40
11.0
 40
11.0
 40
12.0
 40
12.0
 40
12.0
 40
13.0
 40
13.0
 40
13.0
 40
14.0
 40
14.0
 40
14.0
 40
15.0
 40
15.0
 40
15.0
 40
16.0
 40
16.0
 40
16.0
 40
17.0
 40
17.0
 40
17.0
 40
18.0
 40
18.0
 40
18.0
 40
19.0
 40
19.0
 40
19.0
 40
19.0
 10
80.33066946776457
 20
-121.9248575541542
 30
0.0
 10
80.26349010580219
 20
-121.9922091708908
 30
0.0
 10
80.09433591747641
 20
-122.1312187737207
 30
0.0
 10
79.87453882551748
 20
-122.0878105706065
 30
0.0
 10
79.74293617798094
 20
-122.0607665710473
 30
0.0
 10
79.66955564414512
 20
-121.9935872090849
 30
0.0
 10
79.60685490631357
 20
-121.9367431335783
 30
0.0
 10
79.60685490631357
 20
-121.9367431335783
 30
0.0
 10
79.76222871269833
 20
-121.7811970724193
 30
0.0
 10
79.76222871269833
 20
-121.7811970724193
 30
0.0
 10
79.81631671181675
 20
-121.8320122308267
 30
0.0
 10
79.98994952427336
 20
-121.9904866231482
 30
0.0
 10
80.19010957196636
 20
-121.7901543206809
 30
0.0
 10
80.28760577419894
 20
-121.6928303732226
 30
0.0
 10
80.34582788789966
 20
-121.5359062738695
 30
0.0
 10
80.18425290964144
 20
-121.374159040837
 30
0.0
 10
80.10191512754398
 20
-121.2919935135138
 30
0.0
 10
80.04059242790652
 20
-121.2844143034463
 30
0.0
 10
79.99580618659827
 20
-121.2845865582205
 30
0.0
 10
79.89107528384667
 20
-121.2845865582205
 30
0.0
 10
79.79978025348755
 20
-121.3579670920563
 30
0.0
 10
79.76085067450424
 20
-121.3967244162654
 30
0.0
 10
79.74775931166029
 20
-121.4101602886579
 30
0.0
 10
79.72364364326354
 20
-121.4370320334428
 30
0.0
 10
79.70710718493434
 20
-121.4594251540969
 30
0.0
 10
79.70710718493434
 20
-121.4594251540969
 30
0.0
 10
79.56930336552435
 20
-121.3217935894612
 30
0.0
 10
79.56930336552435
 20
-121.3217935894612
 30
0.0
 10
79.60099824398864
 20
-121.2995727235814
 30
0.0
 10
79.63234861290442
 20
-121.271150685828
 30
0.0
 10
79.63682723703523
 20
-121.266499806923
 30
0.0
 10
79.68299151653758
 20
-121.2203355274206
 30
0.0
 10
79.80908201129773
 20
-121.0646172114873
 30
0.0
 10
79.64130586116606
 20
-120.8970133161299
 30
0.0
 10
79.51555987595445
 20
-120.7714395856926
 30
0.0
 10
79.3839572284179
 20
-120.8253553300367
 30
0.0
 10
79.30609807045126
 20
-120.9030422332291
 30
0.0
 10
79.11937389515072
 20
-121.0899386633039
 30
0.0
 10
79.27784828747221
 20
-121.2604708898238
 30
0.0
 10
79.32539060516865
 20
-121.3143866341679
 30
0.0
 10
79.32539060516865
 20
-121.3143866341679
 30
0.0
 10
79.18207463298226
 20
-121.4578748611286
 30
0.0
 10
79.18207463298226
 20
-121.4578748611286
 30
0.0
 10
79.0997368508848
 20
-121.3638237543813
 30
0.0
 10
78.85272350459238
 20
-121.0780530838798
 30
0.0
 10
79.17587346110881
 20
-120.7549031273634
 30
0.0
 10
79.3343478534303
 20
-120.5964287350419
 30
0.0
 10
79.5947970721152
 20
-120.5156412459128
 30
0.0
 10
79.80425887761838
 20
-120.725103051416
 30
0.0
 10
79.93586152515493
 20
-120.8567056989525
 30
0.0
 10
79.92690427689328
 20
-120.9822794293898
 30
0.0
 10
79.90003253210833
 20
-121.0959675804031
 30
0.0
 10
79.9630777794884
 20
-121.0720241667806
 30
0.0
 10
80.14842391659484
 20
-121.0003661806874
 30
0.0
 10
80.34444984970555
 20
-121.1963921137981
 30
0.0
 10
80.5835394763819
 20
-121.4356539952487
 30
0.0
 10
80.5270399104238
 20
-121.7288316210435
 30
0.0
 10
80.33066946776457
 20
-121.9248575541542
 30
0.0
  0
HATCH
  5
62
330
5D
100
AcDbEntity
  8
_U+30EC_U+30A4_U+30E4_U+30FC 1
 62
   179
420
  2234388
100
AcDbHatch
 10
0.0
 20
0.0
 30
0.0
210
0.0
220
0.0
230
1.0
  2
SOLID
 70
     1
 71
     0
 91
        1
 92
        1
 93
        1
 72
     4
 94
        3
 73
     0
 74
     1
 95
       62
 96
       58
 40
0.0
 40
0.0
 40
0.0
 40
0.0
 40
1.0
 40
1.0
 40
1.0
 40
2.0
 40
2.0
 40
2.0
 40
3.0
 40
3.0
 40
3.0
 40
4.0
 40
4.0
 40
4.0
 40
5.0
 40
5.0
 40
5.0
 40
6.0
 40
6.0
 40
6.0
 40
7.0
 40
7.0
 40
7.0
 40
8.0
 40
8.0
 40
8.0
 40
9.0
 40
9.0
 40
9.0
 40
10.0
 40
10.0
 40
10.0
 40
11.0
 40
11.0
 40
11.0
 40
12.0
 40
12.0
 40
12.0
 40
13.0
 40
13.0
 40
13.0
 40
14.0
 40
14.0
 40
14.0
 40
15.0
 40
15.0
 40
15.0
 40
16.0
 40
16.0
 40
16.0
 40
17.0
 40
17.0
 40
17.0
 40
18.0
 40
18.0
 40
18.0
 40
19.0
 40
19.0
 40
19.0
 40
19.0
 10
80.33066946776457
 20
-121.9248575541542
 10
80.26349010580219
 20
-121.9922091708908
 10
80.09433591747641
 20
-122.1312187737207
 10
79.87453882551748
 20
-122.0878105706065
 10
79.74293617798094
 20
-122.0607665710473
 10
79.66955564414512
 20
-121.9935872090849
 10
79.60685490631357
 20
-121.9367431335783
 10
79.60685490631357
 20
-121.9367431335783
 10
79.76222871269833
 20
-121.7811970724193
 10
79.76222871269833
 20
-121.7811970724193
 10
79.81631671181675
 20
-121.8320122308267
 10
79.98994952427336
 20
-121.9904866231482
 10
80.19010957196636
 20
-121.7901543206809
 10
80.28760577419894
 20
-121.6928303732226
 10
80.34582788789966
 20
-121.5359062738695
 10
80.18425290964144
 20
-121.374159040837
 10
80.10191512754398
 20
-121.2919935135138
 10
80.04059242790652
 20
-121.2844143034463
 10
79.99580618659827
 20
-121.2845865582205
 10
79.89107528384667
 20
-121.2845865582205
 10
79.79978025348755
 20
-121.3579670920563
 10
79.76085067450424
 20
-121.3967244162654
 10
79.74775931166029
 20
-121.4101602886579
 10
79.72364364326354
 20
-121.4370320334428
 10
79.70710718493434
 20
-121.4594251540969
 10
79.70710718493434
 20
-121.4594251540969
 10
79.56930336552435
 20
-121.3217935894612
 10
79.56930336552435
 20
-121.3217935894612
 10
79.60099824398864
 20
-121.2995727235814
 10
79.63234861290442
 20
-121.271150685828
 10
79.63682723703523
 20
-121.266499806923
 10
79.68299151653758
 20
-121.2203355274206
 10
79.80908201129773
 20
-121.0646172114873
 10
79.64130586116606
 20
-120.8970133161299
 10
79.51555987595445
 20
-120.7714395856926
 10
79.3839572284179
 20
-120.8253553300367
 10
79.30609807045126
 20
-120.9030422332291
 10
79.11937389515072
 20
-121.0899386633039
 10
79.27784828747221
 20
-121.2604708898238
 10
79.32539060516865
 20
-121.3143866341679
 10
79.32539060516865
 20
-121.3143866341679
 10
79.18207463298226
 20
-121.4578748611286
 10
79.18207463298226
 20
-121.4578748611286
 10
79.0997368508848
 20
-121.3638237543813
 10
78.85272350459238
 20
-121.0780530838798
 10
79.17587346110881
 20
-120.7549031273634
 10
79.3343478534303
 20
-120.5964287350419
 10
79.5947970721152
 20
-120.5156412459128
 10
79.80425887761838
 20
-120.725103051416
 10
79.93586152515493
 20
-120.8567056989525
 10
79.92690427689328
 20
-120.9822794293898
 10
79.90003253210833
 20
-121.0959675804031
 10
79.9630777794884
 20
-121.0720241667806
 10
80.14842391659484
 20
-121.0003661806874
 10
80.34444984970555
 20
-121.1963921137981
 10
80.5835394763819
 20
-121.4356539952487
 10
80.5270399104238
 20
-121.7288316210435
 10
80.33066946776457
 20
-121.9248575541542
 97
        0
 97
        0
 75
     2
 76
     1
 98
        0
  0
SPLINE
  5
63
330
5D
100
AcDbEntity
  8
_U+30EC_U+30A4_U+30E4_U+30FC 1
370
     0
100
AcDbSpline
210
0.0
220
0.0
230
1.0
 70
    11
 71
     3
 72
    29
 73
    25
 74
     0
 42
0.0000000001
 43
0.0000000001
 12
1.0
 22
0.0
 32
0.0
 13
1.0
 23
0.0
 33
0.0
 40
0.0
 40
0.0
 40
0.0
 40
0.0
 40
1.0
 40
1.0
 40
1.0
 40
2.0
 40
2.0
 40
2.0
 40
3.0
 40
3.0
 40
3.0
 40
4.0
 40
4.0
 40
4.0
 40
5.0
 40
5.0
 40
5.0
 40
6.0
 40
6.0
 40
6.0
 40
7.0
 40
7.0
 40
7.0
 40
8.0
 40
8.0
 40
8.0
 40
8.0
 10
81.28875052221254
 20
-120.6437987979641
 30
0.0
 10
81.36040850830574
 20
-120.8680745140538
 30
0.0
 10
81.25119898142331
 20
-121.0043280404955
 30
0.0
 10
81.16920570887437
 20
-121.0866658225929
 30
0.0
 10
81.05551755786112
 20
-121.2003539736062
 30
0.0
 10
80.92219236258195
 20
-121.2677055903428
 30
0.0
 10
80.72616642947123
 20
-121.2063828907054
 30
0.0
 10
80.51532658577395
 20
-121.1419596051312
 30
0.0
 10
80.33411456324981
 20
-120.9877915821663
 30
0.0
 10
80.21904837404246
 20
-120.8725531381846
 30
0.0
 10
80.1174180572276
 20
-120.7709228213698
 30
0.0
 10
79.95136445483855
 20
-120.5810980601325
 30
0.0
 10
79.88556313107028
 20
-120.3656073375301
 30
0.0
 10
79.81803925955938
 20
-120.1454657360227
 30
0.0
 10
79.91519095224344
 20
-120.0155856362287
 30
0.0
 10
80.00683049215107
 20
-119.9242906058696
 30
0.0
 10
80.1187960954217
 20
-119.8121527478247
 30
0.0
 10
80.25212129070086
 20
-119.7417005451514
 30
0.0
 10
80.44780271426305
 20
-119.8030232447888
 30
0.0
 10
80.65450844337805
 20
-119.8689968233314
 30
0.0
 10
80.83227537041694
 20
-120.0140353432604
 30
0.0
 10
80.95492076969182
 20
-120.1366807425353
 30
0.0
 10
81.07618813077262
 20
-120.2579481036161
 30
0.0
 10
81.22432723663836
 20
-120.4358872854292
 30
0.0
 10
81.28875052221254
 20
-120.6437987979641
 30
0.0
  0
SPLINE
  5
64
330
5D
100
AcDbEntity
  8
_U+30EC_U+30A4_U+30E4_U+30FC 1
370
     0
100
AcDbSpline
210
0.0
220
0.0
230
1.0
 70
    11
 71
     3
 72
    17
 73
    13
 74
     0
 42
0.0000000001
 43
0.0000000001
 12
1.0
 22
0.0
 32
0.0
 13
1.0
 23
0.0
 33
0.0
 40
0.0
 40
0.0
 40
0.0
 40
0.0
 40
1.0
 40
1.0
 40
1.0
 40
2.0
 40
2.0
 40
2.0
 40
3.0
 40
3.0
 40
3.0
 40
4.0
 40
4.0
 40
4.0
 40
4.0
 10
80.14291176381845
 20
-120.0605441323113
 30
0.0
 10
79.96617836542512
 20
-120.2371052759303
 30
0.0
 10
80.1339545155568
 20
-120.4701659855075
 30
0.0
 10
80.37752276636395
 20
-120.7139064910889
 30
0.0
 10
80.60352103019635
 20
-120.9399047549213
 30
0.0
 10
80.84743379055203
 20
-121.1330023568695
 30
0.0
 10
81.03140188946438
 20
-120.9490342579572
 30
0.0
 10
81.20641274011507
 20
-120.7740234073065
 30
0.0
 10
81.04173717592012
 20
-120.5404459334066
 30
0.0
 10
80.79644637737033
 20
-120.2951551348568
 30
0.0
 10
80.57044811353795
 20
-120.0693291257986
 30
0.0
 10
80.32550182453669
 20
-119.877954071593
 30
0.0
 10
80.14291176381845
 20
-120.0605441323113
 30
0.0
  0
HATCH
  5
65
330
5D
100
AcDbEntity
  8
_U+30EC_U+30A4_U+30E4_U+30FC 1
 62
   179
420
  2234388
100
AcDbHatch
 10
0.0
 20
0.0
 30
0.0
210
0.0
220
0.0
230
1.0
  2
SOLID
 70
     1
 71
     0
 91
        2
 92
        1
 93
        1
 72
     4
 94
        3
 73
     0
 74
     1
 95
       29
 96
       25
 40
0.0
 40
0.0
 40
0.0
 40
0.0
 40
1.0
 40
1.0
 40
1.0
 40
2.0
 40
2.0
 40
2.0
 40
3.0
 40
3.0
 40
3.0
 40
4.0
 40
4.0
 40
4.0
 40
5.0
 40
5.0
 40
5.0
 40
6.0
 40
6.0
 40
6.0
 40
7.0
 40
7.0
 40
7.0
 40
8.0
 40
8.0
 40
8.0
 40
8.0
 10
81.28875052221254
 20
-120.6437987979641
 10
81.36040850830574
 20
-120.8680745140538
 10
81.25119898142331
 20
-121.0043280404955
 10
81.16920570887437
 20
-121.0866658225929
 10
81.05551755786112
 20
-121.2003539736062
 10
80.92219236258195
 20
-121.2677055903428
 10
80.72616642947123
 20
-121.2063828907054
 10
80.51532658577395
 20
-121.1419596051312
 10
80.33411456324981
 20
-120.9877915821663
 10
80.21904837404246
 20
-120.8725531381846
 10
80.1174180572276
 20
-120.7709228213698
 10
79.95136445483855
 20
-120.5810980601325
 10
79.88556313107028
 20
-120.3656073375301
 10
79.81803925955938
 20
-120.1454657360227
 10
79.91519095224344
 20
-120.0155856362287
 10
80.00683049215107
 20
-119.9242906058696
 10
80.1187960954217
 20
-119.8121527478247
 10
80.25212129070086
 20
-119.7417005451514
 10
80.44780271426305
 20
-119.8030232447888
 10
80.65450844337805
 20
-119.8689968233314
 10
80.83227537041694
 20
-120.0140353432604
 10
80.95492076969182
 20
-120.1366807425353
 10
81.07618813077262
 20
-120.2579481036161
 10
81.22432723663836
 20
-120.4358872854292
 10
81.28875052221254
 20
-120.6437987979641
 97
        0
 97
        0
 92
        1
 93
        1
 72
     4
 94
        3
 73
     0
 74
     1
 95
       17
 96
       13
 40
0.0
 40
0.0
 40
0.0
 40
0.0
 40
1.0
 40
1.0
 40
1.0
 40
2.0
 40
2.0
 40
2.0
 40
3.0
 40
3.0
 40
3.0
 40
4.0
 40
4.0
 40
4.0
 40
4.0
 10
80.14291176381845
 20
-120.0605441323113
 10
79.96617836542512
 20
-120.2371052759303
 10
80.1339545155568
 20
-120.4701659855075
 10
80.37752276636395
 20
-120.7139064910889
 10
80.60352103019635
 20
-120.9399047549213
 10
80.84743379055203
 20
-121.1330023568695
 10
81.03140188946438
 20
-120.9490342579572
 10
81.20641274011507
 20
-120.7740234073065
 10
81.04173717592012
 20
-120.5404459334066
 10
80.79644637737033
 20
-120.2951551348568
 10
80.57044811353795
 20
-120.0693291257986
 10
80.32550182453669
 20
-119.877954071593
 10
80.14291176381845
 20
-120.0605441323113
 97
        0
 97
        0
 75
     2
 76
     1
 98
        0
  0
POLYLINE
  5
66
330
5D
100
AcDbEntity
  8
_U+30EC_U+30A4_U+30E4_U+30FC 1
370
     0
100
AcDb2dPolyline
 66
     1
 10
0.0
 20
0.0
 30
0.0
  0
VERTEX
  5
67
330
66
100
AcDbEntity
  8
_U+30EC_U+30A4_U+30E4_U+30FC 1
370
     0
100
AcDbVertex
100
AcDb2dVertex
 10
82.38256833877936
 20
-119.8011284422719
 30
0.0
  0
VERTEX
  5
68
330
66
100
AcDbEntity
  8
_U+30EC_U+30A4_U+30E4_U+30FC 1
370
     0
100
AcDbVertex
100
AcDb2dVertex
 10
81.88440753161224
 20
-119.3029676351048
 30
0.0
  0
VERTEX
  5
69
330
66
100
AcDbEntity
  8
_U+30EC_U+30A4_U+30E4_U+30FC 1
370
     0
100
AcDbVertex
100
AcDb2dVertex
 10
81.35489635552933
 20
-119.8324788111877
 30
0.0
  0
VERTEX
  5
6A
330
66
100
AcDbEntity
  8
_U+30EC_U+30A4_U+30E4_U+30FC 1
370
     0
100
AcDbVertex
100
AcDb2dVertex
 10
81.85305716269646
 20
-120.3306396183549
 30
0.0
  0
VERTEX
  5
6B
330
66
100
AcDbEntity
  8
_U+30EC_U+30A4_U+30E4_U+30FC 1
370
     0
100
AcDbVertex
100
AcDb2dVertex
 10
81.68700356030742
 20
-120.4966932207439
 30
0.0
  0
VERTEX
  5
6C
330
66
100
AcDbEntity
  8
_U+30EC_U+30A4_U+30E4_U+30FC 1
370
     0
100
AcDbVertex
100
AcDb2dVertex
 10
80.59525280103175
 20
-119.404770206694
 30
0.0
  0
VERTEX
  5
6D
330
66
100
AcDbEntity
  8
_U+30EC_U+30A4_U+30E4_U+30FC 1
370
     0
100
AcDbVertex
100
AcDb2dVertex
 10
80.76130640342079
 20
-119.2387166043049
 30
0.0
  0
VERTEX
  5
6E
330
66
100
AcDbEntity
  8
_U+30EC_U+30A4_U+30E4_U+30FC 1
370
     0
100
AcDbVertex
100
AcDb2dVertex
 10
81.20537921146949
 20
-119.6829616671279
 30
0.0
  0
VERTEX
  5
6F
330
66
100
AcDbEntity
  8
_U+30EC_U+30A4_U+30E4_U+30FC 1
370
     0
100
AcDbVertex
100
AcDb2dVertex
 10
81.7348903875524
 20
-119.153450491045
 30
0.0
  0
VERTEX
  5
70
330
66
100
AcDbEntity
  8
_U+30EC_U+30A4_U+30E4_U+30FC 1
370
     0
100
AcDbVertex
100
AcDb2dVertex
 10
81.29047306995517
 20
-118.709205428222
 30
0.0
  0
VERTEX
  5
71
330
66
100
AcDbEntity
  8
_U+30EC_U+30A4_U+30E4_U+30FC 1
370
     0
100
AcDbVertex
100
AcDb2dVertex
 10
81.45652667234421
 20
-118.543151825833
 30
0.0
  0
VERTEX
  5
72
330
66
100
AcDbEntity
  8
_U+30EC_U+30A4_U+30E4_U+30FC 1
370
     0
100
AcDbVertex
100
AcDb2dVertex
 10
82.5486219411684
 20
-119.6350748398829
 30
0.0
  0
VERTEX
  5
73
330
66
100
AcDbEntity
  8
_U+30EC_U+30A4_U+30E4_U+30FC 1
370
     0
100
AcDbVertex
100
AcDb2dVertex
 10
82.38256833877936
 20
-119.8011284422719
 30
0.0
  0
SEQEND
  5
74
330
66
100
AcDbEntity
  8
_U+30EC_U+30A4_U+30E4_U+30FC 1
370
     0
  0
HATCH
  5
75
330
5D
100
AcDbEntity
  8
_U+30EC_U+30A4_U+30E4_U+30FC 1
 62
   179
420
  2234388
100
AcDbHatch
 10
0.0
 20
0.0
 30
0.0
210
0.0
220
0.0
230
1.0
  2
SOLID
 70
     1
 71
     0
 91
        1
 92
        1
 93
       12
 72
     1
 10
82.38256833877936
 20
-119.8011284422719
 11
81.88440753161224
 21
-119.3029676351048
 72
     1
 10
81.88440753161224
 20
-119.3029676351048
 11
81.35489635552933
 21
-119.8324788111877
 72
     1
 10
81.35489635552933
 20
-119.8324788111877
 11
81.85305716269646
 21
-120.3306396183549
 72
     1
 10
81.85305716269646
 20
-120.3306396183549
 11
81.68700356030742
 21
-120.4966932207439
 72
     1
 10
81.68700356030742
 20
-120.4966932207439
 11
80.59525280103175
 21
-119.404770206694
 72
     1
 10
80.59525280103175
 20
-119.404770206694
 11
80.76130640342079
 21
-119.2387166043049
 72
     1
 10
80.76130640342079
 20
-119.2387166043049
 11
81.20537921146949
 21
-119.6829616671279
 72
     1
 10
81.20537921146949
 20
-119.6829616671279
 11
81.7348903875524
 21
-119.153450491045
 72
     1
 10
81.7348903875524
 20
-119.153450491045
 11
81.29047306995517
 21
-118.709205428222
 72
     1
 10
81.29047306995517
 20
-118.709205428222
 11
81.45652667234421
 21
-118.543151825833
 72
     1
 10
81.45652667234421
 20
-118.543151825833
 11
82.5486219411684
 21
-119.6350748398829
 72
     1
 10
82.5486219411684
 20
-119.6350748398829
 11
82.38256833877936
 21
-119.8011284422719
 97
        0
 75
     2
 76
     1
 98
        0
  0
SPLINE
  5
76
330
5D
100
AcDbEntity
  8
_U+30EC_U+30A4_U+30E4_U+30FC 1
370
     0
100
AcDbSpline
210
0.0
220
0.0
230
1.0
 70
    11
 71
     3
 72
    44
 73
    40
 74
     0
 42
0.0000000001
 43
0.0000000001
 12
1.0
 22
0.0
 32
0.0
 13
1.0
 23
0.0
 33
0.0
 40
0.0
 40
0.0
 40
0.0
 40
0.0
 40
1.0
 40
1.0
 40
1.0
 40
2.0
 40
2.0
 40
2.0
 40
3.0
 40
3.0
 40
3.0
 40
4.0
 40
4.0
 40
4.0
 40
5.0
 40
5.0
 40
5.0
 40
6.0
 40
6.0
 40
6.0
 40
7.0
 40
7.0
 40
7.0
 40
8.0
 40
8.0
 40
8.0
 40
9.0
 40
9.0
 40
9.0
 40
10.0
 40
10.0
 40
10.0
 40
11.0
 40
11.0
 40
11.0
 40
12.0
 40
12.0
 40
12.0
 40
13.0
 40
13.0
 40
13.0
 40
13.0
 10
83.46501734024486
 20
-118.7188516955807
 30
0.0
 10
83.41678600345136
 20
-118.7040377849941
 30
0.0
 10
83.36476506162408
 20
-118.6814724095657
 30
0.0
 10
83.19974498788062
 20
-118.5200696860818
 30
0.0
 10
83.02507864677845
 20
-118.3510877525303
 30
0.0
 10
82.93378361641933
 20
-118.3435085424627
 30
0.0
 10
82.80803763120771
 20
-118.4692545276744
 30
0.0
 10
82.80803763120771
 20
-118.4692545276744
 30
0.0
 10
82.51968313909231
 20
-118.757781274564
 30
0.0
 10
82.51968313909231
 20
-118.757781274564
 30
0.0
 10
82.51968313909231
 20
-118.757781274564
 30
0.0
 10
82.97271319540266
 20
-119.2109835856486
 30
0.0
 10
82.97271319540266
 20
-119.2109835856486
 30
0.0
 10
82.97271319540266
 20
-119.2109835856486
 30
0.0
 10
82.80665959301362
 20
-119.3770371880377
 30
0.0
 10
82.80665959301362
 20
-119.3770371880377
 30
0.0
 10
82.80665959301362
 20
-119.3770371880377
 30
0.0
 10
81.71490883373794
 20
-118.2851141739878
 30
0.0
 10
81.71490883373794
 20
-118.2851141739878
 30
0.0
 10
81.71490883373794
 20
-118.2851141739878
 30
0.0
 10
82.19171004889652
 20
-117.8079684492807
 30
0.0
 10
82.19171004889652
 20
-117.8079684492807
 30
0.0
 10
82.40875106446725
 20
-117.5910996884842
 30
0.0
 10
82.6478406911436
 20
-117.5940280196466
 30
0.0
 10
82.82905271366774
 20
-117.7750677873965
 30
0.0
 10
82.86488170671434
 20
-117.8108967804431
 30
0.0
 10
82.91724715809013
 20
-117.8753200660173
 30
0.0
 10
82.94274086468099
 20
-117.9635145104397
 30
0.0
 10
82.97443574314528
 20
-118.0787529544213
 30
0.0
 10
82.94136282648688
 20
-118.1385253610904
 30
0.0
 10
82.90966794802259
 20
-118.1938191436286
 30
0.0
 10
83.03713648097683
 20
-118.1266397816663
 30
0.0
 10
83.11912975352578
 20
-118.1132039092738
 30
0.0
 10
83.34512801735816
 20
-118.3328287464585
 30
0.0
 10
83.53943140272625
 20
-118.5214477242759
 30
0.0
 10
83.58766273951976
 20
-118.5185193931134
 30
0.0
 10
83.67447914574805
 20
-118.5093898900775
 30
0.0
 10
83.67447914574805
 20
-118.5093898900775
 30
0.0
 10
83.46501734024486
 20
-118.7188516955807
 30
0.0
 10
83.46501734024486
 20
-118.7188516955807
 30
0.0
  0
SPLINE
  5
77
330
5D
100
AcDbEntity
  8
_U+30EC_U+30A4_U+30E4_U+30FC 1
370
     0
100
AcDbSpline
210
0.0
220
0.0
230
1.0
 70
    11
 71
     3
 72
    20
 73
    16
 74
     0
 42
0.0000000001
 43
0.0000000001
 12
1.0
 22
0.0
 32
0.0
 13
1.0
 23
0.0
 33
0.0
 40
0.0
 40
0.0
 40
0.0
 40
0.0
 40
1.0
 40
1.0
 40
1.0
 40
2.0
 40
2.0
 40
2.0
 40
3.0
 40
3.0
 40
3.0
 40
4.0
 40
4.0
 40
4.0
 40
5.0
 40
5.0
 40
5.0
 40
5.0
 10
82.34432777889309
 20
-117.954557262178
 30
0.0
 10
82.34432777889309
 20
-117.954557262178
 30
0.0
 10
82.03047958018684
 20
-118.2685777156586
 30
0.0
 10
82.03047958018684
 20
-118.2685777156586
 30
0.0
 10
82.03047958018684
 20
-118.2685777156586
 30
0.0
 10
82.37016599503247
 20
-118.6082641305042
 30
0.0
 10
82.37016599503247
 20
-118.6082641305042
 30
0.0
 10
82.37016599503247
 20
-118.6082641305042
 30
0.0
 10
82.68263615554463
 20
-118.2956217152178
 30
0.0
 10
82.68263615554463
 20
-118.2956217152178
 30
0.0
 10
82.75291610344372
 20
-118.2253417673187
 30
0.0
 10
82.79460175881525
 20
-118.0756523684846
 30
0.0
 10
82.67367890728298
 20
-117.954557262178
 30
0.0
 10
82.61821286997045
 20
-117.8990912248655
 30
0.0
 10
82.4852321842398
 20
-117.8138251116056
 30
0.0
 10
82.34432777889309
 20
-117.954557262178
 30
0.0
  0
HATCH
  5
78
330
5D
100
AcDbEntity
  8
_U+30EC_U+30A4_U+30E4_U+30FC 1
 62
   179
420
  2234388
100
AcDbHatch
 10
0.0
 20
0.0
 30
0.0
210
0.0
220
0.0
230
1.0
  2
SOLID
 70
     1
 71
     0
 91
        2
 92
        1
 93
        1
 72
     4
 94
        3
 73
     0
 74
     1
 95
       44
 96
       40
 40
0.0
 40
0.0
 40
0.0
 40
0.0
 40
1.0
 40
1.0
 40
1.0
 40
2.0
 40
2.0
 40
2.0
 40
3.0
 40
3.0
 40
3.0
 40
4.0
 40
4.0
 40
4.0
 40
5.0
 40
5.0
 40
5.0
 40
6.0
 40
6.0
 40
6.0
 40
7.0
 40
7.0
 40
7.0
 40
8.0
 40
8.0
 40
8.0
 40
9.0
 40
9.0
 40
9.0
 40
10.0
 40
10.0
 40
10.0
 40
11.0
 40
11.0
 40
11.0
 40
12.0
 40
12.0
 40
12.0
 40
13.0
 40
13.0
 40
13.0
 40
13.0
 10
83.46501734024486
 20
-118.7188516955807
 10
83.41678600345136
 20
-118.7040377849941
 10
83.36476506162408
 20
-118.6814724095657
 10
83.19974498788062
 20
-118.5200696860818
 10
83.02507864677845
 20
-118.3510877525303
 10
82.93378361641933
 20
-118.3435085424627
 10
82.80803763120771
 20
-118.4692545276744
 10
82.80803763120771
 20
-118.4692545276744
 10
82.51968313909231
 20
-118.757781274564
 10
82.51968313909231
 20
-118.757781274564
 10
82.51968313909231
 20
-118.757781274564
 10
82.97271319540266
 20
-119.2109835856486
 10
82.97271319540266
 20
-119.2109835856486
 10
82.97271319540266
 20
-119.2109835856486
 10
82.80665959301362
 20
-119.3770371880377
 10
82.80665959301362
 20
-119.3770371880377
 10
82.80665959301362
 20
-119.3770371880377
 10
81.71490883373794
 20
-118.2851141739878
 10
81.71490883373794
 20
-118.2851141739878
 10
81.71490883373794
 20
-118.2851141739878
 10
82.19171004889652
 20
-117.8079684492807
 10
82.19171004889652
 20
-117.8079684492807
 10
82.40875106446725
 20
-117.5910996884842
 10
82.6478406911436
 20
-117.5940280196466
 10
82.82905271366774
 20
-117.7750677873965
 10
82.86488170671434
 20
-117.8108967804431
 10
82.91724715809013
 20
-117.8753200660173
 10
82.94274086468099
 20
-117.9635145104397
 10
82.97443574314528
 20
-118.0787529544213
 10
82.94136282648688
 20
-118.1385253610904
 10
82.90966794802259
 20
-118.1938191436286
 10
83.03713648097683
 20
-118.1266397816663
 10
83.11912975352578
 20
-118.1132039092738
 10
83.34512801735816
 20
-118.3328287464585
 10
83.53943140272625
 20
-118.5214477242759
 10
83.58766273951976
 20
-118.5185193931134
 10
83.67447914574805
 20
-118.5093898900775
 10
83.67447914574805
 20
-118.5093898900775
 10
83.46501734024486
 20
-118.7188516955807
 10
83.46501734024486
 20
-118.7188516955807
 97
        0
 97
        0
 92
        1
 93
        1
 72
     4
 94
        3
 73
     0
 74
     1
 95
       20
 96
       16
 40
0.0
 40
0.0
 40
0.0
 40
0.0
 40
1.0
 40
1.0
 40
1.0
 40
2.0
 40
2.0
 40
2.0
 40
3.0
 40
3.0
 40
3.0
 40
4.0
 40
4.0
 40
4.0
 40
5.0
 40
5.0
 40
5.0
 40
5.0
 10
82.34432777889309
 20
-117.954557262178
 10
82.34432777889309
 20
-117.954557262178
 10
82.03047958018684
 20
-118.2685777156586
 10
82.03047958018684
 20
-118.2685777156586
 10
82.03047958018684
 20
-118.2685777156586
 10
82.37016599503247
 20
-118.6082641305042
 10
82.37016599503247
 20
-118.6082641305042
 10
82.37016599503247
 20
-118.6082641305042
 10
82.68263615554463
 20
-118.2956217152178
 10
82.68263615554463
 20
-118.2956217152178
 10
82.75291610344372
 20
-118.2253417673187
 10
82.79460175881525
 20
-118.0756523684846
 10
82.67367890728298
 20
-117.954557262178
 10
82.61821286997045
 20
-117.8990912248655
 10
82.4852321842398
 20
-117.8138251116056
 10
82.34432777889309
 20
-117.954557262178
 97
        0
 97
        0
 75
     2
 76
     1
 98
        0
  0
ENDBLK
  5
60
330
5D
100
AcDbEntity
  8
0
100
AcDbBlockEnd
  0
BLOCK
  5
7B
330
79
100
AcDbEntity
  8
0
100
AcDbBlockBegin
  2
block 4
 70
     0
 10
0.0
 20
0.0
 30
0.0
  3
block 4
  1

  0
SPLINE
  5
7D
330
79
100
AcDbEntity
  8
_U+30EC_U+30A4_U+30E4_U+30FC 1
370
     0
100
AcDbSpline
210
0.0
220
0.0
230
1.0
 70
    11
 71
     3
 72
    44
 73
    40
 74
     0
 42
0.0000000001
 43
0.0000000001
 12
1.0
 22
0.0
 32
0.0
 13
1.0
 23
0.0
 33
0.0
 40
0.0
 40
0.0
 40
0.0
 40
0.0
 40
1.0
 40
1.0
 40
1.0
 40
2.0
 40
2.0
 40
2.0
 40
3.0
 40
3.0
 40
3.0
 40
4.0
 40
4.0
 40
4.0
 40
5.0
 40
5.0
 40
5.0
 40
6.0
 40
6.0
 40
6.0
 40
7.0
 40
7.0
 40
7.0
 40
8.0
 40
8.0
 40
8.0
 40
9.0
 40
9.0
 40
9.0
 40
10.0
 40
10.0
 40
10.0
 40
11.0
 40
11.0
 40
11.0
 40
12.0
 40
12.0
 40
12.0
 40
13.0
 40
13.0
 40
13.0
 40
13.0
 10
98.41535370803506
 20
-132.5390244894347
 30
0.0
 10
98.38296981047371
 20
-132.8067084086386
 30
0.0
 10
98.373323543115
 20
-132.9255642028797
 30
0.0
 10
98.44567054830526
 20
-133.0588893981589
 30
0.0
 10
98.44567054830526
 20
-133.0588893981589
 30
0.0
 10
98.97621525303373
 20
-132.4894151144471
 30
0.0
 10
98.97621525303373
 20
-132.4894151144471
 30
0.0
 10
98.97621525303373
 20
-132.4894151144471
 30
0.0
 10
99.12642141619062
 20
-132.6296305006968
 30
0.0
 10
99.12642141619062
 20
-132.6296305006968
 30
0.0
 10
99.12642141619062
 20
-132.6296305006968
 30
0.0
 10
98.42499997539376
 20
-133.3816948451268
 30
0.0
 10
98.42499997539376
 20
-133.3816948451268
 30
0.0
 10
98.18522132962036
 20
-133.1143554354714
 30
0.0
 10
98.17281898587346
 20
-133.0130696282051
 30
0.0
 10
98.2172607176332
 20
-132.5280001838819
 30
0.0
 10
98.24654402925782
 20
-132.205194736914
 30
0.0
 10
98.24172089557847
 20
-132.1111436301667
 30
0.0
 10
98.14112410740917
 20
-132.0174370329679
 30
0.0
 10
98.05430770118087
 20
-131.936821798613
 30
0.0
 10
97.90961369080038
 20
-131.8996147673723
 30
0.0
 10
97.77525496687564
 20
-132.0436197586558
 30
0.0
 10
97.5981770589338
 20
-132.2337890294416
 30
0.0
 10
97.76078556583758
 20
-132.3970865554424
 30
0.0
 10
97.84277883838654
 20
-132.4797688470884
 30
0.0
 10
97.84277883838654
 20
-132.4797688470884
 30
0.0
 10
97.69016110838996
 20
-132.6437553921863
 30
0.0
 10
97.69016110838996
 20
-132.6437553921863
 30
0.0
 10
97.60300019261314
 20
-132.5507378140846
 30
0.0
 10
97.52789711103469
 20
-132.4666774842445
 30
0.0
 10
97.4962022325704
 20
-132.3271511170918
 30
0.0
 10
97.45382755810182
 20
-132.1373263558546
 30
0.0
 10
97.55614689401375
 20
-131.978162944436
 30
0.0
 10
97.6353840901745
 20
-131.8927245764018
 30
0.0
 10
97.82417532276618
 20
-131.6901529618691
 30
0.0
 10
98.10047198068322
 20
-131.6639702361812
 30
0.0
 10
98.29994300927919
 20
-131.8500053923847
 30
0.0
 10
98.4670301403138
 20
-132.005723708318
 30
0.0
 10
98.46048445889183
 20
-132.1586859478631
 30
0.0
 10
98.41535370803506
 20
-132.5390244894347
 30
0.0
  0
HATCH
  5
7E
330
79
100
AcDbEntity
  8
_U+30EC_U+30A4_U+30E4_U+30FC 1
 62
   179
420
  2234388
100
AcDbHatch
 10
0.0
 20
0.0
 30
0.0
210
0.0
220
0.0
230
1.0
  2
SOLID
 70
     1
 71
     0
 91
        1
 92
        1
 93
        1
 72
     4
 94
        3
 73
     0
 74
     1
 95
       44
 96
       40
 40
0.0
 40
0.0
 40
0.0
 40
0.0
 40
1.0
 40
1.0
 40
1.0
 40
2.0
 40
2.0
 40
2.0
 40
3.0
 40
3.0
 40
3.0
 40
4.0
 40
4.0
 40
4.0
 40
5.0
 40
5.0
 40
5.0
 40
6.0
 40
6.0
 40
6.0
 40
7.0
 40
7.0
 40
7.0
 40
8.0
 40
8.0
 40
8.0
 40
9.0
 40
9.0
 40
9.0
 40
10.0
 40
10.0
 40
10.0
 40
11.0
 40
11.0
 40
11.0
 40
12.0
 40
12.0
 40
12.0
 40
13.0
 40
13.0
 40
13.0
 40
13.0
 10
98.41535370803506
 20
-132.5390244894347
 10
98.38296981047371
 20
-132.8067084086386
 10
98.373323543115
 20
-132.9255642028797
 10
98.44567054830526
 20
-133.0588893981589
 10
98.44567054830526
 20
-133.0588893981589
 10
98.97621525303373
 20
-132.4894151144471
 10
98.97621525303373
 20
-132.4894151144471
 10
98.97621525303373
 20
-132.4894151144471
 10
99.12642141619062
 20
-132.6296305006968
 10
99.12642141619062
 20
-132.6296305006968
 10
99.12642141619062
 20
-132.6296305006968
 10
98.42499997539376
 20
-133.3816948451268
 10
98.42499997539376
 20
-133.3816948451268
 10
98.18522132962036
 20
-133.1143554354714
 10
98.17281898587346
 20
-133.0130696282051
 10
98.2172607176332
 20
-132.5280001838819
 10
98.24654402925782
 20
-132.205194736914
 10
98.24172089557847
 20
-132.1111436301667
 10
98.14112410740917
 20
-132.0174370329679
 10
98.05430770118087
 20
-131.936821798613
 10
97.90961369080038
 20
-131.8996147673723
 10
97.77525496687564
 20
-132.0436197586558
 10
97.5981770589338
 20
-132.2337890294416
 10
97.76078556583758
 20
-132.3970865554424
 10
97.84277883838654
 20
-132.4797688470884
 10
97.84277883838654
 20
-132.4797688470884
 10
97.69016110838996
 20
-132.6437553921863
 10
97.69016110838996
 20
-132.6437553921863
 10
97.60300019261314
 20
-132.5507378140846
 10
97.52789711103469
 20
-132.4666774842445
 10
97.4962022325704
 20
-132.3271511170918
 10
97.45382755810182
 20
-132.1373263558546
 10
97.55614689401375
 20
-131.978162944436
 10
97.6353840901745
 20
-131.8927245764018
 10
97.82417532276618
 20
-131.6901529618691
 10
98.10047198068322
 20
-131.6639702361812
 10
98.29994300927919
 20
-131.8500053923847
 10
98.4670301403138
 20
-132.005723708318
 10
98.46048445889183
 20
-132.1586859478631
 10
98.41535370803506
 20
-132.5390244894347
 97
        0
 97
        0
 75
     2
 76
     1
 98
        0
  0
SPLINE
  5
7F
330
79
100
AcDbEntity
  8
_U+30EC_U+30A4_U+30E4_U+30FC 1
370
     0
100
AcDbSpline
210
0.0
220
0.0
230
1.0
 70
    11
 71
     3
 72
    29
 73
    25
 74
     0
 42
0.0000000001
 43
0.0000000001
 12
1.0
 22
0.0
 32
0.0
 13
1.0
 23
0.0
 33
0.0
 40
0.0
 40
0.0
 40
0.0
 40
0.0
 40
1.0
 40
1.0
 40
1.0
 40
2.0
 40
2.0
 40
2.0
 40
3.0
 40
3.0
 40
3.0
 40
4.0
 40
4.0
 40
4.0
 40
5.0
 40
5.0
 40
5.0
 40
6.0
 40
6.0
 40
6.0
 40
7.0
 40
7.0
 40
7.0
 40
8.0
 40
8.0
 40
8.0
 40
8.0
 10
99.72104489694475
 20
-131.7311495981436
 30
0.0
 10
99.80097111220255
 20
-131.9526692378452
 30
0.0
 10
99.69624020945095
 20
-132.0925401145463
 30
0.0
 10
99.6170030132902
 20
-132.1779784825805
 30
0.0
 10
99.50744897685925
 20
-132.2954562386275
 30
0.0
 10
99.37653534841976
 20
-132.3674587342693
 30
0.0
 10
99.17878686756642
 20
-132.3130262256023
 30
0.0
 10
98.96553545702946
 20
-132.2558376405472
 30
0.0
 10
98.77950030082596
 20
-132.1083875537785
 30
0.0
 10
98.66029999703632
 20
-131.9971109696049
 30
0.0
 10
98.5552245847362
 20
-131.8989257482753
 30
0.0
 10
98.38262530092518
 20
-131.7149576493629
 30
0.0
 10
98.30924476708935
 20
-131.5020507483745
 30
0.0
 10
98.23414168551092
 20
-131.2846652232552
 30
0.0
 10
98.32681475406413
 20
-131.1513400279761
 30
0.0
 10
98.414664688938
 20
-131.0569444116802
 30
0.0
 10
98.52284068717485
 20
-130.9408446938273
 30
0.0
 10
98.65375431561435
 20
-130.8660861217974
 30
0.0
 10
98.85150279646768
 20
-130.9205186304643
 30
0.0
 10
99.06027558287383
 20
-130.9790852537136
 30
0.0
 10
99.24286564359207
 20
-131.1175780922206
 30
0.0
 10
99.36998966699778
 20
-131.2360893769132
 30
0.0
 10
99.49504663311235
 20
-131.3528781138632
 30
0.0
 10
99.64973142040007
 20
-131.5254773976742
 30
0.0
 10
99.72104489694475
 20
-131.7311495981436
 30
0.0
  0
SPLINE
  5
80
330
79
100
AcDbEntity
  8
_U+30EC_U+30A4_U+30E4_U+30FC 1
370
     0
100
AcDbSpline
210
0.0
220
0.0
230
1.0
 70
    11
 71
     3
 72
    17
 73
    13
 74
     0
 42
0.0000000001
 43
0.0000000001
 12
1.0
 22
0.0
 32
0.0
 13
1.0
 23
0.0
 33
0.0
 40
0.0
 40
0.0
 40
0.0
 40
0.0
 40
1.0
 40
1.0
 40
1.0
 40
2.0
 40
2.0
 40
2.0
 40
3.0
 40
3.0
 40
3.0
 40
4.0
 40
4.0
 40
4.0
 40
4.0
 10
98.55591360383325
 20
-131.1882025496682
 30
0.0
 10
98.3857258868619
 20
-131.3707926103865
 30
0.0
 10
98.56108124706113
 20
-131.598168912413
 30
0.0
 10
98.81326223658141
 20
-131.833124424507
 30
0.0
 10
99.04683971048135
 20
-132.0511989687233
 30
0.0
 10
99.29729815225902
 20
-132.2351670676357
 30
0.0
 10
99.47472056974938
 20
-132.0449977968499
 30
0.0
 10
99.64353024852662
 20
-131.8641302838743
 30
0.0
 10
99.4709309647156
 20
-131.6364094722992
 30
0.0
 10
99.21737193700122
 20
-131.4000759220111
 30
0.0
 10
98.98379446310128
 20
-131.1823458873433
 30
0.0
 10
98.73161347358099
 20
-130.9994113170766
 30
0.0
 10
98.55591360383325
 20
-131.1882025496682
 30
0.0
  0
HATCH
  5
81
330
79
100
AcDbEntity
  8
_U+30EC_U+30A4_U+30E4_U+30FC 1
 62
   179
420
  2234388
100
AcDbHatch
 10
0.0
 20
0.0
 30
0.0
210
0.0
220
0.0
230
1.0
  2
SOLID
 70
     1
 71
     0
 91
        2
 92
        1
 93
        1
 72
     4
 94
        3
 73
     0
 74
     1
 95
       29
 96
       25
 40
0.0
 40
0.0
 40
0.0
 40
0.0
 40
1.0
 40
1.0
 40
1.0
 40
2.0
 40
2.0
 40
2.0
 40
3.0
 40
3.0
 40
3.0
 40
4.0
 40
4.0
 40
4.0
 40
5.0
 40
5.0
 40
5.0
 40
6.0
 40
6.0
 40
6.0
 40
7.0
 40
7.0
 40
7.0
 40
8.0
 40
8.0
 40
8.0
 40
8.0
 10
99.72104489694475
 20
-131.7311495981436
 10
99.80097111220255
 20
-131.9526692378452
 10
99.69624020945095
 20
-132.0925401145463
 10
99.6170030132902
 20
-132.1779784825805
 10
99.50744897685925
 20
-132.2954562386275
 10
99.37653534841976
 20
-132.3674587342693
 10
99.17878686756642
 20
-132.3130262256023
 10
98.96553545702946
 20
-132.2558376405472
 10
98.77950030082596
 20
-132.1083875537785
 10
98.66029999703632
 20
-131.9971109696049
 10
98.5552245847362
 20
-131.8989257482753
 10
98.38262530092518
 20
-131.7149576493629
 10
98.30924476708935
 20
-131.5020507483745
 10
98.23414168551092
 20
-131.2846652232552
 10
98.32681475406413
 20
-131.1513400279761
 10
98.414664688938
 20
-131.0569444116802
 10
98.52284068717485
 20
-130.9408446938273
 10
98.65375431561435
 20
-130.8660861217974
 10
98.85150279646768
 20
-130.9205186304643
 10
99.06027558287383
 20
-130.9790852537136
 10
99.24286564359207
 20
-131.1175780922206
 10
99.36998966699778
 20
-131.2360893769132
 10
99.49504663311235
 20
-131.3528781138632
 10
99.64973142040007
 20
-131.5254773976742
 10
99.72104489694475
 20
-131.7311495981436
 97
        0
 97
        0
 92
        1
 93
        1
 72
     4
 94
        3
 73
     0
 74
     1
 95
       17
 96
       13
 40
0.0
 40
0.0
 40
0.0
 40
0.0
 40
1.0
 40
1.0
 40
1.0
 40
2.0
 40
2.0
 40
2.0
 40
3.0
 40
3.0
 40
3.0
 40
4.0
 40
4.0
 40
4.0
 40
4.0
 10
98.55591360383325
 20
-131.1882025496682
 10
98.3857258868619
 20
-131.3707926103865
 10
98.56108124706113
 20
-131.598168912413
 10
98.81326223658141
 20
-131.833124424507
 10
99.04683971048135
 20
-132.0511989687233
 10
99.29729815225902
 20
-132.2351670676357
 10
99.47472056974938
 20
-132.0449977968499
 10
99.64353024852662
 20
-131.8641302838743
 10
99.4709309647156
 20
-131.6364094722992
 10
99.21737193700122
 20
-131.4000759220111
 10
98.98379446310128
 20
-131.1823458873433
 10
98.73161347358099
 20
-130.9994113170766
 10
98.55591360383325
 20
-131.1882025496682
 97
        0
 97
        0
 75
     2
 76
     1
 98
        0
  0
SPLINE
  5
82
330
79
100
AcDbEntity
  8
_U+30EC_U+30A4_U+30E4_U+30FC 1
370
     0
100
AcDbSpline
210
0.0
220
0.0
230
1.0
 70
    11
 71
     3
 72
    29
 73
    25
 74
     0
 42
0.0000000001
 43
0.0000000001
 12
1.0
 22
0.0
 32
0.0
 13
1.0
 23
0.0
 33
0.0
 40
0.0
 40
0.0
 40
0.0
 40
0.0
 40
1.0
 40
1.0
 40
1.0
 40
2.0
 40
2.0
 40
2.0
 40
3.0
 40
3.0
 40
3.0
 40
4.0
 40
4.0
 40
4.0
 40
5.0
 40
5.0
 40
5.0
 40
6.0
 40
6.0
 40
6.0
 40
7.0
 40
7.0
 40
7.0
 40
8.0
 40
8.0
 40
8.0
 40
8.0
 10
100.523752145008
 20
-130.8702202363797
 30
0.0
 10
100.6033338507172
 20
-131.0920843856298
 30
0.0
 10
100.4989474575142
 20
-131.2319552623309
 30
0.0
 10
100.4197102613534
 20
-131.3173936303651
 30
0.0
 10
100.3101562249225
 20
-131.4348713864121
 30
0.0
 10
100.179242596483
 20
-131.5068738820538
 30
0.0
 10
99.98149411562963
 20
-131.4524413733869
 30
0.0
 10
99.76824270509266
 20
-131.3952527883318
 30
0.0
 10
99.58186303934065
 20
-131.247802701563
 30
0.0
 10
99.462662735551
 20
-131.1365261173895
 30
0.0
 10
99.35758732325088
 20
-131.0383408960599
 30
0.0
 10
99.18498803943987
 20
-130.8543727971475
 30
0.0
 10
99.11195201515257
 20
-130.6414658961591
 30
0.0
 10
99.03684893357412
 20
-130.4237358614913
 30
0.0
 10
99.12952200212735
 20
-130.2907551757606
 30
0.0
 10
99.21737193700122
 20
-130.1963595594648
 30
0.0
 10
99.32554793523806
 20
-130.0802598416119
 30
0.0
 10
99.45646156367755
 20
-130.005501269582
 30
0.0
 10
99.6542100445309
 20
-130.0595892687004
 30
0.0
 10
99.86298283093704
 20
-130.1181558919496
 30
0.0
 10
100.0455728916553
 20
-130.2569932400052
 30
0.0
 10
100.172696915061
 20
-130.3755045246978
 30
0.0
 10
100.2977538811756
 20
-130.4922932616478
 30
0.0
 10
100.4524386684633
 20
-130.6648925454588
 30
0.0
 10
100.523752145008
 20
-130.8702202363797
 30
0.0
  0
SPLINE
  5
83
330
79
100
AcDbEntity
  8
_U+30EC_U+30A4_U+30E4_U+30FC 1
370
     0
100
AcDbSpline
210
0.0
220
0.0
230
1.0
 70
    11
 71
     3
 72
    17
 73
    13
 74
     0
 42
0.0000000001
 43
0.0000000001
 12
1.0
 22
0.0
 32
0.0
 13
1.0
 23
0.0
 33
0.0
 40
0.0
 40
0.0
 40
0.0
 40
0.0
 40
1.0
 40
1.0
 40
1.0
 40
2.0
 40
2.0
 40
2.0
 40
3.0
 40
3.0
 40
3.0
 40
4.0
 40
4.0
 40
4.0
 40
4.0
 10
99.35827634234793
 20
-130.3272731879043
 30
0.0
 10
99.1880886253766
 20
-130.5098632486225
 30
0.0
 10
99.36344398557581
 20
-130.737239550649
 30
0.0
 10
99.6156249750961
 20
-130.9721950627431
 30
0.0
 10
99.84920244899604
 20
-131.1902696069594
 30
0.0
 10
100.1000054003222
 20
-131.3745822154202
 30
0.0
 10
100.2770833082641
 20
-131.1844129446345
 30
0.0
 10
100.4458929870413
 20
-131.0032009221103
 30
0.0
 10
100.2736382127788
 20
-130.7758246200838
 30
0.0
 10
100.0197346755159
 20
-130.5391465602472
 30
0.0
 10
99.78615720161596
 20
-130.3214165255794
 30
0.0
 10
99.5343207216442
 20
-130.1384819553126
 30
0.0
 10
99.35827634234793
 20
-130.3272731879043
 30
0.0
  0
HATCH
  5
84
330
79
100
AcDbEntity
  8
_U+30EC_U+30A4_U+30E4_U+30FC 1
 62
   179
420
  2234388
100
AcDbHatch
 10
0.0
 20
0.0
 30
0.0
210
0.0
220
0.0
230
1.0
  2
SOLID
 70
     1
 71
     0
 91
        2
 92
        1
 93
        1
 72
     4
 94
        3
 73
     0
 74
     1
 95
       29
 96
       25
 40
0.0
 40
0.0
 40
0.0
 40
0.0
 40
1.0
 40
1.0
 40
1.0
 40
2.0
 40
2.0
 40
2.0
 40
3.0
 40
3.0
 40
3.0
 40
4.0
 40
4.0
 40
4.0
 40
5.0
 40
5.0
 40
5.0
 40
6.0
 40
6.0
 40
6.0
 40
7.0
 40
7.0
 40
7.0
 40
8.0
 40
8.0
 40
8.0
 40
8.0
 10
100.523752145008
 20
-130.8702202363797
 10
100.6033338507172
 20
-131.0920843856298
 10
100.4989474575142
 20
-131.2319552623309
 10
100.4197102613534
 20
-131.3173936303651
 10
100.3101562249225
 20
-131.4348713864121
 10
100.179242596483
 20
-131.5068738820538
 10
99.98149411562963
 20
-131.4524413733869
 10
99.76824270509266
 20
-131.3952527883318
 10
99.58186303934065
 20
-131.247802701563
 10
99.462662735551
 20
-131.1365261173895
 10
99.35758732325088
 20
-131.0383408960599
 10
99.18498803943987
 20
-130.8543727971475
 10
99.11195201515257
 20
-130.6414658961591
 10
99.03684893357412
 20
-130.4237358614913
 10
99.12952200212735
 20
-130.2907551757606
 10
99.21737193700122
 20
-130.1963595594648
 10
99.32554793523806
 20
-130.0802598416119
 10
99.45646156367755
 20
-130.005501269582
 10
99.6542100445309
 20
-130.0595892687004
 10
99.86298283093704
 20
-130.1181558919496
 10
100.0455728916553
 20
-130.2569932400052
 10
100.172696915061
 20
-130.3755045246978
 10
100.2977538811756
 20
-130.4922932616478
 10
100.4524386684633
 20
-130.6648925454588
 10
100.523752145008
 20
-130.8702202363797
 97
        0
 97
        0
 92
        1
 93
        1
 72
     4
 94
        3
 73
     0
 74
     1
 95
       17
 96
       13
 40
0.0
 40
0.0
 40
0.0
 40
0.0
 40
1.0
 40
1.0
 40
1.0
 40
2.0
 40
2.0
 40
2.0
 40
3.0
 40
3.0
 40
3.0
 40
4.0
 40
4.0
 40
4.0
 40
4.0
 10
99.35827634234793
 20
-130.3272731879043
 10
99.1880886253766
 20
-130.5098632486225
 10
99.36344398557581
 20
-130.737239550649
 10
99.6156249750961
 20
-130.9721950627431
 10
99.84920244899604
 20
-131.1902696069594
 10
100.1000054003222
 20
-131.3745822154202
 10
100.2770833082641
 20
-131.1844129446345
 10
100.4458929870413
 20
-131.0032009221103
 10
100.2736382127788
 20
-130.7758246200838
 10
100.0197346755159
 20
-130.5391465602472
 10
99.78615720161596
 20
-130.3214165255794
 10
99.5343207216442
 20
-130.1384819553126
 10
99.35827634234793
 20
-130.3272731879043
 97
        0
 97
        0
 75
     2
 76
     1
 98
        0
  0
ENDBLK
  5
7C
330
79
100
AcDbEntity
  8
0
100
AcDbBlockEnd
  0
ENDSEC
  0
SECTION
  2
ENTITIES
  0
INSERT
  5
42
330
1F
100
AcDbEntity
  8
_U+30EC_U+30A4_U+30E4_U+30FC 1
100
AcDbBlockReference
  2
block 2
 10
0.0
 20
0.0
 30
0.0
  0
INSERT
  5
5E
330
1F
100
AcDbEntity
  8
_U+30EC_U+30A4_U+30E4_U+30FC 1
100
AcDbBlockReference
  2
block 3
 10
0.0
 20
0.0
 30
0.0
  0
INSERT
  5
7A
330
1F
100
AcDbEntity
  8
_U+30EC_U+30A4_U+30E4_U+30FC 1
100
AcDbBlockReference
  2
block 4
 10
0.0
 20
0.0
 30
0.0
  0
POLYLINE
  5
85
330
1F
100
AcDbEntity
  8
_U+30EC_U+30A4_U+30E4_U+30FC 1
 62
   179
420
  2234388
370
     9
100
AcDb2dPolyline
 66
     1
 10
0.0
 20
0.0
 30
0.0
  0
VERTEX
  5
86
330
85
100
AcDbEntity
  8
_U+30EC_U+30A4_U+30E4_U+30FC 1
 62
   179
420
  2234388
370
     9
100
AcDbVertex
100
AcDb2dVertex
 10
102.3623854440735
 20
-125.2860644131229
 30
0.0
  0
VERTEX
  5
87
330
85
100
AcDbEntity
  8
_U+30EC_U+30A4_U+30E4_U+30FC 1
 62
   179
420
  2234388
370
     9
100
AcDbVertex
100
AcDb2dVertex
 10
92.51597219909323
 20
-135.591373577213
 30
0.0
  0
SEQEND
  5
88
330
85
100
AcDbEntity
  8
_U+30EC_U+30A4_U+30E4_U+30FC 1
 62
   179
420
  2234388
370
     9
  0
POLYLINE
  5
89
330
1F
100
AcDbEntity
  8
_U+30EC_U+30A4_U+30E4_U+30FC 1
 62
     7
420
 16777215
370
     9
100
AcDb2dPolyline
 66
     1
 10
0.0
 20
0.0
 30
0.0
  0
VERTEX
  5
8A
330
89
100
AcDbEntity
  8
_U+30EC_U+30A4_U+30E4_U+30FC 1
 62
     7
420
 16777215
370
     9
100
AcDbVertex
100
AcDb2dVertex
 10
74.86088892347294
 20
-129.0625858010677
 30
0.0
  0
VERTEX
  5
8B
330
89
100
AcDbEntity
  8
_U+30EC_U+30A4_U+30E4_U+30FC 1
 62
     7
420
 16777215
370
     9
100
AcDbVertex
100
AcDb2dVertex
 10
97.83278944852205
 20
-137.5578274656106
 30
0.0
  0
VERTEX
  5
8C
330
89
100
AcDbEntity
  8
_U+30EC_U+30A4_U+30E4_U+30FC 1
 62
     7
420
 16777215
370
     9
100
AcDbVertex
100
AcDb2dVertex
 10
97.83278944852205
 20
-139.4457530206942
 30
0.0
  0
VERTEX
  5
8D
330
89
100
AcDbEntity
  8
_U+30EC_U+30A4_U+30E4_U+30FC 1
 62
     7
420
 16777215
370
     9
100
AcDbVertex
100
AcDb2dVertex
 10
74.86088892347294
 20
-130.9504760783738
 30
0.0
  0
VERTEX
  5
8E
330
89
100
AcDbEntity
  8
_U+30EC_U+30A4_U+30E4_U+30FC 1
 62
     7
420
 16777215
370
     9
100
AcDbVertex
100
AcDb2dVertex
 10
74.86088892347294
 20
-129.0625858010677
 30
0.0
  0
SEQEND
  5
8F
330
89
100
AcDbEntity
  8
_U+30EC_U+30A4_U+30E4_U+30FC 1
 62
     7
420
 16777215
370
     9
  0
SPLINE
  5
90
330
1F
100
AcDbEntity
  8
_U+30EC_U+30A4_U+30E4_U+30FC 1
 62
     7
420
 16777215
370
     9
100
AcDbSpline
210
0.0
220
0.0
230
1.0
 70
    11
 71
     3
 72
    23
 73
    19
 74
     0
 42
0.0000000001
 43
0.0000000001
 12
1.0
 22
0.0
 32
0.0
 13
1.0
 23
0.0
 33
0.0
 40
0.0
 40
0.0
 40
0.0
 40
0.0
 40
1.0
 40
1.0
 40
1.0
 40
2.0
 40
2.0
 40
2.0
 40
3.0
 40
3.0
 40
3.0
 40
4.0
 40
4.0
 40
4.0
 40
5.0
 40
5.0
 40
5.0
 40
6.0
 40
6.0
 40
6.0
 40
6.0
 10
97.83278944852205
 20
-138.546910520919
 30
0.0
 10
97.99781888875624
 20
-138.6065299653485
 30
0.0
 10
98.16076941990433
 20
-138.6681955208883
 30
0.0
 10
98.32611388038073
 20
-138.742596354203
 30
0.0
 10
98.32611388038073
 20
-139.1952807985342
 30
0.0
 10
98.13734249630781
 20
-140.8551355203419
 30
0.0
 10
99.87262106314827
 20
-141.6471569090328
 30
0.0
 10
98.32611388038073
 20
-141.119048575831
 30
0.0
 10
79.33227658717612
 20
-134.0280035776039
 30
0.0
 10
79.03047520598683
 20
-133.9146560776324
 30
0.0
 10
78.72871109142882
 20
-133.8013085776608
 30
0.0
 10
75.527850573124
 20
-132.3075063558123
 30
0.0
 10
75.88338000849814
 20
-131.3287596893902
 30
0.0
 10
76.73847804223833
 20
-131.6450249670886
 30
0.0
 10
97.83278944852205
 20
-139.4457530206942
 30
0.0
 10
97.83278944852205
 20
-139.4457530206942
 30
0.0
 10
97.83278944852205
 20
-139.4457530206942
 30
0.0
 10
97.83278944852205
 20
-138.546910520919
 30
0.0
 10
97.83278944852205
 20
-138.546910520919
 30
0.0
  0
SPLINE
  5
91
330
1F
100
AcDbEntity
  8
_U+30EC_U+30A4_U+30E4_U+30FC 1
 62
     7
420
 16777215
370
     9
100
AcDbSpline
210
0.0
220
0.0
230
1.0
 70
    11
 71
     3
 72
    26
 73
    22
 74
     0
 42
0.0000000001
 43
0.0000000001
 12
1.0
 22
0.0
 32
0.0
 13
1.0
 23
0.0
 33
0.0
 40
0.0
 40
0.0
 40
0.0
 40
0.0
 40
1.0
 40
1.0
 40
1.0
 40
2.0
 40
2.0
 40
2.0
 40
3.0
 40
3.0
 40
3.0
 40
4.0
 40
4.0
 40
4.0
 40
5.0
 40
5.0
 40
5.0
 40
6.0
 40
6.0
 40
6.0
 40
7.0
 40
7.0
 40
7.0
 40
7.0
 10
78.45689383173122
 20
-133.6486969110323
 30
0.0
 10
78.45689383173122
 20
-133.6486969110323
 30
0.0
 10
77.82228190347708
 20
-134.2536402442143
 30
0.0
 10
77.82228190347708
 20
-134.2536402442143
 30
0.0
 10
77.82228190347708
 20
-134.2536402442143
 30
0.0
 10
100.7063407641005
 20
-142.8147102420744
 30
0.0
 10
100.7063407641005
 20
-142.8147102420744
 30
0.0
 10
100.7063407641005
 20
-142.8147102420744
 30
0.0
 10
101.6096282410558
 20
-141.7722166312236
 30
0.0
 10
101.6096282410558
 20
-141.7722166312236
 30
0.0
 10
101.6096282410558
 20
-141.7722166312236
 30
0.0
 10
98.72334164802439
 20
-140.6780763537191
 30
0.0
 10
98.72334164802439
 20
-140.6780763537191
 30
0.0
 10
98.95141247553916
 20
-141.0687424647328
 30
0.0
 10
99.27938996717175
 20
-141.3763999646561
 30
0.0
 10
99.87262106314827
 20
-141.6471569090328
 30
0.0
 10
98.32611388038073
 20
-141.119048575831
 30
0.0
 10
79.33227658717612
 20
-134.0280035776039
 30
0.0
 10
79.03047520598683
 20
-133.9146560776324
 30
0.0
 10
78.95536881901405
 20
-133.8863985776397
 30
0.0
 10
78.79277354538443
 20
-133.8192296887671
 30
0.0
 10
78.45689383173122
 20
-133.6486969110323
 30
0.0
  0
POLYLINE
  5
92
330
1F
100
AcDbEntity
  8
_U+30EC_U+30A4_U+30E4_U+30FC 1
 62
     7
420
 16777215
370
     9
100
AcDb2dPolyline
 66
     1
 10
0.0
 20
0.0
 30
0.0
  0
VERTEX
  5
93
330
92
100
AcDbEntity
  8
_U+30EC_U+30A4_U+30E4_U+30FC 1
 62
     7
420
 16777215
370
     9
100
AcDbVertex
100
AcDb2dVertex
 10
74.86088892347294
 20
-129.0625858010677
 30
0.0
  0
VERTEX
  5
94
330
92
100
AcDbEntity
  8
_U+30EC_U+30A4_U+30E4_U+30FC 1
 62
     7
420
 16777215
370
     9
100
AcDbVertex
100
AcDb2dVertex
 10
89.83845715247446
 20
-114.119836360359
 30
0.0
  0
VERTEX
  5
95
330
92
100
AcDbEntity
  8
_U+30EC_U+30A4_U+30E4_U+30FC 1
 62
     7
420
 16777215
370
     9
100
AcDbVertex
100
AcDb2dVertex
 10
89.83845715247446
 20
-115.3986558044837
 30
0.0
  0
VERTEX
  5
96
330
92
100
AcDbEntity
  8
_U+30EC_U+30A4_U+30E4_U+30FC 1
 62
     7
420
 16777215
370
     9
100
AcDbVertex
100
AcDb2dVertex
 10
76.00844164766468
 20
-129.4863424676283
 30
0.0
  0
VERTEX
  5
97
330
92
100
AcDbEntity
  8
_U+30EC_U+30A4_U+30E4_U+30FC 1
 62
     7
420
 16777215
370
     9
100
AcDbVertex
100
AcDb2dVertex
 10
74.86088892347294
 20
-129.0625858010677
 30
0.0
  0
SEQEND
  5
98
330
92
100
AcDbEntity
  8
_U+30EC_U+30A4_U+30E4_U+30FC 1
 62
     7
420
 16777215
370
     9
  0
POLYLINE
  5
99
330
1F
100
AcDbEntity
  8
_U+30EC_U+30A4_U+30E4_U+30FC 1
 62
     7
420
 16777215
370
     9
100
AcDb2dPolyline
 66
     1
 10
0.0
 20
0.0
 30
0.0
  0
VERTEX
  5
9A
330
99
100
AcDbEntity
  8
_U+30EC_U+30A4_U+30E4_U+30FC 1
 62
     7
420
 16777215
370
     9
100
AcDbVertex
100
AcDb2dVertex
 10
89.83845715247446
 20
-115.3986558044837
 30
0.0
  0
VERTEX
  5
9B
330
99
100
AcDbEntity
  8
_U+30EC_U+30A4_U+30E4_U+30FC 1
 62
     7
420
 16777215
370
     9
100
AcDbVertex
100
AcDb2dVertex
 10
90.67630435332141
 20
-115.5529960822229
 30
0.0
  0
VERTEX
  5
9C
330
99
100
AcDbEntity
  8
_U+30EC_U+30A4_U+30E4_U+30FC 1
 62
     7
420
 16777215
370
     9
100
AcDbVertex
100
AcDb2dVertex
 10
76.8576816503083
 20
-129.8011966342162
 30
0.0
  0
VERTEX
  5
9D
330
99
100
AcDbEntity
  8
_U+30EC_U+30A4_U+30E4_U+30FC 1
 62
     7
420
 16777215
370
     9
100
AcDbVertex
100
AcDb2dVertex
 10
76.00844164766468
 20
-129.4863424676283
 30
0.0
  0
VERTEX
  5
9E
330
99
100
AcDbEntity
  8
_U+30EC_U+30A4_U+30E4_U+30FC 1
 62
     7
420
 16777215
370
     9
100
AcDbVertex
100
AcDb2dVertex
 10
89.83845715247446
 20
-115.3986558044837
 30
0.0
  0
SEQEND
  5
9F
330
99
100
AcDbEntity
  8
_U+30EC_U+30A4_U+30E4_U+30FC 1
 62
     7
420
 16777215
370
     9
  0
SPLINE
  5
A0
330
1F
100
AcDbEntity
  8
_U+30EC_U+30A4_U+30E4_U+30FC 1
 62
     7
420
 16777215
370
     9
100
AcDbSpline
210
0.0
220
0.0
230
1.0
 70
    11
 71
     3
 72
    17
 73
    13
 74
     0
 42
0.0000000001
 43
0.0000000001
 12
1.0
 22
0.0
 32
0.0
 13
1.0
 23
0.0
 33
0.0
 40
0.0
 40
0.0
 40
0.0
 40
0.0
 40
1.0
 40
1.0
 40
1.0
 40
2.0
 40
2.0
 40
2.0
 40
3.0
 40
3.0
 40
3.0
 40
4.0
 40
4.0
 40
4.0
 40
4.0
 10
83.36717231757069
 20
-132.2083052447256
 30
0.0
 10
83.36717231757069
 20
-132.2083052447256
 30
0.0
 10
76.8576816503083
 20
-129.8011966342162
 30
0.0
 10
76.8576816503083
 20
-129.8011966342162
 30
0.0
 10
76.8576816503083
 20
-129.8011966342162
 30
0.0
 10
90.45581824783537
 20
-115.7734821932789
 30
0.0
 10
90.67630435332141
 20
-115.5529960822229
 30
0.0
 10
90.36762380564096
 20
-116.5892808041861
 30
0.0
 10
89.39748494150237
 20
-119.7863294144979
 30
0.0
 10
93.47647789299415
 20
-121.7266071917906
 30
0.0
 10
91.91102654404325
 20
-123.358204413605
 30
0.0
 10
83.36717231757069
 20
-132.2083052447256
 30
0.0
 10
83.36717231757069
 20
-132.2083052447256
 30
0.0
  0
POLYLINE
  5
A1
330
1F
100
AcDbEntity
  8
_U+30EC_U+30A4_U+30E4_U+30FC 1
 62
   179
420
  2234388
370
     9
100
AcDb2dPolyline
 66
     1
 10
0.0
 20
0.0
 30
0.0
  0
VERTEX
  5
A2
330
A1
100
AcDbEntity
  8
_U+30EC_U+30A4_U+30E4_U+30FC 1
 62
   179
420
  2234388
370
     9
100
AcDbVertex
100
AcDb2dVertex
 10
94.38047092548692
 20
-122.3439683027474
 30
0.0
  0
VERTEX
  5
A3
330
A1
100
AcDbEntity
  8
_U+30EC_U+30A4_U+30E4_U+30FC 1
 62
   179
420
  2234388
370
     9
100
AcDbVertex
100
AcDb2dVertex
 10
106.9492019937208
 20
-126.9900163571414
 30
0.0
  0
SEQEND
  5
A4
330
A1
100
AcDbEntity
  8
_U+30EC_U+30A4_U+30E4_U+30FC 1
 62
   179
420
  2234388
370
     9
  0
SPLINE
  5
A5
330
1F
100
AcDbEntity
  8
_U+30EC_U+30A4_U+30E4_U+30FC 1
 62
   179
420
  2234388
370
     9
100
AcDbSpline
210
0.0
220
0.0
230
1.0
 70
    11
 71
     3
 72
    17
 73
    13
 74
     0
 42
0.0000000001
 43
0.0000000001
 12
1.0
 22
0.0
 32
0.0
 13
1.0
 23
0.0
 33
0.0
 40
0.0
 40
0.0
 40
0.0
 40
0.0
 40
1.0
 40
1.0
 40
1.0
 40
2.0
 40
2.0
 40
2.0
 40
3.0
 40
3.0
 40
3.0
 40
4.0
 40
4.0
 40
4.0
 40
4.0
 10
102.3623854440735
 20
-125.3859710797645
 30
0.0
 10
102.4175246093335
 20
-125.3859710797645
 30
0.0
 10
102.4622921081914
 20
-125.3412035797757
 30
0.0
 10
102.4622921081914
 20
-125.2860644131229
 30
0.0
 10
102.4622921081914
 20
-125.2309605242477
 30
0.0
 10
102.4175246093335
 20
-125.1861577464813
 30
0.0
 10
102.3623854440735
 20
-125.1861577464813
 30
0.0
 10
102.3072815565905
 20
-125.1861577464813
 30
0.0
 10
102.2624787799557
 20
-125.2309605242477
 30
0.0
 10
102.2624787799557
 20
-125.2860644131229
 30
0.0
 10
102.2624787799557
 20
-125.3412035797757
 30
0.0
 10
102.3072815565905
 20
-125.3859710797645
 30
0.0
 10
102.3623854440735
 20
-125.3859710797645
 30
0.0
  0
HATCH
  5
A6
330
1F
100
AcDbEntity
  8
_U+30EC_U+30A4_U+30E4_U+30FC 1
 62
   179
420
  2234388
100
AcDbHatch
 10
0.0
 20
0.0
 30
0.0
210
0.0
220
0.0
230
1.0
  2
SOLID
 70
     1
 71
     0
 91
        1
 92
        1
 93
        1
 72
     4
 94
        3
 73
     0
 74
     1
 95
       17
 96
       13
 40
0.0
 40
0.0
 40
0.0
 40
0.0
 40
1.0
 40
1.0
 40
1.0
 40
2.0
 40
2.0
 40
2.0
 40
3.0
 40
3.0
 40
3.0
 40
4.0
 40
4.0
 40
4.0
 40
4.0
 10
102.3623854440735
 20
-125.3859710797645
 10
102.4175246093335
 20
-125.3859710797645
 10
102.4622921081914
 20
-125.3412035797757
 10
102.4622921081914
 20
-125.2860644131229
 10
102.4622921081914
 20
-125.2309605242477
 10
102.4175246093335
 20
-125.1861577464813
 10
102.3623854440735
 20
-125.1861577464813
 10
102.3072815565905
 20
-125.1861577464813
 10
102.2624787799557
 20
-125.2309605242477
 10
102.2624787799557
 20
-125.2860644131229
 10
102.2624787799557
 20
-125.3412035797757
 10
102.3072815565905
 20
-125.3859710797645
 10
102.3623854440735
 20
-125.3859710797645
 97
        0
 97
        0
 75
     2
 76
     1
 98
        0
  0
ENDSEC
  0
SECTION
  2
OBJECTS
  0
DICTIONARY
  5
C
330
0
100
AcDbDictionary
281
     1
  3
ACAD_GROUP
350
D
  3
ACAD_LAYOUT
350
1A
  3
ACAD_MATERIAL
350
3B
  3
ACAD_MLEADERSTYLE
350
A8
  3
ACAD_MLINESTYLE
350
17
  3
ACAD_PLOTSETTINGS
350
19
  3
ACAD_PLOTSTYLENAME
350
E
  3
ACAD_TABLESTYLE
350
A7
  3
ACAD_VISUALSTYLE
350
2A
  0
SUN
  5
3F
330
29
100
AcDbSun
 90
        1
290
     0
 63
     7
421
 16777215
 40
1.0
291
     1
 91
  2455826
 92
 54000000
292
     0
 70
     2
 71
   256
280
     1
  0
DICTIONARY
  5
D
102
{ACAD_REACTORS
330
C
102
}
330
C
100
AcDbDictionary
281
     1
  0
DICTIONARY
  5
1A
102
{ACAD_REACTORS
330
C
102
}
330
C
100
AcDbDictionary
281
     1
  3
Layout1
350
1E
  3
Layout2
350
26
  3
Model
350
22
  0
DICTIONARY
  5
3B
102
{ACAD_REACTORS
330
C
102
}
330
C
100
AcDbDictionary
281
     1
  3
ByBlock
350
3D
  3
ByLayer
350
3C
  3
Global
350
3E
  0
DICTIONARY
  5
A8
102
{ACAD_REACTORS
330
C
102
}
330
C
100
AcDbDictionary
281
     1
  0
DICTIONARY
  5
17
102
{ACAD_REACTORS
330
C
102
}
330
C
100
AcDbDictionary
281
     1
  3
Standard
350
18
  0
DICTIONARY
  5
19
102
{ACAD_REACTORS
330
C
102
}
330
C
100
AcDbDictionary
281
     1
  0
ACDBDICTIONARYWDFLT
  5
E
102
{ACAD_REACTORS
330
C
102
}
330
C
100
AcDbDictionary
281
     1
  3
Normal
350
F
100
AcDbDictionaryWithDefault
340
F
  0
DICTIONARY
  5
A7
102
{ACAD_REACTORS
330
C
102
}
330
C
100
AcDbDictionary
281
     1
  0
DICTIONARY
  5
2A
102
{ACAD_REACTORS
330
C
102
}
330
C
100
AcDbDictionary
281
     1
  3
2dWireframe
350
2F
  3
3D Hidden
350
31
  3
3dWireframe
350
30
  3
Basic
350
32
  3
Brighten
350
36
  3
ColorChange
350
3A
  3
Conceptual
350
34
  3
Dim
350
35
  3
Facepattern
350
39
  3
Flat
350
2B
  3
FlatWithEdges
350
2C
  3
Gouraud
350
2D
  3
GouraudWithEdges
350
2E
  3
Linepattern
350
38
  3
Realistic
350
33
  3
Thicken
350
37
  0
LAYOUT
  5
1E
102
{ACAD_REACTORS
330
1A
102
}
330
1A
100
AcDbPlotSettings
  1

  2
none_device
  4

  6

 40
0.0
 41
0.0
 42
0.0
 43
0.0
 44
0.0
 45
0.0
 46
0.0
 47
0.0
 48
0.0
 49
0.0
140
0.0
141
0.0
142
1.0
143
1.0
 70
   688
 72
     0
 73
     0
 74
     5
  7

 75
    16
 76
     0
 77
     2
 78
   300
147
1.0
148
0.0
149
0.0
100
AcDbLayout
  1
Layout1
 70
     1
 71
     1
 10
0.0
 20
0.0
 11
12.0
 21
9.0
 12
0.0
 22
0.0
 32
0.0
 14
1.000000000000000E+20
 24
1.000000000000000E+20
 34
1.000000000000000E+20
 15
-1.000000000000000E+20
 25
-1.000000000000000E+20
 35
-1.000000000000000E+20
146
0.0
 13
0.0
 23
0.0
 33
0.0
 16
1.0
 26
0.0
 36
0.0
 17
0.0
 27
1.0
 37
0.0
 76
     0
330
1B
  0
LAYOUT
  5
26
102
{ACAD_REACTORS
330
1A
102
}
330
1A
100
AcDbPlotSettings
  1

  2
none_device
  4

  6

 40
0.0
 41
0.0
 42
0.0
 43
0.0
 44
0.0
 45
0.0
 46
0.0
 47
0.0
 48
0.0
 49
0.0
140
0.0
141
0.0
142
1.0
143
1.0
 70
   688
 72
     0
 73
     0
 74
     5
  7

 75
    16
 76
     0
 77
     2
 78
   300
147
1.0
148
0.0
149
0.0
100
AcDbLayout
  1
Layout2
 70
     1
 71
     2
 10
0.0
 20
0.0
 11
0.0
 21
0.0
 12
0.0
 22
0.0
 32
0.0
 14
0.0
 24
0.0
 34
0.0
 15
0.0
 25
0.0
 35
0.0
146
0.0
 13
0.0
 23
0.0
 33
0.0
 16
1.0
 26
0.0
 36
0.0
 17
0.0
 27
1.0
 37
0.0
 76
     0
330
23
  0
LAYOUT
  5
22
102
{ACAD_REACTORS
330
1A
102
}
330
1A
100
AcDbPlotSettings
  1

  2
none_device
  4

  6

 40
0.0
 41
0.0
 42
0.0
 43
0.0
 44
0.0
 45
0.0
 46
0.0
 47
0.0
 48
0.0
 49
0.0
140
0.0
141
0.0
142
1.0
143
1.0
 70
  1712
 72
     0
 73
     0
 74
     0
  7

 75
     0
 76
     0
 77
     2
 78
   300
147
1.0
148
0.0
149
0.0
100
AcDbLayout
  1
Model
 70
     1
 71
     0
 10
0.0
 20
0.0
 11
12.0
 21
9.0
 12
0.0
 22
0.0
 32
0.0
 14
1.000000000000000E+20
 24
1.000000000000000E+20
 34
1.000000000000000E+20
 15
-1.000000000000000E+20
 25
-1.000000000000000E+20
 35
-1.000000000000000E+20
146
0.0
 13
0.0
 23
0.0
 33
0.0
 16
1.0
 26
0.0
 36
0.0
 17
0.0
 27
1.0
 37
0.0
 76
     0
330
1F
331
29
  0
MATERIAL
  5
3D
102
{ACAD_REACTORS
330
3B
102
}
330
3B
100
AcDbMaterial
  1
ByBlock
 72
     1
 94
      127
  0
MATERIAL
  5
3C
102
{ACAD_REACTORS
330
3B
102
}
330
3B
100
AcDbMaterial
  1
ByLayer
 72
     1
 94
      127
  0
MATERIAL
  5
3E
102
{ACAD_REACTORS
330
3B
102
}
330
3B
100
AcDbMaterial
  1
Global
 72
     1
 94
      127
  0
MLINESTYLE
  5
18
102
{ACAD_REACTORS
330
17
102
}
330
17
100
AcDbMlineStyle
  2
Standard
 70
     0
  3

 62
   256
 51
90.0
 52
90.0
 71
     2
 49
0.5
 62
   256
  6
BYLAYER
 49
-0.5
 62
   256
  6
BYLAYER
  0
ACDBPLACEHOLDER
  5
F
102
{ACAD_REACTORS
330
E
102
}
330
E
  0
VISUALSTYLE
  5
2F
102
{ACAD_REACTORS
330
2A
102
}
330
2A
100
AcDbVisualStyle
  2
2dWireframe
 70
     4
177
     2
291
     0
 71
     0
176
     1
 72
     2
176
     1
 73
     0
176
     1
 90
        0
176
     1
 40
-0.6
176
     1
 41
-30.0
176
     1
 62
     5
 63
     7
421
 16777215
176
     1
 74
     1
176
     1
 91
        4
176
     1
 64
     7
176
     1
 65
   257
176
     1
 75
     1
176
     1
175
     1
176
     1
 42
1.0
176
     1
 92
        0
176
     1
 66
   257
176
     1
 43
1.0
176
     1
 76
     1
176
     1
 77
     6
176
     1
 78
     2
176
     1
 67
     7
176
     1
 79
     5
176
     1
170
     0
176
     1
171
     0
176
     1
290
     0
176
     1
 93
        1
176
     1
 44
0.0
176
     1
173
     0
176
     1
  0
VISUALSTYLE
  5
31
102
{ACAD_REACTORS
330
2A
102
}
330
2A
100
AcDbVisualStyle
  2
3D Hidden
 70
     6
177
     2
291
     0
 71
     1
176
     1
 72
     2
176
     1
 73
     2
176
     1
 90
        0
176
     1
 40
-0.6
176
     1
 41
-30.0
176
     1
 62
     5
 63
     7
421
 16777215
176
     1
 74
     2
176
     1
 91
        2
176
     1
 64
     7
176
     1
 65
   257
176
     1
 75
     2
176
     1
175
     1
176
     1
 42
40.0
176
     1
 92
        0
176
     1
 66
   257
176
     1
 43
1.0
176
     1
 76
     1
176
     1
 77
     6
176
     1
 78
     2
176
     1
 67
     7
176
     1
 79
     3
176
     1
170
     0
176
     1
171
     0
176
     1
290
     0
176
     1
 93
        1
176
     1
 44
0.0
176
     1
173
     0
176
     1
  0
VISUALSTYLE
  5
30
102
{ACAD_REACTORS
330
2A
102
}
330
2A
100
AcDbVisualStyle
  2
3dWireframe
 70
     5
177
     2
291
     0
 71
     0
176
     1
 72
     2
176
     1
 73
     0
176
     1
 90
        0
176
     1
 40
-0.6
176
     1
 41
-30.0
176
     1
 62
     5
 63
     7
421
 16777215
176
     1
 74
     1
176
     1
 91
        4
176
     1
 64
     7
176
     1
 65
   257
176
     1
 75
     1
176
     1
175
     1
176
     1
 42
1.0
176
     1
 92
        0
176
     1
 66
   257
176
     1
 43
1.0
176
     1
 76
     1
176
     1
 77
     6
176
     1
 78
     2
176
     1
 67
     7
176
     1
 79
     5
176
     1
170
     0
176
     1
171
     0
176
     1
290
     0
176
     1
 93
        1
176
     1
 44
0.0
176
     1
173
     0
176
     1
  0
VISUALSTYLE
  5
32
102
{ACAD_REACTORS
330
2A
102
}
330
2A
100
AcDbVisualStyle
  2
Basic
 70
     7
177
     2
291
     1
 71
     1
176
     1
 72
     0
176
     1
 73
     1
176
     1
 90
        0
176
     1
 40
-0.6
176
     1
 41
-30.0
176
     1
 62
     5
 63
     7
421
 16777215
176
     1
 74
     0
176
     1
 91
        4
176
     1
 64
     7
176
     1
 65
   257
176
     1
 75
     1
176
     1
175
     1
176
     1
 42
1.0
176
     1
 92
        8
176
     1
 66
     7
176
     1
 43
1.0
176
     1
 76
     1
176
     1
 77
     6
176
     1
 78
     2
176
     1
 67
     7
176
     1
 79
     5
176
     1
170
     0
176
     1
171
     0
176
     1
290
     0
176
     1
 93
        1
176
     1
 44
0.0
176
     1
173
     0
176
     1
  0
VISUALSTYLE
  5
36
102
{ACAD_REACTORS
330
2A
102
}
330
2A
100
AcDbVisualStyle
  2
Brighten
 70
    12
177
     2
291
     1
 71
     2
176
     1
 72
     2
176
     1
 73
     0
176
     1
 90
        0
176
     1
 40
-0.6
176
     1
 41
-30.0
176
     1
 62
     5
 63
     7
421
 16777215
176
     1
 74
     1
176
     1
 91
        4
176
     1
 64
     7
176
     1
 65
   257
176
     1
 75
     1
176
     1
175
     1
176
     1
 42
1.0
176
     1
 92
        8
176
     1
 66
     7
176
     1
 43
1.0
176
     1
 76
     1
176
     1
 77
     6
176
     1
 78
     2
176
     1
 67
     7
176
     1
 79
     5
176
     1
170
     0
176
     1
171
     0
176
     1
290
     0
176
     1
 93
        1
176
     1
 44
50.0
176
     1
173
     0
176
     1
  0
VISUALSTYLE
  5
3A
102
{ACAD_REACTORS
330
2A
102
}
330
2A
100
AcDbVisualStyle
  2
ColorChange
 70
    16
177
     2
291
     1
 71
     2
176
     1
 72
     2
176
     1
 73
     3
176
     1
 90
        0
176
     1
 40
-0.6
176
     1
 41
-30.0
176
     1
 62
     5
 63
     8
421
  8421504
176
     1
 74
     1
176
     1
 91
        4
176
     1
 64
     7
176
     1
 65
   257
176
     1
 75
     1
176
     1
175
     1
176
     1
 42
1.0
176
     1
 92
        8
176
     1
 66
     8
424
  8421504
176
     1
 43
1.0
176
     1
 76
     1
176
     1
 77
     6
176
     1
 78
     2
176
     1
 67
     7
176
     1
 79
     5
176
     1
170
     0
176
     1
171
     0
176
     1
290
     0
176
     1
 93
        1
176
     1
 44
0.0
176
     1
173
     0
176
     1
  0
VISUALSTYLE
  5
34
102
{ACAD_REACTORS
330
2A
102
}
330
2A
100
AcDbVisualStyle
  2
Conceptual
 70
     9
177
     2
291
     0
 71
     3
176
     1
 72
     2
176
     1
 73
     0
176
     1
 90
        0
176
     1
 40
-0.6
176
     1
 41
-30.0
176
     1
 62
     5
 63
     7
421
 16777215
176
     1
 74
     2
176
     1
 91
        2
176
     1
 64
     7
176
     1
 65
   257
176
     1
 75
     1
176
     1
175
     1
176
     1
 42
40.0
176
     1
 92
        8
176
     1
 66
     7
176
     1
 43
1.0
176
     1
 76
     1
176
     1
 77
     6
176
     1
 78
     2
176
     1
 67
     7
176
     1
 79
     3
176
     1
170
     0
176
     1
171
     0
176
     1
290
     0
176
     1
 93
        1
176
     1
 44
0.0
176
     1
173
     0
176
     1
  0
VISUALSTYLE
  5
35
102
{ACAD_REACTORS
330
2A
102
}
330
2A
100
AcDbVisualStyle
  2
Dim
 70
    11
177
     2
291
     1
 71
     2
176
     1
 72
     2
176
     1
 73
     0
176
     1
 90
        0
176
     1
 40
-0.6
176
     1
 41
-30.0
176
     1
 62
     5
 63
     7
421
 16777215
176
     1
 74
     1
176
     1
 91
        4
176
     1
 64
     7
176
     1
 65
   257
176
     1
 75
     1
176
     1
175
     1
176
     1
 42
1.0
176
     1
 92
        8
176
     1
 66
     7
176
     1
 43
1.0
176
     1
 76
     1
176
     1
 77
     6
176
     1
 78
     2
176
     1
 67
     7
176
     1
 79
     5
176
     1
170
     0
176
     1
171
     0
176
     1
290
     0
176
     1
 93
        1
176
     1
 44
-50.0
176
     1
173
     0
176
     1
  0
VISUALSTYLE
  5
39
102
{ACAD_REACTORS
330
2A
102
}
330
2A
100
AcDbVisualStyle
  2
Facepattern
 70
    15
177
     2
291
     1
 71
     2
176
     1
 72
     2
176
     1
 73
     0
176
     1
 90
        0
176
     1
 40
-0.6
176
     1
 41
-30.0
176
     1
 62
     5
 63
     7
421
 16777215
176
     1
 74
     1
176
     1
 91
        4
176
     1
 64
     7
176
     1
 65
   257
176
     1
 75
     1
176
     1
175
     1
176
     1
 42
1.0
176
     1
 92
        8
176
     1
 66
     7
176
     1
 43
1.0
176
     1
 76
     1
176
     1
 77
     6
176
     1
 78
     2
176
     1
 67
     7
176
     1
 79
     5
176
     1
170
     0
176
     1
171
     0
176
     1
290
     0
176
     1
 93
        1
176
     1
 44
0.0
176
     1
173
     0
176
     1
  0
VISUALSTYLE
  5
2B
102
{ACAD_REACTORS
330
2A
102
}
330
2A
100
AcDbVisualStyle
  2
Flat
 70
     0
177
     2
291
     1
 71
     2
176
     1
 72
     1
176
     1
 73
     1
176
     1
 90
        2
176
     1
 40
-0.6
176
     1
 41
30.0
176
     1
 62
     5
 63
     7
421
 16777215
176
     1
 74
     0
176
     1
 91
        4
176
     1
 64
     7
176
     1
 65
   257
176
     1
 75
     1
176
     1
175
     1
176
     1
 42
1.0
176
     1
 92
        8
176
     1
 66
     7
176
     1
 43
1.0
176
     1
 76
     1
176
     1
 77
     6
176
     1
 78
     2
176
     1
 67
     7
176
     1
 79
     5
176
     1
170
     0
176
     1
171
     0
176
     1
290
     0
176
     1
 93
       13
176
     1
 44
0.0
176
     1
173
     0
176
     1
  0
VISUALSTYLE
  5
2C
102
{ACAD_REACTORS
330
2A
102
}
330
2A
100
AcDbVisualStyle
  2
FlatWithEdges
 70
     1
177
     2
291
     1
 71
     2
176
     1
 72
     1
176
     1
 73
     1
176
     1
 90
        2
176
     1
 40
-0.6
176
     1
 41
30.0
176
     1
 62
     5
 63
     7
421
 16777215
176
     1
 74
     1
176
     1
 91
        4
176
     1
 64
     7
176
     1
 65
   257
176
     1
 75
     1
176
     1
175
     1
176
     1
 42
1.0
176
     1
 92
        0
176
     1
 66
   257
176
     1
 43
1.0
176
     1
 76
     1
176
     1
 77
     6
176
     1
 78
     2
176
     1
 67
     7
176
     1
 79
     5
176
     1
170
     0
176
     1
171
     0
176
     1
290
     0
176
     1
 93
       13
176
     1
 44
0.0
176
     1
173
     0
176
     1
  0
VISUALSTYLE
  5
2D
102
{ACAD_REACTORS
330
2A
102
}
330
2A
100
AcDbVisualStyle
  2
Gouraud
 70
     2
177
     2
291
     1
 71
     2
176
     1
 72
     2
176
     1
 73
     1
176
     1
 90
        2
176
     1
 40
-0.6
176
     1
 41
30.0
176
     1
 62
     5
 63
     7
421
 16777215
176
     1
 74
     0
176
     1
 91
        4
176
     1
 64
     7
176
     1
 65
   257
176
     1
 75
     1
176
     1
175
     1
176
     1
 42
1.0
176
     1
 92
        0
176
     1
 66
     7
176
     1
 43
1.0
176
     1
 76
     1
176
     1
 77
     6
176
     1
 78
     2
176
     1
 67
     7
176
     1
 79
     5
176
     1
170
     0
176
     1
171
     0
176
     1
290
     0
176
     1
 93
       13
176
     1
 44
0.0
176
     1
173
     0
176
     1
  0
VISUALSTYLE
  5
2E
102
{ACAD_REACTORS
330
2A
102
}
330
2A
100
AcDbVisualStyle
  2
GouraudWithEdges
 70
     3
177
     2
291
     1
 71
     2
176
     1
 72
     2
176
     1
 73
     1
176
     1
 90
        2
176
     1
 40
-0.6
176
     1
 41
30.0
176
     1
 62
     5
 63
     7
421
 16777215
176
     1
 74
     1
176
     1
 91
        4
176
     1
 64
     7
176
     1
 65
   257
176
     1
 75
     1
176
     1
175
     1
176
     1
 42
1.0
176
     1
 92
        0
176
     1
 66
   257
176
     1
 43
1.0
176
     1
 76
     1
176
     1
 77
     6
176
     1
 78
     2
176
     1
 67
     7
176
     1
 79
     5
176
     1
170
     0
176
     1
171
     0
176
     1
290
     0
176
     1
 93
       13
176
     1
 44
0.0
176
     1
173
     0
176
     1
  0
VISUALSTYLE
  5
38
102
{ACAD_REACTORS
330
2A
102
}
330
2A
100
AcDbVisualStyle
  2
Linepattern
 70
    14
177
     2
291
     1
 71
     2
176
     1
 72
     2
176
     1
 73
     0
176
     1
 90
        0
176
     1
 40
-0.6
176
     1
 41
-30.0
176
     1
 62
     5
 63
     7
421
 16777215
176
     1
 74
     1
176
     1
 91
        4
176
     1
 64
     7
176
     1
 65
   257
176
     1
 75
     7
176
     1
175
     7
176
     1
 42
1.0
176
     1
 92
        8
176
     1
 66
     7
176
     1
 43
1.0
176
     1
 76
     1
176
     1
 77
     6
176
     1
 78
     2
176
     1
 67
     7
176
     1
 79
     5
176
     1
170
     0
176
     1
171
     0
176
     1
290
     0
176
     1
 93
        1
176
     1
 44
0.0
176
     1
173
     0
176
     1
  0
VISUALSTYLE
  5
33
102
{ACAD_REACTORS
330
2A
102
}
330
2A
100
AcDbVisualStyle
  2
Realistic
 70
     8
177
     2
291
     0
 71
     2
176
     1
 72
     2
176
     1
 73
     0
176
     1
 90
        0
176
     1
 40
-0.6
176
     1
 41
-30.0
176
     1
 62
     5
 63
     7
421
 16777215
176
     1
 74
     1
176
     1
 91
        0
176
     1
 64
     7
176
     1
 65
   257
176
     1
 75
     1
176
     1
175
     1
176
     1
 42
1.0
176
     1
 92
        8
176
     1
 66
     8
424
  7895160
176
     1
 43
1.0
176
     1
 76
     1
176
     1
 77
     6
176
     1
 78
     2
176
     1
 67
     7
176
     1
 79
     5
176
     1
170
     0
176
     1
171
     0
176
     1
290
     0
176
     1
 93
       13
176
     1
 44
0.0
176
     1
173
     0
176
     1
  0
VISUALSTYLE
  5
37
102
{ACAD_REACTORS
330
2A
102
}
330
2A
100
AcDbVisualStyle
  2
Thicken
 70
    13
177
     2
291
     1
 71
     2
176
     1
 72
     2
176
     1
 73
     0
176
     1
 90
        0
176
     1
 40
-0.6
176
     1
 41
-30.0
176
     1
 62
     5
 63
     7
421
 16777215
176
     1
 74
     1
176
     1
 91
        4
176
     1
 64
     7
176
     1
 65
   257
176
     1
 75
     1
176
     1
175
     1
176
     1
 42
1.0
176
     1
 92
       12
176
     1
 66
     7
176
     1
 43
1.0
176
     1
 76
     1
176
     1
 77
     6
176
     1
 78
     2
176
     1
 67
     7
176
     1
 79
     5
176
     1
170
     0
176
     1
171
     0
176
     1
290
     0
176
     1
 93
        1
176
     1
 44
0.0
176
     1
173
     0
176
     1
  0
ENDSEC
  0
EOF
