  0
SECTION
  2
HEADER
  9
$ACADVER
  1
AC1024
  9
$ACADMAINTVER
 70
     6
  9
$DWGCODEPAGE
  3
UNDEFINED
  9
$INSBASE
 10
0.0
 20
0.0
 30
0.0
  9
$EXTMIN
 10
1.000000000000000E+20
 20
1.000000000000000E+20
 30
1.000000000000000E+20
  9
$EXTMAX
 10
-1.000000000000000E+20
 20
-1.000000000000000E+20
 30
-1.000000000000000E+20
  9
$LIMMIN
 10
0.0
 20
0.0
  9
$LIMMAX
 10
12.0
 20
9.0
  9
$ORTHOMODE
 70
     0
  9
$REGENMODE
 70
     1
  9
$FILLMODE
 70
     1
  9
$QTEXTMODE
 70
     0
  9
$MIRRTEXT
 70
     1
  9
$LTSCALE
 40
1.0
  9
$ATTMODE
 70
     1
  9
$TEXTSIZE
 40
0.2
  9
$TRACEWID
 40
0.05
  9
$TEXTSTYLE
  7
Standard
  9
$CLAYER
  8
0
  9
$CELTYPE
  6
ByLayer
  9
$CECOLOR
 62
   256
  9
$CELTSCALE
 40
1.0
  9
$DISPSILH
 70
     0
  9
$DIMSCALE
 40
1.0
  9
$DIMASZ
 40
0.18
  9
$DIMEXO
 40
0.0625
  9
$DIMDLI
 40
0.38
  9
$DIMRND
 40
0.0
  9
$DIMDLE
 40
0.0
  9
$DIMEXE
 40
0.18
  9
$DIMTP
 40
0.0
  9
$DIMTM
 40
0.0
  9
$DIMTXT
 40
0.18
  9
$DIMCEN
 40
0.09
  9
$DIMTSZ
 40
0.0
  9
$DIMTOL
 70
     0
  9
$DIMLIM
 70
     0
  9
$DIMTIH
 70
     1
  9
$DIMTOH
 70
     1
  9
$DIMSE1
 70
     0
  9
$DIMSE2
 70
     0
  9
$DIMTAD
 70
     0
  9
$DIMZIN
 70
     0
  9
$DIMBLK
  1

  9
$DIMASO
 70
     1
  9
$DIMSHO
 70
     1
  9
$DIMPOST
  1

  9
$DIMAPOST
  1

  9
$DIMALT
 70
     0
  9
$DIMALTD
 70
     2
  9
$DIMALTF
 40
25.4
  9
$DIMLFAC
 40
1.0
  9
$DIMTOFL
 70
     0
  9
$DIMTVP
 40
0.0
  9
$DIMTIX
 70
     0
  9
$DIMSOXD
 70
     0
  9
$DIMSAH
 70
     0
  9
$DIMBLK1
  1

  9
$DIMBLK2
  1

  9
$DIMSTYLE
  2
Standard
  9
$DIMCLRD
 70
     0
  9
$DIMCLRE
 70
     0
  9
$DIMCLRT
 70
     0
  9
$DIMTFAC
 40
1.0
  9
$DIMGAP
 40
0.09
  9
$DIMJUST
 70
     0
  9
$DIMSD1
 70
     0
  9
$DIMSD2
 70
     0
  9
$DIMTOLJ
 70
     1
  9
$DIMTZIN
 70
     0
  9
$DIMALTZ
 70
     0
  9
$DIMALTTZ
 70
     0
  9
$DIMUPT
 70
     0
  9
$DIMDEC
 70
     4
  9
$DIMTDEC
 70
     4
  9
$DIMALTU
 70
     2
  9
$DIMALTTD
 70
     2
  9
$DIMTXSTY
  7
Standard
  9
$DIMAUNIT
 70
     0
  9
$DIMADEC
 70
     0
  9
$DIMALTRND
 40
0.0
  9
$DIMAZIN
 70
     0
  9
$DIMDSEP
 70
    46
  9
$DIMATFIT
 70
     3
  9
$DIMFRAC
 70
     0
  9
$DIMLDRBLK
  1

  9
$DIMLUNIT
 70
     2
  9
$DIMLWD
 70
    -2
  9
$DIMLWE
 70
    -2
  9
$DIMTMOVE
 70
     0
  9
$DIMFXL
 40
1.0
  9
$DIMFXLON
 70
     0
  9
$DIMJOGANG
 40
0.7853981633974483
  9
$DIMTFILL
 70
     0
  9
$DIMTFILLCLR
 70
     0
  9
$DIMARCSYM
 70
     0
  9
$DIMLTYPE
  6

  9
$DIMLTEX1
  6

  9
$DIMLTEX2
  6

  9
$DIMTXTDIRECTION
 70
     0
  9
$LUNITS
 70
     2
  9
$LUPREC
 70
     4
  9
$SKETCHINC
 40
0.1
  9
$FILLETRAD
 40
0.5
  9
$AUNITS
 70
     0
  9
$AUPREC
 70
     0
  9
$MENU
  1
.
  9
$ELEVATION
 40
0.0
  9
$PELEVATION
 40
0.0
  9
$THICKNESS
 40
0.0
  9
$LIMCHECK
 70
     0
  9
$CHAMFERA
 40
0.5
  9
$CHAMFERB
 40
0.5
  9
$CHAMFERC
 40
1.0
  9
$CHAMFERD
 40
0.0
  9
$SKPOLY
 70
     0
  9
$TDCREATE
 40
2457917.617569433
  9
$TDUCREATE
 40
2457917.242569444
  9
$TDUPDATE
 40
2457917.617569433
  9
$TDUUPDATE
 40
2457917.242569444
  9
$TDINDWG
 40
0.0000000116
  9
$TDUSRTIMER
 40
0.0000000116
  9
$USRTIMER
 70
     1
  9
$ANGBASE
 50
0.0
  9
$ANGDIR
 70
     0
  9
$PDMODE
 70
     0
  9
$PDSIZE
 40
0.0
  9
$PLINEWID
 40
0.0
  9
$SPLFRAME
 70
     0
  9
$SPLINETYPE
 70
     6
  9
$SPLINESEGS
 70
     8
  9
$HANDSEED
  5
AE
  9
$SURFTAB1
 70
     6
  9
$SURFTAB2
 70
     6
  9
$SURFTYPE
 70
     6
  9
$SURFU
 70
     6
  9
$SURFV
 70
     6
  9
$UCSBASE
  2

  9
$UCSNAME
  2

  9
$UCSORG
 10
0.0
 20
0.0
 30
0.0
  9
$UCSXDIR
 10
1.0
 20
0.0
 30
0.0
  9
$UCSYDIR
 10
0.0
 20
1.0
 30
0.0
  9
$UCSORTHOREF
  2

  9
$UCSORTHOVIEW
 70
     0
  9
$UCSORGTOP
 10
0.0
 20
0.0
 30
0.0
  9
$UCSORGBOTTOM
 10
0.0
 20
0.0
 30
0.0
  9
$UCSORGLEFT
 10
0.0
 20
0.0
 30
0.0
  9
$UCSORGRIGHT
 10
0.0
 20
0.0
 30
0.0
  9
$UCSORGFRONT
 10
0.0
 20
0.0
 30
0.0
  9
$UCSORGBACK
 10
0.0
 20
0.0
 30
0.0
  9
$PUCSBASE
  2

  9
$PUCSNAME
  2

  9
$PUCSORG
 10
0.0
 20
0.0
 30
0.0
  9
$PUCSXDIR
 10
1.0
 20
0.0
 30
0.0
  9
$PUCSYDIR
 10
0.0
 20
1.0
 30
0.0
  9
$PUCSORTHOREF
  2

  9
$PUCSORTHOVIEW
 70
     0
  9
$PUCSORGTOP
 10
0.0
 20
0.0
 30
0.0
  9
$PUCSORGBOTTOM
 10
0.0
 20
0.0
 30
0.0
  9
$PUCSORGLEFT
 10
0.0
 20
0.0
 30
0.0
  9
$PUCSORGRIGHT
 10
0.0
 20
0.0
 30
0.0
  9
$PUCSORGFRONT
 10
0.0
 20
0.0
 30
0.0
  9
$PUCSORGBACK
 10
0.0
 20
0.0
 30
0.0
  9
$USERI1
 70
     0
  9
$USERI2
 70
     0
  9
$USERI3
 70
     0
  9
$USERI4
 70
     0
  9
$USERI5
 70
     0
  9
$USERR1
 40
0.0
  9
$USERR2
 40
0.0
  9
$USERR3
 40
0.0
  9
$USERR4
 40
0.0
  9
$USERR5
 40
0.0
  9
$WORLDVIEW
 70
     1
  9
$SHADEDGE
 70
     3
  9
$SHADEDIF
 70
    70
  9
$TILEMODE
 70
     1
  9
$MAXACTVP
 70
    64
  9
$PINSBASE
 10
0.0
 20
0.0
 30
0.0
  9
$PLIMCHECK
 70
     0
  9
$PEXTMIN
 10
1.000000000000000E+20
 20
1.000000000000000E+20
 30
1.000000000000000E+20
  9
$PEXTMAX
 10
-1.000000000000000E+20
 20
-1.000000000000000E+20
 30
-1.000000000000000E+20
  9
$PLIMMIN
 10
0.0
 20
0.0
  9
$PLIMMAX
 10
12.0
 20
9.0
  9
$UNITMODE
 70
     0
  9
$VISRETAIN
 70
     1
  9
$PLINEGEN
 70
     0
  9
$PSLTSCALE
 70
     1
  9
$TREEDEPTH
 70
  3020
  9
$CMLSTYLE
  2
Standard
  9
$CMLJUST
 70
     0
  9
$CMLSCALE
 40
1.0
  9
$PROXYGRAPHICS
 70
     1
  9
$MEASUREMENT
 70
     0
  9
$CELWEIGHT
370
    -1
  9
$ENDCAPS
280
     0
  9
$JOINSTYLE
280
     0
  9
$LWDISPLAY
290
     1
  9
$INSUNITS
 70
     1
  9
$HYPERLINKBASE
  1

  9
$STYLESHEET
  1

  9
$XEDIT
290
     1
  9
$CEPSNTYPE
380
     0
  9
$PSTYLEMODE
290
     1
  9
$FINGERPRINTGUID
  2
{93135A2A-A7BC-1593-4D8B-BEFA1B8C49F3}
  9
$VERSIONGUID
  2
{FAEB1C32-E019-11D5-929B-00C0DF256EC4}
  9
$EXTNAMES
290
     1
  9
$PSVPSCALE
 40
0.0
  9
$OLESTARTUP
290
     0
  9
$SORTENTS
280
   127
  9
$INDEXCTL
280
     0
  9
$HIDETEXT
280
     1
  9
$XCLIPFRAME
280
     2
  9
$HALOGAP
280
     0
  9
$OBSCOLOR
 70
   257
  9
$OBSLTYPE
280
     0
  9
$INTERSECTIONDISPLAY
280
     0
  9
$INTERSECTIONCOLOR
 70
   257
  9
$DIMASSOC
280
     2
  9
$PROJECTNAME
  1

  9
$CAMERADISPLAY
290
     0
  9
$LENSLENGTH
 40
50.0
  9
$CAMERAHEIGHT
 40
0.0
  9
$STEPSPERSEC
 40
2.0
  9
$STEPSIZE
 40
6.0
  9
$3DDWFPREC
 40
2.0
  9
$PSOLWIDTH
 40
0.25
  9
$PSOLHEIGHT
 40
4.0
  9
$LOFTANG1
 40
1.570796326794897
  9
$LOFTANG2
 40
1.570796326794897
  9
$LOFTMAG1
 40
0.0
  9
$LOFTMAG2
 40
0.0
  9
$LOFTPARAM
 70
     7
  9
$LOFTNORMALS
280
     1
  9
$LATITUDE
 40
37.795
  9
$LONGITUDE
 40
-122.394
  9
$NORTHDIRECTION
 40
0.0
  9
$TIMEZONE
 70
 -8000
  9
$LIGHTGLYPHDISPLAY
280
     1
  9
$TILEMODELIGHTSYNCH
280
     1
  9
$CMATERIAL
347
3C
  9
$SOLIDHIST
280
     1
  9
$SHOWHIST
280
     1
  9
$DWFFRAME
280
     2
  9
$DGNFRAME
280
     2
  9
$REALWORLDSCALE
290
     1
  9
$INTERFERECOLOR
 62
   256
  9
$CSHADOW
280
     0
  9
$SHADOWPLANELOCATION
 40
0.0
  0
ENDSEC
  0
SECTION
  2
CLASSES
  0
CLASS
  1
ACDBDICTIONARYWDFLT
  2
AcDbDictionaryWithDefault
  3
ObjectDBX Classes
 90
        0
 91
        4
280
     0
281
     0
  0
CLASS
  1
VISUALSTYLE
  2
AcDbVisualStyle
  3
ObjectDBX Classes
 90
     4095
 91
        4
280
     0
281
     0
  0
CLASS
  1
MATERIAL
  2
AcDbMaterial
  3
ObjectDBX Classes
 90
     1153
 91
        4
280
     0
281
     0
  0
CLASS
  1
SUN
  2
AcDbSun
  3
SCENEOE
 90
     1024
 91
        4
280
     0
281
     0
  0
ENDSEC
  0
SECTION
  2
TABLES
  0
TABLE
  2
VPORT
  5
8
330
0
100
AcDbSymbolTable
 70
     1
  0
VPORT
  5
29
330
8
100
AcDbSymbolTableRecord
100
AcDbViewportTableRecord
  2
*Active
 70
     0
 10
0.0
 20
0.0
 11
1.0
 21
1.0
 12
0.0
 22
0.0
 13
0.0
 23
0.0
 14
0.5
 24
0.5
 15
0.5
 25
0.5
 16
0.0
 26
0.0
 36
1.0
 17
91.00082462281999
 27
-128.4993055234307
 37
0.0
 40
256.9986110468615
 41
0.7081814508812795
 42
50.0
 43
0.0
 44
0.0
 50
0.0
 51
0.0
 71
     0
 72
   100
 73
     1
 74
     3
 75
     0
 76
     0
 77
     0
 78
     0
281
     0
 65
     1
110
0.0
120
0.0
130
0.0
111
1.0
121
0.0
131
0.0
112
0.0
122
1.0
132
0.0
 79
     0
146
0.0
 60
     3
 61
     5
292
     1
282
     1
141
0.0
142
0.0
 63
   250
361
3F
  0
ENDTAB
  0
TABLE
  2
LTYPE
  5
5
330
0
100
AcDbSymbolTable
 70
     1
  0
LTYPE
  5
14
330
5
100
AcDbSymbolTableRecord
100
AcDbLinetypeTableRecord
  2
ByBlock
 70
     0
  3

 72
    65
 73
     0
 40
0.0
  0
LTYPE
  5
15
330
5
100
AcDbSymbolTableRecord
100
AcDbLinetypeTableRecord
  2
ByLayer
 70
     0
  3

 72
    65
 73
     0
 40
0.0
  0
LTYPE
  5
16
330
5
100
AcDbSymbolTableRecord
100
AcDbLinetypeTableRecord
  2
Continuous
 70
     0
  3
Solid line
 72
    65
 73
     0
 40
0.0
  0
ENDTAB
  0
TABLE
  2
LAYER
  5
2
330
0
100
AcDbSymbolTable
 70
     2
  0
LAYER
  5
10
330
2
100
AcDbSymbolTableRecord
100
AcDbLayerTableRecord
  2
0
 70
     0
 62
     7
  6
Continuous
370
    -3
390
F
347
3E
  0
LAYER
  5
40
330
2
100
AcDbSymbolTableRecord
100
AcDbLayerTableRecord
  2
_U+30EC_U+30A4_U+30E4_U+30FC 1
 70
     0
 62
     7
  6
Continuous
370
    -3
390
F
347
3E
  0
ENDTAB
  0
TABLE
  2
STYLE
  5
3
330
0
100
AcDbSymbolTable
 70
     1
  0
STYLE
  5
11
330
3
100
AcDbSymbolTableRecord
100
AcDbTextStyleTableRecord
  2
Standard
 70
     0
 40
0.0
 41
1.0
 50
0.0
 71
     0
 42
0.2
  3
txt
  4

  0
ENDTAB
  0
TABLE
  2
VIEW
  5
6
330
0
100
AcDbSymbolTable
 70
     0
  0
ENDTAB
  0
TABLE
  2
UCS
  5
7
330
0
100
AcDbSymbolTable
 70
     0
  0
ENDTAB
  0
TABLE
  2
APPID
  5
9
330
0
100
AcDbSymbolTable
 70
     1
  0
APPID
  5
12
330
9
100
AcDbSymbolTableRecord
100
AcDbRegAppTableRecord
  2
ACAD
 70
     0
  0
ENDTAB
  0
TABLE
  2
DIMSTYLE
  5
A
330
0
100
AcDbSymbolTable
 70
     1
100
AcDbDimStyleTable
  0
DIMSTYLE
105
27
330
A
100
AcDbSymbolTableRecord
100
AcDbDimStyleTableRecord
  2
Standard
 70
     0
178
     0
340
11
  0
ENDTAB
  0
TABLE
  2
BLOCK_RECORD
  5
1
330
0
100
AcDbSymbolTable
 70
     4
  0
BLOCK_RECORD
  5
1F
330
1
100
AcDbSymbolTableRecord
100
AcDbBlockTableRecord
  2
*Model_Space
340
22
 70
     0
280
     1
281
     0
  0
BLOCK_RECORD
  5
1B
330
1
100
AcDbSymbolTableRecord
100
AcDbBlockTableRecord
  2
*Paper_Space
340
1E
 70
     0
280
     1
281
     0
  0
BLOCK_RECORD
  5
23
330
1
100
AcDbSymbolTableRecord
100
AcDbBlockTableRecord
  2
*Paper_Space0
340
26
 70
     0
280
     1
281
     0
  0
BLOCK_RECORD
  5
41
330
1
100
AcDbSymbolTableRecord
100
AcDbBlockTableRecord
  2
block 2
340
0
102
{BLKREFS
331
42
102
}
 70
     0
280
     1
281
     0
  0
BLOCK_RECORD
  5
5D
330
1
100
AcDbSymbolTableRecord
100
AcDbBlockTableRecord
  2
block 3
340
0
102
{BLKREFS
331
5E
102
}
 70
     0
280
     1
281
     0
  0
BLOCK_RECORD
  5
79
330
1
100
AcDbSymbolTableRecord
100
AcDbBlockTableRecord
  2
block 4
340
0
102
{BLKREFS
331
7A
102
}
 70
     0
280
     1
281
     0
  0
ENDTAB
  0
ENDSEC
  0
SECTION
  2
BLOCKS
  0
BLOCK
  5
20
330
1F
100
AcDbEntity
  8
0
100
AcDbBlockBegin
  2
*Model_Space
 70
     0
 10
0.0
 20
0.0
 30
0.0
  3
*Model_Space
  1

  0
ENDBLK
  5
21
330
1F
100
AcDbEntity
  8
0
100
AcDbBlockEnd
  0
BLOCK
  5
1C
330
1B
100
AcDbEntity
 67
     1
  8
0
100
AcDbBlockBegin
  2
*Paper_Space
 70
     0
 10
0.0
 20
0.0
 30
0.0
  3
*Paper_Space
  1

  0
ENDBLK
  5
1D
330
1B
100
AcDbEntity
 67
     1
  8
0
100
AcDbBlockEnd
  0
BLOCK
  5
24
330
23
100
AcDbEntity
  8
0
100
AcDbBlockBegin
  2
*Paper_Space0
 70
     0
 10
0.0
 20
0.0
 30
0.0
  3
*Paper_Space0
  1

  0
ENDBLK
  5
25
330
23
100
AcDbEntity
  8
0
100
AcDbBlockEnd
  0
BLOCK
  5
43
330
41
100
AcDbEntity
  8
0
100
AcDbBlockBegin
  2
block 2
 70
     0
 10
0.0
 20
0.0
 30
0.0
  3
block 2
  1

  0
SPLINE
  5
45
330
41
100
AcDbEntity
  8
_U+30EC_U+30A4_U+30E4_U+30FC 1
370
     0
100
AcDbSpline
210
0.0
220
0.0
230
1.0
 70
    11
 71
     3
 72
    62
 73
    58
 74
     0
 42
0.0000000001
 43
0.0000000001
 12
1.0
 22
0.0
 32
0.0
 13
1.0
 23
0.0
 33
0.0
 40
0.0
 40
0.0
 40
0.0
 40
0.0
 40
1.0
 40
1.0
 40
1.0
 40
2.0
 40
2.0
 40
2.0
 40
3.0
 40
3.0
 40
3.0
 40
4.0
 40
4.0
 40
4.0
 40
5.0
 40
5.0
 40
5.0
 40
6.0
 40
6.0
 40
6.0
 40
7.0
 40
7.0
 40
7.0
 40
8.0
 40
8.0
 40
8.0
 40
9.0
 40
9.0
 40
9.0
 40
10.0
 40
10.0
 40
10.0
 40
11.0
 40
11.0
 40
11.0
 40
12.0
 40
12.0
 40
12.0
 40
13.0
 40
13.0
 40
13.0
 40
14.0
 40
14.0
 40
14.0
 40
15.0
 40
15.0
 40
15.0
 40
16.0
 40
16.0
 40
16.0
 40
17.0
 40
17.0
 40
17.0
 40
18.0
 40
18.0
 40
18.0
 40
19.0
 40
19.0
 40
19.0
 40
19.0
 10
92.21831594916765
 20
-115.6198160518242
 30
0.0
 10
92.1280544474541
 20
-115.5905327401996
 30
0.0
 10
91.92754989021256
 20
-115.5030273148742
 30
0.0
 10
91.86622719057512
 20
-115.2870198279491
 30
0.0
 10
91.83039819752851
 20
-115.1574842377037
 30
0.0
 10
91.85726994231347
 20
-115.0617105832137
 30
0.0
 10
91.87931855341907
 20
-114.9800618202133
 30
0.0
 10
91.87931855341907
 20
-114.9800618202133
 30
0.0
 10
92.08878035892225
 20
-115.0479302012727
 30
0.0
 10
92.08878035892225
 20
-115.0479302012727
 30
0.0
 10
92.0674207669137
 20
-115.1192436778174
 30
0.0
 10
92.0054090481792
 20
-115.3455864511983
 30
0.0
 10
92.27481551512574
 20
-115.4334363860722
 30
0.0
 10
92.40572914356524
 20
-115.4758110605408
 30
0.0
 10
92.57178274595428
 20
-115.4565185258234
 30
0.0
 10
92.64275171295043
 20
-115.2391330007041
 30
0.0
 10
92.67858070599702
 20
-115.1285454356276
 30
0.0
 10
92.65722111398847
 20
-115.0703233219269
 30
0.0
 10
92.63723956017402
 20
-115.030360214298
 30
0.0
 10
92.58969724247758
 20
-114.9373426361962
 30
0.0
 10
92.4825547728863
 20
-114.8891112994027
 30
0.0
 10
92.43053383105904
 20
-114.872230331525
 30
0.0
 10
92.41227482498721
 20
-114.8663736692001
 30
0.0
 10
92.3774793605862
 20
-114.8574164209384
 30
0.0
 10
92.34991859670419
 20
-114.8525932872591
 30
0.0
 10
92.34991859670419
 20
-114.8525932872591
 30
0.0
 10
92.40986325814754
 20
-114.6675916597012
 30
0.0
 10
92.40986325814754
 20
-114.6675916597012
 30
0.0
 10
92.44431421300004
 20
-114.6855061562245
 30
0.0
 10
92.48358830153188
 20
-114.7006645763596
 30
0.0
 10
92.48978947340534
 20
-114.7023871241022
 30
0.0
 10
92.55249021123689
 20
-114.7227131874652
 30
0.0
 10
92.74817163479908
 20
-114.7640543332882
 30
0.0
 10
92.82120765908637
 20
-114.5387450885528
 30
0.0
 10
92.87632918685037
 20
-114.3699354097756
 30
0.0
 10
92.76815318861352
 20
-114.2769178316738
 30
0.0
 10
92.66411130495898
 20
-114.2428113863699
 30
0.0
 10
92.41261933453573
 20
-114.1611626233694
 30
0.0
 10
92.33234860972942
 20
-114.3799261866828
 30
0.0
 10
92.305821374493
 20
-114.4471055486452
 30
0.0
 10
92.305821374493
 20
-114.4471055486452
 30
0.0
 10
92.112896027319
 20
-114.3844048108136
 30
0.0
 10
92.112896027319
 20
-114.3844048108136
 30
0.0
 10
92.1597493259184
 20
-114.2679605834122
 30
0.0
 10
92.30237627900775
 20
-113.9186279012078
 30
0.0
 10
92.73645831014922
 20
-114.0598768161031
 30
0.0
 10
92.95005423023471
 20
-114.1291232353566
 30
0.0
 10
93.1402235010205
 20
-114.3241156398218
 30
0.0
 10
93.04858396111285
 20
-114.6055799409667
 30
0.0
 10
92.99070635696066
 20
-114.7826578489085
 30
0.0
 10
92.87495114865627
 20
-114.8319227143476
 30
0.0
 10
92.76126299764302
 20
-114.8598279877781
 30
0.0
 10
92.81156139172766
 20
-114.9046142290863
 30
0.0
 10
92.95970049759342
 20
-115.037594914817
 30
0.0
 10
92.87357311046216
 20
-115.3011447194386
 30
0.0
 10
92.7691867172591
 20
-115.6229166377609
 30
0.0
 10
92.48221026333779
 20
-115.7055989294069
 30
0.0
 10
92.21831594916765
 20
-115.6198160518242
 30
0.0
  0
HATCH
  5
46
330
41
100
AcDbEntity
  8
_U+30EC_U+30A4_U+30E4_U+30FC 1
 62
   179
420
  2234388
100
AcDbHatch
 10
0.0
 20
0.0
 30
0.0
210
0.0
220
0.0
230
1.0
  2
SOLID
 70
     1
 71
     0
 91
        1
 92
        1
 93
        1
 72
     4
 94
        3
 73
     0
 74
     1
 95
       62
 96
       58
 40
0.0
 40
0.0
 40
0.0
 40
0.0
 40
1.0
 40
1.0
 40
1.0
 40
2.0
 40
2.0
 40
2.0
 40
3.0
 40
3.0
 40
3.0
 40
4.0
 40
4.0
 40
4.0
 40
5.0
 40
5.0
 40
5.0
 40
6.0
 40
6.0
 40
6.0
 40
7.0
 40
7.0
 40
7.0
 40
8.0
 40
8.0
 40
8.0
 40
9.0
 40
9.0
 40
9.0
 40
10.0
 40
10.0
 40
10.0
 40
11.0
 40
11.0
 40
11.0
 40
12.0
 40
12.0
 40
12.0
 40
13.0
 40
13.0
 40
13.0
 40
14.0
 40
14.0
 40
14.0
 40
15.0
 40
15.0
 40
15.0
 40
16.0
 40
16.0
 40
16.0
 40
17.0
 40
17.0
 40
17.0
 40
18.0
 40
18.0
 40
18.0
 40
19.0
 40
19.0
 40
19.0
 40
19.0
 10
92.21831594916765
 20
-115.6198160518242
 10
92.1280544474541
 20
-115.5905327401996
 10
91.92754989021256
 20
-115.5030273148742
 10
91.86622719057512
 20
-115.2870198279491
 10
91.83039819752851
 20
-115.1574842377037
 10
91.85726994231347
 20
-115.0617105832137
 10
91.87931855341907
 20
-114.9800618202133
 10
91.87931855341907
 20
-114.9800618202133
 10
92.08878035892225
 20
-115.0479302012727
 10
92.08878035892225
 20
-115.0479302012727
 10
92.0674207669137
 20
-115.1192436778174
 10
92.0054090481792
 20
-115.3455864511983
 10
92.27481551512574
 20
-115.4334363860722
 10
92.40572914356524
 20
-115.4758110605408
 10
92.57178274595428
 20
-115.4565185258234
 10
92.64275171295043
 20
-115.2391330007041
 10
92.67858070599702
 20
-115.1285454356276
 10
92.65722111398847
 20
-115.0703233219269
 10
92.63723956017402
 20
-115.030360214298
 10
92.58969724247758
 20
-114.9373426361962
 10
92.4825547728863
 20
-114.8891112994027
 10
92.43053383105904
 20
-114.872230331525
 10
92.41227482498721
 20
-114.8663736692001
 10
92.3774793605862
 20
-114.8574164209384
 10
92.34991859670419
 20
-114.8525932872591
 10
92.34991859670419
 20
-114.8525932872591
 10
92.40986325814754
 20
-114.6675916597012
 10
92.40986325814754
 20
-114.6675916597012
 10
92.44431421300004
 20
-114.6855061562245
 10
92.48358830153188
 20
-114.7006645763596
 10
92.48978947340534
 20
-114.7023871241022
 10
92.55249021123689
 20
-114.7227131874652
 10
92.74817163479908
 20
-114.7640543332882
 10
92.82120765908637
 20
-114.5387450885528
 10
92.87632918685037
 20
-114.3699354097756
 10
92.76815318861352
 20
-114.2769178316738
 10
92.66411130495898
 20
-114.2428113863699
 10
92.41261933453573
 20
-114.1611626233694
 10
92.33234860972942
 20
-114.3799261866828
 10
92.305821374493
 20
-114.4471055486452
 10
92.305821374493
 20
-114.4471055486452
 10
92.112896027319
 20
-114.3844048108136
 10
92.112896027319
 20
-114.3844048108136
 10
92.1597493259184
 20
-114.2679605834122
 10
92.30237627900775
 20
-113.9186279012078
 10
92.73645831014922
 20
-114.0598768161031
 10
92.95005423023471
 20
-114.1291232353566
 10
93.1402235010205
 20
-114.3241156398218
 10
93.04858396111285
 20
-114.6055799409667
 10
92.99070635696066
 20
-114.7826578489085
 10
92.87495114865627
 20
-114.8319227143476
 10
92.76126299764302
 20
-114.8598279877781
 10
92.81156139172766
 20
-114.9046142290863
 10
92.95970049759342
 20
-115.037594914817
 10
92.87357311046216
 20
-115.3011447194386
 10
92.7691867172591
 20
-115.6229166377609
 10
92.48221026333779
 20
-115.7055989294069
 10
92.21831594916765
 20
-115.6198160518242
 97
        0
 97
        0
 75
     2
 76
     1
 98
        0
  0
SPLINE
  5
47
330
41
100
AcDbEntity
  8
_U+30EC_U+30A4_U+30E4_U+30FC 1
370
     0
100
AcDbSpline
210
0.0
220
0.0
230
1.0
 70
    11
 71
     3
 72
    29
 73
    25
 74
     0
 42
0.0000000001
 43
0.0000000001
 12
1.0
 22
0.0
 32
0.0
 13
1.0
 23
0.0
 33
0.0
 40
0.0
 40
0.0
 40
0.0
 40
0.0
 40
1.0
 40
1.0
 40
1.0
 40
2.0
 40
2.0
 40
2.0
 40
3.0
 40
3.0
 40
3.0
 40
4.0
 40
4.0
 40
4.0
 40
5.0
 40
5.0
 40
5.0
 40
6.0
 40
6.0
 40
6.0
 40
7.0
 40
7.0
 40
7.0
 40
8.0
 40
8.0
 40
8.0
 40
8.0
 10
93.79479164321798
 20
-115.8912895760619
 30
0.0
 10
93.62736000263483
 20
-116.0573431784509
 30
0.0
 10
93.45648326656644
 20
-116.0222032045014
 30
0.0
 10
93.34624021103845
 20
-115.9860297019063
 30
0.0
 10
93.19327797149334
 20
-115.9364203269187
 30
0.0
 10
93.0726996295096
 20
-115.8485703920448
 30
0.0
 10
93.03824867465711
 20
-115.6456542679636
 30
0.0
 10
92.99966360522231
 20
-115.4286132523929
 30
0.0
 10
93.05478513298631
 20
-115.1974473453326
 30
0.0
 10
93.10508352707096
 20
-115.0424180484963
 30
0.0
 10
93.1498697683792
 20
-114.9056477577319
 30
0.0
 10
93.243576365578
 20
-114.6717257742835
 30
0.0
 10
93.40549585338474
 20
-114.5149739297046
 30
0.0
 10
93.57086043667674
 20
-114.3554660087375
 30
0.0
 10
93.73140188628938
 20
-114.3830267726195
 30
0.0
 10
93.85404728556426
 20
-114.4226453706999
 30
0.0
 10
94.00494246781821
 20
-114.471910236139
 30
0.0
 10
94.12758786709311
 20
-114.5583821328187
 30
0.0
 10
94.1620388219456
 20
-114.7606092378029
 30
0.0
 10
94.19717879589516
 20
-114.9748941769854
 30
0.0
 10
94.14894745910166
 20
-115.1991698930752
 30
0.0
 10
94.09520396953175
 20
-115.3641899668187
 30
0.0
 10
94.04214949905891
 20
-115.527142983271
 30
0.0
 10
93.95119897824831
 20
-115.7400498842594
 30
0.0
 10
93.79479164321798
 20
-115.8912895760619
 30
0.0
  0
SPLINE
  5
48
330
41
100
AcDbEntity
  8
_U+30EC_U+30A4_U+30E4_U+30FC 1
370
     0
100
AcDbSpline
210
0.0
220
0.0
230
1.0
 70
    11
 71
     3
 72
    17
 73
    13
 74
     0
 42
0.0000000001
 43
0.0000000001
 12
1.0
 22
0.0
 32
0.0
 13
1.0
 23
0.0
 33
0.0
 40
0.0
 40
0.0
 40
0.0
 40
0.0
 40
1.0
 40
1.0
 40
1.0
 40
2.0
 40
2.0
 40
2.0
 40
3.0
 40
3.0
 40
3.0
 40
4.0
 40
4.0
 40
4.0
 40
4.0
 10
93.79444713366945
 20
-114.6059244505152
 30
0.0
 10
93.55708005473574
 20
-114.5287543116456
 30
0.0
 10
93.42513289765067
 20
-114.7840358871026
 30
0.0
 10
93.31867944715644
 20
-115.1116644677499
 30
0.0
 10
93.2201497162783
 20
-115.4158663990974
 30
0.0
 10
93.15882701664086
 20
-115.7204128399935
 30
0.0
 10
93.40618487248179
 20
-115.8010280743484
 30
0.0
 10
93.64114038457583
 20
-115.8775091941209
 30
0.0
 10
93.77481008940353
 20
-115.6246391855036
 30
0.0
 10
93.8819525589948
 20
-115.2945990380166
 30
0.0
 10
93.98082679942146
 20
-114.9910861257661
 30
0.0
 10
94.04008244176777
 20
-114.6855061562245
 30
0.0
 10
93.79444713366945
 20
-114.6059244505152
 30
0.0
  0
HATCH
  5
49
330
41
100
AcDbEntity
  8
_U+30EC_U+30A4_U+30E4_U+30FC 1
 62
   179
420
  2234388
100
AcDbHatch
 10
0.0
 20
0.0
 30
0.0
210
0.0
220
0.0
230
1.0
  2
SOLID
 70
     1
 71
     0
 91
        2
 92
        1
 93
        1
 72
     4
 94
        3
 73
     0
 74
     1
 95
       29
 96
       25
 40
0.0
 40
0.0
 40
0.0
 40
0.0
 40
1.0
 40
1.0
 40
1.0
 40
2.0
 40
2.0
 40
2.0
 40
3.0
 40
3.0
 40
3.0
 40
4.0
 40
4.0
 40
4.0
 40
5.0
 40
5.0
 40
5.0
 40
6.0
 40
6.0
 40
6.0
 40
7.0
 40
7.0
 40
7.0
 40
8.0
 40
8.0
 40
8.0
 40
8.0
 10
93.79479164321798
 20
-115.8912895760619
 10
93.62736000263483
 20
-116.0573431784509
 10
93.45648326656644
 20
-116.0222032045014
 10
93.34624021103845
 20
-115.9860297019063
 10
93.19327797149334
 20
-115.9364203269187
 10
93.0726996295096
 20
-115.8485703920448
 10
93.03824867465711
 20
-115.6456542679636
 10
92.99966360522231
 20
-115.4286132523929
 10
93.05478513298631
 20
-115.1974473453326
 10
93.10508352707096
 20
-115.0424180484963
 10
93.1498697683792
 20
-114.9056477577319
 10
93.243576365578
 20
-114.6717257742835
 10
93.40549585338474
 20
-114.5149739297046
 10
93.57086043667674
 20
-114.3554660087375
 10
93.73140188628938
 20
-114.3830267726195
 10
93.85404728556426
 20
-114.4226453706999
 10
94.00494246781821
 20
-114.471910236139
 10
94.12758786709311
 20
-114.5583821328187
 10
94.1620388219456
 20
-114.7606092378029
 10
94.19717879589516
 20
-114.9748941769854
 10
94.14894745910166
 20
-115.1991698930752
 10
94.09520396953175
 20
-115.3641899668187
 10
94.04214949905891
 20
-115.527142983271
 10
93.95119897824831
 20
-115.7400498842594
 10
93.79479164321798
 20
-115.8912895760619
 97
        0
 97
        0
 92
        1
 93
        1
 72
     4
 94
        3
 73
     0
 74
     1
 95
       17
 96
       13
 40
0.0
 40
0.0
 40
0.0
 40
0.0
 40
1.0
 40
1.0
 40
1.0
 40
2.0
 40
2.0
 40
2.0
 40
3.0
 40
3.0
 40
3.0
 40
4.0
 40
4.0
 40
4.0
 40
4.0
 10
93.79444713366945
 20
-114.6059244505152
 10
93.55708005473574
 20
-114.5287543116456
 10
93.42513289765067
 20
-114.7840358871026
 10
93.31867944715644
 20
-115.1116644677499
 10
93.2201497162783
 20
-115.4158663990974
 10
93.15882701664086
 20
-115.7204128399935
 10
93.40618487248179
 20
-115.8010280743484
 10
93.64114038457583
 20
-115.8775091941209
 10
93.77481008940353
 20
-115.6246391855036
 10
93.8819525589948
 20
-115.2945990380166
 10
93.98082679942146
 20
-114.9910861257661
 10
94.04008244176777
 20
-114.6855061562245
 10
93.79444713366945
 20
-114.6059244505152
 97
        0
 97
        0
 75
     2
 76
     1
 98
        0
  0
POLYLINE
  5
4A
330
41
100
AcDbEntity
  8
_U+30EC_U+30A4_U+30E4_U+30FC 1
370
     0
100
AcDb2dPolyline
 66
     1
 10
0.0
 20
0.0
 30
0.0
  0
VERTEX
  5
4B
330
4A
100
AcDbEntity
  8
_U+30EC_U+30A4_U+30E4_U+30FC 1
370
     0
100
AcDbVertex
100
AcDb2dVertex
 10
95.04191620887842
 20
-116.4838459995249
 30
0.0
  0
VERTEX
  5
4C
330
4A
100
AcDbEntity
  8
_U+30EC_U+30A4_U+30E4_U+30FC 1
370
     0
100
AcDbVertex
100
AcDb2dVertex
 10
95.2596462435462
 20
-115.8137749276438
 30
0.0
  0
VERTEX
  5
4D
330
4A
100
AcDbEntity
  8
_U+30EC_U+30A4_U+30E4_U+30FC 1
370
     0
100
AcDbVertex
100
AcDb2dVertex
 10
94.5478895162936
 20
-115.582264511035
 30
0.0
  0
VERTEX
  5
4E
330
4A
100
AcDbEntity
  8
_U+30EC_U+30A4_U+30E4_U+30FC 1
370
     0
100
AcDbVertex
100
AcDb2dVertex
 10
94.3301594816258
 20
-116.2523355829161
 30
0.0
  0
VERTEX
  5
4F
330
4A
100
AcDbEntity
  8
_U+30EC_U+30A4_U+30E4_U+30FC 1
370
     0
100
AcDbVertex
100
AcDb2dVertex
 10
94.10691729418161
 20
-116.1799885777258
 30
0.0
  0
VERTEX
  5
50
330
4A
100
AcDbEntity
  8
_U+30EC_U+30A4_U+30E4_U+30FC 1
370
     0
100
AcDbVertex
100
AcDb2dVertex
 10
94.58371850934019
 20
-114.7109998628153
 30
0.0
  0
VERTEX
  5
51
330
4A
100
AcDbEntity
  8
_U+30EC_U+30A4_U+30E4_U+30FC 1
370
     0
100
AcDbVertex
100
AcDb2dVertex
 10
94.80696069678437
 20
-114.7836913775541
 30
0.0
  0
VERTEX
  5
52
330
4A
100
AcDbEntity
  8
_U+30EC_U+30A4_U+30E4_U+30FC 1
370
     0
100
AcDbVertex
100
AcDb2dVertex
 10
94.61300182096481
 20
-115.3810709346964
 30
0.0
  0
VERTEX
  5
53
330
4A
100
AcDbEntity
  8
_U+30EC_U+30A4_U+30E4_U+30FC 1
370
     0
100
AcDbVertex
100
AcDb2dVertex
 10
95.32510305776596
 20
-115.6125813513052
 30
0.0
  0
VERTEX
  5
54
330
4A
100
AcDbEntity
  8
_U+30EC_U+30A4_U+30E4_U+30FC 1
370
     0
100
AcDbVertex
100
AcDb2dVertex
 10
95.51940644313405
 20
-115.0152017941629
 30
0.0
  0
VERTEX
  5
55
330
4A
100
AcDbEntity
  8
_U+30EC_U+30A4_U+30E4_U+30FC 1
370
     0
100
AcDbVertex
100
AcDb2dVertex
 10
95.74264863057823
 20
-115.0878933089016
 30
0.0
  0
VERTEX
  5
56
330
4A
100
AcDbEntity
  8
_U+30EC_U+30A4_U+30E4_U+30FC 1
370
     0
100
AcDbVertex
100
AcDb2dVertex
 10
95.26584741541966
 20
-116.5561930047151
 30
0.0
  0
VERTEX
  5
57
330
4A
100
AcDbEntity
  8
_U+30EC_U+30A4_U+30E4_U+30FC 1
370
     0
100
AcDbVertex
100
AcDb2dVertex
 10
95.04191620887842
 20
-116.4838459995249
 30
0.0
  0
SEQEND
  5
58
330
4A
100
AcDbEntity
  8
_U+30EC_U+30A4_U+30E4_U+30FC 1
370
     0
  0
HATCH
  5
59
330
41
100
AcDbEntity
  8
_U+30EC_U+30A4_U+30E4_U+30FC 1
 62
   179
420
  2234388
100
AcDbHatch
 10
0.0
 20
0.0
 30
0.0
210
0.0
220
0.0
230
1.0
  2
SOLID
 70
     1
 71
     0
 91
        1
 92
        1
 93
       12
 72
     1
 10
95.04191620887842
 20
-116.4838459995249
 11
95.2596462435462
 21
-115.8137749276438
 72
     1
 10
95.2596462435462
 20
-115.8137749276438
 11
94.5478895162936
 21
-115.582264511035
 72
     1
 10
94.5478895162936
 20
-115.582264511035
 11
94.3301594816258
 21
-116.2523355829161
 72
     1
 10
94.3301594816258
 20
-116.2523355829161
 11
94.10691729418161
 21
-116.1799885777258
 72
     1
 10
94.10691729418161
 20
-116.1799885777258
 11
94.58371850934019
 21
-114.7109998628153
 72
     1
 10
94.58371850934019
 20
-114.7109998628153
 11
94.80696069678437
 21
-114.7836913775541
 72
     1
 10
94.80696069678437
 20
-114.7836913775541
 11
94.61300182096481
 21
-115.3810709346964
 72
     1
 10
94.61300182096481
 20
-115.3810709346964
 11
95.32510305776596
 21
-115.6125813513052
 72
     1
 10
95.32510305776596
 20
-115.6125813513052
 11
95.51940644313405
 21
-115.0152017941629
 72
     1
 10
95.51940644313405
 20
-115.0152017941629
 11
95.74264863057823
 21
-115.0878933089016
 72
     1
 10
95.74264863057823
 20
-115.0878933089016
 11
95.26584741541966
 21
-116.5561930047151
 72
     1
 10
95.26584741541966
 20
-116.5561930047151
 11
95.04191620887842
 21
-116.4838459995249
 97
        0
 75
     2
 76
     1
 98
        0
  0
SPLINE
  5
5A
330
41
100
AcDbEntity
  8
_U+30EC_U+30A4_U+30E4_U+30FC 1
370
     0
100
AcDbSpline
210
0.0
220
0.0
230
1.0
 70
    11
 71
     3
 72
    44
 73
    40
 74
     0
 42
0.0000000001
 43
0.0000000001
 12
1.0
 22
0.0
 32
0.0
 13
1.0
 23
0.0
 33
0.0
 40
0.0
 40
0.0
 40
0.0
 40
0.0
 40
1.0
 40
1.0
 40
1.0
 40
2.0
 40
2.0
 40
2.0
 40
3.0
 40
3.0
 40
3.0
 40
4.0
 40
4.0
 40
4.0
 40
5.0
 40
5.0
 40
5.0
 40
6.0
 40
6.0
 40
6.0
 40
7.0
 40
7.0
 40
7.0
 40
8.0
 40
8.0
 40
8.0
 40
9.0
 40
9.0
 40
9.0
 40
10.0
 40
10.0
 40
10.0
 40
11.0
 40
11.0
 40
11.0
 40
12.0
 40
12.0
 40
12.0
 40
13.0
 40
13.0
 40
13.0
 40
13.0
 10
96.49781356094499
 20
-116.9568576096497
 30
0.0
 10
96.48920082223187
 20
-116.9072482346621
 30
0.0
 10
96.48541121719809
 20
-116.8504041591555
 30
0.0
 10
96.55500214600015
 20
-116.630262557648
 30
0.0
 10
96.62597111299628
 20
-116.3977186123936
 30
0.0
 10
96.5915201581438
 20
-116.3129692634565
 30
0.0
 10
96.4220214602695
 20
-116.258192245241
 30
0.0
 10
96.4220214602695
 20
-116.258192245241
 30
0.0
 10
96.03410370863037
 20
-116.1321017504809
 30
0.0
 10
96.03410370863037
 20
-116.1321017504809
 30
0.0
 10
96.03410370863037
 20
-116.1321017504809
 30
0.0
 10
95.83566620867998
 20
-116.7415391418216
 30
0.0
 10
95.83566620867998
 20
-116.7415391418216
 30
0.0
 10
95.83566620867998
 20
-116.7415391418216
 30
0.0
 10
95.61242402123578
 20
-116.6691921366313
 30
0.0
 10
95.61242402123578
 20
-116.6691921366313
 30
0.0
 10
95.61242402123578
 20
-116.6691921366313
 30
0.0
 10
96.08991425549141
 20
-115.2005479312693
 30
0.0
 10
96.08991425549141
 20
-115.2005479312693
 30
0.0
 10
96.08991425549141
 20
-115.2005479312693
 30
0.0
 10
96.73139103484493
 20
-115.4089762081269
 30
0.0
 10
96.73139103484493
 20
-115.4089762081269
 30
0.0
 10
97.0231906224456
 20
-115.5037163339713
 30
0.0
 10
97.12964407293981
 20
-115.7183457827024
 30
0.0
 10
97.05040687677906
 20
-115.9619140335095
 30
0.0
 10
97.03455943754692
 20
-116.010145370303
 30
0.0
 10
97.00079750179147
 20
-116.08559296143
 30
0.0
 10
96.93396264937762
 20
-116.1486382088101
 30
0.0
 10
96.84576820495523
 20
-116.2289089336164
 30
0.0
 10
96.77721080479876
 20
-116.2268418763252
 30
0.0
 10
96.71347653832163
 20
-116.2237412903885
 30
0.0
 10
96.83129880391718
 20
-116.306768091583
 30
0.0
 10
96.88056366935625
 20
-116.3739474535454
 30
0.0
 10
96.78720158170599
 20
-116.6747042894077
 30
0.0
 10
96.70761987599671
 20
-116.9337754698985
 30
0.0
 10
96.73208005394198
 20
-116.9751166157215
 30
0.0
 10
96.77962237163844
 20
-117.0481526400088
 30
0.0
 10
96.77962237163844
 20
-117.0481526400088
 30
0.0
 10
96.49781356094499
 20
-116.9568576096497
 30
0.0
 10
96.49781356094499
 20
-116.9568576096497
 30
0.0
  0
SPLINE
  5
5B
330
41
100
AcDbEntity
  8
_U+30EC_U+30A4_U+30E4_U+30FC 1
370
     0
100
AcDbSpline
210
0.0
220
0.0
230
1.0
 70
    11
 71
     3
 72
    20
 73
    16
 74
     0
 42
0.0000000001
 43
0.0000000001
 12
1.0
 22
0.0
 32
0.0
 13
1.0
 23
0.0
 33
0.0
 40
0.0
 40
0.0
 40
0.0
 40
0.0
 40
1.0
 40
1.0
 40
1.0
 40
2.0
 40
2.0
 40
2.0
 40
3.0
 40
3.0
 40
3.0
 40
4.0
 40
4.0
 40
4.0
 40
5.0
 40
5.0
 40
5.0
 40
5.0
 10
96.67006833520749
 20
-115.6115478226596
 30
0.0
 10
96.67006833520749
 20
-115.6115478226596
 30
0.0
 10
96.24769962871586
 20
-115.4740885127981
 30
0.0
 10
96.24769962871586
 20
-115.4740885127981
 30
0.0
 10
96.24769962871586
 20
-115.4740885127981
 30
0.0
 10
96.09921601330159
 20
-115.9309081741423
 30
0.0
 10
96.09921601330159
 20
-115.9309081741423
 30
0.0
 10
96.09921601330159
 20
-115.9309081741423
 30
0.0
 10
96.5198621720506
 20
-116.0676784649067
 30
0.0
 10
96.5198621720506
 20
-116.0676784649067
 30
0.0
 10
96.61425778834644
 20
-116.0979953051769
 30
0.0
 10
96.76653100879449
 20
-116.0676784649067
 30
0.0
 10
96.81958547926733
 20
-115.9043809389059
 30
0.0
 10
96.84370114766408
 20
-115.8299668764245
 30
0.0
 10
96.85954858689622
 20
-115.6728705222971
 30
0.0
 10
96.67006833520749
 20
-115.6115478226596
 30
0.0
  0
HATCH
  5
5C
330
41
100
AcDbEntity
  8
_U+30EC_U+30A4_U+30E4_U+30FC 1
 62
   179
420
  2234388
100
AcDbHatch
 10
0.0
 20
0.0
 30
0.0
210
0.0
220
0.0
230
1.0
  2
SOLID
 70
     1
 71
     0
 91
        2
 92
        1
 93
        1
 72
     4
 94
        3
 73
     0
 74
     1
 95
       44
 96
       40
 40
0.0
 40
0.0
 40
0.0
 40
0.0
 40
1.0
 40
1.0
 40
1.0
 40
2.0
 40
2.0
 40
2.0
 40
3.0
 40
3.0
 40
3.0
 40
4.0
 40
4.0
 40
4.0
 40
5.0
 40
5.0
 40
5.0
 40
6.0
 40
6.0
 40
6.0
 40
7.0
 40
7.0
 40
7.0
 40
8.0
 40
8.0
 40
8.0
 40
9.0
 40
9.0
 40
9.0
 40
10.0
 40
10.0
 40
10.0
 40
11.0
 40
11.0
 40
11.0
 40
12.0
 40
12.0
 40
12.0
 40
13.0
 40
13.0
 40
13.0
 40
13.0
 10
96.49781356094499
 20
-116.9568576096497
 10
96.48920082223187
 20
-116.9072482346621
 10
96.48541121719809
 20
-116.8504041591555
 10
96.55500214600015
 20
-116.630262557648
 10
96.62597111299628
 20
-116.3977186123936
 10
96.5915201581438
 20
-116.3129692634565
 10
96.4220214602695
 20
-116.258192245241
 10
96.4220214602695
 20
-116.258192245241
 10
96.03410370863037
 20
-116.1321017504809
 10
96.03410370863037
 20
-116.1321017504809
 10
96.03410370863037
 20
-116.1321017504809
 10
95.83566620867998
 20
-116.7415391418216
 10
95.83566620867998
 20
-116.7415391418216
 10
95.83566620867998
 20
-116.7415391418216
 10
95.61242402123578
 20
-116.6691921366313
 10
95.61242402123578
 20
-116.6691921366313
 10
95.61242402123578
 20
-116.6691921366313
 10
96.08991425549141
 20
-115.2005479312693
 10
96.08991425549141
 20
-115.2005479312693
 10
96.08991425549141
 20
-115.2005479312693
 10
96.73139103484493
 20
-115.4089762081269
 10
96.73139103484493
 20
-115.4089762081269
 10
97.0231906224456
 20
-115.5037163339713
 10
97.12964407293981
 20
-115.7183457827024
 10
97.05040687677906
 20
-115.9619140335095
 10
97.03455943754692
 20
-116.010145370303
 10
97.00079750179147
 20
-116.08559296143
 10
96.93396264937762
 20
-116.1486382088101
 10
96.84576820495523
 20
-116.2289089336164
 10
96.77721080479876
 20
-116.2268418763252
 10
96.71347653832163
 20
-116.2237412903885
 10
96.83129880391718
 20
-116.306768091583
 10
96.88056366935625
 20
-116.3739474535454
 10
96.78720158170599
 20
-116.6747042894077
 10
96.70761987599671
 20
-116.9337754698985
 10
96.73208005394198
 20
-116.9751166157215
 10
96.77962237163844
 20
-117.0481526400088
 10
96.77962237163844
 20
-117.0481526400088
 10
96.49781356094499
 20
-116.9568576096497
 10
96.49781356094499
 20
-116.9568576096497
 97
        0
 97
        0
 92
        1
 93
        1
 72
     4
 94
        3
 73
     0
 74
     1
 95
       20
 96
       16
 40
0.0
 40
0.0
 40
0.0
 40
0.0
 40
1.0
 40
1.0
 40
1.0
 40
2.0
 40
2.0
 40
2.0
 40
3.0
 40
3.0
 40
3.0
 40
4.0
 40
4.0
 40
4.0
 40
5.0
 40
5.0
 40
5.0
 40
5.0
 10
96.67006833520749
 20
-115.6115478226596
 10
96.67006833520749
 20
-115.6115478226596
 10
96.24769962871586
 20
-115.4740885127981
 10
96.24769962871586
 20
-115.4740885127981
 10
96.24769962871586
 20
-115.4740885127981
 10
96.09921601330159
 20
-115.9309081741423
 10
96.09921601330159
 20
-115.9309081741423
 10
96.09921601330159
 20
-115.9309081741423
 10
96.5198621720506
 20
-116.0676784649067
 10
96.5198621720506
 20
-116.0676784649067
 10
96.61425778834644
 20
-116.0979953051769
 10
96.76653100879449
 20
-116.0676784649067
 10
96.81958547926733
 20
-115.9043809389059
 10
96.84370114766408
 20
-115.8299668764245
 10
96.85954858689622
 20
-115.6728705222971
 10
96.67006833520749
 20
-115.6115478226596
 97
        0
 97
        0
 75
     2
 76
     1
 98
        0
  0
ENDBLK
  5
44
330
41
100
AcDbEntity
  8
0
100
AcDbBlockEnd
  0
BLOCK
  5
5F
330
5D
100
AcDbEntity
  8
0
100
AcDbBlockBegin
  2
block 3
 70
     0
 10
0.0
 20
0.0
 30
0.0
  3
block 3
  1

  0
SPLINE
  5
61
330
5D
100
AcDbEntity
  8
_U+30EC_U+30A4_U+30E4_U+30FC 1
370
     0
100
AcDbSpline
210
0.0
220
0.0
230
1.0
 70
    11
 71
     3
 72
    62
 73
    58
 74
     0
 42
0.0000000001
 43
0.0000000001
 12
1.0
 22
0.0
 32
0.0
 13
1.0
 23
0.0
 33
0.0
 40
0.0
 40
0.0
 40
0.0
 40
0.0
 40
1.0
 40
1.0
 40
1.0
 40
2.0
 40
2.0
 40
2.0
 40
3.0
 40
3.0
 40
3.0
 40
4.0
 40
4.0
 40
4.0
 40
5.0
 40
5.0
 40
5.0
 40
6.0
 40
6.0
 40
6.0
 40
7.0
 40
7.0
 40
7.0
 40
8.0
 40
8.0
 40
8.0
 40
9.0
 40
9.0
 40
9.0
 40
10.0
 40
10.0
 40
10.0
 40
11.0
 40
11.0
 40
11.0
 40
12.0
 40
12.0
 40
12.0
 40
13.0
 40
13.0
 40
13.0
 40
14.0
 40
14.0
 40
14.0
 40
15.0
 40
15.0
 40
15.0
 40
16.0
 40
16.0
 40
16.0
 40
17.0
 40
17.0
 40
17.0
 40
18.0
 40
18.0
 40
18.0
 40
19.0
 40
19.0
 40
19.0
 40
19.0
 10
102.992507569738
 20
-138.6974771788673
 30
0.0
 10
102.9311848701005
 20
-138.7705132031546
 30
0.0
 10
102.7747775350702
 20
-138.9234754426997
 30
0.0
 10
102.5522243667231
 20
-138.899359774303
 30
0.0
 10
102.4185546618954
 20
-138.8842013541679
 30
0.0
 10
102.3400064848317
 20
-138.8235676736275
 30
0.0
 10
102.2724826133208
 20
-138.7725802604457
 30
0.0
 10
102.2724826133208
 20
-138.7725802604457
 30
0.0
 10
102.413731528216
 20
-138.6037705816685
 30
0.0
 10
102.413731528216
 20
-138.6037705816685
 30
0.0
 10
102.4716091323682
 20
-138.6499348611709
 30
0.0
 10
102.6583333076688
 20
-138.7925618142602
 30
0.0
 10
102.840923368387
 20
-138.5755207986895
 30
0.0
 10
102.9291178128094
 20
-138.4701008768408
 30
0.0
 10
102.9735595445691
 20
-138.3088704081311
 30
0.0
 10
102.7982041843699
 20
-138.161764830911
 30
0.0
 10
102.7093207208505
 20
-138.087006258881
 30
0.0
 10
102.647309002116
 20
-138.0849392015899
 30
0.0
 10
102.6028672703562
 20
-138.0887288066237
 30
0.0
 10
102.4984808771532
 20
-138.0980305644338
 30
0.0
 10
102.4140760377645
 20
-138.1789903083372
 30
0.0
 10
102.3785915542665
 20
-138.2210204732573
 30
0.0
 10
102.3665337200681
 20
-138.2358343838438
 30
0.0
 10
102.344829618511
 20
-138.2647731859199
 30
0.0
 10
102.330360217473
 20
-138.2881998352196
 30
0.0
 10
102.330360217473
 20
-138.2881998352196
 30
0.0
 10
102.1815320925102
 20
-138.1631428691051
 30
0.0
 10
102.1815320925102
 20
-138.1631428691051
 30
0.0
 10
102.2104708945863
 20
-138.1379936720627
 30
0.0
 10
102.2394096966624
 20
-138.1069878126955
 30
0.0
 10
102.2435438112447
 20
-138.1021646790161
 30
0.0
 10
102.2855739761647
 20
-138.0518662849315
 30
0.0
 10
102.3975395794353
 20
-137.8858126825425
 30
0.0
 10
102.2159830473627
 20
-137.7335394620944
 30
0.0
 10
102.0799017756953
 20
-137.6195068015326
 30
0.0
 10
101.9534667713866
 20
-137.6846191062039
 30
0.0
 10
101.8824978043905
 20
-137.768679436044
 30
0.0
 10
101.7126545969677
 20
-137.9712510505766
 30
0.0
 10
101.8855983903272
 20
-138.1273138760585
 30
0.0
 10
101.937963841703
 20
-138.176923251046
 30
0.0
 10
101.937963841703
 20
-138.176923251046
 30
0.0
 10
101.807394722812
 20
-138.3326415669793
 30
0.0
 10
101.807394722812
 20
-138.3326415669793
 30
0.0
 10
101.7171332210985
 20
-138.2458251607511
 30
0.0
 10
101.4463487159579
 20
-137.9829643752265
 30
0.0
 10
101.7398708513011
 20
-137.6329426739251
 30
0.0
 10
101.8842203521331
 20
-137.4610324092111
 30
0.0
 10
102.1367458512019
 20
-137.3580240542022
 30
0.0
 10
102.3634331341314
 20
-137.5481933249879
 30
0.0
 10
102.5060600872207
 20
-137.6680826478747
 30
0.0
 10
102.5081271445119
 20
-137.7934841235378
 30
0.0
 10
102.4909016670856
 20
-137.9092393318421
 30
0.0
 10
102.551535347626
 20
-137.8799560202175
 30
0.0
 10
102.729991293762
 20
-137.7921060853436
 30
0.0
 10
102.9422091756533
 20
-137.9705620314796
 30
0.0
 10
103.2019693752412
 20
-138.1882920661474
 30
0.0
 10
103.1709635158739
 20
-138.4852592969759
 30
0.0
 10
102.992507569738
 20
-138.6974771788673
 30
0.0
  0
HATCH
  5
62
330
5D
100
AcDbEntity
  8
_U+30EC_U+30A4_U+30E4_U+30FC 1
 62
   179
420
  2234388
100
AcDbHatch
 10
0.0
 20
0.0
 30
0.0
210
0.0
220
0.0
230
1.0
  2
SOLID
 70
     1
 71
     0
 91
        1
 92
        1
 93
        1
 72
     4
 94
        3
 73
     0
 74
     1
 95
       62
 96
       58
 40
0.0
 40
0.0
 40
0.0
 40
0.0
 40
1.0
 40
1.0
 40
1.0
 40
2.0
 40
2.0
 40
2.0
 40
3.0
 40
3.0
 40
3.0
 40
4.0
 40
4.0
 40
4.0
 40
5.0
 40
5.0
 40
5.0
 40
6.0
 40
6.0
 40
6.0
 40
7.0
 40
7.0
 40
7.0
 40
8.0
 40
8.0
 40
8.0
 40
9.0
 40
9.0
 40
9.0
 40
10.0
 40
10.0
 40
10.0
 40
11.0
 40
11.0
 40
11.0
 40
12.0
 40
12.0
 40
12.0
 40
13.0
 40
13.0
 40
13.0
 40
14.0
 40
14.0
 40
14.0
 40
15.0
 40
15.0
 40
15.0
 40
16.0
 40
16.0
 40
16.0
 40
17.0
 40
17.0
 40
17.0
 40
18.0
 40
18.0
 40
18.0
 40
19.0
 40
19.0
 40
19.0
 40
19.0
 10
102.992507569738
 20
-138.6974771788673
 10
102.9311848701005
 20
-138.7705132031546
 10
102.7747775350702
 20
-138.9234754426997
 10
102.5522243667231
 20
-138.899359774303
 10
102.4185546618954
 20
-138.8842013541679
 10
102.3400064848317
 20
-138.8235676736275
 10
102.2724826133208
 20
-138.7725802604457
 10
102.2724826133208
 20
-138.7725802604457
 10
102.413731528216
 20
-138.6037705816685
 10
102.413731528216
 20
-138.6037705816685
 10
102.4716091323682
 20
-138.6499348611709
 10
102.6583333076688
 20
-138.7925618142602
 10
102.840923368387
 20
-138.5755207986895
 10
102.9291178128094
 20
-138.4701008768408
 10
102.9735595445691
 20
-138.3088704081311
 10
102.7982041843699
 20
-138.161764830911
 10
102.7093207208505
 20
-138.087006258881
 10
102.647309002116
 20
-138.0849392015899
 10
102.6028672703562
 20
-138.0887288066237
 10
102.4984808771532
 20
-138.0980305644338
 10
102.4140760377645
 20
-138.1789903083372
 10
102.3785915542665
 20
-138.2210204732573
 10
102.3665337200681
 20
-138.2358343838438
 10
102.344829618511
 20
-138.2647731859199
 10
102.330360217473
 20
-138.2881998352196
 10
102.330360217473
 20
-138.2881998352196
 10
102.1815320925102
 20
-138.1631428691051
 10
102.1815320925102
 20
-138.1631428691051
 10
102.2104708945863
 20
-138.1379936720627
 10
102.2394096966624
 20
-138.1069878126955
 10
102.2435438112447
 20
-138.1021646790161
 10
102.2855739761647
 20
-138.0518662849315
 10
102.3975395794353
 20
-137.8858126825425
 10
102.2159830473627
 20
-137.7335394620944
 10
102.0799017756953
 20
-137.6195068015326
 10
101.9534667713866
 20
-137.6846191062039
 10
101.8824978043905
 20
-137.768679436044
 10
101.7126545969677
 20
-137.9712510505766
 10
101.8855983903272
 20
-138.1273138760585
 10
101.937963841703
 20
-138.176923251046
 10
101.937963841703
 20
-138.176923251046
 10
101.807394722812
 20
-138.3326415669793
 10
101.807394722812
 20
-138.3326415669793
 10
101.7171332210985
 20
-138.2458251607511
 10
101.4463487159579
 20
-137.9829643752265
 10
101.7398708513011
 20
-137.6329426739251
 10
101.8842203521331
 20
-137.4610324092111
 10
102.1367458512019
 20
-137.3580240542022
 10
102.3634331341314
 20
-137.5481933249879
 10
102.5060600872207
 20
-137.6680826478747
 10
102.5081271445119
 20
-137.7934841235378
 10
102.4909016670856
 20
-137.9092393318421
 10
102.551535347626
 20
-137.8799560202175
 10
102.729991293762
 20
-137.7921060853436
 10
102.9422091756533
 20
-137.9705620314796
 10
103.2019693752412
 20
-138.1882920661474
 10
103.1709635158739
 20
-138.4852592969759
 10
102.992507569738
 20
-138.6974771788673
 97
        0
 97
        0
 75
     2
 76
     1
 98
        0
  0
SPLINE
  5
63
330
5D
100
AcDbEntity
  8
_U+30EC_U+30A4_U+30E4_U+30FC 1
370
     0
100
AcDbSpline
210
0.0
220
0.0
230
1.0
 70
    11
 71
     3
 72
    29
 73
    25
 74
     0
 42
0.0000000001
 43
0.0000000001
 12
1.0
 22
0.0
 32
0.0
 13
1.0
 23
0.0
 33
0.0
 40
0.0
 40
0.0
 40
0.0
 40
0.0
 40
1.0
 40
1.0
 40
1.0
 40
2.0
 40
2.0
 40
2.0
 40
3.0
 40
3.0
 40
3.0
 40
4.0
 40
4.0
 40
4.0
 40
5.0
 40
5.0
 40
5.0
 40
6.0
 40
6.0
 40
6.0
 40
7.0
 40
7.0
 40
7.0
 40
8.0
 40
8.0
 40
8.0
 40
8.0
 10
103.8351779254301
 20
-137.3380425003877
 30
0.0
 10
103.9261284462407
 20
-137.5550835159584
 30
0.0
 10
103.8293212631052
 20
-137.700466545436
 30
0.0
 10
103.7545626910753
 20
-137.7893500089554
 30
0.0
 10
103.6512098265178
 20
-137.9126844273274
 30
0.0
 10
103.5244303126606
 20
-137.9912326043911
 30
0.0
 10
103.3235812458705
 20
-137.9471353821799
 30
0.0
 10
103.1082627780424
 20
-137.9016601217746
 30
0.0
 10
102.9143039022228
 20
-137.7638563023646
 30
0.0
 10
102.7892469361082
 20
-137.659125399613
 30
0.0
 10
102.6793483901288
 20
-137.5667968406083
 30
0.0
 10
102.4974473485076
 20
-137.3917859899576
 30
0.0
 10
102.413042509119
 20
-137.1830132035515
 30
0.0
 10
102.3269151219877
 20
-136.9697617930145
 30
0.0
 10
102.4123534900219
 20
-136.831613464056
 30
0.0
 10
102.4950357816679
 20
-136.7327392236293
 30
0.0
 10
102.5970106080313
 20
-136.611127353
 30
0.0
 10
102.7237901218885
 20
-136.5298230995481
 30
0.0
 10
102.92429467913
 20
-136.5739203217593
 30
0.0
 10
103.1358235419244
 20
-136.6214626394558
 30
0.0
 10
103.3253037936131
 20
-136.7503092106041
 30
0.0
 10
103.4582844793438
 20
-136.8619303043262
 30
0.0
 10
103.5898871268803
 20
-136.9718288503057
 30
0.0
 10
103.7528401433326
 20
-137.1361599049521
 30
0.0
 10
103.8351779254301
 20
-137.3380425003877
 30
0.0
  0
SPLINE
  5
64
330
5D
100
AcDbEntity
  8
_U+30EC_U+30A4_U+30E4_U+30FC 1
370
     0
100
AcDbSpline
210
0.0
220
0.0
230
1.0
 70
    11
 71
     3
 72
    17
 73
    13
 74
     0
 42
0.0000000001
 43
0.0000000001
 12
1.0
 22
0.0
 32
0.0
 13
1.0
 23
0.0
 33
0.0
 40
0.0
 40
0.0
 40
0.0
 40
0.0
 40
1.0
 40
1.0
 40
1.0
 40
2.0
 40
2.0
 40
2.0
 40
3.0
 40
3.0
 40
3.0
 40
4.0
 40
4.0
 40
4.0
 40
4.0
 10
102.6428303779851
 20
-136.8564181515498
 30
0.0
 10
102.4822889283725
 20
-137.0479654605297
 30
0.0
 10
102.6697021227701
 20
-137.2656954951975
 30
0.0
 10
102.9335964369402
 20
-137.487215134899
 30
0.0
 10
103.1785427259415
 20
-137.6925428258199
 30
0.0
 10
103.4383029255293
 20
-137.8637640714368
 30
0.0
 10
103.6053900565639
 20
-137.6642930428409
 30
0.0
 10
103.764208958434
 20
-137.4748127911521
 30
0.0
 10
103.5802408595216
 20
-137.2563937373873
 30
0.0
 10
103.3142794880603
 20
-137.0334960594916
 30
0.0
 10
103.0696777086076
 20
-136.8281683685707
 30
0.0
 10
102.8085394708257
 20
-136.6586696706964
 30
0.0
 10
102.6428303779851
 20
-136.8564181515498
 30
0.0
  0
HATCH
  5
65
330
5D
100
AcDbEntity
  8
_U+30EC_U+30A4_U+30E4_U+30FC 1
 62
   179
420
  2234388
100
AcDbHatch
 10
0.0
 20
0.0
 30
0.0
210
0.0
220
0.0
230
1.0
  2
SOLID
 70
     1
 71
     0
 91
        2
 92
        1
 93
        1
 72
     4
 94
        3
 73
     0
 74
     1
 95
       29
 96
       25
 40
0.0
 40
0.0
 40
0.0
 40
0.0
 40
1.0
 40
1.0
 40
1.0
 40
2.0
 40
2.0
 40
2.0
 40
3.0
 40
3.0
 40
3.0
 40
4.0
 40
4.0
 40
4.0
 40
5.0
 40
5.0
 40
5.0
 40
6.0
 40
6.0
 40
6.0
 40
7.0
 40
7.0
 40
7.0
 40
8.0
 40
8.0
 40
8.0
 40
8.0
 10
103.8351779254301
 20
-137.3380425003877
 10
103.9261284462407
 20
-137.5550835159584
 10
103.8293212631052
 20
-137.700466545436
 10
103.7545626910753
 20
-137.7893500089554
 10
103.6512098265178
 20
-137.9126844273274
 10
103.5244303126606
 20
-137.9912326043911
 10
103.3235812458705
 20
-137.9471353821799
 10
103.1082627780424
 20
-137.9016601217746
 10
102.9143039022228
 20
-137.7638563023646
 10
102.7892469361082
 20
-137.659125399613
 10
102.6793483901288
 20
-137.5667968406083
 10
102.4974473485076
 20
-137.3917859899576
 10
102.413042509119
 20
-137.1830132035515
 10
102.3269151219877
 20
-136.9697617930145
 10
102.4123534900219
 20
-136.831613464056
 10
102.4950357816679
 20
-136.7327392236293
 10
102.5970106080313
 20
-136.611127353
 10
102.7237901218885
 20
-136.5298230995481
 10
102.92429467913
 20
-136.5739203217593
 10
103.1358235419244
 20
-136.6214626394558
 10
103.3253037936131
 20
-136.7503092106041
 10
103.4582844793438
 20
-136.8619303043262
 10
103.5898871268803
 20
-136.9718288503057
 10
103.7528401433326
 20
-137.1361599049521
 10
103.8351779254301
 20
-137.3380425003877
 97
        0
 97
        0
 92
        1
 93
        1
 72
     4
 94
        3
 73
     0
 74
     1
 95
       17
 96
       13
 40
0.0
 40
0.0
 40
0.0
 40
0.0
 40
1.0
 40
1.0
 40
1.0
 40
2.0
 40
2.0
 40
2.0
 40
3.0
 40
3.0
 40
3.0
 40
4.0
 40
4.0
 40
4.0
 40
4.0
 10
102.6428303779851
 20
-136.8564181515498
 10
102.4822889283725
 20
-137.0479654605297
 10
102.6697021227701
 20
-137.2656954951975
 10
102.9335964369402
 20
-137.487215134899
 10
103.1785427259415
 20
-137.6925428258199
 10
103.4383029255293
 20
-137.8637640714368
 10
103.6053900565639
 20
-137.6642930428409
 10
103.764208958434
 20
-137.4748127911521
 10
103.5802408595216
 20
-137.2563937373873
 10
103.3142794880603
 20
-137.0334960594916
 10
103.0696777086076
 20
-136.8281683685707
 10
102.8085394708257
 20
-136.6586696706964
 10
102.6428303779851
 20
-136.8564181515498
 97
        0
 97
        0
 75
     2
 76
     1
 98
        0
  0
POLYLINE
  5
66
330
5D
100
AcDbEntity
  8
_U+30EC_U+30A4_U+30E4_U+30FC 1
370
     0
100
AcDb2dPolyline
 66
     1
 10
0.0
 20
0.0
 30
0.0
  0
VERTEX
  5
67
330
66
100
AcDbEntity
  8
_U+30EC_U+30A4_U+30E4_U+30FC 1
370
     0
100
AcDbVertex
100
AcDb2dVertex
 10
104.8514810935788
 20
-136.4030435856909
 30
0.0
  0
VERTEX
  5
68
330
66
100
AcDbEntity
  8
_U+30EC_U+30A4_U+30E4_U+30FC 1
370
     0
100
AcDbVertex
100
AcDb2dVertex
 10
104.3119791405887
 20
-135.9503580389291
 30
0.0
  0
VERTEX
  5
69
330
66
100
AcDbEntity
  8
_U+30EC_U+30A4_U+30E4_U+30FC 1
370
     0
100
AcDbVertex
100
AcDb2dVertex
 10
103.8303547917508
 20
-136.5239664372232
 30
0.0
  0
VERTEX
  5
6A
330
66
100
AcDbEntity
  8
_U+30EC_U+30A4_U+30E4_U+30FC 1
370
     0
100
AcDbVertex
100
AcDb2dVertex
 10
104.3698567447409
 20
-136.9769964935335
 30
0.0
  0
VERTEX
  5
6B
330
66
100
AcDbEntity
  8
_U+30EC_U+30A4_U+30E4_U+30FC 1
370
     0
100
AcDbVertex
100
AcDb2dVertex
 10
104.2189615624869
 20
-137.1568304778636
 30
0.0
  0
VERTEX
  5
6C
330
66
100
AcDbEntity
  8
_U+30EC_U+30A4_U+30E4_U+30FC 1
370
     0
100
AcDbVertex
100
AcDb2dVertex
 10
103.0359157728521
 20
-136.1639539590146
 30
0.0
  0
VERTEX
  5
6D
330
66
100
AcDbEntity
  8
_U+30EC_U+30A4_U+30E4_U+30FC 1
370
     0
100
AcDbVertex
100
AcDb2dVertex
 10
103.1868109551061
 20
-135.9841199746845
 30
0.0
  0
VERTEX
  5
6E
330
66
100
AcDbEntity
  8
_U+30EC_U+30A4_U+30E4_U+30FC 1
370
     0
100
AcDbVertex
100
AcDb2dVertex
 10
103.668435303944
 20
-136.3878851655558
 30
0.0
  0
VERTEX
  5
6F
330
66
100
AcDbEntity
  8
_U+30EC_U+30A4_U+30E4_U+30FC 1
370
     0
100
AcDbVertex
100
AcDb2dVertex
 10
104.1497151432334
 20
-135.8142767672617
 30
0.0
  0
VERTEX
  5
70
330
66
100
AcDbEntity
  8
_U+30EC_U+30A4_U+30E4_U+30FC 1
370
     0
100
AcDbVertex
100
AcDb2dVertex
 10
103.668435303944
 20
-135.4105115763904
 30
0.0
  0
VERTEX
  5
71
330
66
100
AcDbEntity
  8
_U+30EC_U+30A4_U+30E4_U+30FC 1
370
     0
100
AcDbVertex
100
AcDb2dVertex
 10
103.819330486198
 20
-135.2303330825119
 30
0.0
  0
VERTEX
  5
72
330
66
100
AcDbEntity
  8
_U+30EC_U+30A4_U+30E4_U+30FC 1
370
     0
100
AcDbVertex
100
AcDb2dVertex
 10
105.0023762758327
 20
-136.2232096013609
 30
0.0
  0
VERTEX
  5
73
330
66
100
AcDbEntity
  8
_U+30EC_U+30A4_U+30E4_U+30FC 1
370
     0
100
AcDbVertex
100
AcDb2dVertex
 10
104.8514810935788
 20
-136.4030435856909
 30
0.0
  0
SEQEND
  5
74
330
66
100
AcDbEntity
  8
_U+30EC_U+30A4_U+30E4_U+30FC 1
370
     0
  0
HATCH
  5
75
330
5D
100
AcDbEntity
  8
_U+30EC_U+30A4_U+30E4_U+30FC 1
 62
   179
420
  2234388
100
AcDbHatch
 10
0.0
 20
0.0
 30
0.0
210
0.0
220
0.0
230
1.0
  2
SOLID
 70
     1
 71
     0
 91
        1
 92
        1
 93
       12
 72
     1
 10
104.8514810935788
 20
-136.4030435856909
 11
104.3119791405887
 21
-135.9503580389291
 72
     1
 10
104.3119791405887
 20
-135.9503580389291
 11
103.8303547917508
 21
-136.5239664372232
 72
     1
 10
103.8303547917508
 20
-136.5239664372232
 11
104.3698567447409
 21
-136.9769964935335
 72
     1
 10
104.3698567447409
 20
-136.9769964935335
 11
104.2189615624869
 21
-137.1568304778636
 72
     1
 10
104.2189615624869
 20
-137.1568304778636
 11
103.0359157728521
 21
-136.1639539590146
 72
     1
 10
103.0359157728521
 20
-136.1639539590146
 11
103.1868109551061
 21
-135.9841199746845
 72
     1
 10
103.1868109551061
 20
-135.9841199746845
 11
103.668435303944
 21
-136.3878851655558
 72
     1
 10
103.668435303944
 20
-136.3878851655558
 11
104.1497151432334
 21
-135.8142767672617
 72
     1
 10
104.1497151432334
 20
-135.8142767672617
 11
103.668435303944
 21
-135.4105115763904
 72
     1
 10
103.668435303944
 20
-135.4105115763904
 11
103.819330486198
 21
-135.2303330825119
 72
     1
 10
103.819330486198
 20
-135.2303330825119
 11
105.0023762758327
 21
-136.2232096013609
 72
     1
 10
105.0023762758327
 20
-136.2232096013609
 11
104.8514810935788
 21
-136.4030435856909
 97
        0
 75
     2
 76
     1
 98
        0
  0
SPLINE
  5
76
330
5D
100
AcDbEntity
  8
_U+30EC_U+30A4_U+30E4_U+30FC 1
370
     0
100
AcDbSpline
210
0.0
220
0.0
230
1.0
 70
    11
 71
     3
 72
    44
 73
    40
 74
     0
 42
0.0000000001
 43
0.0000000001
 12
1.0
 22
0.0
 32
0.0
 13
1.0
 23
0.0
 33
0.0
 40
0.0
 40
0.0
 40
0.0
 40
0.0
 40
1.0
 40
1.0
 40
1.0
 40
2.0
 40
2.0
 40
2.0
 40
3.0
 40
3.0
 40
3.0
 40
4.0
 40
4.0
 40
4.0
 40
5.0
 40
5.0
 40
5.0
 40
6.0
 40
6.0
 40
6.0
 40
7.0
 40
7.0
 40
7.0
 40
8.0
 40
8.0
 40
8.0
 40
9.0
 40
9.0
 40
9.0
 40
10.0
 40
10.0
 40
10.0
 40
11.0
 40
11.0
 40
11.0
 40
12.0
 40
12.0
 40
12.0
 40
13.0
 40
13.0
 40
13.0
 40
13.0
 10
105.8354003641661
 20
-135.2306775920604
 30
0.0
 10
105.7861354987271
 20
-135.2199977960561
 30
0.0
 10
105.7320474996087
 20
-135.2020832995328
 30
0.0
 10
105.5539360630212
 20
-135.0556667414097
 30
0.0
 10
105.364800320881
 20
-134.9023599923161
 30
0.0
 10
105.2731607809734
 20
-134.9030490114131
 30
0.0
 10
105.1591281204116
 20
-135.0391302830805
 30
0.0
 10
105.1591281204116
 20
-135.0391302830805
 30
0.0
 10
104.8969563539841
 20
-135.3519449531412
 30
0.0
 10
104.8969563539841
 20
-135.3519449531412
 30
0.0
 10
104.8969563539841
 20
-135.3519449531412
 30
0.0
 10
105.3878824606322
 20
-135.7639783731771
 30
0.0
 10
105.3878824606322
 20
-135.7639783731771
 30
0.0
 10
105.3878824606322
 20
-135.7639783731771
 30
0.0
 10
105.2366427688297
 20
-135.9438123575071
 30
0.0
 10
105.2366427688297
 20
-135.9438123575071
 30
0.0
 10
105.2366427688297
 20
-135.9438123575071
 30
0.0
 10
104.0535969791949
 20
-134.9512803482066
 30
0.0
 10
104.0535969791949
 20
-134.9512803482066
 30
0.0
 10
104.0535969791949
 20
-134.9512803482066
 30
0.0
 10
104.4876790103364
 20
-134.4341715158706
 30
0.0
 10
104.4876790103364
 20
-134.4341715158706
 30
0.0
 10
104.6847384720927
 20
-134.1992160037766
 30
0.0
 10
104.9234835892205
 20
-134.1809569977048
 30
0.0
 10
105.1195095223312
 20
-134.3456325618997
 30
0.0
 10
105.1584391013146
 20
-134.3783609690096
 30
0.0
 10
105.2159721959182
 20
-134.4379611209044
 30
0.0
 10
105.2490451125766
 20
-134.5237439984871
 30
0.0
 10
105.2907307679482
 20
-134.6357096017578
 30
0.0
 10
105.2628254945176
 20
-134.6980658300408
 30
0.0
 10
105.2366427688297
 20
-134.7555989246444
 30
0.0
 10
105.3572211108135
 20
-134.6777397666778
 30
0.0
 10
105.4381808547168
 20
-134.6570691937663
 30
0.0
 10
105.6824381246211
 20
-134.8565402223623
 30
0.0
 10
105.8925889492213
 20
-135.0277614679792
 30
0.0
 10
105.9397867573692
 20
-135.0201822579116
 30
0.0
 10
106.0255696349519
 20
-135.0036457995824
 30
0.0
 10
106.0255696349519
 20
-135.0036457995824
 30
0.0
 10
105.8354003641661
 20
-135.2306775920604
 30
0.0
 10
105.8354003641661
 20
-135.2306775920604
 30
0.0
  0
SPLINE
  5
77
330
5D
100
AcDbEntity
  8
_U+30EC_U+30A4_U+30E4_U+30FC 1
370
     0
100
AcDbSpline
210
0.0
220
0.0
230
1.0
 70
    11
 71
     3
 72
    20
 73
    16
 74
     0
 42
0.0000000001
 43
0.0000000001
 12
1.0
 22
0.0
 32
0.0
 13
1.0
 23
0.0
 33
0.0
 40
0.0
 40
0.0
 40
0.0
 40
0.0
 40
1.0
 40
1.0
 40
1.0
 40
2.0
 40
2.0
 40
2.0
 40
3.0
 40
3.0
 40
3.0
 40
4.0
 40
4.0
 40
4.0
 40
5.0
 40
5.0
 40
5.0
 40
5.0
 10
104.6523545745314
 20
-134.5668076920527
 30
0.0
 10
104.6523545745314
 20
-134.5668076920527
 30
0.0
 10
104.3671006683527
 20
-134.9071831259954
 30
0.0
 10
104.3671006683527
 20
-134.9071831259954
 30
0.0
 10
104.3671006683527
 20
-134.9071831259954
 30
0.0
 10
104.7350368661774
 20
-135.2158636814738
 30
0.0
 10
104.7350368661774
 20
-135.2158636814738
 30
0.0
 10
104.7350368661774
 20
-135.2158636814738
 30
0.0
 10
105.0189127341619
 20
-134.8768662857252
 30
0.0
 10
105.0189127341619
 20
-134.8768662857252
 30
0.0
 10
105.0829915101876
 20
-134.8010741850497
 30
0.0
 10
105.1115858027152
 20
-134.6481119455046
 30
0.0
 10
104.9803276647271
 20
-134.5382133995252
 30
0.0
 10
104.9203830032838
 20
-134.487570495892
 30
0.0
 10
104.7805121265827
 20
-134.4145344716047
 30
0.0
 10
104.6523545745314
 20
-134.5668076920527
 30
0.0
  0
HATCH
  5
78
330
5D
100
AcDbEntity
  8
_U+30EC_U+30A4_U+30E4_U+30FC 1
 62
   179
420
  2234388
100
AcDbHatch
 10
0.0
 20
0.0
 30
0.0
210
0.0
220
0.0
230
1.0
  2
SOLID
 70
     1
 71
     0
 91
        2
 92
        1
 93
        1
 72
     4
 94
        3
 73
     0
 74
     1
 95
       44
 96
       40
 40
0.0
 40
0.0
 40
0.0
 40
0.0
 40
1.0
 40
1.0
 40
1.0
 40
2.0
 40
2.0
 40
2.0
 40
3.0
 40
3.0
 40
3.0
 40
4.0
 40
4.0
 40
4.0
 40
5.0
 40
5.0
 40
5.0
 40
6.0
 40
6.0
 40
6.0
 40
7.0
 40
7.0
 40
7.0
 40
8.0
 40
8.0
 40
8.0
 40
9.0
 40
9.0
 40
9.0
 40
10.0
 40
10.0
 40
10.0
 40
11.0
 40
11.0
 40
11.0
 40
12.0
 40
12.0
 40
12.0
 40
13.0
 40
13.0
 40
13.0
 40
13.0
 10
105.8354003641661
 20
-135.2306775920604
 10
105.7861354987271
 20
-135.2199977960561
 10
105.7320474996087
 20
-135.2020832995328
 10
105.5539360630212
 20
-135.0556667414097
 10
105.364800320881
 20
-134.9023599923161
 10
105.2731607809734
 20
-134.9030490114131
 10
105.1591281204116
 20
-135.0391302830805
 10
105.1591281204116
 20
-135.0391302830805
 10
104.8969563539841
 20
-135.3519449531412
 10
104.8969563539841
 20
-135.3519449531412
 10
104.8969563539841
 20
-135.3519449531412
 10
105.3878824606322
 20
-135.7639783731771
 10
105.3878824606322
 20
-135.7639783731771
 10
105.3878824606322
 20
-135.7639783731771
 10
105.2366427688297
 20
-135.9438123575071
 10
105.2366427688297
 20
-135.9438123575071
 10
105.2366427688297
 20
-135.9438123575071
 10
104.0535969791949
 20
-134.9512803482066
 10
104.0535969791949
 20
-134.9512803482066
 10
104.0535969791949
 20
-134.9512803482066
 10
104.4876790103364
 20
-134.4341715158706
 10
104.4876790103364
 20
-134.4341715158706
 10
104.6847384720927
 20
-134.1992160037766
 10
104.9234835892205
 20
-134.1809569977048
 10
105.1195095223312
 20
-134.3456325618997
 10
105.1584391013146
 20
-134.3783609690096
 10
105.2159721959182
 20
-134.4379611209044
 10
105.2490451125766
 20
-134.5237439984871
 10
105.2907307679482
 20
-134.6357096017578
 10
105.2628254945176
 20
-134.6980658300408
 10
105.2366427688297
 20
-134.7555989246444
 10
105.3572211108135
 20
-134.6777397666778
 10
105.4381808547168
 20
-134.6570691937663
 10
105.6824381246211
 20
-134.8565402223623
 10
105.8925889492213
 20
-135.0277614679792
 10
105.9397867573692
 20
-135.0201822579116
 10
106.0255696349519
 20
-135.0036457995824
 10
106.0255696349519
 20
-135.0036457995824
 10
105.8354003641661
 20
-135.2306775920604
 10
105.8354003641661
 20
-135.2306775920604
 97
        0
 97
        0
 92
        1
 93
        1
 72
     4
 94
        3
 73
     0
 74
     1
 95
       20
 96
       16
 40
0.0
 40
0.0
 40
0.0
 40
0.0
 40
1.0
 40
1.0
 40
1.0
 40
2.0
 40
2.0
 40
2.0
 40
3.0
 40
3.0
 40
3.0
 40
4.0
 40
4.0
 40
4.0
 40
5.0
 40
5.0
 40
5.0
 40
5.0
 10
104.6523545745314
 20
-134.5668076920527
 10
104.6523545745314
 20
-134.5668076920527
 10
104.3671006683527
 20
-134.9071831259954
 10
104.3671006683527
 20
-134.9071831259954
 10
104.3671006683527
 20
-134.9071831259954
 10
104.7350368661774
 20
-135.2158636814738
 10
104.7350368661774
 20
-135.2158636814738
 10
104.7350368661774
 20
-135.2158636814738
 10
105.0189127341619
 20
-134.8768662857252
 10
105.0189127341619
 20
-134.8768662857252
 10
105.0829915101876
 20
-134.8010741850497
 10
105.1115858027152
 20
-134.6481119455046
 10
104.9803276647271
 20
-134.5382133995252
 10
104.9203830032838
 20
-134.487570495892
 10
104.7805121265827
 20
-134.4145344716047
 10
104.6523545745314
 20
-134.5668076920527
 97
        0
 97
        0
 75
     2
 76
     1
 98
        0
  0
ENDBLK
  5
60
330
5D
100
AcDbEntity
  8
0
100
AcDbBlockEnd
  0
BLOCK
  5
7B
330
79
100
AcDbEntity
  8
0
100
AcDbBlockBegin
  2
block 4
 70
     0
 10
0.0
 20
0.0
 30
0.0
  3
block 4
  1

  0
SPLINE
  5
7D
330
79
100
AcDbEntity
  8
_U+30EC_U+30A4_U+30E4_U+30FC 1
370
     0
100
AcDbSpline
210
0.0
220
0.0
230
1.0
 70
    11
 71
     3
 72
    44
 73
    40
 74
     0
 42
0.0000000001
 43
0.0000000001
 12
1.0
 22
0.0
 32
0.0
 13
1.0
 23
0.0
 33
0.0
 40
0.0
 40
0.0
 40
0.0
 40
0.0
 40
1.0
 40
1.0
 40
1.0
 40
2.0
 40
2.0
 40
2.0
 40
3.0
 40
3.0
 40
3.0
 40
4.0
 40
4.0
 40
4.0
 40
5.0
 40
5.0
 40
5.0
 40
6.0
 40
6.0
 40
6.0
 40
7.0
 40
7.0
 40
7.0
 40
8.0
 40
8.0
 40
8.0
 40
9.0
 40
9.0
 40
9.0
 40
10.0
 40
10.0
 40
10.0
 40
11.0
 40
11.0
 40
11.0
 40
12.0
 40
12.0
 40
12.0
 40
13.0
 40
13.0
 40
13.0
 40
13.0
 10
84.20226777408833
 20
-130.7796142251176
 30
0.0
 10
84.16023760916828
 20
-131.0459201061274
 30
0.0
 10
84.14714624632433
 20
-131.16443139082
 30
0.0
 10
84.21398109873817
 20
-131.3001681529389
 30
0.0
 10
84.21398109873817
 20
-131.3001681529389
 30
0.0
 10
84.7645073572811
 20
-130.7496418943959
 30
0.0
 10
84.7645073572811
 20
-130.7496418943959
 30
0.0
 10
84.7645073572811
 20
-130.7496418943959
 30
0.0
 10
84.90989038675865
 20
-130.8950249238735
 30
0.0
 10
84.90989038675865
 20
-130.8950249238735
 30
0.0
 10
84.90989038675865
 20
-130.8950249238735
 30
0.0
 10
84.18297523937093
 20
-131.6219400712612
 30
0.0
 10
84.18297523937093
 20
-131.6219400712612
 30
0.0
 10
83.95215384185919
 20
-131.3463324324412
 30
0.0
 10
83.94319659359753
 20
-131.2450466251749
 30
0.0
 10
84.00451929323499
 20
-130.7620442381428
 30
0.0
 10
84.04517141996094
 20
-130.4402723198205
 30
0.0
 10
84.04379338176683
 20
-130.3458767035247
 30
0.0
 10
83.94629717953427
 20
-130.2487250108406
 30
0.0
 10
83.8625813592427
 20
-130.165009190549
 30
0.0
 10
83.7192653870563
 20
-130.1233235351775
 30
0.0
 10
83.58008352945221
 20
-130.2621608832331
 30
0.0
 10
83.39611543053987
 20
-130.446473491694
 30
0.0
 10
83.55286727511873
 20
-130.6152831704712
 30
0.0
 10
83.632448980828
 20
-130.7007215385054
 30
0.0
 10
83.632448980828
 20
-130.7007215385054
 30
0.0
 10
83.47397458850651
 20
-130.8591959308269
 30
0.0
 10
83.47397458850651
 20
-130.8591959308269
 30
0.0
 10
83.38991425866641
 20
-130.7634222763369
 30
0.0
 10
83.31825627257322
 20
-130.6766058701086
 30
0.0
 10
83.29138452778827
 20
-130.5360459743104
 30
0.0
 10
83.25521102519315
 20
-130.3444986653305
 30
0.0
 10
83.36304251388147
 20
-130.1887803493973
 30
0.0
 10
83.44503578643041
 20
-130.1067870768483
 30
0.0
 10
83.64140622908965
 20
-129.9104166341891
 30
0.0
 10
83.91804739655521
 20
-129.8942246854084
 30
0.0
 10
84.1109727437292
 20
-130.0871500325824
 30
0.0
 10
84.27254772198742
 20
-130.2487250108406
 30
0.0
 10
84.26048988778905
 20
-130.4013427408372
 30
0.0
 10
84.20226777408833
 20
-130.7796142251176
 30
0.0
  0
HATCH
  5
7E
330
79
100
AcDbEntity
  8
_U+30EC_U+30A4_U+30E4_U+30FC 1
 62
   179
420
  2234388
100
AcDbHatch
 10
0.0
 20
0.0
 30
0.0
210
0.0
220
0.0
230
1.0
  2
SOLID
 70
     1
 71
     0
 91
        1
 92
        1
 93
        1
 72
     4
 94
        3
 73
     0
 74
     1
 95
       44
 96
       40
 40
0.0
 40
0.0
 40
0.0
 40
0.0
 40
1.0
 40
1.0
 40
1.0
 40
2.0
 40
2.0
 40
2.0
 40
3.0
 40
3.0
 40
3.0
 40
4.0
 40
4.0
 40
4.0
 40
5.0
 40
5.0
 40
5.0
 40
6.0
 40
6.0
 40
6.0
 40
7.0
 40
7.0
 40
7.0
 40
8.0
 40
8.0
 40
8.0
 40
9.0
 40
9.0
 40
9.0
 40
10.0
 40
10.0
 40
10.0
 40
11.0
 40
11.0
 40
11.0
 40
12.0
 40
12.0
 40
12.0
 40
13.0
 40
13.0
 40
13.0
 40
13.0
 10
84.20226777408833
 20
-130.7796142251176
 10
84.16023760916828
 20
-131.0459201061274
 10
84.14714624632433
 20
-131.16443139082
 10
84.21398109873817
 20
-131.3001681529389
 10
84.21398109873817
 20
-131.3001681529389
 10
84.7645073572811
 20
-130.7496418943959
 10
84.7645073572811
 20
-130.7496418943959
 10
84.7645073572811
 20
-130.7496418943959
 10
84.90989038675865
 20
-130.8950249238735
 10
84.90989038675865
 20
-130.8950249238735
 10
84.90989038675865
 20
-130.8950249238735
 10
84.18297523937093
 20
-131.6219400712612
 10
84.18297523937093
 20
-131.6219400712612
 10
83.95215384185919
 20
-131.3463324324412
 10
83.94319659359753
 20
-131.2450466251749
 10
84.00451929323499
 20
-130.7620442381428
 10
84.04517141996094
 20
-130.4402723198205
 10
84.04379338176683
 20
-130.3458767035247
 10
83.94629717953427
 20
-130.2487250108406
 10
83.8625813592427
 20
-130.165009190549
 10
83.7192653870563
 20
-130.1233235351775
 10
83.58008352945221
 20
-130.2621608832331
 10
83.39611543053987
 20
-130.446473491694
 10
83.55286727511873
 20
-130.6152831704712
 10
83.632448980828
 20
-130.7007215385054
 10
83.632448980828
 20
-130.7007215385054
 10
83.47397458850651
 20
-130.8591959308269
 10
83.47397458850651
 20
-130.8591959308269
 10
83.38991425866641
 20
-130.7634222763369
 10
83.31825627257322
 20
-130.6766058701086
 10
83.29138452778827
 20
-130.5360459743104
 10
83.25521102519315
 20
-130.3444986653305
 10
83.36304251388147
 20
-130.1887803493973
 10
83.44503578643041
 20
-130.1067870768483
 10
83.64140622908965
 20
-129.9104166341891
 10
83.91804739655521
 20
-129.8942246854084
 10
84.1109727437292
 20
-130.0871500325824
 10
84.27254772198742
 20
-130.2487250108406
 10
84.26048988778905
 20
-130.4013427408372
 10
84.20226777408833
 20
-130.7796142251176
 97
        0
 97
        0
 75
     2
 76
     1
 98
        0
  0
SPLINE
  5
7F
330
79
100
AcDbEntity
  8
_U+30EC_U+30A4_U+30E4_U+30FC 1
370
     0
100
AcDbSpline
210
0.0
220
0.0
230
1.0
 70
    11
 71
     3
 72
    29
 73
    25
 74
     0
 42
0.0000000001
 43
0.0000000001
 12
1.0
 22
0.0
 32
0.0
 13
1.0
 23
0.0
 33
0.0
 40
0.0
 40
0.0
 40
0.0
 40
0.0
 40
1.0
 40
1.0
 40
1.0
 40
2.0
 40
2.0
 40
2.0
 40
3.0
 40
3.0
 40
3.0
 40
4.0
 40
4.0
 40
4.0
 40
5.0
 40
5.0
 40
5.0
 40
6.0
 40
6.0
 40
6.0
 40
7.0
 40
7.0
 40
7.0
 40
8.0
 40
8.0
 40
8.0
 40
8.0
 10
85.53551972688001
 20
-130.0179036133289
 30
0.0
 10
85.60717771297321
 20
-130.2421793294186
 30
0.0
 10
85.49831269563931
 20
-130.378260601086
 30
0.0
 10
85.41563040399332
 20
-130.460942892732
 30
0.0
 10
85.30194225298007
 20
-130.5746310437452
 30
0.0
 10
85.16896156724943
 20
-130.6418104057076
 30
0.0
 10
84.97293563413871
 20
-130.5804877060702
 30
0.0
 10
84.76209579044142
 20
-130.516064420496
 30
0.0
 10
84.58122827746581
 20
-130.3617241427568
 30
0.0
 10
84.46581757870995
 20
-130.2466579535495
 30
0.0
 10
84.36418726189507
 20
-130.1450276367346
 30
0.0
 10
84.19813365950603
 20
-129.9552028754973
 30
0.0
 10
84.13198782618923
 20
-129.7395398981207
 30
0.0
 10
84.06515297377538
 20
-129.5197428061617
 30
0.0
 10
84.16230466645943
 20
-129.3895181968193
 30
0.0
 10
84.25325518727003
 20
-129.2985676760087
 30
0.0
 10
84.36556530008917
 20
-129.1862575631895
 30
0.0
 10
84.49854598581982
 20
-129.1159776152905
 30
0.0
 10
84.69491642847905
 20
-129.1773003149279
 30
0.0
 10
84.90127764804552
 20
-129.2431016386962
 30
0.0
 10
85.07904457508441
 20
-129.3881401586252
 30
0.0
 10
85.2016899743593
 20
-129.5107855579001
 30
0.0
 10
85.3229573354401
 20
-129.6320529189809
 30
0.0
 10
85.47144095085437
 20
-129.8098198460198
 30
0.0
 10
85.53551972688001
 20
-130.0179036133289
 30
0.0
  0
SPLINE
  5
80
330
79
100
AcDbEntity
  8
_U+30EC_U+30A4_U+30E4_U+30FC 1
370
     0
100
AcDbSpline
210
0.0
220
0.0
230
1.0
 70
    11
 71
     3
 72
    17
 73
    13
 74
     0
 42
0.0000000001
 43
0.0000000001
 12
1.0
 22
0.0
 32
0.0
 13
1.0
 23
0.0
 33
0.0
 40
0.0
 40
0.0
 40
0.0
 40
0.0
 40
1.0
 40
1.0
 40
1.0
 40
2.0
 40
2.0
 40
2.0
 40
3.0
 40
3.0
 40
3.0
 40
4.0
 40
4.0
 40
4.0
 40
4.0
 10
84.38968096848592
 20
-129.4346489476761
 30
0.0
 10
84.21329207964112
 20
-129.6113823460694
 30
0.0
 10
84.38072372022427
 20
-129.8442708008723
 30
0.0
 10
84.62463648057995
 20
-130.088183561228
 30
0.0
 10
84.85063474441235
 20
-130.3141818250604
 30
0.0
 10
85.0942029952195
 20
-130.5071071722343
 30
0.0
 10
85.27817109413185
 20
-130.323139073322
 30
0.0
 10
85.45318194478254
 20
-130.1481282226713
 30
0.0
 10
85.2885063805876
 20
-129.9145507487714
 30
0.0
 10
85.04321558203782
 20
-129.6692599502216
 30
0.0
 10
84.81756182775395
 20
-129.4432616863892
 30
0.0
 10
84.57227102920416
 20
-129.2520588869578
 30
0.0
 10
84.38968096848592
 20
-129.4346489476761
 30
0.0
  0
HATCH
  5
81
330
79
100
AcDbEntity
  8
_U+30EC_U+30A4_U+30E4_U+30FC 1
 62
   179
420
  2234388
100
AcDbHatch
 10
0.0
 20
0.0
 30
0.0
210
0.0
220
0.0
230
1.0
  2
SOLID
 70
     1
 71
     0
 91
        2
 92
        1
 93
        1
 72
     4
 94
        3
 73
     0
 74
     1
 95
       29
 96
       25
 40
0.0
 40
0.0
 40
0.0
 40
0.0
 40
1.0
 40
1.0
 40
1.0
 40
2.0
 40
2.0
 40
2.0
 40
3.0
 40
3.0
 40
3.0
 40
4.0
 40
4.0
 40
4.0
 40
5.0
 40
5.0
 40
5.0
 40
6.0
 40
6.0
 40
6.0
 40
7.0
 40
7.0
 40
7.0
 40
8.0
 40
8.0
 40
8.0
 40
8.0
 10
85.53551972688001
 20
-130.0179036133289
 10
85.60717771297321
 20
-130.2421793294186
 10
85.49831269563931
 20
-130.378260601086
 10
85.41563040399332
 20
-130.460942892732
 10
85.30194225298007
 20
-130.5746310437452
 10
85.16896156724943
 20
-130.6418104057076
 10
84.97293563413871
 20
-130.5804877060702
 10
84.76209579044142
 20
-130.516064420496
 10
84.58122827746581
 20
-130.3617241427568
 10
84.46581757870995
 20
-130.2466579535495
 10
84.36418726189507
 20
-130.1450276367346
 10
84.19813365950603
 20
-129.9552028754973
 10
84.13198782618923
 20
-129.7395398981207
 10
84.06515297377538
 20
-129.5197428061617
 10
84.16230466645943
 20
-129.3895181968193
 10
84.25325518727003
 20
-129.2985676760087
 10
84.36556530008917
 20
-129.1862575631895
 10
84.49854598581982
 20
-129.1159776152905
 10
84.69491642847905
 20
-129.1773003149279
 10
84.90127764804552
 20
-129.2431016386962
 10
85.07904457508441
 20
-129.3881401586252
 10
85.2016899743593
 20
-129.5107855579001
 10
85.3229573354401
 20
-129.6320529189809
 10
85.47144095085437
 20
-129.8098198460198
 10
85.53551972688001
 20
-130.0179036133289
 97
        0
 97
        0
 92
        1
 93
        1
 72
     4
 94
        3
 73
     0
 74
     1
 95
       17
 96
       13
 40
0.0
 40
0.0
 40
0.0
 40
0.0
 40
1.0
 40
1.0
 40
1.0
 40
2.0
 40
2.0
 40
2.0
 40
3.0
 40
3.0
 40
3.0
 40
4.0
 40
4.0
 40
4.0
 40
4.0
 10
84.38968096848592
 20
-129.4346489476761
 10
84.21329207964112
 20
-129.6113823460694
 10
84.38072372022427
 20
-129.8442708008723
 10
84.62463648057995
 20
-130.088183561228
 10
84.85063474441235
 20
-130.3141818250604
 10
85.0942029952195
 20
-130.5071071722343
 10
85.27817109413185
 20
-130.323139073322
 10
85.45318194478254
 20
-130.1481282226713
 10
85.2885063805876
 20
-129.9145507487714
 10
85.04321558203782
 20
-129.6692599502216
 10
84.81756182775395
 20
-129.4432616863892
 10
84.57227102920416
 20
-129.2520588869578
 10
84.38968096848592
 20
-129.4346489476761
 97
        0
 97
        0
 75
     2
 76
     1
 98
        0
  0
SPLINE
  5
82
330
79
100
AcDbEntity
  8
_U+30EC_U+30A4_U+30E4_U+30FC 1
370
     0
100
AcDbSpline
210
0.0
220
0.0
230
1.0
 70
    11
 71
     3
 72
    29
 73
    25
 74
     0
 42
0.0000000001
 43
0.0000000001
 12
1.0
 22
0.0
 32
0.0
 13
1.0
 23
0.0
 33
0.0
 40
0.0
 40
0.0
 40
0.0
 40
0.0
 40
1.0
 40
1.0
 40
1.0
 40
2.0
 40
2.0
 40
2.0
 40
3.0
 40
3.0
 40
3.0
 40
4.0
 40
4.0
 40
4.0
 40
5.0
 40
5.0
 40
5.0
 40
6.0
 40
6.0
 40
6.0
 40
7.0
 40
7.0
 40
7.0
 40
8.0
 40
8.0
 40
8.0
 40
8.0
 10
86.36785479611638
 20
-129.1855685440925
 30
0.0
 10
86.43951278220958
 20
-129.4101887697308
 30
0.0
 10
86.33030325532715
 20
-129.5462700413982
 30
0.0
 10
86.24796547322968
 20
-129.6286078234956
 30
0.0
 10
86.13427732221643
 20
-129.7422959745089
 30
0.0
 10
86.00129663648579
 20
-129.8098198460198
 30
0.0
 10
85.80492619382655
 20
-129.7484971463823
 30
0.0
 10
85.59408635012926
 20
-129.6837293512596
 30
0.0
 10
85.41321883715365
 20
-129.529733583069
 30
0.0
 10
85.29780813839777
 20
-129.4143228843131
 30
0.0
 10
85.19652233113143
 20
-129.3130370770467
 30
0.0
 10
85.03046872874239
 20
-129.122867806261
 30
0.0
 10
84.9643228954256
 20
-128.9075493384328
 30
0.0
 10
84.89714353346322
 20
-128.6874077369254
 30
0.0
 10
84.99429522614726
 20
-128.5575276371315
 30
0.0
 10
85.08559025650638
 20
-128.4662326067723
 30
0.0
 10
85.19790036932552
 20
-128.3540947487274
 30
0.0
 10
85.33088105505617
 20
-128.2836425460541
 30
0.0
 10
85.52690698816689
 20
-128.3449652456916
 30
0.0
 10
85.73326820773336
 20
-128.4109388242341
 30
0.0
 10
85.91103513477225
 20
-128.5559773441631
 30
0.0
 10
86.03368053404714
 20
-128.678622743438
 30
0.0
 10
86.15494789512793
 20
-128.7997178497445
 30
0.0
 10
86.3034315105422
 20
-128.9778292863319
 30
0.0
 10
86.36785479611638
 20
-129.1855685440925
 30
0.0
  0
SPLINE
  5
83
330
79
100
AcDbEntity
  8
_U+30EC_U+30A4_U+30E4_U+30FC 1
370
     0
100
AcDbSpline
210
0.0
220
0.0
230
1.0
 70
    11
 71
     3
 72
    17
 73
    13
 74
     0
 42
0.0000000001
 43
0.0000000001
 12
1.0
 22
0.0
 32
0.0
 13
1.0
 23
0.0
 33
0.0
 40
0.0
 40
0.0
 40
0.0
 40
0.0
 40
1.0
 40
1.0
 40
1.0
 40
2.0
 40
2.0
 40
2.0
 40
3.0
 40
3.0
 40
3.0
 40
4.0
 40
4.0
 40
4.0
 40
4.0
 10
85.22201603772228
 20
-128.602486133214
 30
0.0
 10
85.04528263932896
 20
-128.779047276833
 30
0.0
 10
85.21305878946063
 20
-129.0119357316359
 30
0.0
 10
85.45662704026779
 20
-129.2558484919916
 30
0.0
 10
85.68262530410018
 20
-129.481846755824
 30
0.0
 10
85.92619355490734
 20
-129.674772102998
 30
0.0
 10
86.11016165381969
 20
-129.4908040040856
 30
0.0
 10
86.28517250447038
 20
-129.315793153435
 30
0.0
 10
86.12049694027543
 20
-129.082215679535
 30
0.0
 10
85.87520614172564
 20
-128.8369248809852
 30
0.0
 10
85.64955238744179
 20
-128.6112711267014
 30
0.0
 10
85.40460609844052
 20
-128.4198960724957
 30
0.0
 10
85.22201603772228
 20
-128.602486133214
 30
0.0
  0
HATCH
  5
84
330
79
100
AcDbEntity
  8
_U+30EC_U+30A4_U+30E4_U+30FC 1
 62
   179
420
  2234388
100
AcDbHatch
 10
0.0
 20
0.0
 30
0.0
210
0.0
220
0.0
230
1.0
  2
SOLID
 70
     1
 71
     0
 91
        2
 92
        1
 93
        1
 72
     4
 94
        3
 73
     0
 74
     1
 95
       29
 96
       25
 40
0.0
 40
0.0
 40
0.0
 40
0.0
 40
1.0
 40
1.0
 40
1.0
 40
2.0
 40
2.0
 40
2.0
 40
3.0
 40
3.0
 40
3.0
 40
4.0
 40
4.0
 40
4.0
 40
5.0
 40
5.0
 40
5.0
 40
6.0
 40
6.0
 40
6.0
 40
7.0
 40
7.0
 40
7.0
 40
8.0
 40
8.0
 40
8.0
 40
8.0
 10
86.36785479611638
 20
-129.1855685440925
 10
86.43951278220958
 20
-129.4101887697308
 10
86.33030325532715
 20
-129.5462700413982
 10
86.24796547322968
 20
-129.6286078234956
 10
86.13427732221643
 20
-129.7422959745089
 10
86.00129663648579
 20
-129.8098198460198
 10
85.80492619382655
 20
-129.7484971463823
 10
85.59408635012926
 20
-129.6837293512596
 10
85.41321883715365
 20
-129.529733583069
 10
85.29780813839777
 20
-129.4143228843131
 10
85.19652233113143
 20
-129.3130370770467
 10
85.03046872874239
 20
-129.122867806261
 10
84.9643228954256
 20
-128.9075493384328
 10
84.89714353346322
 20
-128.6874077369254
 10
84.99429522614726
 20
-128.5575276371315
 10
85.08559025650638
 20
-128.4662326067723
 10
85.19790036932552
 20
-128.3540947487274
 10
85.33088105505617
 20
-128.2836425460541
 10
85.52690698816689
 20
-128.3449652456916
 10
85.73326820773336
 20
-128.4109388242341
 10
85.91103513477225
 20
-128.5559773441631
 10
86.03368053404714
 20
-128.678622743438
 10
86.15494789512793
 20
-128.7997178497445
 10
86.3034315105422
 20
-128.9778292863319
 10
86.36785479611638
 20
-129.1855685440925
 97
        0
 97
        0
 92
        1
 93
        1
 72
     4
 94
        3
 73
     0
 74
     1
 95
       17
 96
       13
 40
0.0
 40
0.0
 40
0.0
 40
0.0
 40
1.0
 40
1.0
 40
1.0
 40
2.0
 40
2.0
 40
2.0
 40
3.0
 40
3.0
 40
3.0
 40
4.0
 40
4.0
 40
4.0
 40
4.0
 10
85.22201603772228
 20
-128.602486133214
 10
85.04528263932896
 20
-128.779047276833
 10
85.21305878946063
 20
-129.0119357316359
 10
85.45662704026779
 20
-129.2558484919916
 10
85.68262530410018
 20
-129.481846755824
 10
85.92619355490734
 20
-129.674772102998
 10
86.11016165381969
 20
-129.4908040040856
 10
86.28517250447038
 20
-129.315793153435
 10
86.12049694027543
 20
-129.082215679535
 10
85.87520614172564
 20
-128.8369248809852
 10
85.64955238744179
 20
-128.6112711267014
 10
85.40460609844052
 20
-128.4198960724957
 10
85.22201603772228
 20
-128.602486133214
 97
        0
 97
        0
 75
     2
 76
     1
 98
        0
  0
ENDBLK
  5
7C
330
79
100
AcDbEntity
  8
0
100
AcDbBlockEnd
  0
ENDSEC
  0
SECTION
  2
ENTITIES
  0
INSERT
  5
42
330
1F
100
AcDbEntity
  8
_U+30EC_U+30A4_U+30E4_U+30FC 1
100
AcDbBlockReference
  2
block 2
 10
0.0
 20
0.0
 30
0.0
  0
INSERT
  5
5E
330
1F
100
AcDbEntity
  8
_U+30EC_U+30A4_U+30E4_U+30FC 1
100
AcDbBlockReference
  2
block 3
 10
0.0
 20
0.0
 30
0.0
  0
INSERT
  5
7A
330
1F
100
AcDbEntity
  8
_U+30EC_U+30A4_U+30E4_U+30FC 1
100
AcDbBlockReference
  2
block 4
 10
0.0
 20
0.0
 30
0.0
  0
POLYLINE
  5
85
330
1F
100
AcDbEntity
  8
_U+30EC_U+30A4_U+30E4_U+30FC 1
 62
   179
420
  2234388
370
     9
100
AcDb2dPolyline
 66
     1
 10
0.0
 20
0.0
 30
0.0
  0
VERTEX
  5
86
330
85
100
AcDbEntity
  8
_U+30EC_U+30A4_U+30E4_U+30FC 1
 62
   179
420
  2234388
370
     9
100
AcDbVertex
100
AcDb2dVertex
 10
90.6065249106572
 20
-122.188252191675
 30
0.0
  0
VERTEX
  5
87
330
85
100
AcDbEntity
  8
_U+30EC_U+30A4_U+30E4_U+30FC 1
 62
   179
420
  2234388
370
     9
100
AcDbVertex
100
AcDb2dVertex
 10
74.60992281876452
 20
-137.2092124656978
 30
0.0
  0
SEQEND
  5
88
330
85
100
AcDbEntity
  8
_U+30EC_U+30A4_U+30E4_U+30FC 1
 62
   179
420
  2234388
370
     9
  0
SPLINE
  5
89
330
1F
100
AcDbEntity
  8
_U+30EC_U+30A4_U+30E4_U+30FC 1
 62
     7
420
 16777215
370
     9
100
AcDbSpline
210
0.0
220
0.0
230
1.0
 70
    11
 71
     3
 72
    17
 73
    13
 74
     0
 42
0.0000000001
 43
0.0000000001
 12
1.0
 22
0.0
 32
0.0
 13
1.0
 23
0.0
 33
0.0
 40
0.0
 40
0.0
 40
0.0
 40
0.0
 40
1.0
 40
1.0
 40
1.0
 40
2.0
 40
2.0
 40
2.0
 40
3.0
 40
3.0
 40
3.0
 40
4.0
 40
4.0
 40
4.0
 40
4.0
 10
82.83885233104925
 20
-115.4089921933701
 30
0.0
 10
82.79821233208607
 20
-115.0424208045729
 30
0.0
 10
82.83885233104925
 20
-113.0073869161926
 30
0.0
 10
82.83885233104925
 20
-113.0073869161926
 30
0.0
 10
82.83885233104925
 20
-113.0073869161926
 30
0.0
 10
102.7437734898991
 20
-120.2121321921691
 30
0.0
 10
102.7437734898991
 20
-120.2121321921691
 30
0.0
 10
102.7437734898991
 20
-120.2121321921691
 30
0.0
 10
101.1293944191618
 20
-122.1114171916944
 30
0.0
 10
101.1293944191618
 20
-122.1114171916944
 30
0.0
 10
101.1293944191618
 20
-122.1114171916944
 30
0.0
 10
82.83885233104925
 20
-115.4089921933701
 30
0.0
 10
82.83885233104925
 20
-115.4089921933701
 30
0.0
  0
POLYLINE
  5
8A
330
1F
100
AcDbEntity
  8
_U+30EC_U+30A4_U+30E4_U+30FC 1
 62
     7
420
 16777215
370
     9
100
AcDb2dPolyline
 66
     1
 10
0.0
 20
0.0
 30
0.0
  0
VERTEX
  5
8B
330
8A
100
AcDbEntity
  8
_U+30EC_U+30A4_U+30E4_U+30FC 1
 62
     7
420
 16777215
370
     9
100
AcDbVertex
100
AcDb2dVertex
 10
102.7437734898991
 20
-120.2121321921691
 30
0.0
  0
VERTEX
  5
8C
330
8A
100
AcDbEntity
  8
_U+30EC_U+30A4_U+30E4_U+30FC 1
 62
     7
420
 16777215
370
     9
100
AcDbVertex
100
AcDb2dVertex
 10
102.7437734898991
 20
-122.8986055248308
 30
0.0
  0
VERTEX
  5
8D
330
8A
100
AcDbEntity
  8
_U+30EC_U+30A4_U+30E4_U+30FC 1
 62
     7
420
 16777215
370
     9
100
AcDbVertex
100
AcDb2dVertex
 10
88.45609746551916
 20
-139.5470355206687
 30
0.0
  0
VERTEX
  5
8E
330
8A
100
AcDbEntity
  8
_U+30EC_U+30A4_U+30E4_U+30FC 1
 62
     7
420
 16777215
370
     9
100
AcDbVertex
100
AcDb2dVertex
 10
88.45609746551916
 20
-137.023157465744
 30
0.0
  0
VERTEX
  5
8F
330
8A
100
AcDbEntity
  8
_U+30EC_U+30A4_U+30E4_U+30FC 1
 62
     7
420
 16777215
370
     9
100
AcDbVertex
100
AcDb2dVertex
 10
102.7437734898991
 20
-120.2121321921691
 30
0.0
  0
SEQEND
  5
90
330
8A
100
AcDbEntity
  8
_U+30EC_U+30A4_U+30E4_U+30FC 1
 62
     7
420
 16777215
370
     9
  0
POLYLINE
  5
91
330
1F
100
AcDbEntity
  8
_U+30EC_U+30A4_U+30E4_U+30FC 1
 62
     7
420
 16777215
370
     9
100
AcDb2dPolyline
 66
     1
 10
0.0
 20
0.0
 30
0.0
  0
VERTEX
  5
92
330
91
100
AcDbEntity
  8
_U+30EC_U+30A4_U+30E4_U+30FC 1
 62
     7
420
 16777215
370
     9
100
AcDbVertex
100
AcDb2dVertex
 10
102.7437734898991
 20
-121.6942221917987
 30
0.0
  0
VERTEX
  5
93
330
91
100
AcDbEntity
  8
_U+30EC_U+30A4_U+30E4_U+30FC 1
 62
     7
420
 16777215
370
     9
100
AcDbVertex
100
AcDb2dVertex
 10
104.3753706704958
 20
-122.4397121916122
 30
0.0
  0
VERTEX
  5
94
330
91
100
AcDbEntity
  8
_U+30EC_U+30A4_U+30E4_U+30FC 1
 62
     7
420
 16777215
370
     9
100
AcDbVertex
100
AcDb2dVertex
 10
89.62813331092642
 20
-139.5470355206687
 30
0.0
  0
VERTEX
  5
95
330
91
100
AcDbEntity
  8
_U+30EC_U+30A4_U+30E4_U+30FC 1
 62
     7
420
 16777215
370
     9
100
AcDbVertex
100
AcDb2dVertex
 10
88.45609746551916
 20
-139.5470355206687
 30
0.0
  0
VERTEX
  5
96
330
91
100
AcDbEntity
  8
_U+30EC_U+30A4_U+30E4_U+30FC 1
 62
     7
420
 16777215
370
     9
100
AcDbVertex
100
AcDb2dVertex
 10
102.7437734898991
 20
-122.8986055248308
 30
0.0
  0
VERTEX
  5
97
330
91
100
AcDbEntity
  8
_U+30EC_U+30A4_U+30E4_U+30FC 1
 62
     7
420
 16777215
370
     9
100
AcDbVertex
100
AcDb2dVertex
 10
102.7437734898991
 20
-121.6942221917987
 30
0.0
  0
SEQEND
  5
98
330
91
100
AcDbEntity
  8
_U+30EC_U+30A4_U+30E4_U+30FC 1
 62
     7
420
 16777215
370
     9
  0
SPLINE
  5
99
330
1F
100
AcDbEntity
  8
_U+30EC_U+30A4_U+30E4_U+30FC 1
 62
     7
420
 16777215
370
     9
100
AcDbSpline
210
0.0
220
0.0
230
1.0
 70
    11
 71
     3
 72
    17
 73
    13
 74
     0
 42
0.0000000001
 43
0.0000000001
 12
1.0
 22
0.0
 32
0.0
 13
1.0
 23
0.0
 33
0.0
 40
0.0
 40
0.0
 40
0.0
 40
0.0
 40
1.0
 40
1.0
 40
1.0
 40
2.0
 40
2.0
 40
2.0
 40
3.0
 40
3.0
 40
3.0
 40
4.0
 40
4.0
 40
4.0
 40
4.0
 10
101.1293944191618
 20
-122.1114171916944
 30
0.0
 10
82.91120705142555
 20
-115.4355210822521
 30
0.0
 10
82.77616372153746
 20
-115.386238026709
 30
0.0
 10
83.806241645715
 20
-115.7634633043925
 30
0.0
 10
83.806241645715
 20
-116.9244902485468
 30
0.0
 10
85.7048542023759
 20
-118.5943285814624
 30
0.0
 10
87.16210860964269
 20
-119.1710144146517
 30
0.0
 10
88.61939829468635
 20
-119.7477355256186
 30
0.0
 10
99.620455514026
 20
-123.8866655245838
 30
0.0
 10
99.620455514026
 20
-123.8866655245838
 30
0.0
 10
99.620455514026
 20
-123.8866655245838
 30
0.0
 10
101.1293944191618
 20
-122.1114171916944
 30
0.0
 10
101.1293944191618
 20
-122.1114171916944
 30
0.0
  0
POLYLINE
  5
9A
330
1F
100
AcDbEntity
  8
_U+30EC_U+30A4_U+30E4_U+30FC 1
 62
     7
420
 16777215
370
     9
100
AcDb2dPolyline
 66
     1
 10
0.0
 20
0.0
 30
0.0
  0
VERTEX
  5
9B
330
9A
100
AcDbEntity
  8
_U+30EC_U+30A4_U+30E4_U+30FC 1
 62
     7
420
 16777215
370
     9
100
AcDbVertex
100
AcDb2dVertex
 10
87.16210860964269
 20
-119.1710144146517
 30
0.0
  0
VERTEX
  5
9C
330
9A
100
AcDbEntity
  8
_U+30EC_U+30A4_U+30E4_U+30FC 1
 62
     7
420
 16777215
370
     9
100
AcDbVertex
100
AcDb2dVertex
 10
85.85676030961156
 20
-120.2121321921691
 30
0.0
  0
VERTEX
  5
9D
330
9A
100
AcDbEntity
  8
_U+30EC_U+30A4_U+30E4_U+30FC 1
 62
     7
420
 16777215
370
     9
100
AcDbVertex
100
AcDb2dVertex
 10
98.68199609352365
 20
-124.9908246909744
 30
0.0
  0
VERTEX
  5
9E
330
9A
100
AcDbEntity
  8
_U+30EC_U+30A4_U+30E4_U+30FC 1
 62
     7
420
 16777215
370
     9
100
AcDbVertex
100
AcDb2dVertex
 10
99.620455514026
 20
-123.8866655245838
 30
0.0
  0
VERTEX
  5
9F
330
9A
100
AcDbEntity
  8
_U+30EC_U+30A4_U+30E4_U+30FC 1
 62
     7
420
 16777215
370
     9
100
AcDbVertex
100
AcDb2dVertex
 10
87.16210860964269
 20
-119.1710144146517
 30
0.0
  0
SEQEND
  5
A0
330
9A
100
AcDbEntity
  8
_U+30EC_U+30A4_U+30E4_U+30FC 1
 62
     7
420
 16777215
370
     9
  0
SPLINE
  5
A1
330
1F
100
AcDbEntity
  8
_U+30EC_U+30A4_U+30E4_U+30FC 1
 62
     7
420
 16777215
370
     9
100
AcDbSpline
210
0.0
220
0.0
230
1.0
 70
    11
 71
     3
 72
    23
 73
    19
 74
     0
 42
0.0000000001
 43
0.0000000001
 12
1.0
 22
0.0
 32
0.0
 13
1.0
 23
0.0
 33
0.0
 40
0.0
 40
0.0
 40
0.0
 40
0.0
 40
1.0
 40
1.0
 40
1.0
 40
2.0
 40
2.0
 40
2.0
 40
3.0
 40
3.0
 40
3.0
 40
4.0
 40
4.0
 40
4.0
 40
5.0
 40
5.0
 40
5.0
 40
6.0
 40
6.0
 40
6.0
 40
6.0
 10
104.3753706704958
 20
-122.4397121916122
 30
0.0
 10
104.4353076134111
 20
-122.8448774692888
 30
0.0
 10
104.6785478849833
 20
-124.2831877467072
 30
0.0
 10
106.166141180365
 20
-124.9908246909744
 30
0.0
 10
107.6537344757466
 20
-125.6984263574641
 30
0.0
 10
110.1431460789031
 20
-125.3945788575403
 30
0.0
 10
110.4463232933907
 20
-125.3945788575403
 30
0.0
 10
109.9908871938987
 20
-125.9106574685222
 30
0.0
 10
95.26791868062402
 20
-143.6398221863122
 30
0.0
 10
95.0853209075047
 20
-143.882674408474
 30
0.0
 10
94.66018841835073
 20
-143.8523707973704
 30
0.0
 10
91.68570738312495
 20
-142.6683074643329
 30
0.0
 10
90.89590851438551
 20
-142.091586353366
 30
0.0
 10
90.10699159006802
 20
-141.5148652423992
 30
0.0
 10
89.72595632201126
 20
-140.2205588538337
 30
0.0
 10
89.62813331092642
 20
-139.5470355206687
 30
0.0
 10
90.10491020123223
 20
-138.9937388541403
 30
0.0
 10
104.3753706704958
 20
-122.4397121916122
 30
0.0
 10
104.3753706704958
 20
-122.4397121916122
 30
0.0
  0
SPLINE
  5
A2
330
1F
100
AcDbEntity
  8
_U+30EC_U+30A4_U+30E4_U+30FC 1
 62
     7
420
 16777215
370
     9
100
AcDbSpline
210
0.0
220
0.0
230
1.0
 70
    11
 71
     3
 72
    14
 73
    10
 74
     0
 42
0.0000000001
 43
0.0000000001
 12
1.0
 22
0.0
 32
0.0
 13
1.0
 23
0.0
 33
0.0
 40
0.0
 40
0.0
 40
0.0
 40
0.0
 40
1.0
 40
1.0
 40
1.0
 40
2.0
 40
2.0
 40
2.0
 40
3.0
 40
3.0
 40
3.0
 40
3.0
 10
110.4497452377478
 20
-125.4235419130884
 30
0.0
 10
110.4497452377478
 20
-125.4235419130884
 30
0.0
 10
104.4235953914877
 20
-122.7246508026522
 30
0.0
 10
104.4235953914877
 20
-122.7246508026522
 30
0.0
 10
104.5372956663647
 20
-123.2927288580659
 30
0.0
 10
104.8907437129031
 20
-124.4117046911192
 30
0.0
 10
106.1688928469614
 20
-125.0197524687451
 30
0.0
 10
107.6564888619747
 20
-125.7273894130126
 30
0.0
 10
110.1458977454996
 20
-125.4235419130884
 30
0.0
 10
110.4497452377478
 20
-125.4235419130884
 30
0.0
  0
SPLINE
  5
A3
330
1F
100
AcDbEntity
  8
_U+30EC_U+30A4_U+30E4_U+30FC 1
 62
     7
420
 16777215
370
     9
100
AcDbSpline
210
0.0
220
0.0
230
1.0
 70
    11
 71
     3
 72
    14
 73
    10
 74
     0
 42
0.0000000001
 43
0.0000000001
 12
1.0
 22
0.0
 32
0.0
 13
1.0
 23
0.0
 33
0.0
 40
0.0
 40
0.0
 40
0.0
 40
0.0
 40
1.0
 40
1.0
 40
1.0
 40
2.0
 40
2.0
 40
2.0
 40
3.0
 40
3.0
 40
3.0
 40
3.0
 10
94.94131942070912
 20
-143.8551224640362
 30
0.0
 10
94.34600453747734
 20
-143.6849424640785
 30
0.0
 10
93.02379346009864
 20
-143.1891838530918
 30
0.0
 10
92.01573331032952
 20
-142.70171551988
 30
0.0
 10
92.01573331032952
 20
-142.70171551988
 30
0.0
 10
91.50173608823569
 20
-143.4654794085783
 30
0.0
 10
91.50173608823569
 20
-143.4654794085783
 30
0.0
 10
91.50173608823569
 20
-143.4654794085783
 30
0.0
 10
94.41215275417474
 20
-143.8606257973684
 30
0.0
 10
94.94131942070912
 20
-143.8551224640362
 30
0.0
  0
POLYLINE
  5
A4
330
1F
100
AcDbEntity
  8
_U+30EC_U+30A4_U+30E4_U+30FC 1
 62
   179
420
  2234388
370
     9
100
AcDb2dPolyline
 66
     1
 10
0.0
 20
0.0
 30
0.0
  0
VERTEX
  5
A5
330
A4
100
AcDbEntity
  8
_U+30EC_U+30A4_U+30E4_U+30FC 1
 62
   179
420
  2234388
370
     9
100
AcDbVertex
100
AcDb2dVertex
 10
71.83490233400563
 20
-136.1453405215194
 30
0.0
  0
VERTEX
  5
A6
330
A4
100
AcDbEntity
  8
_U+30EC_U+30A4_U+30E4_U+30FC 1
 62
   179
420
  2234388
370
     9
100
AcDbVertex
100
AcDb2dVertex
 10
88.20943524958982
 20
-142.4953405199319
 30
0.0
  0
SEQEND
  5
A7
330
A4
100
AcDbEntity
  8
_U+30EC_U+30A4_U+30E4_U+30FC 1
 62
   179
420
  2234388
370
     9
  0
SPLINE
  5
A8
330
1F
100
AcDbEntity
  8
_U+30EC_U+30A4_U+30E4_U+30FC 1
 62
   179
420
  2234388
370
     9
100
AcDbSpline
210
0.0
220
0.0
230
1.0
 70
    11
 71
     3
 72
    17
 73
    13
 74
     0
 42
0.0000000001
 43
0.0000000001
 12
1.0
 22
0.0
 32
0.0
 13
1.0
 23
0.0
 33
0.0
 40
0.0
 40
0.0
 40
0.0
 40
0.0
 40
1.0
 40
1.0
 40
1.0
 40
2.0
 40
2.0
 40
2.0
 40
3.0
 40
3.0
 40
3.0
 40
4.0
 40
4.0
 40
4.0
 40
4.0
 10
74.60992281876452
 20
-137.3091191323395
 30
0.0
 10
74.66502670624759
 20
-137.3091191323395
 30
0.0
 10
74.70982948288234
 20
-137.2643163545728
 30
0.0
 10
74.70982948288234
 20
-137.2092124656978
 30
0.0
 10
74.70982948288234
 20
-137.1540732990448
 30
0.0
 10
74.66502670624759
 20
-137.1093057990562
 30
0.0
 10
74.60992281876452
 20
-137.1093057990562
 30
0.0
 10
74.55478365350456
 20
-137.1093057990562
 30
0.0
 10
74.51001615464668
 20
-137.1540732990448
 30
0.0
 10
74.51001615464668
 20
-137.2092124656978
 30
0.0
 10
74.51001615464668
 20
-137.2643163545728
 30
0.0
 10
74.55478365350456
 20
-137.3091191323395
 30
0.0
 10
74.60992281876452
 20
-137.3091191323395
 30
0.0
  0
HATCH
  5
A9
330
1F
100
AcDbEntity
  8
_U+30EC_U+30A4_U+30E4_U+30FC 1
 62
   179
420
  2234388
100
AcDbHatch
 10
0.0
 20
0.0
 30
0.0
210
0.0
220
0.0
230
1.0
  2
SOLID
 70
     1
 71
     0
 91
        1
 92
        1
 93
        1
 72
     4
 94
        3
 73
     0
 74
     1
 95
       17
 96
       13
 40
0.0
 40
0.0
 40
0.0
 40
0.0
 40
1.0
 40
1.0
 40
1.0
 40
2.0
 40
2.0
 40
2.0
 40
3.0
 40
3.0
 40
3.0
 40
4.0
 40
4.0
 40
4.0
 40
4.0
 10
74.60992281876452
 20
-137.3091191323395
 10
74.66502670624759
 20
-137.3091191323395
 10
74.70982948288234
 20
-137.2643163545728
 10
74.70982948288234
 20
-137.2092124656978
 10
74.70982948288234
 20
-137.1540732990448
 10
74.66502670624759
 20
-137.1093057990562
 10
74.60992281876452
 20
-137.1093057990562
 10
74.55478365350456
 20
-137.1093057990562
 10
74.51001615464668
 20
-137.1540732990448
 10
74.51001615464668
 20
-137.2092124656978
 10
74.51001615464668
 20
-137.2643163545728
 10
74.55478365350456
 20
-137.3091191323395
 10
74.60992281876452
 20
-137.3091191323395
 97
        0
 97
        0
 75
     2
 76
     1
 98
        0
  0
SPLINE
  5
AA
330
1F
100
AcDbEntity
  8
_U+30EC_U+30A4_U+30E4_U+30FC 1
 62
   179
420
  2234388
370
     9
100
AcDbSpline
210
0.0
220
0.0
230
1.0
 70
    11
 71
     3
 72
    17
 73
    13
 74
     0
 42
0.0000000001
 43
0.0000000001
 12
1.0
 22
0.0
 32
0.0
 13
1.0
 23
0.0
 33
0.0
 40
0.0
 40
0.0
 40
0.0
 40
0.0
 40
1.0
 40
1.0
 40
1.0
 40
2.0
 40
2.0
 40
2.0
 40
3.0
 40
3.0
 40
3.0
 40
4.0
 40
4.0
 40
4.0
 40
4.0
 10
90.6065249106572
 20
-122.288158858317
 30
0.0
 10
90.66166407591714
 20
-122.288158858317
 30
0.0
 10
90.70643157477502
 20
-122.2433560805503
 30
0.0
 10
90.70643157477502
 20
-122.188252191675
 30
0.0
 10
90.70643157477502
 20
-122.1331130250223
 30
0.0
 10
90.66166407591714
 20
-122.0883102472559
 30
0.0
 10
90.6065249106572
 20
-122.0883102472559
 30
0.0
 10
90.55142102317413
 20
-122.0883102472559
 30
0.0
 10
90.50661824653936
 20
-122.1331130250223
 30
0.0
 10
90.50661824653936
 20
-122.188252191675
 30
0.0
 10
90.50661824653936
 20
-122.2433560805503
 30
0.0
 10
90.55142102317413
 20
-122.288158858317
 30
0.0
 10
90.6065249106572
 20
-122.288158858317
 30
0.0
  0
HATCH
  5
AB
330
1F
100
AcDbEntity
  8
_U+30EC_U+30A4_U+30E4_U+30FC 1
 62
   179
420
  2234388
100
AcDbHatch
 10
0.0
 20
0.0
 30
0.0
210
0.0
220
0.0
230
1.0
  2
SOLID
 70
     1
 71
     0
 91
        1
 92
        1
 93
        1
 72
     4
 94
        3
 73
     0
 74
     1
 95
       17
 96
       13
 40
0.0
 40
0.0
 40
0.0
 40
0.0
 40
1.0
 40
1.0
 40
1.0
 40
2.0
 40
2.0
 40
2.0
 40
3.0
 40
3.0
 40
3.0
 40
4.0
 40
4.0
 40
4.0
 40
4.0
 10
90.6065249106572
 20
-122.288158858317
 10
90.66166407591714
 20
-122.288158858317
 10
90.70643157477502
 20
-122.2433560805503
 10
90.70643157477502
 20
-122.188252191675
 10
90.70643157477502
 20
-122.1331130250223
 10
90.66166407591714
 20
-122.0883102472559
 10
90.6065249106572
 20
-122.0883102472559
 10
90.55142102317413
 20
-122.0883102472559
 10
90.50661824653936
 20
-122.1331130250223
 10
90.50661824653936
 20
-122.188252191675
 10
90.50661824653936
 20
-122.2433560805503
 10
90.55142102317413
 20
-122.288158858317
 10
90.6065249106572
 20
-122.288158858317
 97
        0
 97
        0
 75
     2
 76
     1
 98
        0
  0
ENDSEC
  0
SECTION
  2
OBJECTS
  0
DICTIONARY
  5
C
330
0
100
AcDbDictionary
281
     1
  3
ACAD_GROUP
350
D
  3
ACAD_LAYOUT
350
1A
  3
ACAD_MATERIAL
350
3B
  3
ACAD_MLEADERSTYLE
350
AD
  3
ACAD_MLINESTYLE
350
17
  3
ACAD_PLOTSETTINGS
350
19
  3
ACAD_PLOTSTYLENAME
350
E
  3
ACAD_TABLESTYLE
350
AC
  3
ACAD_VISUALSTYLE
350
2A
  0
SUN
  5
3F
330
29
100
AcDbSun
 90
        1
290
     0
 63
     7
421
 16777215
 40
1.0
291
     1
 91
  2455826
 92
 54000000
292
     0
 70
     2
 71
   256
280
     1
  0
DICTIONARY
  5
D
102
{ACAD_REACTORS
330
C
102
}
330
C
100
AcDbDictionary
281
     1
  0
DICTIONARY
  5
1A
102
{ACAD_REACTORS
330
C
102
}
330
C
100
AcDbDictionary
281
     1
  3
Layout1
350
1E
  3
Layout2
350
26
  3
Model
350
22
  0
DICTIONARY
  5
3B
102
{ACAD_REACTORS
330
C
102
}
330
C
100
AcDbDictionary
281
     1
  3
ByBlock
350
3D
  3
ByLayer
350
3C
  3
Global
350
3E
  0
DICTIONARY
  5
AD
102
{ACAD_REACTORS
330
C
102
}
330
C
100
AcDbDictionary
281
     1
  0
DICTIONARY
  5
17
102
{ACAD_REACTORS
330
C
102
}
330
C
100
AcDbDictionary
281
     1
  3
Standard
350
18
  0
DICTIONARY
  5
19
102
{ACAD_REACTORS
330
C
102
}
330
C
100
AcDbDictionary
281
     1
  0
ACDBDICTIONARYWDFLT
  5
E
102
{ACAD_REACTORS
330
C
102
}
330
C
100
AcDbDictionary
281
     1
  3
Normal
350
F
100
AcDbDictionaryWithDefault
340
F
  0
DICTIONARY
  5
AC
102
{ACAD_REACTORS
330
C
102
}
330
C
100
AcDbDictionary
281
     1
  0
DICTIONARY
  5
2A
102
{ACAD_REACTORS
330
C
102
}
330
C
100
AcDbDictionary
281
     1
  3
2dWireframe
350
2F
  3
3D Hidden
350
31
  3
3dWireframe
350
30
  3
Basic
350
32
  3
Brighten
350
36
  3
ColorChange
350
3A
  3
Conceptual
350
34
  3
Dim
350
35
  3
Facepattern
350
39
  3
Flat
350
2B
  3
FlatWithEdges
350
2C
  3
Gouraud
350
2D
  3
GouraudWithEdges
350
2E
  3
Linepattern
350
38
  3
Realistic
350
33
  3
Thicken
350
37
  0
LAYOUT
  5
1E
102
{ACAD_REACTORS
330
1A
102
}
330
1A
100
AcDbPlotSettings
  1

  2
none_device
  4

  6

 40
0.0
 41
0.0
 42
0.0
 43
0.0
 44
0.0
 45
0.0
 46
0.0
 47
0.0
 48
0.0
 49
0.0
140
0.0
141
0.0
142
1.0
143
1.0
 70
   688
 72
     0
 73
     0
 74
     5
  7

 75
    16
 76
     0
 77
     2
 78
   300
147
1.0
148
0.0
149
0.0
100
AcDbLayout
  1
Layout1
 70
     1
 71
     1
 10
0.0
 20
0.0
 11
12.0
 21
9.0
 12
0.0
 22
0.0
 32
0.0
 14
1.000000000000000E+20
 24
1.000000000000000E+20
 34
1.000000000000000E+20
 15
-1.000000000000000E+20
 25
-1.000000000000000E+20
 35
-1.000000000000000E+20
146
0.0
 13
0.0
 23
0.0
 33
0.0
 16
1.0
 26
0.0
 36
0.0
 17
0.0
 27
1.0
 37
0.0
 76
     0
330
1B
  0
LAYOUT
  5
26
102
{ACAD_REACTORS
330
1A
102
}
330
1A
100
AcDbPlotSettings
  1

  2
none_device
  4

  6

 40
0.0
 41
0.0
 42
0.0
 43
0.0
 44
0.0
 45
0.0
 46
0.0
 47
0.0
 48
0.0
 49
0.0
140
0.0
141
0.0
142
1.0
143
1.0
 70
   688
 72
     0
 73
     0
 74
     5
  7

 75
    16
 76
     0
 77
     2
 78
   300
147
1.0
148
0.0
149
0.0
100
AcDbLayout
  1
Layout2
 70
     1
 71
     2
 10
0.0
 20
0.0
 11
0.0
 21
0.0
 12
0.0
 22
0.0
 32
0.0
 14
0.0
 24
0.0
 34
0.0
 15
0.0
 25
0.0
 35
0.0
146
0.0
 13
0.0
 23
0.0
 33
0.0
 16
1.0
 26
0.0
 36
0.0
 17
0.0
 27
1.0
 37
0.0
 76
     0
330
23
  0
LAYOUT
  5
22
102
{ACAD_REACTORS
330
1A
102
}
330
1A
100
AcDbPlotSettings
  1

  2
none_device
  4

  6

 40
0.0
 41
0.0
 42
0.0
 43
0.0
 44
0.0
 45
0.0
 46
0.0
 47
0.0
 48
0.0
 49
0.0
140
0.0
141
0.0
142
1.0
143
1.0
 70
  1712
 72
     0
 73
     0
 74
     0
  7

 75
     0
 76
     0
 77
     2
 78
   300
147
1.0
148
0.0
149
0.0
100
AcDbLayout
  1
Model
 70
     1
 71
     0
 10
0.0
 20
0.0
 11
12.0
 21
9.0
 12
0.0
 22
0.0
 32
0.0
 14
1.000000000000000E+20
 24
1.000000000000000E+20
 34
1.000000000000000E+20
 15
-1.000000000000000E+20
 25
-1.000000000000000E+20
 35
-1.000000000000000E+20
146
0.0
 13
0.0
 23
0.0
 33
0.0
 16
1.0
 26
0.0
 36
0.0
 17
0.0
 27
1.0
 37
0.0
 76
     0
330
1F
331
29
  0
MATERIAL
  5
3D
102
{ACAD_REACTORS
330
3B
102
}
330
3B
100
AcDbMaterial
  1
ByBlock
 72
     1
 94
      127
  0
MATERIAL
  5
3C
102
{ACAD_REACTORS
330
3B
102
}
330
3B
100
AcDbMaterial
  1
ByLayer
 72
     1
 94
      127
  0
MATERIAL
  5
3E
102
{ACAD_REACTORS
330
3B
102
}
330
3B
100
AcDbMaterial
  1
Global
 72
     1
 94
      127
  0
MLINESTYLE
  5
18
102
{ACAD_REACTORS
330
17
102
}
330
17
100
AcDbMlineStyle
  2
Standard
 70
     0
  3

 62
   256
 51
90.0
 52
90.0
 71
     2
 49
0.5
 62
   256
  6
BYLAYER
 49
-0.5
 62
   256
  6
BYLAYER
  0
ACDBPLACEHOLDER
  5
F
102
{ACAD_REACTORS
330
E
102
}
330
E
  0
VISUALSTYLE
  5
2F
102
{ACAD_REACTORS
330
2A
102
}
330
2A
100
AcDbVisualStyle
  2
2dWireframe
 70
     4
177
     2
291
     0
 71
     0
176
     1
 72
     2
176
     1
 73
     0
176
     1
 90
        0
176
     1
 40
-0.6
176
     1
 41
-30.0
176
     1
 62
     5
 63
     7
421
 16777215
176
     1
 74
     1
176
     1
 91
        4
176
     1
 64
     7
176
     1
 65
   257
176
     1
 75
     1
176
     1
175
     1
176
     1
 42
1.0
176
     1
 92
        0
176
     1
 66
   257
176
     1
 43
1.0
176
     1
 76
     1
176
     1
 77
     6
176
     1
 78
     2
176
     1
 67
     7
176
     1
 79
     5
176
     1
170
     0
176
     1
171
     0
176
     1
290
     0
176
     1
 93
        1
176
     1
 44
0.0
176
     1
173
     0
176
     1
  0
VISUALSTYLE
  5
31
102
{ACAD_REACTORS
330
2A
102
}
330
2A
100
AcDbVisualStyle
  2
3D Hidden
 70
     6
177
     2
291
     0
 71
     1
176
     1
 72
     2
176
     1
 73
     2
176
     1
 90
        0
176
     1
 40
-0.6
176
     1
 41
-30.0
176
     1
 62
     5
 63
     7
421
 16777215
176
     1
 74
     2
176
     1
 91
        2
176
     1
 64
     7
176
     1
 65
   257
176
     1
 75
     2
176
     1
175
     1
176
     1
 42
40.0
176
     1
 92
        0
176
     1
 66
   257
176
     1
 43
1.0
176
     1
 76
     1
176
     1
 77
     6
176
     1
 78
     2
176
     1
 67
     7
176
     1
 79
     3
176
     1
170
     0
176
     1
171
     0
176
     1
290
     0
176
     1
 93
        1
176
     1
 44
0.0
176
     1
173
     0
176
     1
  0
VISUALSTYLE
  5
30
102
{ACAD_REACTORS
330
2A
102
}
330
2A
100
AcDbVisualStyle
  2
3dWireframe
 70
     5
177
     2
291
     0
 71
     0
176
     1
 72
     2
176
     1
 73
     0
176
     1
 90
        0
176
     1
 40
-0.6
176
     1
 41
-30.0
176
     1
 62
     5
 63
     7
421
 16777215
176
     1
 74
     1
176
     1
 91
        4
176
     1
 64
     7
176
     1
 65
   257
176
     1
 75
     1
176
     1
175
     1
176
     1
 42
1.0
176
     1
 92
        0
176
     1
 66
   257
176
     1
 43
1.0
176
     1
 76
     1
176
     1
 77
     6
176
     1
 78
     2
176
     1
 67
     7
176
     1
 79
     5
176
     1
170
     0
176
     1
171
     0
176
     1
290
     0
176
     1
 93
        1
176
     1
 44
0.0
176
     1
173
     0
176
     1
  0
VISUALSTYLE
  5
32
102
{ACAD_REACTORS
330
2A
102
}
330
2A
100
AcDbVisualStyle
  2
Basic
 70
     7
177
     2
291
     1
 71
     1
176
     1
 72
     0
176
     1
 73
     1
176
     1
 90
        0
176
     1
 40
-0.6
176
     1
 41
-30.0
176
     1
 62
     5
 63
     7
421
 16777215
176
     1
 74
     0
176
     1
 91
        4
176
     1
 64
     7
176
     1
 65
   257
176
     1
 75
     1
176
     1
175
     1
176
     1
 42
1.0
176
     1
 92
        8
176
     1
 66
     7
176
     1
 43
1.0
176
     1
 76
     1
176
     1
 77
     6
176
     1
 78
     2
176
     1
 67
     7
176
     1
 79
     5
176
     1
170
     0
176
     1
171
     0
176
     1
290
     0
176
     1
 93
        1
176
     1
 44
0.0
176
     1
173
     0
176
     1
  0
VISUALSTYLE
  5
36
102
{ACAD_REACTORS
330
2A
102
}
330
2A
100
AcDbVisualStyle
  2
Brighten
 70
    12
177
     2
291
     1
 71
     2
176
     1
 72
     2
176
     1
 73
     0
176
     1
 90
        0
176
     1
 40
-0.6
176
     1
 41
-30.0
176
     1
 62
     5
 63
     7
421
 16777215
176
     1
 74
     1
176
     1
 91
        4
176
     1
 64
     7
176
     1
 65
   257
176
     1
 75
     1
176
     1
175
     1
176
     1
 42
1.0
176
     1
 92
        8
176
     1
 66
     7
176
     1
 43
1.0
176
     1
 76
     1
176
     1
 77
     6
176
     1
 78
     2
176
     1
 67
     7
176
     1
 79
     5
176
     1
170
     0
176
     1
171
     0
176
     1
290
     0
176
     1
 93
        1
176
     1
 44
50.0
176
     1
173
     0
176
     1
  0
VISUALSTYLE
  5
3A
102
{ACAD_REACTORS
330
2A
102
}
330
2A
100
AcDbVisualStyle
  2
ColorChange
 70
    16
177
     2
291
     1
 71
     2
176
     1
 72
     2
176
     1
 73
     3
176
     1
 90
        0
176
     1
 40
-0.6
176
     1
 41
-30.0
176
     1
 62
     5
 63
     8
421
  8421504
176
     1
 74
     1
176
     1
 91
        4
176
     1
 64
     7
176
     1
 65
   257
176
     1
 75
     1
176
     1
175
     1
176
     1
 42
1.0
176
     1
 92
        8
176
     1
 66
     8
424
  8421504
176
     1
 43
1.0
176
     1
 76
     1
176
     1
 77
     6
176
     1
 78
     2
176
     1
 67
     7
176
     1
 79
     5
176
     1
170
     0
176
     1
171
     0
176
     1
290
     0
176
     1
 93
        1
176
     1
 44
0.0
176
     1
173
     0
176
     1
  0
VISUALSTYLE
  5
34
102
{ACAD_REACTORS
330
2A
102
}
330
2A
100
AcDbVisualStyle
  2
Conceptual
 70
     9
177
     2
291
     0
 71
     3
176
     1
 72
     2
176
     1
 73
     0
176
     1
 90
        0
176
     1
 40
-0.6
176
     1
 41
-30.0
176
     1
 62
     5
 63
     7
421
 16777215
176
     1
 74
     2
176
     1
 91
        2
176
     1
 64
     7
176
     1
 65
   257
176
     1
 75
     1
176
     1
175
     1
176
     1
 42
40.0
176
     1
 92
        8
176
     1
 66
     7
176
     1
 43
1.0
176
     1
 76
     1
176
     1
 77
     6
176
     1
 78
     2
176
     1
 67
     7
176
     1
 79
     3
176
     1
170
     0
176
     1
171
     0
176
     1
290
     0
176
     1
 93
        1
176
     1
 44
0.0
176
     1
173
     0
176
     1
  0
VISUALSTYLE
  5
35
102
{ACAD_REACTORS
330
2A
102
}
330
2A
100
AcDbVisualStyle
  2
Dim
 70
    11
177
     2
291
     1
 71
     2
176
     1
 72
     2
176
     1
 73
     0
176
     1
 90
        0
176
     1
 40
-0.6
176
     1
 41
-30.0
176
     1
 62
     5
 63
     7
421
 16777215
176
     1
 74
     1
176
     1
 91
        4
176
     1
 64
     7
176
     1
 65
   257
176
     1
 75
     1
176
     1
175
     1
176
     1
 42
1.0
176
     1
 92
        8
176
     1
 66
     7
176
     1
 43
1.0
176
     1
 76
     1
176
     1
 77
     6
176
     1
 78
     2
176
     1
 67
     7
176
     1
 79
     5
176
     1
170
     0
176
     1
171
     0
176
     1
290
     0
176
     1
 93
        1
176
     1
 44
-50.0
176
     1
173
     0
176
     1
  0
VISUALSTYLE
  5
39
102
{ACAD_REACTORS
330
2A
102
}
330
2A
100
AcDbVisualStyle
  2
Facepattern
 70
    15
177
     2
291
     1
 71
     2
176
     1
 72
     2
176
     1
 73
     0
176
     1
 90
        0
176
     1
 40
-0.6
176
     1
 41
-30.0
176
     1
 62
     5
 63
     7
421
 16777215
176
     1
 74
     1
176
     1
 91
        4
176
     1
 64
     7
176
     1
 65
   257
176
     1
 75
     1
176
     1
175
     1
176
     1
 42
1.0
176
     1
 92
        8
176
     1
 66
     7
176
     1
 43
1.0
176
     1
 76
     1
176
     1
 77
     6
176
     1
 78
     2
176
     1
 67
     7
176
     1
 79
     5
176
     1
170
     0
176
     1
171
     0
176
     1
290
     0
176
     1
 93
        1
176
     1
 44
0.0
176
     1
173
     0
176
     1
  0
VISUALSTYLE
  5
2B
102
{ACAD_REACTORS
330
2A
102
}
330
2A
100
AcDbVisualStyle
  2
Flat
 70
     0
177
     2
291
     1
 71
     2
176
     1
 72
     1
176
     1
 73
     1
176
     1
 90
        2
176
     1
 40
-0.6
176
     1
 41
30.0
176
     1
 62
     5
 63
     7
421
 16777215
176
     1
 74
     0
176
     1
 91
        4
176
     1
 64
     7
176
     1
 65
   257
176
     1
 75
     1
176
     1
175
     1
176
     1
 42
1.0
176
     1
 92
        8
176
     1
 66
     7
176
     1
 43
1.0
176
     1
 76
     1
176
     1
 77
     6
176
     1
 78
     2
176
     1
 67
     7
176
     1
 79
     5
176
     1
170
     0
176
     1
171
     0
176
     1
290
     0
176
     1
 93
       13
176
     1
 44
0.0
176
     1
173
     0
176
     1
  0
VISUALSTYLE
  5
2C
102
{ACAD_REACTORS
330
2A
102
}
330
2A
100
AcDbVisualStyle
  2
FlatWithEdges
 70
     1
177
     2
291
     1
 71
     2
176
     1
 72
     1
176
     1
 73
     1
176
     1
 90
        2
176
     1
 40
-0.6
176
     1
 41
30.0
176
     1
 62
     5
 63
     7
421
 16777215
176
     1
 74
     1
176
     1
 91
        4
176
     1
 64
     7
176
     1
 65
   257
176
     1
 75
     1
176
     1
175
     1
176
     1
 42
1.0
176
     1
 92
        0
176
     1
 66
   257
176
     1
 43
1.0
176
     1
 76
     1
176
     1
 77
     6
176
     1
 78
     2
176
     1
 67
     7
176
     1
 79
     5
176
     1
170
     0
176
     1
171
     0
176
     1
290
     0
176
     1
 93
       13
176
     1
 44
0.0
176
     1
173
     0
176
     1
  0
VISUALSTYLE
  5
2D
102
{ACAD_REACTORS
330
2A
102
}
330
2A
100
AcDbVisualStyle
  2
Gouraud
 70
     2
177
     2
291
     1
 71
     2
176
     1
 72
     2
176
     1
 73
     1
176
     1
 90
        2
176
     1
 40
-0.6
176
     1
 41
30.0
176
     1
 62
     5
 63
     7
421
 16777215
176
     1
 74
     0
176
     1
 91
        4
176
     1
 64
     7
176
     1
 65
   257
176
     1
 75
     1
176
     1
175
     1
176
     1
 42
1.0
176
     1
 92
        0
176
     1
 66
     7
176
     1
 43
1.0
176
     1
 76
     1
176
     1
 77
     6
176
     1
 78
     2
176
     1
 67
     7
176
     1
 79
     5
176
     1
170
     0
176
     1
171
     0
176
     1
290
     0
176
     1
 93
       13
176
     1
 44
0.0
176
     1
173
     0
176
     1
  0
VISUALSTYLE
  5
2E
102
{ACAD_REACTORS
330
2A
102
}
330
2A
100
AcDbVisualStyle
  2
GouraudWithEdges
 70
     3
177
     2
291
     1
 71
     2
176
     1
 72
     2
176
     1
 73
     1
176
     1
 90
        2
176
     1
 40
-0.6
176
     1
 41
30.0
176
     1
 62
     5
 63
     7
421
 16777215
176
     1
 74
     1
176
     1
 91
        4
176
     1
 64
     7
176
     1
 65
   257
176
     1
 75
     1
176
     1
175
     1
176
     1
 42
1.0
176
     1
 92
        0
176
     1
 66
   257
176
     1
 43
1.0
176
     1
 76
     1
176
     1
 77
     6
176
     1
 78
     2
176
     1
 67
     7
176
     1
 79
     5
176
     1
170
     0
176
     1
171
     0
176
     1
290
     0
176
     1
 93
       13
176
     1
 44
0.0
176
     1
173
     0
176
     1
  0
VISUALSTYLE
  5
38
102
{ACAD_REACTORS
330
2A
102
}
330
2A
100
AcDbVisualStyle
  2
Linepattern
 70
    14
177
     2
291
     1
 71
     2
176
     1
 72
     2
176
     1
 73
     0
176
     1
 90
        0
176
     1
 40
-0.6
176
     1
 41
-30.0
176
     1
 62
     5
 63
     7
421
 16777215
176
     1
 74
     1
176
     1
 91
        4
176
     1
 64
     7
176
     1
 65
   257
176
     1
 75
     7
176
     1
175
     7
176
     1
 42
1.0
176
     1
 92
        8
176
     1
 66
     7
176
     1
 43
1.0
176
     1
 76
     1
176
     1
 77
     6
176
     1
 78
     2
176
     1
 67
     7
176
     1
 79
     5
176
     1
170
     0
176
     1
171
     0
176
     1
290
     0
176
     1
 93
        1
176
     1
 44
0.0
176
     1
173
     0
176
     1
  0
VISUALSTYLE
  5
33
102
{ACAD_REACTORS
330
2A
102
}
330
2A
100
AcDbVisualStyle
  2
Realistic
 70
     8
177
     2
291
     0
 71
     2
176
     1
 72
     2
176
     1
 73
     0
176
     1
 90
        0
176
     1
 40
-0.6
176
     1
 41
-30.0
176
     1
 62
     5
 63
     7
421
 16777215
176
     1
 74
     1
176
     1
 91
        0
176
     1
 64
     7
176
     1
 65
   257
176
     1
 75
     1
176
     1
175
     1
176
     1
 42
1.0
176
     1
 92
        8
176
     1
 66
     8
424
  7895160
176
     1
 43
1.0
176
     1
 76
     1
176
     1
 77
     6
176
     1
 78
     2
176
     1
 67
     7
176
     1
 79
     5
176
     1
170
     0
176
     1
171
     0
176
     1
290
     0
176
     1
 93
       13
176
     1
 44
0.0
176
     1
173
     0
176
     1
  0
VISUALSTYLE
  5
37
102
{ACAD_REACTORS
330
2A
102
}
330
2A
100
AcDbVisualStyle
  2
Thicken
 70
    13
177
     2
291
     1
 71
     2
176
     1
 72
     2
176
     1
 73
     0
176
     1
 90
        0
176
     1
 40
-0.6
176
     1
 41
-30.0
176
     1
 62
     5
 63
     7
421
 16777215
176
     1
 74
     1
176
     1
 91
        4
176
     1
 64
     7
176
     1
 65
   257
176
     1
 75
     1
176
     1
175
     1
176
     1
 42
1.0
176
     1
 92
       12
176
     1
 66
     7
176
     1
 43
1.0
176
     1
 76
     1
176
     1
 77
     6
176
     1
 78
     2
176
     1
 67
     7
176
     1
 79
     5
176
     1
170
     0
176
     1
171
     0
176
     1
290
     0
176
     1
 93
        1
176
     1
 44
0.0
176
     1
173
     0
176
     1
  0
ENDSEC
  0
EOF
