  0
SECTION
  2
HEADER
  9
$ACADVER
  1
AC1024
  9
$ACADMAINTVER
 70
     6
  9
$DWGCODEPAGE
  3
UNDEFINED
  9
$INSBASE
 10
0.0
 20
0.0
 30
0.0
  9
$EXTMIN
 10
1.000000000000000E+20
 20
1.000000000000000E+20
 30
1.000000000000000E+20
  9
$EXTMAX
 10
-1.000000000000000E+20
 20
-1.000000000000000E+20
 30
-1.000000000000000E+20
  9
$LIMMIN
 10
0.0
 20
0.0
  9
$LIMMAX
 10
12.0
 20
9.0
  9
$ORTHOMODE
 70
     0
  9
$REGENMODE
 70
     1
  9
$FILLMODE
 70
     1
  9
$QTEXTMODE
 70
     0
  9
$MIRRTEXT
 70
     1
  9
$LTSCALE
 40
1.0
  9
$ATTMODE
 70
     1
  9
$TEXTSIZE
 40
0.2
  9
$TRACEWID
 40
0.05
  9
$TEXTSTYLE
  7
Standard
  9
$CLAYER
  8
0
  9
$CELTYPE
  6
ByLayer
  9
$CECOLOR
 62
   256
  9
$CELTSCALE
 40
1.0
  9
$DISPSILH
 70
     0
  9
$DIMSCALE
 40
1.0
  9
$DIMASZ
 40
0.18
  9
$DIMEXO
 40
0.0625
  9
$DIMDLI
 40
0.38
  9
$DIMRND
 40
0.0
  9
$DIMDLE
 40
0.0
  9
$DIMEXE
 40
0.18
  9
$DIMTP
 40
0.0
  9
$DIMTM
 40
0.0
  9
$DIMTXT
 40
0.18
  9
$DIMCEN
 40
0.09
  9
$DIMTSZ
 40
0.0
  9
$DIMTOL
 70
     0
  9
$DIMLIM
 70
     0
  9
$DIMTIH
 70
     1
  9
$DIMTOH
 70
     1
  9
$DIMSE1
 70
     0
  9
$DIMSE2
 70
     0
  9
$DIMTAD
 70
     0
  9
$DIMZIN
 70
     0
  9
$DIMBLK
  1

  9
$DIMASO
 70
     1
  9
$DIMSHO
 70
     1
  9
$DIMPOST
  1

  9
$DIMAPOST
  1

  9
$DIMALT
 70
     0
  9
$DIMALTD
 70
     2
  9
$DIMALTF
 40
25.4
  9
$DIMLFAC
 40
1.0
  9
$DIMTOFL
 70
     0
  9
$DIMTVP
 40
0.0
  9
$DIMTIX
 70
     0
  9
$DIMSOXD
 70
     0
  9
$DIMSAH
 70
     0
  9
$DIMBLK1
  1

  9
$DIMBLK2
  1

  9
$DIMSTYLE
  2
Standard
  9
$DIMCLRD
 70
     0
  9
$DIMCLRE
 70
     0
  9
$DIMCLRT
 70
     0
  9
$DIMTFAC
 40
1.0
  9
$DIMGAP
 40
0.09
  9
$DIMJUST
 70
     0
  9
$DIMSD1
 70
     0
  9
$DIMSD2
 70
     0
  9
$DIMTOLJ
 70
     1
  9
$DIMTZIN
 70
     0
  9
$DIMALTZ
 70
     0
  9
$DIMALTTZ
 70
     0
  9
$DIMUPT
 70
     0
  9
$DIMDEC
 70
     4
  9
$DIMTDEC
 70
     4
  9
$DIMALTU
 70
     2
  9
$DIMALTTD
 70
     2
  9
$DIMTXSTY
  7
Standard
  9
$DIMAUNIT
 70
     0
  9
$DIMADEC
 70
     0
  9
$DIMALTRND
 40
0.0
  9
$DIMAZIN
 70
     0
  9
$DIMDSEP
 70
    46
  9
$DIMATFIT
 70
     3
  9
$DIMFRAC
 70
     0
  9
$DIMLDRBLK
  1

  9
$DIMLUNIT
 70
     2
  9
$DIMLWD
 70
    -2
  9
$DIMLWE
 70
    -2
  9
$DIMTMOVE
 70
     0
  9
$DIMFXL
 40
1.0
  9
$DIMFXLON
 70
     0
  9
$DIMJOGANG
 40
0.7853981633974483
  9
$DIMTFILL
 70
     0
  9
$DIMTFILLCLR
 70
     0
  9
$DIMARCSYM
 70
     0
  9
$DIMLTYPE
  6

  9
$DIMLTEX1
  6

  9
$DIMLTEX2
  6

  9
$DIMTXTDIRECTION
 70
     0
  9
$LUNITS
 70
     2
  9
$LUPREC
 70
     4
  9
$SKETCHINC
 40
0.1
  9
$FILLETRAD
 40
0.5
  9
$AUNITS
 70
     0
  9
$AUPREC
 70
     0
  9
$MENU
  1
.
  9
$ELEVATION
 40
0.0
  9
$PELEVATION
 40
0.0
  9
$THICKNESS
 40
0.0
  9
$LIMCHECK
 70
     0
  9
$CHAMFERA
 40
0.5
  9
$CHAMFERB
 40
0.5
  9
$CHAMFERC
 40
1.0
  9
$CHAMFERD
 40
0.0
  9
$SKPOLY
 70
     0
  9
$TDCREATE
 40
2457917.617546285
  9
$TDUCREATE
 40
2457917.242546296
  9
$TDUPDATE
 40
2457917.617546285
  9
$TDUUPDATE
 40
2457917.242546296
  9
$TDINDWG
 40
0.0000000116
  9
$TDUSRTIMER
 40
0.0000000116
  9
$USRTIMER
 70
     1
  9
$ANGBASE
 50
0.0
  9
$ANGDIR
 70
     0
  9
$PDMODE
 70
     0
  9
$PDSIZE
 40
0.0
  9
$PLINEWID
 40
0.0
  9
$SPLFRAME
 70
     0
  9
$SPLINETYPE
 70
     6
  9
$SPLINESEGS
 70
     8
  9
$HANDSEED
  5
F3
  9
$SURFTAB1
 70
     6
  9
$SURFTAB2
 70
     6
  9
$SURFTYPE
 70
     6
  9
$SURFU
 70
     6
  9
$SURFV
 70
     6
  9
$UCSBASE
  2

  9
$UCSNAME
  2

  9
$UCSORG
 10
0.0
 20
0.0
 30
0.0
  9
$UCSXDIR
 10
1.0
 20
0.0
 30
0.0
  9
$UCSYDIR
 10
0.0
 20
1.0
 30
0.0
  9
$UCSORTHOREF
  2

  9
$UCSORTHOVIEW
 70
     0
  9
$UCSORGTOP
 10
0.0
 20
0.0
 30
0.0
  9
$UCSORGBOTTOM
 10
0.0
 20
0.0
 30
0.0
  9
$UCSORGLEFT
 10
0.0
 20
0.0
 30
0.0
  9
$UCSORGRIGHT
 10
0.0
 20
0.0
 30
0.0
  9
$UCSORGFRONT
 10
0.0
 20
0.0
 30
0.0
  9
$UCSORGBACK
 10
0.0
 20
0.0
 30
0.0
  9
$PUCSBASE
  2

  9
$PUCSNAME
  2

  9
$PUCSORG
 10
0.0
 20
0.0
 30
0.0
  9
$PUCSXDIR
 10
1.0
 20
0.0
 30
0.0
  9
$PUCSYDIR
 10
0.0
 20
1.0
 30
0.0
  9
$PUCSORTHOREF
  2

  9
$PUCSORTHOVIEW
 70
     0
  9
$PUCSORGTOP
 10
0.0
 20
0.0
 30
0.0
  9
$PUCSORGBOTTOM
 10
0.0
 20
0.0
 30
0.0
  9
$PUCSORGLEFT
 10
0.0
 20
0.0
 30
0.0
  9
$PUCSORGRIGHT
 10
0.0
 20
0.0
 30
0.0
  9
$PUCSORGFRONT
 10
0.0
 20
0.0
 30
0.0
  9
$PUCSORGBACK
 10
0.0
 20
0.0
 30
0.0
  9
$USERI1
 70
     0
  9
$USERI2
 70
     0
  9
$USERI3
 70
     0
  9
$USERI4
 70
     0
  9
$USERI5
 70
     0
  9
$USERR1
 40
0.0
  9
$USERR2
 40
0.0
  9
$USERR3
 40
0.0
  9
$USERR4
 40
0.0
  9
$USERR5
 40
0.0
  9
$WORLDVIEW
 70
     1
  9
$SHADEDGE
 70
     3
  9
$SHADEDIF
 70
    70
  9
$TILEMODE
 70
     1
  9
$MAXACTVP
 70
    64
  9
$PINSBASE
 10
0.0
 20
0.0
 30
0.0
  9
$PLIMCHECK
 70
     0
  9
$PEXTMIN
 10
1.000000000000000E+20
 20
1.000000000000000E+20
 30
1.000000000000000E+20
  9
$PEXTMAX
 10
-1.000000000000000E+20
 20
-1.000000000000000E+20
 30
-1.000000000000000E+20
  9
$PLIMMIN
 10
0.0
 20
0.0
  9
$PLIMMAX
 10
12.0
 20
9.0
  9
$UNITMODE
 70
     0
  9
$VISRETAIN
 70
     1
  9
$PLINEGEN
 70
     0
  9
$PSLTSCALE
 70
     1
  9
$TREEDEPTH
 70
  3020
  9
$CMLSTYLE
  2
Standard
  9
$CMLJUST
 70
     0
  9
$CMLSCALE
 40
1.0
  9
$PROXYGRAPHICS
 70
     1
  9
$MEASUREMENT
 70
     0
  9
$CELWEIGHT
370
    -1
  9
$ENDCAPS
280
     0
  9
$JOINSTYLE
280
     0
  9
$LWDISPLAY
290
     1
  9
$INSUNITS
 70
     1
  9
$HYPERLINKBASE
  1

  9
$STYLESHEET
  1

  9
$XEDIT
290
     1
  9
$CEPSNTYPE
380
     0
  9
$PSTYLEMODE
290
     1
  9
$FINGERPRINTGUID
  2
{3C87EEA6-630C-4F03-DF19-A3D07AFD4AFA}
  9
$VERSIONGUID
  2
{FAEB1C32-E019-11D5-929B-00C0DF256EC4}
  9
$EXTNAMES
290
     1
  9
$PSVPSCALE
 40
0.0
  9
$OLESTARTUP
290
     0
  9
$SORTENTS
280
   127
  9
$INDEXCTL
280
     0
  9
$HIDETEXT
280
     1
  9
$XCLIPFRAME
280
     2
  9
$HALOGAP
280
     0
  9
$OBSCOLOR
 70
   257
  9
$OBSLTYPE
280
     0
  9
$INTERSECTIONDISPLAY
280
     0
  9
$INTERSECTIONCOLOR
 70
   257
  9
$DIMASSOC
280
     2
  9
$PROJECTNAME
  1

  9
$CAMERADISPLAY
290
     0
  9
$LENSLENGTH
 40
50.0
  9
$CAMERAHEIGHT
 40
0.0
  9
$STEPSPERSEC
 40
2.0
  9
$STEPSIZE
 40
6.0
  9
$3DDWFPREC
 40
2.0
  9
$PSOLWIDTH
 40
0.25
  9
$PSOLHEIGHT
 40
4.0
  9
$LOFTANG1
 40
1.570796326794897
  9
$LOFTANG2
 40
1.570796326794897
  9
$LOFTMAG1
 40
0.0
  9
$LOFTMAG2
 40
0.0
  9
$LOFTPARAM
 70
     7
  9
$LOFTNORMALS
280
     1
  9
$LATITUDE
 40
37.795
  9
$LONGITUDE
 40
-122.394
  9
$NORTHDIRECTION
 40
0.0
  9
$TIMEZONE
 70
 -8000
  9
$LIGHTGLYPHDISPLAY
280
     1
  9
$TILEMODELIGHTSYNCH
280
     1
  9
$CMATERIAL
347
3C
  9
$SOLIDHIST
280
     1
  9
$SHOWHIST
280
     1
  9
$DWFFRAME
280
     2
  9
$DGNFRAME
280
     2
  9
$REALWORLDSCALE
290
     1
  9
$INTERFERECOLOR
 62
   256
  9
$CSHADOW
280
     0
  9
$SHADOWPLANELOCATION
 40
0.0
  0
ENDSEC
  0
SECTION
  2
CLASSES
  0
CLASS
  1
ACDBDICTIONARYWDFLT
  2
AcDbDictionaryWithDefault
  3
ObjectDBX Classes
 90
        0
 91
        4
280
     0
281
     0
  0
CLASS
  1
VISUALSTYLE
  2
AcDbVisualStyle
  3
ObjectDBX Classes
 90
     4095
 91
        4
280
     0
281
     0
  0
CLASS
  1
MATERIAL
  2
AcDbMaterial
  3
ObjectDBX Classes
 90
     1153
 91
        4
280
     0
281
     0
  0
CLASS
  1
SUN
  2
AcDbSun
  3
SCENEOE
 90
     1024
 91
        4
280
     0
281
     0
  0
ENDSEC
  0
SECTION
  2
TABLES
  0
TABLE
  2
VPORT
  5
8
330
0
100
AcDbSymbolTable
 70
     1
  0
VPORT
  5
29
330
8
100
AcDbSymbolTableRecord
100
AcDbViewportTableRecord
  2
*Active
 70
     0
 10
0.0
 20
0.0
 11
1.0
 21
1.0
 12
0.0
 22
0.0
 13
0.0
 23
0.0
 14
0.5
 24
0.5
 15
0.5
 25
0.5
 16
0.0
 26
0.0
 36
1.0
 17
91.00082462281999
 27
-128.4993055234307
 37
0.0
 40
256.9986110468615
 41
0.7081814508812795
 42
50.0
 43
0.0
 44
0.0
 50
0.0
 51
0.0
 71
     0
 72
   100
 73
     1
 74
     3
 75
     0
 76
     0
 77
     0
 78
     0
281
     0
 65
     1
110
0.0
120
0.0
130
0.0
111
1.0
121
0.0
131
0.0
112
0.0
122
1.0
132
0.0
 79
     0
146
0.0
 60
     3
 61
     5
292
     1
282
     1
141
0.0
142
0.0
 63
   250
361
3F
  0
ENDTAB
  0
TABLE
  2
LTYPE
  5
5
330
0
100
AcDbSymbolTable
 70
     1
  0
LTYPE
  5
14
330
5
100
AcDbSymbolTableRecord
100
AcDbLinetypeTableRecord
  2
ByBlock
 70
     0
  3

 72
    65
 73
     0
 40
0.0
  0
LTYPE
  5
15
330
5
100
AcDbSymbolTableRecord
100
AcDbLinetypeTableRecord
  2
ByLayer
 70
     0
  3

 72
    65
 73
     0
 40
0.0
  0
LTYPE
  5
16
330
5
100
AcDbSymbolTableRecord
100
AcDbLinetypeTableRecord
  2
Continuous
 70
     0
  3
Solid line
 72
    65
 73
     0
 40
0.0
  0
ENDTAB
  0
TABLE
  2
LAYER
  5
2
330
0
100
AcDbSymbolTable
 70
     2
  0
LAYER
  5
10
330
2
100
AcDbSymbolTableRecord
100
AcDbLayerTableRecord
  2
0
 70
     0
 62
     7
  6
Continuous
370
    -3
390
F
347
3E
  0
LAYER
  5
40
330
2
100
AcDbSymbolTableRecord
100
AcDbLayerTableRecord
  2
_U+30EC_U+30A4_U+30E4_U+30FC 1
 70
     0
 62
     7
  6
Continuous
370
    -3
390
F
347
3E
  0
ENDTAB
  0
TABLE
  2
STYLE
  5
3
330
0
100
AcDbSymbolTable
 70
     1
  0
STYLE
  5
11
330
3
100
AcDbSymbolTableRecord
100
AcDbTextStyleTableRecord
  2
Standard
 70
     0
 40
0.0
 41
1.0
 50
0.0
 71
     0
 42
0.2
  3
txt
  4

  0
ENDTAB
  0
TABLE
  2
VIEW
  5
6
330
0
100
AcDbSymbolTable
 70
     0
  0
ENDTAB
  0
TABLE
  2
UCS
  5
7
330
0
100
AcDbSymbolTable
 70
     0
  0
ENDTAB
  0
TABLE
  2
APPID
  5
9
330
0
100
AcDbSymbolTable
 70
     1
  0
APPID
  5
12
330
9
100
AcDbSymbolTableRecord
100
AcDbRegAppTableRecord
  2
ACAD
 70
     0
  0
ENDTAB
  0
TABLE
  2
DIMSTYLE
  5
A
330
0
100
AcDbSymbolTable
 70
     1
100
AcDbDimStyleTable
  0
DIMSTYLE
105
27
330
A
100
AcDbSymbolTableRecord
100
AcDbDimStyleTableRecord
  2
Standard
 70
     0
178
     0
340
11
  0
ENDTAB
  0
TABLE
  2
BLOCK_RECORD
  5
1
330
0
100
AcDbSymbolTable
 70
     5
  0
BLOCK_RECORD
  5
1F
330
1
100
AcDbSymbolTableRecord
100
AcDbBlockTableRecord
  2
*Model_Space
340
22
 70
     0
280
     1
281
     0
  0
BLOCK_RECORD
  5
1B
330
1
100
AcDbSymbolTableRecord
100
AcDbBlockTableRecord
  2
*Paper_Space
340
1E
 70
     0
280
     1
281
     0
  0
BLOCK_RECORD
  5
23
330
1
100
AcDbSymbolTableRecord
100
AcDbBlockTableRecord
  2
*Paper_Space0
340
26
 70
     0
280
     1
281
     0
  0
BLOCK_RECORD
  5
7E
330
1
100
AcDbSymbolTableRecord
100
AcDbBlockTableRecord
  2
block 2
340
0
102
{BLKREFS
331
7F
102
}
 70
     0
280
     1
281
     0
  0
BLOCK_RECORD
  5
A1
330
1
100
AcDbSymbolTableRecord
100
AcDbBlockTableRecord
  2
block 3
340
0
102
{BLKREFS
331
A2
102
}
 70
     0
280
     1
281
     0
  0
BLOCK_RECORD
  5
BD
330
1
100
AcDbSymbolTableRecord
100
AcDbBlockTableRecord
  2
block 4
340
0
102
{BLKREFS
331
BE
102
}
 70
     0
280
     1
281
     0
  0
BLOCK_RECORD
  5
D9
330
1
100
AcDbSymbolTableRecord
100
AcDbBlockTableRecord
  2
block 5
340
0
102
{BLKREFS
331
DA
102
}
 70
     0
280
     1
281
     0
  0
ENDTAB
  0
ENDSEC
  0
SECTION
  2
BLOCKS
  0
BLOCK
  5
20
330
1F
100
AcDbEntity
  8
0
100
AcDbBlockBegin
  2
*Model_Space
 70
     0
 10
0.0
 20
0.0
 30
0.0
  3
*Model_Space
  1

  0
ENDBLK
  5
21
330
1F
100
AcDbEntity
  8
0
100
AcDbBlockEnd
  0
BLOCK
  5
1C
330
1B
100
AcDbEntity
 67
     1
  8
0
100
AcDbBlockBegin
  2
*Paper_Space
 70
     0
 10
0.0
 20
0.0
 30
0.0
  3
*Paper_Space
  1

  0
ENDBLK
  5
1D
330
1B
100
AcDbEntity
 67
     1
  8
0
100
AcDbBlockEnd
  0
BLOCK
  5
24
330
23
100
AcDbEntity
  8
0
100
AcDbBlockBegin
  2
*Paper_Space0
 70
     0
 10
0.0
 20
0.0
 30
0.0
  3
*Paper_Space0
  1

  0
ENDBLK
  5
25
330
23
100
AcDbEntity
  8
0
100
AcDbBlockEnd
  0
BLOCK
  5
80
330
7E
100
AcDbEntity
  8
0
100
AcDbBlockBegin
  2
block 2
 70
     0
 10
0.0
 20
0.0
 30
0.0
  3
block 2
  1

  0
SPLINE
  5
82
330
7E
100
AcDbEntity
  8
_U+30EC_U+30A4_U+30E4_U+30FC 1
370
     0
100
AcDbSpline
210
0.0
220
0.0
230
1.0
 70
    11
 71
     3
 72
    62
 73
    58
 74
     0
 42
0.0000000001
 43
0.0000000001
 12
1.0
 22
0.0
 32
0.0
 13
1.0
 23
0.0
 33
0.0
 40
0.0
 40
0.0
 40
0.0
 40
0.0
 40
1.0
 40
1.0
 40
1.0
 40
2.0
 40
2.0
 40
2.0
 40
3.0
 40
3.0
 40
3.0
 40
4.0
 40
4.0
 40
4.0
 40
5.0
 40
5.0
 40
5.0
 40
6.0
 40
6.0
 40
6.0
 40
7.0
 40
7.0
 40
7.0
 40
8.0
 40
8.0
 40
8.0
 40
9.0
 40
9.0
 40
9.0
 40
10.0
 40
10.0
 40
10.0
 40
11.0
 40
11.0
 40
11.0
 40
12.0
 40
12.0
 40
12.0
 40
13.0
 40
13.0
 40
13.0
 40
14.0
 40
14.0
 40
14.0
 40
15.0
 40
15.0
 40
15.0
 40
16.0
 40
16.0
 40
16.0
 40
17.0
 40
17.0
 40
17.0
 40
18.0
 40
18.0
 40
18.0
 40
19.0
 40
19.0
 40
19.0
 40
19.0
 10
86.99606795785168
 20
-121.3448757292124
 30
0.0
 10
86.99606795785168
 20
-121.4401326193796
 30
0.0
 10
86.9748806206174
 20
-121.6580349088216
 30
0.0
 10
86.78867320963964
 20
-121.7827473653876
 30
0.0
 10
86.67653535159477
 20
-121.8568169183205
 30
0.0
 10
86.5771443468453
 20
-121.8611232876771
 30
0.0
 10
86.49256725268242
 20
-121.8652574022594
 30
0.0
 10
86.49256725268242
 20
-121.8652574022594
 30
0.0
 10
86.49256725268242
 20
-121.6452880555262
 30
0.0
 10
86.49256725268242
 20
-121.6452880555262
 30
0.0
 10
86.56663680561529
 20
-121.643220998235
 30
0.0
 10
86.80142006293507
 20
-121.6325412022308
 30
0.0
 10
86.80142006293507
 20
-121.3490098437947
 30
0.0
 10
86.80142006293507
 20
-121.2115505339332
 30
0.0
 10
86.73165687935875
 20
-121.0592773134852
 30
0.0
 10
86.50307479391243
 20
-121.0592773134852
 30
0.0
 10
86.38680282128524
 20
-121.0592773134852
 30
0.0
 10
86.33805472016897
 20
-121.0973456185972
 30
0.0
 10
86.30635984170466
 20
-121.1290404970615
 30
0.0
 10
86.2322902887718
 20
-121.2031100499944
 30
0.0
 10
86.21971569025062
 20
-121.3195542773958
 30
0.0
 10
86.21971569025062
 20
-121.3745035503855
 30
0.0
 10
86.21971569025062
 20
-121.3934515755544
 30
0.0
 10
86.22178274754178
 20
-121.4294528233753
 30
0.0
 10
86.22591686212408
 20
-121.4570135872573
 30
0.0
 10
86.22591686212408
 20
-121.4570135872573
 30
0.0
 10
86.03126896720747
 20
-121.4570135872573
 30
0.0
 10
86.03126896720747
 20
-121.4570135872573
 30
0.0
 10
86.03764239385518
 20
-121.4189452821453
 30
0.0
 10
86.03988170592059
 20
-121.3765706076767
 30
0.0
 10
86.03988170592059
 20
-121.370197181029
 30
0.0
 10
86.03988170592059
 20
-121.3047403668092
 30
0.0
 10
86.0186943686863
 20
-121.1057861025361
 30
0.0
 10
85.78167179930111
 20
-121.1057861025361
 30
0.0
 10
85.60407712703649
 20
-121.1057861025361
 30
0.0
 10
85.54895559927249
 20
-121.2370442405241
 30
0.0
 10
85.54895559927249
 20
-121.3469427865035
 30
0.0
 10
85.54895559927249
 20
-121.6113538649965
 30
0.0
 10
85.78167179930111
 20
-121.6197943489353
 30
0.0
 10
85.85367429494283
 20
-121.6241007182919
 30
0.0
 10
85.85367429494283
 20
-121.6241007182919
 30
0.0
 10
85.85367429494283
 20
-121.8271890971474
 30
0.0
 10
85.85367429494283
 20
-121.8271890971474
 30
0.0
 10
85.72878958360253
 20
-121.8187486132085
 30
0.0
 10
85.35224064706472
 20
-121.7911878493265
 30
0.0
 10
85.35224064706472
 20
-121.3343681879824
 30
0.0
 10
85.35224064706472
 20
-121.1100924718926
 30
0.0
 10
85.47919241569618
 20
-120.8689357879251
 30
0.0
 10
85.7752983726534
 20
-120.8689357879251
 30
0.0
 10
85.96150578363115
 20
-120.8689357879251
 30
0.0
 10
86.04401582050289
 20
-120.964020423318
 30
0.0
 10
86.10533852014034
 20
-121.0635836828418
 30
0.0
 10
86.13289928402233
 20
-121.00208872843
 30
0.0
 10
86.21334226360293
 20
-120.8201876868089
 30
0.0
 10
86.49050019539126
 20
-120.8201876868089
 30
0.0
 10
86.82898082681706
 20
-120.8201876868089
 30
0.0
 10
86.99606795785168
 20
-121.0677177974241
 30
0.0
 10
86.99606795785168
 20
-121.3448757292124
 30
0.0
  0
HATCH
  5
83
330
7E
100
AcDbEntity
  8
_U+30EC_U+30A4_U+30E4_U+30FC 1
 62
   179
420
  2234388
100
AcDbHatch
 10
0.0
 20
0.0
 30
0.0
210
0.0
220
0.0
230
1.0
  2
SOLID
 70
     1
 71
     0
 91
        1
 92
        1
 93
        1
 72
     4
 94
        3
 73
     0
 74
     1
 95
       62
 96
       58
 40
0.0
 40
0.0
 40
0.0
 40
0.0
 40
1.0
 40
1.0
 40
1.0
 40
2.0
 40
2.0
 40
2.0
 40
3.0
 40
3.0
 40
3.0
 40
4.0
 40
4.0
 40
4.0
 40
5.0
 40
5.0
 40
5.0
 40
6.0
 40
6.0
 40
6.0
 40
7.0
 40
7.0
 40
7.0
 40
8.0
 40
8.0
 40
8.0
 40
9.0
 40
9.0
 40
9.0
 40
10.0
 40
10.0
 40
10.0
 40
11.0
 40
11.0
 40
11.0
 40
12.0
 40
12.0
 40
12.0
 40
13.0
 40
13.0
 40
13.0
 40
14.0
 40
14.0
 40
14.0
 40
15.0
 40
15.0
 40
15.0
 40
16.0
 40
16.0
 40
16.0
 40
17.0
 40
17.0
 40
17.0
 40
18.0
 40
18.0
 40
18.0
 40
19.0
 40
19.0
 40
19.0
 40
19.0
 10
86.99606795785168
 20
-121.3448757292124
 10
86.99606795785168
 20
-121.4401326193796
 10
86.9748806206174
 20
-121.6580349088216
 10
86.78867320963964
 20
-121.7827473653876
 10
86.67653535159477
 20
-121.8568169183205
 10
86.5771443468453
 20
-121.8611232876771
 10
86.49256725268242
 20
-121.8652574022594
 10
86.49256725268242
 20
-121.8652574022594
 10
86.49256725268242
 20
-121.6452880555262
 10
86.49256725268242
 20
-121.6452880555262
 10
86.56663680561529
 20
-121.643220998235
 10
86.80142006293507
 20
-121.6325412022308
 10
86.80142006293507
 20
-121.3490098437947
 10
86.80142006293507
 20
-121.2115505339332
 10
86.73165687935875
 20
-121.0592773134852
 10
86.50307479391243
 20
-121.0592773134852
 10
86.38680282128524
 20
-121.0592773134852
 10
86.33805472016897
 20
-121.0973456185972
 10
86.30635984170466
 20
-121.1290404970615
 10
86.2322902887718
 20
-121.2031100499944
 10
86.21971569025062
 20
-121.3195542773958
 10
86.21971569025062
 20
-121.3745035503855
 10
86.21971569025062
 20
-121.3934515755544
 10
86.22178274754178
 20
-121.4294528233753
 10
86.22591686212408
 20
-121.4570135872573
 10
86.22591686212408
 20
-121.4570135872573
 10
86.03126896720747
 20
-121.4570135872573
 10
86.03126896720747
 20
-121.4570135872573
 10
86.03764239385518
 20
-121.4189452821453
 10
86.03988170592059
 20
-121.3765706076767
 10
86.03988170592059
 20
-121.370197181029
 10
86.03988170592059
 20
-121.3047403668092
 10
86.0186943686863
 20
-121.1057861025361
 10
85.78167179930111
 20
-121.1057861025361
 10
85.60407712703649
 20
-121.1057861025361
 10
85.54895559927249
 20
-121.2370442405241
 10
85.54895559927249
 20
-121.3469427865035
 10
85.54895559927249
 20
-121.6113538649965
 10
85.78167179930111
 20
-121.6197943489353
 10
85.85367429494283
 20
-121.6241007182919
 10
85.85367429494283
 20
-121.6241007182919
 10
85.85367429494283
 20
-121.8271890971474
 10
85.85367429494283
 20
-121.8271890971474
 10
85.72878958360253
 20
-121.8187486132085
 10
85.35224064706472
 20
-121.7911878493265
 10
85.35224064706472
 20
-121.3343681879824
 10
85.35224064706472
 20
-121.1100924718926
 10
85.47919241569618
 20
-120.8689357879251
 10
85.7752983726534
 20
-120.8689357879251
 10
85.96150578363115
 20
-120.8689357879251
 10
86.04401582050289
 20
-120.964020423318
 10
86.10533852014034
 20
-121.0635836828418
 10
86.13289928402233
 20
-121.00208872843
 10
86.21334226360293
 20
-120.8201876868089
 10
86.49050019539126
 20
-120.8201876868089
 10
86.82898082681706
 20
-120.8201876868089
 10
86.99606795785168
 20
-121.0677177974241
 10
86.99606795785168
 20
-121.3448757292124
 97
        0
 97
        0
 75
     2
 76
     1
 98
        0
  0
SPLINE
  5
84
330
7E
100
AcDbEntity
  8
_U+30EC_U+30A4_U+30E4_U+30FC 1
370
     0
100
AcDbSpline
210
0.0
220
0.0
230
1.0
 70
    11
 71
     3
 72
    29
 73
    25
 74
     0
 42
0.0000000001
 43
0.0000000001
 12
1.0
 22
0.0
 32
0.0
 13
1.0
 23
0.0
 33
0.0
 40
0.0
 40
0.0
 40
0.0
 40
0.0
 40
1.0
 40
1.0
 40
1.0
 40
2.0
 40
2.0
 40
2.0
 40
3.0
 40
3.0
 40
3.0
 40
4.0
 40
4.0
 40
4.0
 40
5.0
 40
5.0
 40
5.0
 40
6.0
 40
6.0
 40
6.0
 40
7.0
 40
7.0
 40
7.0
 40
8.0
 40
8.0
 40
8.0
 40
8.0
 10
86.76748587240536
 20
-119.7618543537401
 30
0.0
 10
86.97694767790854
 20
-119.8696858424284
 30
0.0
 10
86.99606795785168
 20
-120.0431464001107
 30
0.0
 10
86.99606795785168
 20
-120.1595906275122
 30
0.0
 10
86.99606795785168
 20
-120.3203043318991
 30
0.0
 10
86.9495591688008
 20
-120.4620700111171
 30
0.0
 10
86.76748587240536
 20
-120.5573269012843
 30
0.0
 10
86.57283797748875
 20
-120.660852020616
 30
0.0
 10
86.33598766287781
 20
-120.6799723005592
 30
0.0
 10
86.17303464642549
 20
-120.6799723005592
 30
0.0
 10
86.02920190991631
 20
-120.6799723005592
 30
0.0
 10
85.77753768471881
 20
-120.6630913326815
 30
0.0
 10
85.57858342044564
 20
-120.5573269012843
 30
0.0
 10
85.37549504159016
 20
-120.4493231578217
 30
0.0
 10
85.35224064706472
 20
-120.2886094534348
 30
0.0
 10
85.35224064706472
 20
-120.1595906275122
 30
0.0
 10
85.35224064706472
 20
-120.0009439804164
 30
0.0
 10
85.39668237882445
 20
-119.8571112439073
 30
0.0
 10
85.57858342044564
 20
-119.7618543537401
 30
0.0
 10
85.7711642580711
 20
-119.6624633489906
 30
0.0
 10
85.99957408874316
 20
-119.6392089544652
 30
0.0
 10
86.17303464642549
 20
-119.6392089544652
 30
0.0
 10
86.34442814681667
 20
-119.6392089544652
 30
0.0
 10
86.57507728955414
 20
-119.6602240369252
 30
0.0
 10
86.76748587240536
 20
-119.7618543537401
 30
0.0
  0
SPLINE
  5
85
330
7E
100
AcDbEntity
  8
_U+30EC_U+30A4_U+30E4_U+30FC 1
370
     0
100
AcDbSpline
210
0.0
220
0.0
230
1.0
 70
    11
 71
     3
 72
    17
 73
    13
 74
     0
 42
0.0000000001
 43
0.0000000001
 12
1.0
 22
0.0
 32
0.0
 13
1.0
 23
0.0
 33
0.0
 40
0.0
 40
0.0
 40
0.0
 40
0.0
 40
1.0
 40
1.0
 40
1.0
 40
2.0
 40
2.0
 40
2.0
 40
3.0
 40
3.0
 40
3.0
 40
4.0
 40
4.0
 40
4.0
 40
4.0
 10
85.54482148469019
 20
-120.1595906275122
 30
0.0
 10
85.54482148469019
 20
-120.4091877954185
 30
0.0
 10
85.82835284312625
 20
-120.4556965844694
 30
0.0
 10
86.17303464642549
 20
-120.4556965844694
 30
0.0
 10
86.49256725268242
 20
-120.4556965844694
 30
0.0
 10
86.80142006293507
 20
-120.4196953366486
 30
0.0
 10
86.80142006293507
 20
-120.1595906275122
 30
0.0
 10
86.80142006293507
 20
-119.912060516897
 30
0.0
 10
86.51995576179016
 20
-119.8633124157807
 30
0.0
 10
86.17303464642549
 20
-119.8633124157807
 30
0.0
 10
85.85367429494283
 20
-119.8633124157807
 30
0.0
 10
85.54482148469019
 20
-119.9013807208927
 30
0.0
 10
85.54482148469019
 20
-120.1595906275122
 30
0.0
  0
HATCH
  5
86
330
7E
100
AcDbEntity
  8
_U+30EC_U+30A4_U+30E4_U+30FC 1
 62
   179
420
  2234388
100
AcDbHatch
 10
0.0
 20
0.0
 30
0.0
210
0.0
220
0.0
230
1.0
  2
SOLID
 70
     1
 71
     0
 91
        2
 92
        1
 93
        1
 72
     4
 94
        3
 73
     0
 74
     1
 95
       29
 96
       25
 40
0.0
 40
0.0
 40
0.0
 40
0.0
 40
1.0
 40
1.0
 40
1.0
 40
2.0
 40
2.0
 40
2.0
 40
3.0
 40
3.0
 40
3.0
 40
4.0
 40
4.0
 40
4.0
 40
5.0
 40
5.0
 40
5.0
 40
6.0
 40
6.0
 40
6.0
 40
7.0
 40
7.0
 40
7.0
 40
8.0
 40
8.0
 40
8.0
 40
8.0
 10
86.76748587240536
 20
-119.7618543537401
 10
86.97694767790854
 20
-119.8696858424284
 10
86.99606795785168
 20
-120.0431464001107
 10
86.99606795785168
 20
-120.1595906275122
 10
86.99606795785168
 20
-120.3203043318991
 10
86.9495591688008
 20
-120.4620700111171
 10
86.76748587240536
 20
-120.5573269012843
 10
86.57283797748875
 20
-120.660852020616
 10
86.33598766287781
 20
-120.6799723005592
 10
86.17303464642549
 20
-120.6799723005592
 10
86.02920190991631
 20
-120.6799723005592
 10
85.77753768471881
 20
-120.6630913326815
 10
85.57858342044564
 20
-120.5573269012843
 10
85.37549504159016
 20
-120.4493231578217
 10
85.35224064706472
 20
-120.2886094534348
 10
85.35224064706472
 20
-120.1595906275122
 10
85.35224064706472
 20
-120.0009439804164
 10
85.39668237882445
 20
-119.8571112439073
 10
85.57858342044564
 20
-119.7618543537401
 10
85.7711642580711
 20
-119.6624633489906
 10
85.99957408874316
 20
-119.6392089544652
 10
86.17303464642549
 20
-119.6392089544652
 10
86.34442814681667
 20
-119.6392089544652
 10
86.57507728955414
 20
-119.6602240369252
 10
86.76748587240536
 20
-119.7618543537401
 97
        0
 97
        0
 92
        1
 93
        1
 72
     4
 94
        3
 73
     0
 74
     1
 95
       17
 96
       13
 40
0.0
 40
0.0
 40
0.0
 40
0.0
 40
1.0
 40
1.0
 40
1.0
 40
2.0
 40
2.0
 40
2.0
 40
3.0
 40
3.0
 40
3.0
 40
4.0
 40
4.0
 40
4.0
 40
4.0
 10
85.54482148469019
 20
-120.1595906275122
 10
85.54482148469019
 20
-120.4091877954185
 10
85.82835284312625
 20
-120.4556965844694
 10
86.17303464642549
 20
-120.4556965844694
 10
86.49256725268242
 20
-120.4556965844694
 10
86.80142006293507
 20
-120.4196953366486
 10
86.80142006293507
 20
-120.1595906275122
 10
86.80142006293507
 20
-119.912060516897
 10
86.51995576179016
 20
-119.8633124157807
 10
86.17303464642549
 20
-119.8633124157807
 10
85.85367429494283
 20
-119.8633124157807
 10
85.54482148469019
 20
-119.9013807208927
 10
85.54482148469019
 20
-120.1595906275122
 97
        0
 97
        0
 75
     2
 76
     1
 98
        0
  0
POLYLINE
  5
87
330
7E
100
AcDbEntity
  8
_U+30EC_U+30A4_U+30E4_U+30FC 1
370
     0
100
AcDb2dPolyline
 66
     1
 10
0.0
 20
0.0
 30
0.0
  0
VERTEX
  5
88
330
87
100
AcDbEntity
  8
_U+30EC_U+30A4_U+30E4_U+30FC 1
370
     0
100
AcDbVertex
100
AcDb2dVertex
 10
86.94525279944425
 20
-118.1407646731558
 30
0.0
  0
VERTEX
  5
89
330
87
100
AcDbEntity
  8
_U+30EC_U+30A4_U+30E4_U+30FC 1
370
     0
100
AcDbVertex
100
AcDb2dVertex
 10
85.87692868946827
 20
-118.1407646731558
 30
0.0
  0
VERTEX
  5
8A
330
87
100
AcDbEntity
  8
_U+30EC_U+30A4_U+30E4_U+30FC 1
370
     0
100
AcDbVertex
100
AcDb2dVertex
 10
85.71397567301595
 20
-118.1343912465081
 30
0.0
  0
VERTEX
  5
8B
330
87
100
AcDbEntity
  8
_U+30EC_U+30A4_U+30E4_U+30FC 1
370
     0
100
AcDbVertex
100
AcDb2dVertex
 10
85.86848820552942
 20
-118.1703924943289
 30
0.0
  0
VERTEX
  5
8C
330
87
100
AcDbEntity
  8
_U+30EC_U+30A4_U+30E4_U+30FC 1
370
     0
100
AcDbVertex
100
AcDb2dVertex
 10
86.94525279944425
 20
-118.5152465524024
 30
0.0
  0
VERTEX
  5
8D
330
87
100
AcDbEntity
  8
_U+30EC_U+30A4_U+30E4_U+30FC 1
370
     0
100
AcDbVertex
100
AcDb2dVertex
 10
86.94525279944425
 20
-118.7860310575431
 30
0.0
  0
VERTEX
  5
8E
330
87
100
AcDbEntity
  8
_U+30EC_U+30A4_U+30E4_U+30FC 1
370
     0
100
AcDbVertex
100
AcDb2dVertex
 10
85.86848820552942
 20
-119.1286458035512
 30
0.0
  0
VERTEX
  5
8F
330
87
100
AcDbEntity
  8
_U+30EC_U+30A4_U+30E4_U+30FC 1
370
     0
100
AcDbVertex
100
AcDb2dVertex
 10
85.71397567301595
 20
-119.164647051372
 30
0.0
  0
VERTEX
  5
90
330
87
100
AcDbEntity
  8
_U+30EC_U+30A4_U+30E4_U+30FC 1
370
     0
100
AcDbVertex
100
AcDb2dVertex
 10
85.87692868946827
 20
-119.1603406820155
 30
0.0
  0
VERTEX
  5
91
330
87
100
AcDbEntity
  8
_U+30EC_U+30A4_U+30E4_U+30FC 1
370
     0
100
AcDbVertex
100
AcDb2dVertex
 10
86.94525279944425
 20
-119.1603406820155
 30
0.0
  0
VERTEX
  5
92
330
87
100
AcDbEntity
  8
_U+30EC_U+30A4_U+30E4_U+30FC 1
370
     0
100
AcDbVertex
100
AcDb2dVertex
 10
86.94525279944425
 20
-119.3782429714575
 30
0.0
  0
VERTEX
  5
93
330
87
100
AcDbEntity
  8
_U+30EC_U+30A4_U+30E4_U+30FC 1
370
     0
100
AcDbVertex
100
AcDb2dVertex
 10
85.400988748181
 20
-119.3782429714575
 30
0.0
  0
VERTEX
  5
94
330
87
100
AcDbEntity
  8
_U+30EC_U+30A4_U+30E4_U+30FC 1
370
     0
100
AcDbVertex
100
AcDb2dVertex
 10
85.400988748181
 20
-119.0588826199749
 30
0.0
  0
VERTEX
  5
95
330
87
100
AcDbEntity
  8
_U+30EC_U+30A4_U+30E4_U+30FC 1
370
     0
100
AcDbVertex
100
AcDb2dVertex
 10
86.54958358296331
 20
-118.6887071100848
 30
0.0
  0
VERTEX
  5
96
330
87
100
AcDbEntity
  8
_U+30EC_U+30A4_U+30E4_U+30FC 1
370
     0
100
AcDbVertex
100
AcDb2dVertex
 10
86.69134926218133
 20
-118.6506388049728
 30
0.0
  0
VERTEX
  5
97
330
87
100
AcDbEntity
  8
_U+30EC_U+30A4_U+30E4_U+30FC 1
370
     0
100
AcDbVertex
100
AcDb2dVertex
 10
86.54958358296331
 20
-118.6125704998608
 30
0.0
  0
VERTEX
  5
98
330
87
100
AcDbEntity
  8
_U+30EC_U+30A4_U+30E4_U+30FC 1
370
     0
100
AcDbVertex
100
AcDb2dVertex
 10
85.400988748181
 20
-118.2401556779052
 30
0.0
  0
VERTEX
  5
99
330
87
100
AcDbEntity
  8
_U+30EC_U+30A4_U+30E4_U+30FC 1
370
     0
100
AcDbVertex
100
AcDb2dVertex
 10
85.400988748181
 20
-117.9228623837137
 30
0.0
  0
VERTEX
  5
9A
330
87
100
AcDbEntity
  8
_U+30EC_U+30A4_U+30E4_U+30FC 1
370
     0
100
AcDbVertex
100
AcDb2dVertex
 10
86.94525279944425
 20
-117.9228623837137
 30
0.0
  0
VERTEX
  5
9B
330
87
100
AcDbEntity
  8
_U+30EC_U+30A4_U+30E4_U+30FC 1
370
     0
100
AcDbVertex
100
AcDb2dVertex
 10
86.94525279944425
 20
-118.1407646731558
 30
0.0
  0
SEQEND
  5
9C
330
87
100
AcDbEntity
  8
_U+30EC_U+30A4_U+30E4_U+30FC 1
370
     0
  0
HATCH
  5
9D
330
7E
100
AcDbEntity
  8
_U+30EC_U+30A4_U+30E4_U+30FC 1
 62
   179
420
  2234388
100
AcDbHatch
 10
0.0
 20
0.0
 30
0.0
210
0.0
220
0.0
230
1.0
  2
SOLID
 70
     1
 71
     0
 91
        1
 92
        1
 93
       19
 72
     1
 10
86.94525279944425
 20
-118.1407646731558
 11
85.87692868946827
 21
-118.1407646731558
 72
     1
 10
85.87692868946827
 20
-118.1407646731558
 11
85.71397567301595
 21
-118.1343912465081
 72
     1
 10
85.71397567301595
 20
-118.1343912465081
 11
85.86848820552942
 21
-118.1703924943289
 72
     1
 10
85.86848820552942
 20
-118.1703924943289
 11
86.94525279944425
 21
-118.5152465524024
 72
     1
 10
86.94525279944425
 20
-118.5152465524024
 11
86.94525279944425
 21
-118.7860310575431
 72
     1
 10
86.94525279944425
 20
-118.7860310575431
 11
85.86848820552942
 21
-119.1286458035512
 72
     1
 10
85.86848820552942
 20
-119.1286458035512
 11
85.71397567301595
 21
-119.164647051372
 72
     1
 10
85.71397567301595
 20
-119.164647051372
 11
85.87692868946827
 21
-119.1603406820155
 72
     1
 10
85.87692868946827
 20
-119.1603406820155
 11
86.94525279944425
 21
-119.1603406820155
 72
     1
 10
86.94525279944425
 20
-119.1603406820155
 11
86.94525279944425
 21
-119.3782429714575
 72
     1
 10
86.94525279944425
 20
-119.3782429714575
 11
85.400988748181
 21
-119.3782429714575
 72
     1
 10
85.400988748181
 20
-119.3782429714575
 11
85.400988748181
 21
-119.0588826199749
 72
     1
 10
85.400988748181
 20
-119.0588826199749
 11
86.54958358296331
 21
-118.6887071100848
 72
     1
 10
86.54958358296331
 20
-118.6887071100848
 11
86.69134926218133
 21
-118.6506388049728
 72
     1
 10
86.69134926218133
 20
-118.6506388049728
 11
86.54958358296331
 21
-118.6125704998608
 72
     1
 10
86.54958358296331
 20
-118.6125704998608
 11
85.400988748181
 21
-118.2401556779052
 72
     1
 10
85.400988748181
 20
-118.2401556779052
 11
85.400988748181
 21
-117.9228623837137
 72
     1
 10
85.400988748181
 20
-117.9228623837137
 11
86.94525279944425
 21
-117.9228623837137
 72
     1
 10
86.94525279944425
 20
-117.9228623837137
 11
86.94525279944425
 21
-118.1407646731558
 97
        0
 75
     2
 76
     1
 98
        0
  0
SPLINE
  5
9E
330
7E
100
AcDbEntity
  8
_U+30EC_U+30A4_U+30E4_U+30FC 1
370
     0
100
AcDbSpline
210
0.0
220
0.0
230
1.0
 70
    11
 71
     3
 72
    44
 73
    40
 74
     0
 42
0.0000000001
 43
0.0000000001
 12
1.0
 22
0.0
 32
0.0
 13
1.0
 23
0.0
 33
0.0
 40
0.0
 40
0.0
 40
0.0
 40
0.0
 40
1.0
 40
1.0
 40
1.0
 40
2.0
 40
2.0
 40
2.0
 40
3.0
 40
3.0
 40
3.0
 40
4.0
 40
4.0
 40
4.0
 40
5.0
 40
5.0
 40
5.0
 40
6.0
 40
6.0
 40
6.0
 40
7.0
 40
7.0
 40
7.0
 40
8.0
 40
8.0
 40
8.0
 40
9.0
 40
9.0
 40
9.0
 40
10.0
 40
10.0
 40
10.0
 40
11.0
 40
11.0
 40
11.0
 40
12.0
 40
12.0
 40
12.0
 40
13.0
 40
13.0
 40
13.0
 40
13.0
 10
86.94525279944425
 20
-116.626989716937
 30
0.0
 10
86.90081106768453
 20
-116.6504163662367
 30
0.0
 10
86.84792885198594
 20
-116.6714314486967
 30
0.0
 10
86.61727970924846
 20
-116.6736707607621
 30
0.0
 10
86.37405596798982
 20
-116.6778048753444
 30
0.0
 10
86.30429278441352
 20
-116.7370605176907
 30
0.0
 10
86.30429278441352
 20
-116.9148274447296
 30
0.0
 10
86.30429278441352
 20
-116.9148274447296
 30
0.0
 10
86.30429278441352
 20
-117.3230712597317
 30
0.0
 10
86.30429278441352
 20
-117.3230712597317
 30
0.0
 10
86.30429278441352
 20
-117.3230712597317
 30
0.0
 10
86.94525279944425
 20
-117.3230712597317
 30
0.0
 10
86.94525279944425
 20
-117.3230712597317
 30
0.0
 10
86.94525279944425
 20
-117.3230712597317
 30
0.0
 10
86.94525279944425
 20
-117.5578545170515
 30
0.0
 10
86.94525279944425
 20
-117.5578545170515
 30
0.0
 10
86.94525279944425
 20
-117.5578545170515
 30
0.0
 10
85.400988748181
 20
-117.5578545170515
 30
0.0
 10
85.400988748181
 20
-117.5578545170515
 30
0.0
 10
85.400988748181
 20
-117.5578545170515
 30
0.0
 10
85.400988748181
 20
-116.8831325662653
 30
0.0
 10
85.400988748181
 20
-116.8831325662653
 30
0.0
 10
85.400988748181
 20
-116.5763468133038
 30
0.0
 10
85.57220999379793
 20
-116.409087427495
 30
0.0
 10
85.82835284312625
 20
-116.409087427495
 30
0.0
 10
85.87899574675941
 20
-116.409087427495
 30
0.0
 10
85.96150578363115
 20
-116.4177001662081
 30
0.0
 10
86.04194876321174
 20
-116.4621418979678
 30
0.0
 10
86.14564613731775
 20
-116.5212252855398
 30
0.0
 10
86.16459416248664
 20
-116.5868543545338
 30
0.0
 10
86.18147513036436
 20
-116.6481770541713
 30
0.0
 10
86.22384980483292
 20
-116.5107177443098
 30
0.0
 10
86.27259790594921
 20
-116.4430216180247
 30
0.0
 10
86.58765188807531
 20
-116.4387152486681
 30
0.0
 10
86.85843639321595
 20
-116.4345811340858
 30
0.0
 10
86.89030352645452
 20
-116.3985798862649
 30
0.0
 10
86.94525279944425
 20
-116.3308837599798
 30
0.0
 10
86.94525279944425
 20
-116.3308837599798
 30
0.0
 10
86.94525279944425
 20
-116.626989716937
 30
0.0
 10
86.94525279944425
 20
-116.626989716937
 30
0.0
  0
SPLINE
  5
9F
330
7E
100
AcDbEntity
  8
_U+30EC_U+30A4_U+30E4_U+30FC 1
370
     0
100
AcDbSpline
210
0.0
220
0.0
230
1.0
 70
    11
 71
     3
 72
    20
 73
    16
 74
     0
 42
0.0000000001
 43
0.0000000001
 12
1.0
 22
0.0
 32
0.0
 13
1.0
 23
0.0
 33
0.0
 40
0.0
 40
0.0
 40
0.0
 40
0.0
 40
1.0
 40
1.0
 40
1.0
 40
2.0
 40
2.0
 40
2.0
 40
3.0
 40
3.0
 40
3.0
 40
4.0
 40
4.0
 40
4.0
 40
5.0
 40
5.0
 40
5.0
 40
5.0
 10
85.61251761097535
 20
-116.8788261969088
 30
0.0
 10
85.61251761097535
 20
-116.8788261969088
 30
0.0
 10
85.61251761097535
 20
-117.3230712597317
 30
0.0
 10
85.61251761097535
 20
-117.3230712597317
 30
0.0
 10
85.61251761097535
 20
-117.3230712597317
 30
0.0
 10
86.09276392161918
 20
-117.3230712597317
 30
0.0
 10
86.09276392161918
 20
-117.3230712597317
 30
0.0
 10
86.09276392161918
 20
-117.3230712597317
 30
0.0
 10
86.09276392161918
 20
-116.8808932541999
 30
0.0
 10
86.09276392161918
 20
-116.8808932541999
 30
0.0
 10
86.09276392161918
 20
-116.7815022494505
 30
0.0
 10
86.01662731139515
 20
-116.6461099968801
 30
0.0
 10
85.84523381100398
 20
-116.6461099968801
 30
0.0
 10
85.76685788871454
 20
-116.6461099968801
 30
0.0
 10
85.61251761097535
 20
-116.6798719326356
 30
0.0
 10
85.61251761097535
 20
-116.8788261969088
 30
0.0
  0
HATCH
  5
A0
330
7E
100
AcDbEntity
  8
_U+30EC_U+30A4_U+30E4_U+30FC 1
 62
   179
420
  2234388
100
AcDbHatch
 10
0.0
 20
0.0
 30
0.0
210
0.0
220
0.0
230
1.0
  2
SOLID
 70
     1
 71
     0
 91
        2
 92
        1
 93
        1
 72
     4
 94
        3
 73
     0
 74
     1
 95
       44
 96
       40
 40
0.0
 40
0.0
 40
0.0
 40
0.0
 40
1.0
 40
1.0
 40
1.0
 40
2.0
 40
2.0
 40
2.0
 40
3.0
 40
3.0
 40
3.0
 40
4.0
 40
4.0
 40
4.0
 40
5.0
 40
5.0
 40
5.0
 40
6.0
 40
6.0
 40
6.0
 40
7.0
 40
7.0
 40
7.0
 40
8.0
 40
8.0
 40
8.0
 40
9.0
 40
9.0
 40
9.0
 40
10.0
 40
10.0
 40
10.0
 40
11.0
 40
11.0
 40
11.0
 40
12.0
 40
12.0
 40
12.0
 40
13.0
 40
13.0
 40
13.0
 40
13.0
 10
86.94525279944425
 20
-116.626989716937
 10
86.90081106768453
 20
-116.6504163662367
 10
86.84792885198594
 20
-116.6714314486967
 10
86.61727970924846
 20
-116.6736707607621
 10
86.37405596798982
 20
-116.6778048753444
 10
86.30429278441352
 20
-116.7370605176907
 10
86.30429278441352
 20
-116.9148274447296
 10
86.30429278441352
 20
-116.9148274447296
 10
86.30429278441352
 20
-117.3230712597317
 10
86.30429278441352
 20
-117.3230712597317
 10
86.30429278441352
 20
-117.3230712597317
 10
86.94525279944425
 20
-117.3230712597317
 10
86.94525279944425
 20
-117.3230712597317
 10
86.94525279944425
 20
-117.3230712597317
 10
86.94525279944425
 20
-117.5578545170515
 10
86.94525279944425
 20
-117.5578545170515
 10
86.94525279944425
 20
-117.5578545170515
 10
85.400988748181
 20
-117.5578545170515
 10
85.400988748181
 20
-117.5578545170515
 10
85.400988748181
 20
-117.5578545170515
 10
85.400988748181
 20
-116.8831325662653
 10
85.400988748181
 20
-116.8831325662653
 10
85.400988748181
 20
-116.5763468133038
 10
85.57220999379793
 20
-116.409087427495
 10
85.82835284312625
 20
-116.409087427495
 10
85.87899574675941
 20
-116.409087427495
 10
85.96150578363115
 20
-116.4177001662081
 10
86.04194876321174
 20
-116.4621418979678
 10
86.14564613731775
 20
-116.5212252855398
 10
86.16459416248664
 20
-116.5868543545338
 10
86.18147513036436
 20
-116.6481770541713
 10
86.22384980483292
 20
-116.5107177443098
 10
86.27259790594921
 20
-116.4430216180247
 10
86.58765188807531
 20
-116.4387152486681
 10
86.85843639321595
 20
-116.4345811340858
 10
86.89030352645452
 20
-116.3985798862649
 10
86.94525279944425
 20
-116.3308837599798
 10
86.94525279944425
 20
-116.3308837599798
 10
86.94525279944425
 20
-116.626989716937
 10
86.94525279944425
 20
-116.626989716937
 97
        0
 97
        0
 92
        1
 93
        1
 72
     4
 94
        3
 73
     0
 74
     1
 95
       20
 96
       16
 40
0.0
 40
0.0
 40
0.0
 40
0.0
 40
1.0
 40
1.0
 40
1.0
 40
2.0
 40
2.0
 40
2.0
 40
3.0
 40
3.0
 40
3.0
 40
4.0
 40
4.0
 40
4.0
 40
5.0
 40
5.0
 40
5.0
 40
5.0
 10
85.61251761097535
 20
-116.8788261969088
 10
85.61251761097535
 20
-116.8788261969088
 10
85.61251761097535
 20
-117.3230712597317
 10
85.61251761097535
 20
-117.3230712597317
 10
85.61251761097535
 20
-117.3230712597317
 10
86.09276392161918
 20
-117.3230712597317
 10
86.09276392161918
 20
-117.3230712597317
 10
86.09276392161918
 20
-117.3230712597317
 10
86.09276392161918
 20
-116.8808932541999
 10
86.09276392161918
 20
-116.8808932541999
 10
86.09276392161918
 20
-116.7815022494505
 10
86.01662731139515
 20
-116.6461099968801
 10
85.84523381100398
 20
-116.6461099968801
 10
85.76685788871454
 20
-116.6461099968801
 10
85.61251761097535
 20
-116.6798719326356
 10
85.61251761097535
 20
-116.8788261969088
 97
        0
 97
        0
 75
     2
 76
     1
 98
        0
  0
ENDBLK
  5
81
330
7E
100
AcDbEntity
  8
0
100
AcDbBlockEnd
  0
BLOCK
  5
A3
330
A1
100
AcDbEntity
  8
0
100
AcDbBlockBegin
  2
block 3
 70
     0
 10
0.0
 20
0.0
 30
0.0
  3
block 3
  1

  0
SPLINE
  5
A5
330
A1
100
AcDbEntity
  8
_U+30EC_U+30A4_U+30E4_U+30FC 1
370
     0
100
AcDbSpline
210
0.0
220
0.0
230
1.0
 70
    11
 71
     3
 72
    62
 73
    58
 74
     0
 42
0.0000000001
 43
0.0000000001
 12
1.0
 22
0.0
 32
0.0
 13
1.0
 23
0.0
 33
0.0
 40
0.0
 40
0.0
 40
0.0
 40
0.0
 40
1.0
 40
1.0
 40
1.0
 40
2.0
 40
2.0
 40
2.0
 40
3.0
 40
3.0
 40
3.0
 40
4.0
 40
4.0
 40
4.0
 40
5.0
 40
5.0
 40
5.0
 40
6.0
 40
6.0
 40
6.0
 40
7.0
 40
7.0
 40
7.0
 40
8.0
 40
8.0
 40
8.0
 40
9.0
 40
9.0
 40
9.0
 40
10.0
 40
10.0
 40
10.0
 40
11.0
 40
11.0
 40
11.0
 40
12.0
 40
12.0
 40
12.0
 40
13.0
 40
13.0
 40
13.0
 40
14.0
 40
14.0
 40
14.0
 40
15.0
 40
15.0
 40
15.0
 40
16.0
 40
16.0
 40
16.0
 40
17.0
 40
17.0
 40
17.0
 40
18.0
 40
18.0
 40
18.0
 40
19.0
 40
19.0
 40
19.0
 40
19.0
 10
100.0080213508661
 20
-130.005501269582
 30
0.0
 10
99.92637258786563
 20
-129.9565809136914
 30
0.0
 10
99.75032820856937
 20
-129.826356304349
 30
0.0
 10
99.73964841256509
 20
-129.6024250978077
 30
0.0
 10
99.73379175024017
 20
-129.468066373883
 30
0.0
 10
99.78133406793661
 20
-129.3805609485576
 30
0.0
 10
99.82129717556552
 20
-129.3061468860762
 30
0.0
 10
99.82129717556552
 20
-129.3061468860762
 30
0.0
 10
100.0097438986087
 20
-129.4191460179924
 30
0.0
 10
100.0097438986087
 20
-129.4191460179924
 30
0.0
 10
99.97357039601356
 20
-129.4839138131152
 30
0.0
 10
99.86160479274294
 20
-129.6906195422301
 30
0.0
 10
100.1048285340016
 20
-129.8366915908047
 30
0.0
 10
100.2226507995971
 20
-129.9073160482523
 30
0.0
 10
100.3890489115347
 20
-129.9262640734212
 30
0.0
 10
100.5068711771302
 20
-129.7302381403105
 30
0.0
 10
100.566471329025
 20
-129.6306748807868
 30
0.0
 10
100.5588921189575
 20
-129.5693521811493
 30
0.0
 10
100.5482123229532
 20
-129.5255994684867
 30
0.0
 10
100.5230631259109
 20
-129.4239691516718
 30
0.0
 10
100.4297010382606
 20
-129.3530001846756
 30
0.0
 10
100.3825032301127
 20
-129.3247504016966
 30
0.0
 10
100.366311281332
 20
-129.3151041343379
 30
0.0
 10
100.3342718933192
 20
-129.2985676760087
 30
0.0
 10
100.3087781867284
 20
-129.2875433704559
 30
0.0
 10
100.3087781867284
 20
-129.2875433704559
 30
0.0
 10
100.4086859558006
 20
-129.1208007489698
 30
0.0
 10
100.4086859558006
 20
-129.1208007489698
 30
0.0
 10
100.4383137769738
 20
-129.1459499460121
 30
0.0
 10
100.4734537509233
 20
-129.1697211048603
 30
0.0
 10
100.4789659036997
 20
-129.1731662003456
 30
0.0
 10
100.5347764505608
 20
-129.2069281361011
 30
0.0
 10
100.7163329826334
 20
-129.2909884659412
 30
0.0
 10
100.8382893628113
 20
-129.0877278323114
 30
0.0
 10
100.9299289027189
 20
-128.9354546118634
 30
0.0
 10
100.8455240633303
 20
-128.8207329322045
 30
0.0
 10
100.751472956583
 20
-128.7638888566979
 30
0.0
 10
100.5251301832021
 20
-128.6281520945791
 30
0.0
 10
100.3980061597963
 20
-128.8231444990442
 30
0.0
 10
100.3570095235219
 20
-128.8824001413905
 30
0.0
 10
100.3570095235219
 20
-128.8824001413905
 30
0.0
 10
100.1830322015168
 20
-128.7776692386389
 30
0.0
 10
100.1830322015168
 20
-128.7776692386389
 30
0.0
 10
100.2546901876099
 20
-128.675349902727
 30
0.0
 10
100.4720757127292
 20
-128.3666693472486
 30
0.0
 10
100.8637830694021
 20
-128.6019693688912
 30
0.0
 10
101.0560193974791
 20
-128.7177245771956
 30
0.0
 10
101.1972683123743
 20
-128.9506130319985
 30
0.0
 10
101.0446505823777
 20
-129.2041720597128
 30
0.0
 10
100.9488769278878
 20
-129.3640244902284
 30
0.0
 10
100.8248534904188
 20
-129.385384082237
 30
0.0
 10
100.7077202439203
 20
-129.3871066299796
 30
0.0
 10
100.7463053133551
 20
-129.4425726672922
 30
0.0
 10
100.8610269930139
 20
-129.6048366646474
 30
0.0
 10
100.718055530376
 20
-129.8422037435811
 30
0.0
 10
100.5437336988224
 20
-130.1322807834392
 30
0.0
 10
100.2457329393483
 20
-130.1481282226713
 30
0.0
 10
100.0080213508661
 20
-130.005501269582
 30
0.0
  0
HATCH
  5
A6
330
A1
100
AcDbEntity
  8
_U+30EC_U+30A4_U+30E4_U+30FC 1
 62
   179
420
  2234388
100
AcDbHatch
 10
0.0
 20
0.0
 30
0.0
210
0.0
220
0.0
230
1.0
  2
SOLID
 70
     1
 71
     0
 91
        1
 92
        1
 93
        1
 72
     4
 94
        3
 73
     0
 74
     1
 95
       62
 96
       58
 40
0.0
 40
0.0
 40
0.0
 40
0.0
 40
1.0
 40
1.0
 40
1.0
 40
2.0
 40
2.0
 40
2.0
 40
3.0
 40
3.0
 40
3.0
 40
4.0
 40
4.0
 40
4.0
 40
5.0
 40
5.0
 40
5.0
 40
6.0
 40
6.0
 40
6.0
 40
7.0
 40
7.0
 40
7.0
 40
8.0
 40
8.0
 40
8.0
 40
9.0
 40
9.0
 40
9.0
 40
10.0
 40
10.0
 40
10.0
 40
11.0
 40
11.0
 40
11.0
 40
12.0
 40
12.0
 40
12.0
 40
13.0
 40
13.0
 40
13.0
 40
14.0
 40
14.0
 40
14.0
 40
15.0
 40
15.0
 40
15.0
 40
16.0
 40
16.0
 40
16.0
 40
17.0
 40
17.0
 40
17.0
 40
18.0
 40
18.0
 40
18.0
 40
19.0
 40
19.0
 40
19.0
 40
19.0
 10
100.0080213508661
 20
-130.005501269582
 10
99.92637258786563
 20
-129.9565809136914
 10
99.75032820856937
 20
-129.826356304349
 10
99.73964841256509
 20
-129.6024250978077
 10
99.73379175024017
 20
-129.468066373883
 10
99.78133406793661
 20
-129.3805609485576
 10
99.82129717556552
 20
-129.3061468860762
 10
99.82129717556552
 20
-129.3061468860762
 10
100.0097438986087
 20
-129.4191460179924
 10
100.0097438986087
 20
-129.4191460179924
 10
99.97357039601356
 20
-129.4839138131152
 10
99.86160479274294
 20
-129.6906195422301
 10
100.1048285340016
 20
-129.8366915908047
 10
100.2226507995971
 20
-129.9073160482523
 10
100.3890489115347
 20
-129.9262640734212
 10
100.5068711771302
 20
-129.7302381403105
 10
100.566471329025
 20
-129.6306748807868
 10
100.5588921189575
 20
-129.5693521811493
 10
100.5482123229532
 20
-129.5255994684867
 10
100.5230631259109
 20
-129.4239691516718
 10
100.4297010382606
 20
-129.3530001846756
 10
100.3825032301127
 20
-129.3247504016966
 10
100.366311281332
 20
-129.3151041343379
 10
100.3342718933192
 20
-129.2985676760087
 10
100.3087781867284
 20
-129.2875433704559
 10
100.3087781867284
 20
-129.2875433704559
 10
100.4086859558006
 20
-129.1208007489698
 10
100.4086859558006
 20
-129.1208007489698
 10
100.4383137769738
 20
-129.1459499460121
 10
100.4734537509233
 20
-129.1697211048603
 10
100.4789659036997
 20
-129.1731662003456
 10
100.5347764505608
 20
-129.2069281361011
 10
100.7163329826334
 20
-129.2909884659412
 10
100.8382893628113
 20
-129.0877278323114
 10
100.9299289027189
 20
-128.9354546118634
 10
100.8455240633303
 20
-128.8207329322045
 10
100.751472956583
 20
-128.7638888566979
 10
100.5251301832021
 20
-128.6281520945791
 10
100.3980061597963
 20
-128.8231444990442
 10
100.3570095235219
 20
-128.8824001413905
 10
100.3570095235219
 20
-128.8824001413905
 10
100.1830322015168
 20
-128.7776692386389
 10
100.1830322015168
 20
-128.7776692386389
 10
100.2546901876099
 20
-128.675349902727
 10
100.4720757127292
 20
-128.3666693472486
 10
100.8637830694021
 20
-128.6019693688912
 10
101.0560193974791
 20
-128.7177245771956
 10
101.1972683123743
 20
-128.9506130319985
 10
101.0446505823777
 20
-129.2041720597128
 10
100.9488769278878
 20
-129.3640244902284
 10
100.8248534904188
 20
-129.385384082237
 10
100.7077202439203
 20
-129.3871066299796
 10
100.7463053133551
 20
-129.4425726672922
 10
100.8610269930139
 20
-129.6048366646474
 10
100.718055530376
 20
-129.8422037435811
 10
100.5437336988224
 20
-130.1322807834392
 10
100.2457329393483
 20
-130.1481282226713
 10
100.0080213508661
 20
-130.005501269582
 97
        0
 97
        0
 75
     2
 76
     1
 98
        0
  0
SPLINE
  5
A7
330
A1
100
AcDbEntity
  8
_U+30EC_U+30A4_U+30E4_U+30FC 1
370
     0
100
AcDbSpline
210
0.0
220
0.0
230
1.0
 70
    11
 71
     3
 72
    29
 73
    25
 74
     0
 42
0.0000000001
 43
0.0000000001
 12
1.0
 22
0.0
 32
0.0
 13
1.0
 23
0.0
 33
0.0
 40
0.0
 40
0.0
 40
0.0
 40
0.0
 40
1.0
 40
1.0
 40
1.0
 40
2.0
 40
2.0
 40
2.0
 40
3.0
 40
3.0
 40
3.0
 40
4.0
 40
4.0
 40
4.0
 40
5.0
 40
5.0
 40
5.0
 40
6.0
 40
6.0
 40
6.0
 40
7.0
 40
7.0
 40
7.0
 40
8.0
 40
8.0
 40
8.0
 40
8.0
 10
101.482522218553
 20
-130.6249294378299
 30
0.0
 10
101.28236217086
 20
-130.7489528752989
 30
0.0
 10
101.1238877785385
 20
-130.6759168510116
 30
0.0
 10
101.0239800094662
 20
-130.6159721895682
 30
0.0
 10
100.8861761900562
 20
-130.5332898979222
 30
0.0
 10
100.7886799878237
 20
-130.420290766006
 30
0.0
 10
100.800737822022
 20
-130.2149630750852
 30
0.0
 10
100.8121066371234
 20
-129.9951659831262
 30
0.0
 10
100.9178710685205
 20
-129.7822590821378
 30
0.0
 10
101.0019313983606
 20
-129.6423882054366
 30
0.0
 10
101.075656441745
 20
-129.5193982966132
 30
0.0
 10
101.2200059425769
 20
-129.3123480579497
 30
0.0
 10
101.4132757992995
 20
-129.1959038305482
 30
0.0
 10
101.6103352610558
 20
-129.0777370554042
 30
0.0
 10
101.7601969146641
 20
-129.1407823027843
 30
0.0
 10
101.8707844797406
 20
-129.2069281361011
 30
0.0
 10
102.0065212418595
 20
-129.28892140865
 30
0.0
 10
102.1071180300288
 20
-129.4008870119206
 30
0.0
 10
102.0950601958304
 20
-129.605870193293
 30
0.0
 10
102.0809353043409
 20
-129.8222221897667
 30
0.0
 10
101.9830945925598
 20
-130.0299614475272
 30
0.0
 10
101.8938666194918
 20
-130.1784450629415
 30
0.0
 10
101.8056721750694
 20
-130.3255506401617
 30
0.0
 10
101.668901884305
 20
-130.5126193250107
 30
0.0
 10
101.482522218553
 20
-130.6249294378299
 30
0.0
  0
SPLINE
  5
A8
330
A1
100
AcDbEntity
  8
_U+30EC_U+30A4_U+30E4_U+30FC 1
370
     0
100
AcDbSpline
210
0.0
220
0.0
230
1.0
 70
    11
 71
     3
 72
    17
 73
    13
 74
     0
 42
0.0000000001
 43
0.0000000001
 12
1.0
 22
0.0
 32
0.0
 13
1.0
 23
0.0
 33
0.0
 40
0.0
 40
0.0
 40
0.0
 40
0.0
 40
1.0
 40
1.0
 40
1.0
 40
2.0
 40
2.0
 40
2.0
 40
3.0
 40
3.0
 40
3.0
 40
4.0
 40
4.0
 40
4.0
 40
4.0
 10
101.7715657297654
 20
-129.372292719393
 30
0.0
 10
101.5576253001314
 20
-129.2434461482447
 30
0.0
 10
101.3715901439279
 20
-129.4625542211066
 30
0.0
 10
101.1941677264376
 20
-129.758143413741
 30
0.0
 10
101.0294921622426
 20
-130.0316839952699
 30
0.0
 10
100.9013346101913
 20
-130.3152153537059
 30
0.0
 10
101.124232288087
 20
-130.4492295680821
 30
0.0
 10
101.3364501699784
 20
-130.5766981010364
 30
0.0
 10
101.5231743452789
 20
-130.3603461045627
 30
0.0
 10
101.7019748009634
 20
-130.0630343641856
 30
0.0
 10
101.8663058556098
 20
-129.7891492731083
 30
0.0
 10
101.9927408599185
 20
-129.5052734051237
 30
0.0
 10
101.7715657297654
 20
-129.372292719393
 30
0.0
  0
HATCH
  5
A9
330
A1
100
AcDbEntity
  8
_U+30EC_U+30A4_U+30E4_U+30FC 1
 62
   179
420
  2234388
100
AcDbHatch
 10
0.0
 20
0.0
 30
0.0
210
0.0
220
0.0
230
1.0
  2
SOLID
 70
     1
 71
     0
 91
        2
 92
        1
 93
        1
 72
     4
 94
        3
 73
     0
 74
     1
 95
       29
 96
       25
 40
0.0
 40
0.0
 40
0.0
 40
0.0
 40
1.0
 40
1.0
 40
1.0
 40
2.0
 40
2.0
 40
2.0
 40
3.0
 40
3.0
 40
3.0
 40
4.0
 40
4.0
 40
4.0
 40
5.0
 40
5.0
 40
5.0
 40
6.0
 40
6.0
 40
6.0
 40
7.0
 40
7.0
 40
7.0
 40
8.0
 40
8.0
 40
8.0
 40
8.0
 10
101.482522218553
 20
-130.6249294378299
 10
101.28236217086
 20
-130.7489528752989
 10
101.1238877785385
 20
-130.6759168510116
 10
101.0239800094662
 20
-130.6159721895682
 10
100.8861761900562
 20
-130.5332898979222
 10
100.7886799878237
 20
-130.420290766006
 10
100.800737822022
 20
-130.2149630750852
 10
100.8121066371234
 20
-129.9951659831262
 10
100.9178710685205
 20
-129.7822590821378
 10
101.0019313983606
 20
-129.6423882054366
 10
101.075656441745
 20
-129.5193982966132
 10
101.2200059425769
 20
-129.3123480579497
 10
101.4132757992995
 20
-129.1959038305482
 10
101.6103352610558
 20
-129.0777370554042
 10
101.7601969146641
 20
-129.1407823027843
 10
101.8707844797406
 20
-129.2069281361011
 10
102.0065212418595
 20
-129.28892140865
 10
102.1071180300288
 20
-129.4008870119206
 10
102.0950601958304
 20
-129.605870193293
 10
102.0809353043409
 20
-129.8222221897667
 10
101.9830945925598
 20
-130.0299614475272
 10
101.8938666194918
 20
-130.1784450629415
 10
101.8056721750694
 20
-130.3255506401617
 10
101.668901884305
 20
-130.5126193250107
 10
101.482522218553
 20
-130.6249294378299
 97
        0
 97
        0
 92
        1
 93
        1
 72
     4
 94
        3
 73
     0
 74
     1
 95
       17
 96
       13
 40
0.0
 40
0.0
 40
0.0
 40
0.0
 40
1.0
 40
1.0
 40
1.0
 40
2.0
 40
2.0
 40
2.0
 40
3.0
 40
3.0
 40
3.0
 40
4.0
 40
4.0
 40
4.0
 40
4.0
 10
101.7715657297654
 20
-129.372292719393
 10
101.5576253001314
 20
-129.2434461482447
 10
101.3715901439279
 20
-129.4625542211066
 10
101.1941677264376
 20
-129.758143413741
 10
101.0294921622426
 20
-130.0316839952699
 10
100.9013346101913
 20
-130.3152153537059
 10
101.124232288087
 20
-130.4492295680821
 10
101.3364501699784
 20
-130.5766981010364
 10
101.5231743452789
 20
-130.3603461045627
 10
101.7019748009634
 20
-130.0630343641856
 10
101.8663058556098
 20
-129.7891492731083
 10
101.9927408599185
 20
-129.5052734051237
 10
101.7715657297654
 20
-129.372292719393
 97
        0
 97
        0
 75
     2
 76
     1
 98
        0
  0
POLYLINE
  5
AA
330
A1
100
AcDbEntity
  8
_U+30EC_U+30A4_U+30E4_U+30FC 1
370
     0
100
AcDb2dPolyline
 66
     1
 10
0.0
 20
0.0
 30
0.0
  0
VERTEX
  5
AB
330
AA
100
AcDbEntity
  8
_U+30EC_U+30A4_U+30E4_U+30FC 1
370
     0
100
AcDbVertex
100
AcDb2dVertex
 10
102.56462671047
 20
-131.4827582136571
 30
0.0
  0
VERTEX
  5
AC
330
AA
100
AcDbEntity
  8
_U+30EC_U+30A4_U+30E4_U+30FC 1
370
     0
100
AcDbVertex
100
AcDb2dVertex
 10
102.9277397746153
 20
-130.8784884655443
 30
0.0
  0
VERTEX
  5
AD
330
AA
100
AcDbEntity
  8
_U+30EC_U+30A4_U+30E4_U+30FC 1
370
     0
100
AcDbVertex
100
AcDb2dVertex
 10
102.2859184857133
 20
-130.4929822807448
 30
0.0
  0
VERTEX
  5
AE
330
AA
100
AcDbEntity
  8
_U+30EC_U+30A4_U+30E4_U+30FC 1
370
     0
100
AcDbVertex
100
AcDb2dVertex
 10
101.9231499311164
 20
-131.0969075193091
 30
0.0
  0
VERTEX
  5
AF
330
AA
100
AcDbEntity
  8
_U+30EC_U+30A4_U+30E4_U+30FC 1
370
     0
100
AcDbVertex
100
AcDb2dVertex
 10
101.7216118452293
 20
-130.9759846677769
 30
0.0
  0
VERTEX
  5
B0
330
AA
100
AcDbEntity
  8
_U+30EC_U+30A4_U+30E4_U+30FC 1
370
     0
100
AcDbVertex
100
AcDb2dVertex
 10
102.5170843927735
 20
-129.6523789823439
 30
0.0
  0
VERTEX
  5
B1
330
AA
100
AcDbEntity
  8
_U+30EC_U+30A4_U+30E4_U+30FC 1
370
     0
100
AcDbVertex
100
AcDb2dVertex
 10
102.7182779691121
 20
-129.7733018338761
 30
0.0
  0
VERTEX
  5
B2
330
AA
100
AcDbEntity
  8
_U+30EC_U+30A4_U+30E4_U+30FC 1
370
     0
100
AcDbVertex
100
AcDb2dVertex
 10
102.3947835030471
 20
-130.3117702582207
 30
0.0
  0
VERTEX
  5
B3
330
AA
100
AcDbEntity
  8
_U+30EC_U+30A4_U+30E4_U+30FC 1
370
     0
100
AcDbVertex
100
AcDb2dVertex
 10
103.0366047919492
 20
-130.6972764430201
 30
0.0
  0
VERTEX
  5
B4
330
AA
100
AcDbEntity
  8
_U+30EC_U+30A4_U+30E4_U+30FC 1
370
     0
100
AcDbVertex
100
AcDb2dVertex
 10
103.3600992580141
 20
-130.1591525282241
 30
0.0
  0
VERTEX
  5
B5
330
AA
100
AcDbEntity
  8
_U+30EC_U+30A4_U+30E4_U+30FC 1
370
     0
100
AcDbVertex
100
AcDb2dVertex
 10
103.5616373439013
 20
-130.2797308702079
 30
0.0
  0
VERTEX
  5
B6
330
AA
100
AcDbEntity
  8
_U+30EC_U+30A4_U+30E4_U+30FC 1
370
     0
100
AcDbVertex
100
AcDb2dVertex
 10
102.7661647963571
 20
-131.6033365556409
 30
0.0
  0
VERTEX
  5
B7
330
AA
100
AcDbEntity
  8
_U+30EC_U+30A4_U+30E4_U+30FC 1
370
     0
100
AcDbVertex
100
AcDb2dVertex
 10
102.56462671047
 20
-131.4827582136571
 30
0.0
  0
SEQEND
  5
B8
330
AA
100
AcDbEntity
  8
_U+30EC_U+30A4_U+30E4_U+30FC 1
370
     0
  0
HATCH
  5
B9
330
A1
100
AcDbEntity
  8
_U+30EC_U+30A4_U+30E4_U+30FC 1
 62
   179
420
  2234388
100
AcDbHatch
 10
0.0
 20
0.0
 30
0.0
210
0.0
220
0.0
230
1.0
  2
SOLID
 70
     1
 71
     0
 91
        1
 92
        1
 93
       12
 72
     1
 10
102.56462671047
 20
-131.4827582136571
 11
102.9277397746153
 21
-130.8784884655443
 72
     1
 10
102.9277397746153
 20
-130.8784884655443
 11
102.2859184857133
 21
-130.4929822807448
 72
     1
 10
102.2859184857133
 20
-130.4929822807448
 11
101.9231499311164
 21
-131.0969075193091
 72
     1
 10
101.9231499311164
 20
-131.0969075193091
 11
101.7216118452293
 21
-130.9759846677769
 72
     1
 10
101.7216118452293
 20
-130.9759846677769
 11
102.5170843927735
 21
-129.6523789823439
 72
     1
 10
102.5170843927735
 20
-129.6523789823439
 11
102.7182779691121
 21
-129.7733018338761
 72
     1
 10
102.7182779691121
 20
-129.7733018338761
 11
102.3947835030471
 21
-130.3117702582207
 72
     1
 10
102.3947835030471
 20
-130.3117702582207
 11
103.0366047919492
 21
-130.6972764430201
 72
     1
 10
103.0366047919492
 20
-130.6972764430201
 11
103.3600992580141
 21
-130.1591525282241
 72
     1
 10
103.3600992580141
 20
-130.1591525282241
 11
103.5616373439013
 21
-130.2797308702079
 72
     1
 10
103.5616373439013
 20
-130.2797308702079
 11
102.7661647963571
 21
-131.6033365556409
 72
     1
 10
102.7661647963571
 20
-131.6033365556409
 11
102.56462671047
 21
-131.4827582136571
 97
        0
 75
     2
 76
     1
 98
        0
  0
SPLINE
  5
BA
330
A1
100
AcDbEntity
  8
_U+30EC_U+30A4_U+30E4_U+30FC 1
370
     0
100
AcDbSpline
210
0.0
220
0.0
230
1.0
 70
    11
 71
     3
 72
    44
 73
    40
 74
     0
 42
0.0000000001
 43
0.0000000001
 12
1.0
 22
0.0
 32
0.0
 13
1.0
 23
0.0
 33
0.0
 40
0.0
 40
0.0
 40
0.0
 40
0.0
 40
1.0
 40
1.0
 40
1.0
 40
2.0
 40
2.0
 40
2.0
 40
3.0
 40
3.0
 40
3.0
 40
4.0
 40
4.0
 40
4.0
 40
5.0
 40
5.0
 40
5.0
 40
6.0
 40
6.0
 40
6.0
 40
7.0
 40
7.0
 40
7.0
 40
8.0
 40
8.0
 40
8.0
 40
9.0
 40
9.0
 40
9.0
 40
10.0
 40
10.0
 40
10.0
 40
11.0
 40
11.0
 40
11.0
 40
12.0
 40
12.0
 40
12.0
 40
13.0
 40
13.0
 40
13.0
 40
13.0
 10
103.8765190712531
 20
-132.2709960606823
 30
0.0
 10
103.8796196571898
 20
-132.2206976665976
 30
0.0
 10
103.888921415
 20
-132.1648871197366
 30
0.0
 10
104.00571015195
 20
-131.9657606006891
 30
0.0
 10
104.1273220225793
 20
-131.7552652665404
 30
0.0
 10
104.1125081119927
 20
-131.6646592552783
 30
0.0
 10
103.9602348915447
 20
-131.5733642249192
 30
0.0
 10
103.9602348915447
 20
-131.5733642249192
 30
0.0
 10
103.6102131902433
 20
-131.3628688907704
 30
0.0
 10
103.6102131902433
 20
-131.3628688907704
 30
0.0
 10
103.6102131902433
 20
-131.3628688907704
 30
0.0
 10
103.2801730427563
 20
-131.9123616206678
 30
0.0
 10
103.2801730427563
 20
-131.9123616206678
 30
0.0
 10
103.2801730427563
 20
-131.9123616206678
 30
0.0
 10
103.0786349568692
 20
-131.7914387691355
 30
0.0
 10
103.0786349568692
 20
-131.7914387691355
 30
0.0
 10
103.0786349568692
 20
-131.7914387691355
 30
0.0
 10
103.8741075044134
 20
-130.4678330837025
 30
0.0
 10
103.8741075044134
 20
-130.4678330837025
 30
0.0
 10
103.8741075044134
 20
-130.4678330837025
 30
0.0
 10
104.4525390363869
 20
-130.8154432181642
 30
0.0
 10
104.4525390363869
 20
-130.8154432181642
 30
0.0
 10
104.7153998219114
 20
-130.9735731009372
 30
0.0
 10
104.770865859224
 20
-131.20646155574
 30
0.0
 10
104.6389187021389
 20
-131.4255696286019
 30
0.0
 10
104.612735976451
 20
-131.4689778317161
 30
0.0
 10
104.5627820919149
 20
-131.5354681745814
 30
0.0
 10
104.4835448957541
 20
-131.5812879445352
 30
0.0
 10
104.3795030120996
 20
-131.6398545677845
 30
0.0
 10
104.3133571787828
 20
-131.6226290903582
 30
0.0
 10
104.2520344791453
 20
-131.605403612932
 30
0.0
 10
104.3478081336353
 20
-131.7122015729747
 30
0.0
 10
104.3808810502937
 20
-131.7893717118443
 30
0.0
 10
104.2224066579722
 20
-132.0615342551791
 30
0.0
 10
104.0866698958533
 20
-132.295800748176
 30
0.0
 10
104.1007947873429
 20
-132.3412760085814
 30
0.0
 10
104.1307671180645
 20
-132.4232692811303
 30
0.0
 10
104.1307671180645
 20
-132.4232692811303
 30
0.0
 10
103.8765190712531
 20
-132.2709960606823
 30
0.0
 10
103.8765190712531
 20
-132.2709960606823
 30
0.0
  0
SPLINE
  5
BB
330
A1
100
AcDbEntity
  8
_U+30EC_U+30A4_U+30E4_U+30FC 1
370
     0
100
AcDbSpline
210
0.0
220
0.0
230
1.0
 70
    11
 71
     3
 72
    20
 73
    16
 74
     0
 42
0.0000000001
 43
0.0000000001
 12
1.0
 22
0.0
 32
0.0
 13
1.0
 23
0.0
 33
0.0
 40
0.0
 40
0.0
 40
0.0
 40
0.0
 40
1.0
 40
1.0
 40
1.0
 40
2.0
 40
2.0
 40
2.0
 40
3.0
 40
3.0
 40
3.0
 40
4.0
 40
4.0
 40
4.0
 40
5.0
 40
5.0
 40
5.0
 40
5.0
 10
104.3471191145382
 20
-130.999066807528
 30
0.0
 10
104.3471191145382
 20
-130.999066807528
 30
0.0
 10
103.9667805729666
 20
-130.7699679577589
 30
0.0
 10
103.9667805729666
 20
-130.7699679577589
 30
0.0
 10
103.9667805729666
 20
-130.7699679577589
 30
0.0
 10
103.7194227171257
 20
-131.1816568682463
 30
0.0
 10
103.7194227171257
 20
-131.1816568682463
 30
0.0
 10
103.7194227171257
 20
-131.1816568682463
 30
0.0
 10
104.0983832205032
 20
-131.4093776798213
 30
0.0
 10
104.0983832205032
 20
-131.4093776798213
 30
0.0
 10
104.1834770789889
 20
-131.4607096025515
 30
0.0
 10
104.3388508853736
 20
-131.4648437171338
 30
0.0
 10
104.427045329796
 20
-131.3180826494622
 30
0.0
 10
104.4673529469734
 20
-131.2509032874998
 30
0.0
 10
104.5179958506066
 20
-131.1010416338914
 30
0.0
 10
104.3471191145382
 20
-130.999066807528
 30
0.0
  0
HATCH
  5
BC
330
A1
100
AcDbEntity
  8
_U+30EC_U+30A4_U+30E4_U+30FC 1
 62
   179
420
  2234388
100
AcDbHatch
 10
0.0
 20
0.0
 30
0.0
210
0.0
220
0.0
230
1.0
  2
SOLID
 70
     1
 71
     0
 91
        2
 92
        1
 93
        1
 72
     4
 94
        3
 73
     0
 74
     1
 95
       44
 96
       40
 40
0.0
 40
0.0
 40
0.0
 40
0.0
 40
1.0
 40
1.0
 40
1.0
 40
2.0
 40
2.0
 40
2.0
 40
3.0
 40
3.0
 40
3.0
 40
4.0
 40
4.0
 40
4.0
 40
5.0
 40
5.0
 40
5.0
 40
6.0
 40
6.0
 40
6.0
 40
7.0
 40
7.0
 40
7.0
 40
8.0
 40
8.0
 40
8.0
 40
9.0
 40
9.0
 40
9.0
 40
10.0
 40
10.0
 40
10.0
 40
11.0
 40
11.0
 40
11.0
 40
12.0
 40
12.0
 40
12.0
 40
13.0
 40
13.0
 40
13.0
 40
13.0
 10
103.8765190712531
 20
-132.2709960606823
 10
103.8796196571898
 20
-132.2206976665976
 10
103.888921415
 20
-132.1648871197366
 10
104.00571015195
 20
-131.9657606006891
 10
104.1273220225793
 20
-131.7552652665404
 10
104.1125081119927
 20
-131.6646592552783
 10
103.9602348915447
 20
-131.5733642249192
 10
103.9602348915447
 20
-131.5733642249192
 10
103.6102131902433
 20
-131.3628688907704
 10
103.6102131902433
 20
-131.3628688907704
 10
103.6102131902433
 20
-131.3628688907704
 10
103.2801730427563
 20
-131.9123616206678
 10
103.2801730427563
 20
-131.9123616206678
 10
103.2801730427563
 20
-131.9123616206678
 10
103.0786349568692
 20
-131.7914387691355
 10
103.0786349568692
 20
-131.7914387691355
 10
103.0786349568692
 20
-131.7914387691355
 10
103.8741075044134
 20
-130.4678330837025
 10
103.8741075044134
 20
-130.4678330837025
 10
103.8741075044134
 20
-130.4678330837025
 10
104.4525390363869
 20
-130.8154432181642
 10
104.4525390363869
 20
-130.8154432181642
 10
104.7153998219114
 20
-130.9735731009372
 10
104.770865859224
 20
-131.20646155574
 10
104.6389187021389
 20
-131.4255696286019
 10
104.612735976451
 20
-131.4689778317161
 10
104.5627820919149
 20
-131.5354681745814
 10
104.4835448957541
 20
-131.5812879445352
 10
104.3795030120996
 20
-131.6398545677845
 10
104.3133571787828
 20
-131.6226290903582
 10
104.2520344791453
 20
-131.605403612932
 10
104.3478081336353
 20
-131.7122015729747
 10
104.3808810502937
 20
-131.7893717118443
 10
104.2224066579722
 20
-132.0615342551791
 10
104.0866698958533
 20
-132.295800748176
 10
104.1007947873429
 20
-132.3412760085814
 10
104.1307671180645
 20
-132.4232692811303
 10
104.1307671180645
 20
-132.4232692811303
 10
103.8765190712531
 20
-132.2709960606823
 10
103.8765190712531
 20
-132.2709960606823
 97
        0
 97
        0
 92
        1
 93
        1
 72
     4
 94
        3
 73
     0
 74
     1
 95
       20
 96
       16
 40
0.0
 40
0.0
 40
0.0
 40
0.0
 40
1.0
 40
1.0
 40
1.0
 40
2.0
 40
2.0
 40
2.0
 40
3.0
 40
3.0
 40
3.0
 40
4.0
 40
4.0
 40
4.0
 40
5.0
 40
5.0
 40
5.0
 40
5.0
 10
104.3471191145382
 20
-130.999066807528
 10
104.3471191145382
 20
-130.999066807528
 10
103.9667805729666
 20
-130.7699679577589
 10
103.9667805729666
 20
-130.7699679577589
 10
103.9667805729666
 20
-130.7699679577589
 10
103.7194227171257
 20
-131.1816568682463
 10
103.7194227171257
 20
-131.1816568682463
 10
103.7194227171257
 20
-131.1816568682463
 10
104.0983832205032
 20
-131.4093776798213
 10
104.0983832205032
 20
-131.4093776798213
 10
104.1834770789889
 20
-131.4607096025515
 10
104.3388508853736
 20
-131.4648437171338
 10
104.427045329796
 20
-131.3180826494622
 10
104.4673529469734
 20
-131.2509032874998
 10
104.5179958506066
 20
-131.1010416338914
 10
104.3471191145382
 20
-130.999066807528
 97
        0
 97
        0
 75
     2
 76
     1
 98
        0
  0
ENDBLK
  5
A4
330
A1
100
AcDbEntity
  8
0
100
AcDbBlockEnd
  0
BLOCK
  5
BF
330
BD
100
AcDbEntity
  8
0
100
AcDbBlockBegin
  2
block 4
 70
     0
 10
0.0
 20
0.0
 30
0.0
  3
block 4
  1

  0
SPLINE
  5
C1
330
BD
100
AcDbEntity
  8
_U+30EC_U+30A4_U+30E4_U+30FC 1
370
     0
100
AcDbSpline
210
0.0
220
0.0
230
1.0
 70
    11
 71
     3
 72
    62
 73
    58
 74
     0
 42
0.0000000001
 43
0.0000000001
 12
1.0
 22
0.0
 32
0.0
 13
1.0
 23
0.0
 33
0.0
 40
0.0
 40
0.0
 40
0.0
 40
0.0
 40
1.0
 40
1.0
 40
1.0
 40
2.0
 40
2.0
 40
2.0
 40
3.0
 40
3.0
 40
3.0
 40
4.0
 40
4.0
 40
4.0
 40
5.0
 40
5.0
 40
5.0
 40
6.0
 40
6.0
 40
6.0
 40
7.0
 40
7.0
 40
7.0
 40
8.0
 40
8.0
 40
8.0
 40
9.0
 40
9.0
 40
9.0
 40
10.0
 40
10.0
 40
10.0
 40
11.0
 40
11.0
 40
11.0
 40
12.0
 40
12.0
 40
12.0
 40
13.0
 40
13.0
 40
13.0
 40
14.0
 40
14.0
 40
14.0
 40
15.0
 40
15.0
 40
15.0
 40
16.0
 40
16.0
 40
16.0
 40
17.0
 40
17.0
 40
17.0
 40
18.0
 40
18.0
 40
18.0
 40
19.0
 40
19.0
 40
19.0
 40
19.0
 10
77.74512530608456
 20
-132.570719367899
 30
0.0
 10
77.66209850489004
 20
-132.6168836474014
 30
0.0
 10
77.46090492855144
 20
-132.7040445631782
 30
0.0
 10
77.261778409504
 20
-132.6017252272662
 30
0.0
 10
77.14257810571436
 20
-132.5397135085317
 30
0.0
 10
77.09055716388708
 20
-132.4546196500461
 30
0.0
 10
77.04611543212737
 20
-132.3826171544044
 30
0.0
 10
77.04611543212737
 20
-132.3826171544044
 30
0.0
 10
77.23835176020431
 20
-132.2761637039101
 30
0.0
 10
77.23835176020431
 20
-132.2761637039101
 30
0.0
 10
77.27624781054205
 20
-132.3398979703873
 30
0.0
 10
77.39923771936547
 20
-132.5400580180803
 30
0.0
 10
77.64694008475493
 20
-132.4025987082188
 30
0.0
 10
77.76751842673868
 20
-132.3357638558049
 30
0.0
 10
77.86673717671387
 20
-132.2010606223317
 30
0.0
 10
77.75614961163735
 20
-132.0009005746387
 30
0.0
 10
77.69965004567926
 20
-131.8996147673723
 30
0.0
 10
77.64280597017263
 20
-131.875154589427
 30
0.0
 10
77.59939776705849
 20
-131.8627522456802
 30
0.0
 10
77.4988009788892
 20
-131.8341579531526
 30
0.0
 10
77.39096949020087
 20
-131.8792887040094
 30
0.0
 10
77.3430826629559
 20
-131.9061604487943
 30
0.0
 10
77.3265462046267
 20
-131.915117697056
 30
0.0
 10
77.29588485480798
 20
-131.9347547413219
 30
0.0
 10
77.27383624370238
 20
-131.9516357091996
 30
0.0
 10
77.27383624370238
 20
-131.9516357091996
 30
0.0
 10
77.17944062740654
 20
-131.7811034826797
 30
0.0
 10
77.17944062740654
 20
-131.7811034826797
 30
0.0
 10
77.21561413000165
 20
-131.7683566293843
 30
0.0
 10
77.25385468988793
 20
-131.7497531137639
 30
0.0
 10
77.25936684266433
 20
-131.7466525278272
 30
0.0
 10
77.31655542771948
 20
-131.7149576493629
 30
0.0
 10
77.48019746326884
 20
-131.5998914601556
 30
0.0
 10
77.36547578361002
 20
-131.3924967119436
 30
0.0
 10
77.27934839647878
 20
-131.2374674151073
 30
0.0
 10
77.13775497203501
 20
-131.2526258352424
 30
0.0
 10
77.04198131754507
 20
-131.3060248152638
 30
0.0
 10
76.81047090093628
 20
-131.4341823673151
 30
0.0
 10
76.91589082278492
 20
-131.6419216250756
 30
0.0
 10
76.9472411917007
 20
-131.7070339297469
 30
0.0
 10
76.9472411917007
 20
-131.7070339297469
 30
0.0
 10
76.7694742646618
 20
-131.805563660625
 30
0.0
 10
76.7694742646618
 20
-131.805563660625
 30
0.0
 10
76.71607528464043
 20
-131.6922200191603
 30
0.0
 10
76.55794540186746
 20
-131.3494330183779
 30
0.0
 10
76.95757647815644
 20
-131.1279133786764
 30
0.0
 10
77.15360241126716
 20
-131.0190483613425
 30
0.0
 10
77.42610946415041
 20
-131.0131916990175
 30
0.0
 10
77.56976994588534
 20
-131.2722628795083
 30
0.0
 10
77.66003144759888
 20
-131.4352158959607
 30
0.0
 10
77.61662324448474
 20
-131.5533826711047
 30
0.0
 10
77.55943465942958
 20
-131.6553574974681
 30
0.0
 10
77.62661402139196
 20
-131.6495008351432
 30
0.0
 10
77.82470701179383
 20
-131.6315863386199
 30
0.0
 10
77.95906573571857
 20
-131.8741210607815
 30
0.0
 10
78.12305228081647
 20
-132.170399272513
 30
0.0
 10
77.98766002824614
 20
-132.4363606439742
 30
0.0
 10
77.74512530608456
 20
-132.570719367899
 30
0.0
  0
HATCH
  5
C2
330
BD
100
AcDbEntity
  8
_U+30EC_U+30A4_U+30E4_U+30FC 1
 62
   179
420
  2234388
100
AcDbHatch
 10
0.0
 20
0.0
 30
0.0
210
0.0
220
0.0
230
1.0
  2
SOLID
 70
     1
 71
     0
 91
        1
 92
        1
 93
        1
 72
     4
 94
        3
 73
     0
 74
     1
 95
       62
 96
       58
 40
0.0
 40
0.0
 40
0.0
 40
0.0
 40
1.0
 40
1.0
 40
1.0
 40
2.0
 40
2.0
 40
2.0
 40
3.0
 40
3.0
 40
3.0
 40
4.0
 40
4.0
 40
4.0
 40
5.0
 40
5.0
 40
5.0
 40
6.0
 40
6.0
 40
6.0
 40
7.0
 40
7.0
 40
7.0
 40
8.0
 40
8.0
 40
8.0
 40
9.0
 40
9.0
 40
9.0
 40
10.0
 40
10.0
 40
10.0
 40
11.0
 40
11.0
 40
11.0
 40
12.0
 40
12.0
 40
12.0
 40
13.0
 40
13.0
 40
13.0
 40
14.0
 40
14.0
 40
14.0
 40
15.0
 40
15.0
 40
15.0
 40
16.0
 40
16.0
 40
16.0
 40
17.0
 40
17.0
 40
17.0
 40
18.0
 40
18.0
 40
18.0
 40
19.0
 40
19.0
 40
19.0
 40
19.0
 10
77.74512530608456
 20
-132.570719367899
 10
77.66209850489004
 20
-132.6168836474014
 10
77.46090492855144
 20
-132.7040445631782
 10
77.261778409504
 20
-132.6017252272662
 10
77.14257810571436
 20
-132.5397135085317
 10
77.09055716388708
 20
-132.4546196500461
 10
77.04611543212737
 20
-132.3826171544044
 10
77.04611543212737
 20
-132.3826171544044
 10
77.23835176020431
 20
-132.2761637039101
 10
77.23835176020431
 20
-132.2761637039101
 10
77.27624781054205
 20
-132.3398979703873
 10
77.39923771936547
 20
-132.5400580180803
 10
77.64694008475493
 20
-132.4025987082188
 10
77.76751842673868
 20
-132.3357638558049
 10
77.86673717671387
 20
-132.2010606223317
 10
77.75614961163735
 20
-132.0009005746387
 10
77.69965004567926
 20
-131.8996147673723
 10
77.64280597017263
 20
-131.875154589427
 10
77.59939776705849
 20
-131.8627522456802
 10
77.4988009788892
 20
-131.8341579531526
 10
77.39096949020087
 20
-131.8792887040094
 10
77.3430826629559
 20
-131.9061604487943
 10
77.3265462046267
 20
-131.915117697056
 10
77.29588485480798
 20
-131.9347547413219
 10
77.27383624370238
 20
-131.9516357091996
 10
77.27383624370238
 20
-131.9516357091996
 10
77.17944062740654
 20
-131.7811034826797
 10
77.17944062740654
 20
-131.7811034826797
 10
77.21561413000165
 20
-131.7683566293843
 10
77.25385468988793
 20
-131.7497531137639
 10
77.25936684266433
 20
-131.7466525278272
 10
77.31655542771948
 20
-131.7149576493629
 10
77.48019746326884
 20
-131.5998914601556
 10
77.36547578361002
 20
-131.3924967119436
 10
77.27934839647878
 20
-131.2374674151073
 10
77.13775497203501
 20
-131.2526258352424
 10
77.04198131754507
 20
-131.3060248152638
 10
76.81047090093628
 20
-131.4341823673151
 10
76.91589082278492
 20
-131.6419216250756
 10
76.9472411917007
 20
-131.7070339297469
 10
76.9472411917007
 20
-131.7070339297469
 10
76.7694742646618
 20
-131.805563660625
 10
76.7694742646618
 20
-131.805563660625
 10
76.71607528464043
 20
-131.6922200191603
 10
76.55794540186746
 20
-131.3494330183779
 10
76.95757647815644
 20
-131.1279133786764
 10
77.15360241126716
 20
-131.0190483613425
 10
77.42610946415041
 20
-131.0131916990175
 10
77.56976994588534
 20
-131.2722628795083
 10
77.66003144759888
 20
-131.4352158959607
 10
77.61662324448474
 20
-131.5533826711047
 10
77.55943465942958
 20
-131.6553574974681
 10
77.62661402139196
 20
-131.6495008351432
 10
77.82470701179383
 20
-131.6315863386199
 10
77.95906573571857
 20
-131.8741210607815
 10
78.12305228081647
 20
-132.170399272513
 10
77.98766002824614
 20
-132.4363606439742
 10
77.74512530608456
 20
-132.570719367899
 97
        0
 97
        0
 75
     2
 76
     1
 98
        0
  0
SPLINE
  5
C3
330
BD
100
AcDbEntity
  8
_U+30EC_U+30A4_U+30E4_U+30FC 1
370
     0
100
AcDbSpline
210
0.0
220
0.0
230
1.0
 70
    11
 71
     3
 72
    29
 73
    25
 74
     0
 42
0.0000000001
 43
0.0000000001
 12
1.0
 22
0.0
 32
0.0
 13
1.0
 23
0.0
 33
0.0
 40
0.0
 40
0.0
 40
0.0
 40
0.0
 40
1.0
 40
1.0
 40
1.0
 40
2.0
 40
2.0
 40
2.0
 40
3.0
 40
3.0
 40
3.0
 40
4.0
 40
4.0
 40
4.0
 40
5.0
 40
5.0
 40
5.0
 40
6.0
 40
6.0
 40
6.0
 40
7.0
 40
7.0
 40
7.0
 40
8.0
 40
8.0
 40
8.0
 40
8.0
 10
79.01877710698142
 20
-131.6033365556409
 30
0.0
 10
79.02635631704896
 20
-131.8389810868319
 30
0.0
 10
78.88372936395963
 20
-131.9395778750012
 30
0.0
 10
78.78175453759623
 20
-131.9960774409593
 30
0.0
 10
78.64119464179804
 20
-132.073936598926
 30
0.0
 10
78.49477808367492
 20
-132.102186381905
 30
0.0
 10
78.32321232850948
 20
-131.9891872499888
 30
0.0
 10
78.13821070095156
 20
-131.8689534175536
 30
0.0
 10
78.00660805341502
 20
-131.6712049367003
 30
0.0
 10
77.9277153668028
 20
-131.5285779836109
 30
0.0
 10
77.85777992845223
 20
-131.4028319983993
 30
0.0
 10
77.75063745886095
 20
-131.1744221677272
 30
0.0
 10
77.74684785382718
 20
-130.9491129229919
 30
0.0
 10
77.74271373924488
 20
-130.7193250541257
 30
0.0
 10
77.87224932949027
 20
-130.6207953232476
 30
0.0
 10
77.98490395185794
 20
-130.5584390949646
 30
0.0
 10
78.12374129991352
 20
-130.4816134656435
 30
0.0
 10
78.2711913866822
 20
-130.4506076062762
 30
0.0
 10
78.44241263229912
 20
-130.5636067381924
 30
0.0
 10
78.62293563572621
 20
-130.6838405706277
 30
0.0
 10
78.75384926416571
 20
-130.8722872936708
 30
0.0
 10
78.83790959400581
 20
-131.0238714950218
 30
0.0
 10
78.92093639520033
 20
-131.1737331486302
 30
0.0
 10
79.01464299239912
 20
-131.3859510305216
 30
0.0
 10
79.01877710698142
 20
-131.6033365556409
 30
0.0
  0
SPLINE
  5
C4
330
BD
100
AcDbEntity
  8
_U+30EC_U+30A4_U+30E4_U+30FC 1
370
     0
100
AcDbSpline
210
0.0
220
0.0
230
1.0
 70
    11
 71
     3
 72
    17
 73
    13
 74
     0
 42
0.0000000001
 43
0.0000000001
 12
1.0
 22
0.0
 32
0.0
 13
1.0
 23
0.0
 33
0.0
 40
0.0
 40
0.0
 40
0.0
 40
0.0
 40
1.0
 40
1.0
 40
1.0
 40
2.0
 40
2.0
 40
2.0
 40
3.0
 40
3.0
 40
3.0
 40
4.0
 40
4.0
 40
4.0
 40
4.0
 10
78.07826603950822
 20
-130.7269042641933
 30
0.0
 10
77.85984698574337
 20
-130.8478271157256
 30
0.0
 10
77.9566541688789
 20
-131.1182671113177
 30
0.0
 10
78.12374129991352
 20
-131.419712966277
 30
0.0
 10
78.27877059674975
 20
-131.6994547196793
 30
0.0
 10
78.4599826192739
 20
-131.9519802187481
 30
0.0
 10
78.68735892130039
 20
-131.825889723988
 30
0.0
 10
78.9040554273226
 20
-131.7060004011013
 30
0.0
 10
78.81000432057527
 20
-131.4359049150577
 30
0.0
 10
78.64188366089509
 20
-131.1327365123557
 30
0.0
 10
78.48719887360737
 20
-130.8533392685019
 30
0.0
 10
78.3042643033406
 20
-130.6015027885302
 30
0.0
 10
78.07826603950822
 20
-130.7269042641933
 30
0.0
  0
HATCH
  5
C5
330
BD
100
AcDbEntity
  8
_U+30EC_U+30A4_U+30E4_U+30FC 1
 62
   179
420
  2234388
100
AcDbHatch
 10
0.0
 20
0.0
 30
0.0
210
0.0
220
0.0
230
1.0
  2
SOLID
 70
     1
 71
     0
 91
        2
 92
        1
 93
        1
 72
     4
 94
        3
 73
     0
 74
     1
 95
       29
 96
       25
 40
0.0
 40
0.0
 40
0.0
 40
0.0
 40
1.0
 40
1.0
 40
1.0
 40
2.0
 40
2.0
 40
2.0
 40
3.0
 40
3.0
 40
3.0
 40
4.0
 40
4.0
 40
4.0
 40
5.0
 40
5.0
 40
5.0
 40
6.0
 40
6.0
 40
6.0
 40
7.0
 40
7.0
 40
7.0
 40
8.0
 40
8.0
 40
8.0
 40
8.0
 10
79.01877710698142
 20
-131.6033365556409
 10
79.02635631704896
 20
-131.8389810868319
 10
78.88372936395963
 20
-131.9395778750012
 10
78.78175453759623
 20
-131.9960774409593
 10
78.64119464179804
 20
-132.073936598926
 10
78.49477808367492
 20
-132.102186381905
 10
78.32321232850948
 20
-131.9891872499888
 10
78.13821070095156
 20
-131.8689534175536
 10
78.00660805341502
 20
-131.6712049367003
 10
77.9277153668028
 20
-131.5285779836109
 10
77.85777992845223
 20
-131.4028319983993
 10
77.75063745886095
 20
-131.1744221677272
 10
77.74684785382718
 20
-130.9491129229919
 10
77.74271373924488
 20
-130.7193250541257
 10
77.87224932949027
 20
-130.6207953232476
 10
77.98490395185794
 20
-130.5584390949646
 10
78.12374129991352
 20
-130.4816134656435
 10
78.2711913866822
 20
-130.4506076062762
 10
78.44241263229912
 20
-130.5636067381924
 10
78.62293563572621
 20
-130.6838405706277
 10
78.75384926416571
 20
-130.8722872936708
 10
78.83790959400581
 20
-131.0238714950218
 10
78.92093639520033
 20
-131.1737331486302
 10
79.01464299239912
 20
-131.3859510305216
 10
79.01877710698142
 20
-131.6033365556409
 97
        0
 97
        0
 92
        1
 93
        1
 72
     4
 94
        3
 73
     0
 74
     1
 95
       17
 96
       13
 40
0.0
 40
0.0
 40
0.0
 40
0.0
 40
1.0
 40
1.0
 40
1.0
 40
2.0
 40
2.0
 40
2.0
 40
3.0
 40
3.0
 40
3.0
 40
4.0
 40
4.0
 40
4.0
 40
4.0
 10
78.07826603950822
 20
-130.7269042641933
 10
77.85984698574337
 20
-130.8478271157256
 10
77.9566541688789
 20
-131.1182671113177
 10
78.12374129991352
 20
-131.419712966277
 10
78.27877059674975
 20
-131.6994547196793
 10
78.4599826192739
 20
-131.9519802187481
 10
78.68735892130039
 20
-131.825889723988
 10
78.9040554273226
 20
-131.7060004011013
 10
78.81000432057527
 20
-131.4359049150577
 10
78.64188366089509
 20
-131.1327365123557
 10
78.48719887360737
 20
-130.8533392685019
 10
78.3042643033406
 20
-130.6015027885302
 10
78.07826603950822
 20
-130.7269042641933
 97
        0
 97
        0
 75
     2
 76
     1
 98
        0
  0
POLYLINE
  5
C6
330
BD
100
AcDbEntity
  8
_U+30EC_U+30A4_U+30E4_U+30FC 1
370
     0
100
AcDb2dPolyline
 66
     1
 10
0.0
 20
0.0
 30
0.0
  0
VERTEX
  5
C7
330
C6
100
AcDbEntity
  8
_U+30EC_U+30A4_U+30E4_U+30FC 1
370
     0
100
AcDbVertex
100
AcDb2dVertex
 10
80.30276419433403
 20
-131.094840462018
 30
0.0
  0
VERTEX
  5
C8
330
C6
100
AcDbEntity
  8
_U+30EC_U+30A4_U+30E4_U+30FC 1
370
     0
100
AcDbVertex
100
AcDb2dVertex
 10
79.96135523174577
 20
-130.4788573892553
 30
0.0
  0
VERTEX
  5
C9
330
C6
100
AcDbEntity
  8
_U+30EC_U+30A4_U+30E4_U+30FC 1
370
     0
100
AcDbVertex
100
AcDb2dVertex
 10
79.30609807045126
 20
-130.8419704534006
 30
0.0
  0
VERTEX
  5
CA
330
C6
100
AcDbEntity
  8
_U+30EC_U+30A4_U+30E4_U+30FC 1
370
     0
100
AcDbVertex
100
AcDb2dVertex
 10
79.64785154258804
 20
-131.4579535261633
 30
0.0
  0
VERTEX
  5
CB
330
C6
100
AcDbEntity
  8
_U+30EC_U+30A4_U+30E4_U+30FC 1
370
     0
100
AcDbVertex
100
AcDb2dVertex
 10
79.44252385166715
 20
-131.5716416771765
 30
0.0
  0
VERTEX
  5
CC
330
C6
100
AcDbEntity
  8
_U+30EC_U+30A4_U+30E4_U+30FC 1
370
     0
100
AcDbVertex
100
AcDb2dVertex
 10
78.69356009317383
 20
-130.2211642469586
 30
0.0
  0
VERTEX
  5
CD
330
C6
100
AcDbEntity
  8
_U+30EC_U+30A4_U+30E4_U+30FC 1
370
     0
100
AcDbVertex
100
AcDb2dVertex
 10
78.89923229364325
 20
-130.1074760959454
 30
0.0
  0
VERTEX
  5
CE
330
C6
100
AcDbEntity
  8
_U+30EC_U+30A4_U+30E4_U+30FC 1
370
     0
100
AcDbVertex
100
AcDb2dVertex
 10
79.20377873453934
 20
-130.6569688258427
 30
0.0
  0
VERTEX
  5
CF
330
C6
100
AcDbEntity
  8
_U+30EC_U+30A4_U+30E4_U+30FC 1
370
     0
100
AcDbVertex
100
AcDb2dVertex
 10
79.85869138628533
 20
-130.2938557616974
 30
0.0
  0
VERTEX
  5
D0
330
C6
100
AcDbEntity
  8
_U+30EC_U+30A4_U+30E4_U+30FC 1
370
     0
100
AcDbVertex
100
AcDb2dVertex
 10
79.55414494538924
 20
-129.7443630318
 30
0.0
  0
VERTEX
  5
D1
330
C6
100
AcDbEntity
  8
_U+30EC_U+30A4_U+30E4_U+30FC 1
370
     0
100
AcDbVertex
100
AcDb2dVertex
 10
79.75947263631014
 20
-129.6303303712382
 30
0.0
  0
VERTEX
  5
D2
330
C6
100
AcDbEntity
  8
_U+30EC_U+30A4_U+30E4_U+30FC 1
370
     0
100
AcDbVertex
100
AcDb2dVertex
 10
80.50843639480345
 20
-130.9811523110047
 30
0.0
  0
VERTEX
  5
D3
330
C6
100
AcDbEntity
  8
_U+30EC_U+30A4_U+30E4_U+30FC 1
370
     0
100
AcDbVertex
100
AcDb2dVertex
 10
80.30276419433403
 20
-131.094840462018
 30
0.0
  0
SEQEND
  5
D4
330
C6
100
AcDbEntity
  8
_U+30EC_U+30A4_U+30E4_U+30FC 1
370
     0
  0
HATCH
  5
D5
330
BD
100
AcDbEntity
  8
_U+30EC_U+30A4_U+30E4_U+30FC 1
 62
   179
420
  2234388
100
AcDbHatch
 10
0.0
 20
0.0
 30
0.0
210
0.0
220
0.0
230
1.0
  2
SOLID
 70
     1
 71
     0
 91
        1
 92
        1
 93
       12
 72
     1
 10
80.30276419433403
 20
-131.094840462018
 11
79.96135523174577
 21
-130.4788573892553
 72
     1
 10
79.96135523174577
 20
-130.4788573892553
 11
79.30609807045126
 21
-130.8419704534006
 72
     1
 10
79.30609807045126
 20
-130.8419704534006
 11
79.64785154258804
 21
-131.4579535261633
 72
     1
 10
79.64785154258804
 20
-131.4579535261633
 11
79.44252385166715
 21
-131.5716416771765
 72
     1
 10
79.44252385166715
 20
-131.5716416771765
 11
78.69356009317383
 21
-130.2211642469586
 72
     1
 10
78.69356009317383
 20
-130.2211642469586
 11
78.89923229364325
 21
-130.1074760959454
 72
     1
 10
78.89923229364325
 20
-130.1074760959454
 11
79.20377873453934
 21
-130.6569688258427
 72
     1
 10
79.20377873453934
 20
-130.6569688258427
 11
79.85869138628533
 21
-130.2938557616974
 72
     1
 10
79.85869138628533
 20
-130.2938557616974
 11
79.55414494538924
 21
-129.7443630318
 72
     1
 10
79.55414494538924
 20
-129.7443630318
 11
79.75947263631014
 21
-129.6303303712382
 72
     1
 10
79.75947263631014
 20
-129.6303303712382
 11
80.50843639480345
 21
-130.9811523110047
 72
     1
 10
80.50843639480345
 20
-130.9811523110047
 11
80.30276419433403
 21
-131.094840462018
 97
        0
 75
     2
 76
     1
 98
        0
  0
SPLINE
  5
D6
330
BD
100
AcDbEntity
  8
_U+30EC_U+30A4_U+30E4_U+30FC 1
370
     0
100
AcDbSpline
210
0.0
220
0.0
230
1.0
 70
    11
 71
     3
 72
    44
 73
    40
 74
     0
 42
0.0000000001
 43
0.0000000001
 12
1.0
 22
0.0
 32
0.0
 13
1.0
 23
0.0
 33
0.0
 40
0.0
 40
0.0
 40
0.0
 40
0.0
 40
1.0
 40
1.0
 40
1.0
 40
2.0
 40
2.0
 40
2.0
 40
3.0
 40
3.0
 40
3.0
 40
4.0
 40
4.0
 40
4.0
 40
5.0
 40
5.0
 40
5.0
 40
6.0
 40
6.0
 40
6.0
 40
7.0
 40
7.0
 40
7.0
 40
8.0
 40
8.0
 40
8.0
 40
9.0
 40
9.0
 40
9.0
 40
10.0
 40
10.0
 40
10.0
 40
11.0
 40
11.0
 40
11.0
 40
12.0
 40
12.0
 40
12.0
 40
13.0
 40
13.0
 40
13.0
 40
13.0
 10
81.6411837903536
 20
-130.3527668944951
 30
0.0
 10
81.59915362543354
 20
-130.3252061306131
 30
0.0
 10
81.55540091277088
 20
-130.2893771375666
 30
0.0
 10
81.4413682522091
 20
-130.088872580325
 30
0.0
 10
81.3201008911283
 20
-129.8780327366277
 30
0.0
 10
81.23466252309412
 20
-129.8456488390664
 30
0.0
 10
81.07894420716082
 20
-129.9317762261976
 30
0.0
 10
81.07894420716082
 20
-129.9317762261976
 30
0.0
 10
80.72203231488893
 20
-130.1298692165995
 30
0.0
 10
80.72203231488893
 20
-130.1298692165995
 30
0.0
 10
80.72203231488893
 20
-130.1298692165995
 30
0.0
 10
81.03277992765848
 20
-130.6903862520496
 30
0.0
 10
81.03277992765848
 20
-130.6903862520496
 30
0.0
 10
81.03277992765848
 20
-130.6903862520496
 30
0.0
 10
80.82745223673759
 20
-130.8040744030629
 30
0.0
 10
80.82745223673759
 20
-130.8040744030629
 30
0.0
 10
80.82745223673759
 20
-130.8040744030629
 30
0.0
 10
80.07848847824427
 20
-129.4535969728449
 30
0.0
 10
80.07848847824427
 20
-129.4535969728449
 30
0.0
 10
80.07848847824427
 20
-129.4535969728449
 30
0.0
 10
80.66863333486756
 20
-129.1263129017462
 30
0.0
 10
80.66863333486756
 20
-129.1263129017462
 30
0.0
 10
80.93700627316854
 20
-128.9778292863319
 30
0.0
 10
81.16644963248616
 20
-129.0463866864884
 30
0.0
 10
81.29047306995517
 20
-129.2703178930296
 30
0.0
 10
81.31527775744897
 20
-129.3147596247894
 30
0.0
 10
81.34766165501031
 20
-129.3908962350134
 30
0.0
 10
81.34766165501031
 20
-129.4832247940181
 30
0.0
 10
81.34628361681621
 20
-129.6024250978077
 30
0.0
 10
81.29805228002272
 20
-129.6506564346012
 30
0.0
 10
81.25257701961742
 20
-129.695098166361
 30
0.0
 10
81.39348142496414
 20
-129.6654703451878
 30
0.0
 10
81.47616371661013
 20
-129.675461122095
 30
0.0
 10
81.63257105164047
 20
-129.9490017036239
 30
0.0
 10
81.76761879466227
 20
-130.1836127061694
 30
0.0
 10
81.81447209326166
 20
-130.1942925021737
 30
0.0
 10
81.90025497084439
 20
-130.2094509223087
 30
0.0
 10
81.90025497084439
 20
-130.2094509223087
 30
0.0
 10
81.6411837903536
 20
-130.3527668944951
 30
0.0
 10
81.6411837903536
 20
-130.3527668944951
 30
0.0
  0
SPLINE
  5
D7
330
BD
100
AcDbEntity
  8
_U+30EC_U+30A4_U+30E4_U+30FC 1
370
     0
100
AcDbSpline
210
0.0
220
0.0
230
1.0
 70
    11
 71
     3
 72
    20
 73
    16
 74
     0
 42
0.0000000001
 43
0.0000000001
 12
1.0
 22
0.0
 32
0.0
 13
1.0
 23
0.0
 33
0.0
 40
0.0
 40
0.0
 40
0.0
 40
0.0
 40
1.0
 40
1.0
 40
1.0
 40
2.0
 40
2.0
 40
2.0
 40
3.0
 40
3.0
 40
3.0
 40
4.0
 40
4.0
 40
4.0
 40
5.0
 40
5.0
 40
5.0
 40
5.0
 10
80.7750867853618
 20
-129.309247472013
 30
0.0
 10
80.7750867853618
 20
-129.309247472013
 30
0.0
 10
80.3864800146256
 20
-129.5245659398411
 30
0.0
 10
80.3864800146256
 20
-129.5245659398411
 30
0.0
 10
80.3864800146256
 20
-129.5245659398411
 30
0.0
 10
80.6193684694285
 20
-129.9448675890416
 30
0.0
 10
80.6193684694285
 20
-129.9448675890416
 30
0.0
 10
80.6193684694285
 20
-129.9448675890416
 30
0.0
 10
81.00590818287353
 20
-129.730582649859
 30
0.0
 10
81.00590818287353
 20
-129.730582649859
 30
0.0
 10
81.09306909865035
 20
-129.6823513130655
 30
0.0
 10
81.17437335210225
 20
-129.5500596464319
 30
0.0
 10
81.09134655090772
 20
-129.4001979928236
 30
0.0
 10
81.05345050056998
 20
-129.3316405926671
 30
0.0
 10
80.94906410736691
 20
-129.212784798426
 30
0.0
 10
80.7750867853618
 20
-129.309247472013
 30
0.0
  0
HATCH
  5
D8
330
BD
100
AcDbEntity
  8
_U+30EC_U+30A4_U+30E4_U+30FC 1
 62
   179
420
  2234388
100
AcDbHatch
 10
0.0
 20
0.0
 30
0.0
210
0.0
220
0.0
230
1.0
  2
SOLID
 70
     1
 71
     0
 91
        2
 92
        1
 93
        1
 72
     4
 94
        3
 73
     0
 74
     1
 95
       44
 96
       40
 40
0.0
 40
0.0
 40
0.0
 40
0.0
 40
1.0
 40
1.0
 40
1.0
 40
2.0
 40
2.0
 40
2.0
 40
3.0
 40
3.0
 40
3.0
 40
4.0
 40
4.0
 40
4.0
 40
5.0
 40
5.0
 40
5.0
 40
6.0
 40
6.0
 40
6.0
 40
7.0
 40
7.0
 40
7.0
 40
8.0
 40
8.0
 40
8.0
 40
9.0
 40
9.0
 40
9.0
 40
10.0
 40
10.0
 40
10.0
 40
11.0
 40
11.0
 40
11.0
 40
12.0
 40
12.0
 40
12.0
 40
13.0
 40
13.0
 40
13.0
 40
13.0
 10
81.6411837903536
 20
-130.3527668944951
 10
81.59915362543354
 20
-130.3252061306131
 10
81.55540091277088
 20
-130.2893771375666
 10
81.4413682522091
 20
-130.088872580325
 10
81.3201008911283
 20
-129.8780327366277
 10
81.23466252309412
 20
-129.8456488390664
 10
81.07894420716082
 20
-129.9317762261976
 10
81.07894420716082
 20
-129.9317762261976
 10
80.72203231488893
 20
-130.1298692165995
 10
80.72203231488893
 20
-130.1298692165995
 10
80.72203231488893
 20
-130.1298692165995
 10
81.03277992765848
 20
-130.6903862520496
 10
81.03277992765848
 20
-130.6903862520496
 10
81.03277992765848
 20
-130.6903862520496
 10
80.82745223673759
 20
-130.8040744030629
 10
80.82745223673759
 20
-130.8040744030629
 10
80.82745223673759
 20
-130.8040744030629
 10
80.07848847824427
 20
-129.4535969728449
 10
80.07848847824427
 20
-129.4535969728449
 10
80.07848847824427
 20
-129.4535969728449
 10
80.66863333486756
 20
-129.1263129017462
 10
80.66863333486756
 20
-129.1263129017462
 10
80.93700627316854
 20
-128.9778292863319
 10
81.16644963248616
 20
-129.0463866864884
 10
81.29047306995517
 20
-129.2703178930296
 10
81.31527775744897
 20
-129.3147596247894
 10
81.34766165501031
 20
-129.3908962350134
 10
81.34766165501031
 20
-129.4832247940181
 10
81.34628361681621
 20
-129.6024250978077
 10
81.29805228002272
 20
-129.6506564346012
 10
81.25257701961742
 20
-129.695098166361
 10
81.39348142496414
 20
-129.6654703451878
 10
81.47616371661013
 20
-129.675461122095
 10
81.63257105164047
 20
-129.9490017036239
 10
81.76761879466227
 20
-130.1836127061694
 10
81.81447209326166
 20
-130.1942925021737
 10
81.90025497084439
 20
-130.2094509223087
 10
81.90025497084439
 20
-130.2094509223087
 10
81.6411837903536
 20
-130.3527668944951
 10
81.6411837903536
 20
-130.3527668944951
 97
        0
 97
        0
 92
        1
 93
        1
 72
     4
 94
        3
 73
     0
 74
     1
 95
       20
 96
       16
 40
0.0
 40
0.0
 40
0.0
 40
0.0
 40
1.0
 40
1.0
 40
1.0
 40
2.0
 40
2.0
 40
2.0
 40
3.0
 40
3.0
 40
3.0
 40
4.0
 40
4.0
 40
4.0
 40
5.0
 40
5.0
 40
5.0
 40
5.0
 10
80.7750867853618
 20
-129.309247472013
 10
80.7750867853618
 20
-129.309247472013
 10
80.3864800146256
 20
-129.5245659398411
 10
80.3864800146256
 20
-129.5245659398411
 10
80.3864800146256
 20
-129.5245659398411
 10
80.6193684694285
 20
-129.9448675890416
 10
80.6193684694285
 20
-129.9448675890416
 10
80.6193684694285
 20
-129.9448675890416
 10
81.00590818287353
 20
-129.730582649859
 10
81.00590818287353
 20
-129.730582649859
 10
81.09306909865035
 20
-129.6823513130655
 10
81.17437335210225
 20
-129.5500596464319
 10
81.09134655090772
 20
-129.4001979928236
 10
81.05345050056998
 20
-129.3316405926671
 10
80.94906410736691
 20
-129.212784798426
 10
80.7750867853618
 20
-129.309247472013
 97
        0
 97
        0
 75
     2
 76
     1
 98
        0
  0
ENDBLK
  5
C0
330
BD
100
AcDbEntity
  8
0
100
AcDbBlockEnd
  0
BLOCK
  5
DB
330
D9
100
AcDbEntity
  8
0
100
AcDbBlockBegin
  2
block 5
 70
     0
 10
0.0
 20
0.0
 30
0.0
  3
block 5
  1

  0
SPLINE
  5
DD
330
D9
100
AcDbEntity
  8
_U+30EC_U+30A4_U+30E4_U+30FC 1
370
     0
100
AcDbSpline
210
0.0
220
0.0
230
1.0
 70
    11
 71
     3
 72
    44
 73
    40
 74
     0
 42
0.0000000001
 43
0.0000000001
 12
1.0
 22
0.0
 32
0.0
 13
1.0
 23
0.0
 33
0.0
 40
0.0
 40
0.0
 40
0.0
 40
0.0
 40
1.0
 40
1.0
 40
1.0
 40
2.0
 40
2.0
 40
2.0
 40
3.0
 40
3.0
 40
3.0
 40
4.0
 40
4.0
 40
4.0
 40
5.0
 40
5.0
 40
5.0
 40
6.0
 40
6.0
 40
6.0
 40
7.0
 40
7.0
 40
7.0
 40
8.0
 40
8.0
 40
8.0
 40
9.0
 40
9.0
 40
9.0
 40
10.0
 40
10.0
 40
10.0
 40
11.0
 40
11.0
 40
11.0
 40
12.0
 40
12.0
 40
12.0
 40
13.0
 40
13.0
 40
13.0
 40
13.0
 10
87.9581108721077
 20
-139.9084282419326
 30
0.0
 10
87.84855683567676
 20
-140.154752569128
 30
0.0
 10
87.8051486325626
 20
-140.265684643753
 30
0.0
 10
87.83477645373576
 20
-140.4145127687158
 30
0.0
 10
87.83477645373576
 20
-140.4145127687158
 30
0.0
 10
88.50898164019915
 20
-140.0252169788826
 30
0.0
 10
88.50898164019915
 20
-140.0252169788826
 30
0.0
 10
88.50898164019915
 20
-140.0252169788826
 30
0.0
 10
88.61130097611107
 20
-140.2026393963729
 30
0.0
 10
88.61130097611107
 20
-140.2026393963729
 30
0.0
 10
88.61130097611107
 20
-140.2026393963729
 30
0.0
 10
87.7210883027225
 20
-140.7166476427722
 30
0.0
 10
87.7210883027225
 20
-140.7166476427722
 30
0.0
 10
87.56984861092005
 20
-140.3910861194161
 30
0.0
 10
87.58741859789481
 20
-140.2904893312468
 30
0.0
 10
87.77207571590421
 20
-139.8398708417762
 30
0.0
 10
87.89403209608206
 20
-139.5398030250109
 30
0.0
 10
87.91711423583322
 20
-139.4485079946518
 30
0.0
 10
87.84821232612823
 20
-139.3293076908621
 30
0.0
 10
87.78895668378193
 20
-139.2266438454017
 30
0.0
 10
87.66114364127917
 20
-139.1491291969836
 30
0.0
 10
87.49095592430783
 20
-139.2473144183132
 30
0.0
 10
87.26564667957248
 20
-139.3775390276556
 30
0.0
 10
87.3734781682608
 20
-139.5814886803824
 30
0.0
 10
87.42791067692775
 20
-139.6844970353914
 30
0.0
 10
87.42791067692775
 20
-139.6844970353914
 30
0.0
 10
87.23395180110818
 20
-139.796462638662
 30
0.0
 10
87.23395180110818
 20
-139.796462638662
 30
0.0
 10
87.17779674469861
 20
-139.6824299781002
 30
0.0
 10
87.13059893655068
 20
-139.5801106421883
 30
0.0
 10
87.14093422300644
 20
-139.4371391795505
 30
0.0
 10
87.15609264314153
 20
-139.2428357941824
 30
0.0
 10
87.30009763442499
 20
-139.120534904456
 30
0.0
 10
87.4010389321428
 20
-139.0619682812067
 30
0.0
 10
87.6411620874647
 20
-138.9234754426997
 30
0.0
 10
87.9126356117024
 20
-138.9792859895607
 30
0.0
 10
88.04906139291829
 20
-139.2156195398489
 30
0.0
 10
88.16309405348007
 20
-139.4133680207022
 30
0.0
 10
88.11245114984689
 20
-139.5580620310827
 30
0.0
 10
87.9581108721077
 20
-139.9084282419326
 30
0.0
  0
HATCH
  5
DE
330
D9
100
AcDbEntity
  8
_U+30EC_U+30A4_U+30E4_U+30FC 1
 62
   179
420
  2234388
100
AcDbHatch
 10
0.0
 20
0.0
 30
0.0
210
0.0
220
0.0
230
1.0
  2
SOLID
 70
     1
 71
     0
 91
        1
 92
        1
 93
        1
 72
     4
 94
        3
 73
     0
 74
     1
 95
       44
 96
       40
 40
0.0
 40
0.0
 40
0.0
 40
0.0
 40
1.0
 40
1.0
 40
1.0
 40
2.0
 40
2.0
 40
2.0
 40
3.0
 40
3.0
 40
3.0
 40
4.0
 40
4.0
 40
4.0
 40
5.0
 40
5.0
 40
5.0
 40
6.0
 40
6.0
 40
6.0
 40
7.0
 40
7.0
 40
7.0
 40
8.0
 40
8.0
 40
8.0
 40
9.0
 40
9.0
 40
9.0
 40
10.0
 40
10.0
 40
10.0
 40
11.0
 40
11.0
 40
11.0
 40
12.0
 40
12.0
 40
12.0
 40
13.0
 40
13.0
 40
13.0
 40
13.0
 10
87.9581108721077
 20
-139.9084282419326
 10
87.84855683567676
 20
-140.154752569128
 10
87.8051486325626
 20
-140.265684643753
 10
87.83477645373576
 20
-140.4145127687158
 10
87.83477645373576
 20
-140.4145127687158
 10
88.50898164019915
 20
-140.0252169788826
 10
88.50898164019915
 20
-140.0252169788826
 10
88.50898164019915
 20
-140.0252169788826
 10
88.61130097611107
 20
-140.2026393963729
 10
88.61130097611107
 20
-140.2026393963729
 10
88.61130097611107
 20
-140.2026393963729
 10
87.7210883027225
 20
-140.7166476427722
 10
87.7210883027225
 20
-140.7166476427722
 10
87.56984861092005
 20
-140.3910861194161
 10
87.58741859789481
 20
-140.2904893312468
 10
87.77207571590421
 20
-139.8398708417762
 10
87.89403209608206
 20
-139.5398030250109
 10
87.91711423583322
 20
-139.4485079946518
 10
87.84821232612823
 20
-139.3293076908621
 10
87.78895668378193
 20
-139.2266438454017
 10
87.66114364127917
 20
-139.1491291969836
 10
87.49095592430783
 20
-139.2473144183132
 10
87.26564667957248
 20
-139.3775390276556
 10
87.3734781682608
 20
-139.5814886803824
 10
87.42791067692775
 20
-139.6844970353914
 10
87.42791067692775
 20
-139.6844970353914
 10
87.23395180110818
 20
-139.796462638662
 10
87.23395180110818
 20
-139.796462638662
 10
87.17779674469861
 20
-139.6824299781002
 10
87.13059893655068
 20
-139.5801106421883
 10
87.14093422300644
 20
-139.4371391795505
 10
87.15609264314153
 20
-139.2428357941824
 10
87.30009763442499
 20
-139.120534904456
 10
87.4010389321428
 20
-139.0619682812067
 10
87.6411620874647
 20
-138.9234754426997
 10
87.9126356117024
 20
-138.9792859895607
 10
88.04906139291829
 20
-139.2156195398489
 10
88.16309405348007
 20
-139.4133680207022
 10
88.11245114984689
 20
-139.5580620310827
 10
87.9581108721077
 20
-139.9084282419326
 97
        0
 97
        0
 75
     2
 76
     1
 98
        0
  0
SPLINE
  5
DF
330
D9
100
AcDbEntity
  8
_U+30EC_U+30A4_U+30E4_U+30FC 1
370
     0
100
AcDbSpline
210
0.0
220
0.0
230
1.0
 70
    11
 71
     3
 72
    29
 73
    25
 74
     0
 42
0.0000000001
 43
0.0000000001
 12
1.0
 22
0.0
 32
0.0
 13
1.0
 23
0.0
 33
0.0
 40
0.0
 40
0.0
 40
0.0
 40
0.0
 40
1.0
 40
1.0
 40
1.0
 40
2.0
 40
2.0
 40
2.0
 40
3.0
 40
3.0
 40
3.0
 40
4.0
 40
4.0
 40
4.0
 40
5.0
 40
5.0
 40
5.0
 40
6.0
 40
6.0
 40
6.0
 40
7.0
 40
7.0
 40
7.0
 40
8.0
 40
8.0
 40
8.0
 40
8.0
 10
89.44294702625038
 20
-139.5174099043568
 30
0.0
 10
89.4543158413517
 20
-139.7530544355479
 30
0.0
 10
89.31375594555351
 20
-139.8560627905568
 30
0.0
 10
89.21281464783569
 20
-139.9142849042576
 30
0.0
 10
89.0736327902316
 20
-139.9949001386124
 30
0.0
 10
88.927560741657
 20
-140.0252169788826
 30
0.0
 10
88.75392792920042
 20
-139.9153184329031
 30
0.0
 10
88.56720375389988
 20
-139.7985296959532
 30
0.0
 10
88.43215601087807
 20
-139.602848272391
 30
0.0
 10
88.35050724787766
 20
-139.4615993574957
 30
0.0
 10
88.27850475223593
 20
-139.3372314104782
 30
0.0
 10
88.16757267761089
 20
-139.1108886370973
 30
0.0
 10
88.15964895799482
 20
-138.8855793923619
 30
0.0
 10
88.15172523837875
 20
-138.6557915234958
 30
0.0
 10
88.27919377133298
 20
-138.5551947353265
 30
0.0
 10
88.39081486505508
 20
-138.4907714497523
 30
0.0
 10
88.52827417491655
 20
-138.4115342535916
 30
0.0
 10
88.6750352425882
 20
-138.3781168273846
 30
0.0
 10
88.84832354549626
 20
-138.4880153733641
 30
0.0
 10
89.0309136062145
 20
-138.6048041103141
 30
0.0
 10
89.16527233013925
 20
-138.7911837760661
 30
0.0
 10
89.25208873636754
 20
-138.941389939223
 30
0.0
 10
89.33752710440173
 20
-139.0898735546373
 30
0.0
 10
89.43467879708578
 20
-139.3000243792375
 30
0.0
 10
89.44294702625038
 20
-139.5174099043568
 30
0.0
  0
SPLINE
  5
E0
330
D9
100
AcDbEntity
  8
_U+30EC_U+30A4_U+30E4_U+30FC 1
370
     0
100
AcDbSpline
210
0.0
220
0.0
230
1.0
 70
    11
 71
     3
 72
    17
 73
    13
 74
     0
 42
0.0000000001
 43
0.0000000001
 12
1.0
 22
0.0
 32
0.0
 13
1.0
 23
0.0
 33
0.0
 40
0.0
 40
0.0
 40
0.0
 40
0.0
 40
1.0
 40
1.0
 40
1.0
 40
2.0
 40
2.0
 40
2.0
 40
3.0
 40
3.0
 40
3.0
 40
4.0
 40
4.0
 40
4.0
 40
4.0
 10
88.48727753864208
 20
-138.6575140712384
 30
0.0
 10
88.27092554216838
 20
-138.7822265278045
 30
0.0
 10
88.37255585898325
 20
-139.050943975654
 30
0.0
 10
88.54481063324575
 20
-139.3496337542251
 30
0.0
 10
88.70466306376134
 20
-139.6262749216907
 30
0.0
 10
88.8903537104163
 20
-139.8756998348227
 30
0.0
 10
89.11531844560312
 20
-139.7458197350288
 30
0.0
 10
89.32994789433418
 20
-139.6221408071084
 30
0.0
 10
89.23141816345604
 20
-139.3537678688074
 30
0.0
 10
89.05778535099945
 20
-139.0533555424936
 30
0.0
 10
88.89827743003238
 20
-138.7767143750281
 30
0.0
 10
88.71051972608626
 20
-138.5286675000901
 30
0.0
 10
88.48727753864208
 20
-138.6575140712384
 30
0.0
  0
HATCH
  5
E1
330
D9
100
AcDbEntity
  8
_U+30EC_U+30A4_U+30E4_U+30FC 1
 62
   179
420
  2234388
100
AcDbHatch
 10
0.0
 20
0.0
 30
0.0
210
0.0
220
0.0
230
1.0
  2
SOLID
 70
     1
 71
     0
 91
        2
 92
        1
 93
        1
 72
     4
 94
        3
 73
     0
 74
     1
 95
       29
 96
       25
 40
0.0
 40
0.0
 40
0.0
 40
0.0
 40
1.0
 40
1.0
 40
1.0
 40
2.0
 40
2.0
 40
2.0
 40
3.0
 40
3.0
 40
3.0
 40
4.0
 40
4.0
 40
4.0
 40
5.0
 40
5.0
 40
5.0
 40
6.0
 40
6.0
 40
6.0
 40
7.0
 40
7.0
 40
7.0
 40
8.0
 40
8.0
 40
8.0
 40
8.0
 10
89.44294702625038
 20
-139.5174099043568
 10
89.4543158413517
 20
-139.7530544355479
 10
89.31375594555351
 20
-139.8560627905568
 10
89.21281464783569
 20
-139.9142849042576
 10
89.0736327902316
 20
-139.9949001386124
 10
88.927560741657
 20
-140.0252169788826
 10
88.75392792920042
 20
-139.9153184329031
 10
88.56720375389988
 20
-139.7985296959532
 10
88.43215601087807
 20
-139.602848272391
 10
88.35050724787766
 20
-139.4615993574957
 10
88.27850475223593
 20
-139.3372314104782
 10
88.16757267761089
 20
-139.1108886370973
 10
88.15964895799482
 20
-138.8855793923619
 10
88.15172523837875
 20
-138.6557915234958
 10
88.27919377133298
 20
-138.5551947353265
 10
88.39081486505508
 20
-138.4907714497523
 10
88.52827417491655
 20
-138.4115342535916
 10
88.6750352425882
 20
-138.3781168273846
 10
88.84832354549626
 20
-138.4880153733641
 10
89.0309136062145
 20
-138.6048041103141
 10
89.16527233013925
 20
-138.7911837760661
 10
89.25208873636754
 20
-138.941389939223
 10
89.33752710440173
 20
-139.0898735546373
 10
89.43467879708578
 20
-139.3000243792375
 10
89.44294702625038
 20
-139.5174099043568
 97
        0
 97
        0
 92
        1
 93
        1
 72
     4
 94
        3
 73
     0
 74
     1
 95
       17
 96
       13
 40
0.0
 40
0.0
 40
0.0
 40
0.0
 40
1.0
 40
1.0
 40
1.0
 40
2.0
 40
2.0
 40
2.0
 40
3.0
 40
3.0
 40
3.0
 40
4.0
 40
4.0
 40
4.0
 40
4.0
 10
88.48727753864208
 20
-138.6575140712384
 10
88.27092554216838
 20
-138.7822265278045
 10
88.37255585898325
 20
-139.050943975654
 10
88.54481063324575
 20
-139.3496337542251
 10
88.70466306376134
 20
-139.6262749216907
 10
88.8903537104163
 20
-139.8756998348227
 10
89.11531844560312
 20
-139.7458197350288
 10
89.32994789433418
 20
-139.6221408071084
 10
89.23141816345604
 20
-139.3537678688074
 10
89.05778535099945
 20
-139.0533555424936
 10
88.89827743003238
 20
-138.7767143750281
 10
88.71051972608626
 20
-138.5286675000901
 10
88.48727753864208
 20
-138.6575140712384
 97
        0
 97
        0
 75
     2
 76
     1
 98
        0
  0
SPLINE
  5
E2
330
D9
100
AcDbEntity
  8
_U+30EC_U+30A4_U+30E4_U+30FC 1
370
     0
100
AcDbSpline
210
0.0
220
0.0
230
1.0
 70
    11
 71
     3
 72
    29
 73
    25
 74
     0
 42
0.0000000001
 43
0.0000000001
 12
1.0
 22
0.0
 32
0.0
 13
1.0
 23
0.0
 33
0.0
 40
0.0
 40
0.0
 40
0.0
 40
0.0
 40
1.0
 40
1.0
 40
1.0
 40
2.0
 40
2.0
 40
2.0
 40
3.0
 40
3.0
 40
3.0
 40
4.0
 40
4.0
 40
4.0
 40
5.0
 40
5.0
 40
5.0
 40
6.0
 40
6.0
 40
6.0
 40
7.0
 40
7.0
 40
7.0
 40
8.0
 40
8.0
 40
8.0
 40
8.0
 10
90.46200627078728
 20
-138.9289875954761
 30
0.0
 10
90.47371959543713
 20
-139.1646321266672
 30
0.0
 10
90.33281519009041
 20
-139.2676404816762
 30
0.0
 10
90.23187389237259
 20
-139.3258625953769
 30
0.0
 10
90.0926920347685
 20
-139.4064778297317
 30
0.0
 10
89.94661998619391
 20
-139.4367946700019
 30
0.0
 10
89.7729871737373
 20
-139.3268961240225
 30
0.0
 10
89.58626299843677
 20
-139.2101073870725
 30
0.0
 10
89.45121525541498
 20
-139.0144259635103
 30
0.0
 10
89.36991100196308
 20
-138.873177048615
 30
0.0
 10
89.29790850632136
 20
-138.7488091015975
 30
0.0
 10
89.1866319221478
 20
-138.5224663282166
 30
0.0
 10
89.17870820253171
 20
-138.2971570834813
 30
0.0
 10
89.17078448291564
 20
-138.0673692146151
 30
0.0
 10
89.29825301586989
 20
-137.9667724264458
 30
0.0
 10
89.40987410959198
 20
-137.9023491408716
 30
0.0
 10
89.54767792900198
 20
-137.8231119447109
 30
0.0
 10
89.69443899667361
 20
-137.789694518504
 30
0.0
 10
89.86772729958169
 20
-137.8995930644834
 30
0.0
 10
90.0499728507514
 20
-138.0163818014334
 30
0.0
 10
90.18433157467615
 20
-138.2027614671854
 30
0.0
 10
90.27114798090444
 20
-138.3529676303423
 30
0.0
 10
90.35658634893863
 20
-138.5014512457566
 30
0.0
 10
90.45408255117121
 20
-138.7116020703568
 30
0.0
 10
90.46200627078728
 20
-138.9289875954761
 30
0.0
  0
SPLINE
  5
E3
330
D9
100
AcDbEntity
  8
_U+30EC_U+30A4_U+30E4_U+30FC 1
370
     0
100
AcDbSpline
210
0.0
220
0.0
230
1.0
 70
    11
 71
     3
 72
    17
 73
    13
 74
     0
 42
0.0000000001
 43
0.0000000001
 12
1.0
 22
0.0
 32
0.0
 13
1.0
 23
0.0
 33
0.0
 40
0.0
 40
0.0
 40
0.0
 40
0.0
 40
1.0
 40
1.0
 40
1.0
 40
2.0
 40
2.0
 40
2.0
 40
3.0
 40
3.0
 40
3.0
 40
4.0
 40
4.0
 40
4.0
 40
4.0
 10
89.50633678317898
 20
-138.0690917623577
 30
0.0
 10
89.28998478670529
 20
-138.1938042189238
 30
0.0
 10
89.39161510352015
 20
-138.4625216667733
 30
0.0
 10
89.56386987778265
 20
-138.7612114453444
 30
0.0
 10
89.72372230829824
 20
-139.03785261281
 30
0.0
 10
89.90941295495321
 20
-139.2872775259421
 30
0.0
 10
90.13472219968854
 20
-139.1573974261482
 30
0.0
 10
90.34900713887109
 20
-139.0337184982277
 30
0.0
 10
90.25047740799295
 20
-138.7653455599267
 30
0.0
 10
90.07718910508487
 20
-138.464933233613
 30
0.0
 10
89.91733667456928
 20
-138.1882920661474
 30
0.0
 10
89.72992348017169
 20
-137.9402451912094
 30
0.0
 10
89.50633678317898
 20
-138.0690917623577
 30
0.0
  0
HATCH
  5
E4
330
D9
100
AcDbEntity
  8
_U+30EC_U+30A4_U+30E4_U+30FC 1
 62
   179
420
  2234388
100
AcDbHatch
 10
0.0
 20
0.0
 30
0.0
210
0.0
220
0.0
230
1.0
  2
SOLID
 70
     1
 71
     0
 91
        2
 92
        1
 93
        1
 72
     4
 94
        3
 73
     0
 74
     1
 95
       29
 96
       25
 40
0.0
 40
0.0
 40
0.0
 40
0.0
 40
1.0
 40
1.0
 40
1.0
 40
2.0
 40
2.0
 40
2.0
 40
3.0
 40
3.0
 40
3.0
 40
4.0
 40
4.0
 40
4.0
 40
5.0
 40
5.0
 40
5.0
 40
6.0
 40
6.0
 40
6.0
 40
7.0
 40
7.0
 40
7.0
 40
8.0
 40
8.0
 40
8.0
 40
8.0
 10
90.46200627078728
 20
-138.9289875954761
 10
90.47371959543713
 20
-139.1646321266672
 10
90.33281519009041
 20
-139.2676404816762
 10
90.23187389237259
 20
-139.3258625953769
 10
90.0926920347685
 20
-139.4064778297317
 10
89.94661998619391
 20
-139.4367946700019
 10
89.7729871737373
 20
-139.3268961240225
 10
89.58626299843677
 20
-139.2101073870725
 10
89.45121525541498
 20
-139.0144259635103
 10
89.36991100196308
 20
-138.873177048615
 10
89.29790850632136
 20
-138.7488091015975
 10
89.1866319221478
 20
-138.5224663282166
 10
89.17870820253171
 20
-138.2971570834813
 10
89.17078448291564
 20
-138.0673692146151
 10
89.29825301586989
 20
-137.9667724264458
 10
89.40987410959198
 20
-137.9023491408716
 10
89.54767792900198
 20
-137.8231119447109
 10
89.69443899667361
 20
-137.789694518504
 10
89.86772729958169
 20
-137.8995930644834
 10
90.0499728507514
 20
-138.0163818014334
 10
90.18433157467615
 20
-138.2027614671854
 10
90.27114798090444
 20
-138.3529676303423
 10
90.35658634893863
 20
-138.5014512457566
 10
90.45408255117121
 20
-138.7116020703568
 10
90.46200627078728
 20
-138.9289875954761
 97
        0
 97
        0
 92
        1
 93
        1
 72
     4
 94
        3
 73
     0
 74
     1
 95
       17
 96
       13
 40
0.0
 40
0.0
 40
0.0
 40
0.0
 40
1.0
 40
1.0
 40
1.0
 40
2.0
 40
2.0
 40
2.0
 40
3.0
 40
3.0
 40
3.0
 40
4.0
 40
4.0
 40
4.0
 40
4.0
 10
89.50633678317898
 20
-138.0690917623577
 10
89.28998478670529
 20
-138.1938042189238
 10
89.39161510352015
 20
-138.4625216667733
 10
89.56386987778265
 20
-138.7612114453444
 10
89.72372230829824
 20
-139.03785261281
 10
89.90941295495321
 20
-139.2872775259421
 10
90.13472219968854
 20
-139.1573974261482
 10
90.34900713887109
 20
-139.0337184982277
 10
90.25047740799295
 20
-138.7653455599267
 10
90.07718910508487
 20
-138.464933233613
 10
89.91733667456928
 20
-138.1882920661474
 10
89.72992348017169
 20
-137.9402451912094
 10
89.50633678317898
 20
-138.0690917623577
 97
        0
 97
        0
 75
     2
 76
     1
 98
        0
  0
ENDBLK
  5
DC
330
D9
100
AcDbEntity
  8
0
100
AcDbBlockEnd
  0
ENDSEC
  0
SECTION
  2
ENTITIES
  0
SPLINE
  5
41
330
1F
100
AcDbEntity
  8
_U+30EC_U+30A4_U+30E4_U+30FC 1
 62
     7
420
 16777215
370
     9
100
AcDbSpline
210
0.0
220
0.0
230
1.0
 70
    11
 71
     3
 72
    20
 73
    16
 74
     0
 42
0.0000000001
 43
0.0000000001
 12
1.0
 22
0.0
 32
0.0
 13
1.0
 23
0.0
 33
0.0
 40
0.0
 40
0.0
 40
0.0
 40
0.0
 40
1.0
 40
1.0
 40
1.0
 40
2.0
 40
2.0
 40
2.0
 40
3.0
 40
3.0
 40
3.0
 40
4.0
 40
4.0
 40
4.0
 40
5.0
 40
5.0
 40
5.0
 40
5.0
 10
89.15819578094047
 20
-112.4362044163355
 30
0.0
 10
89.30463608878493
 20
-112.5826071940766
 30
0.0
 10
91.02717712214768
 20
-113.372582471657
 30
0.0
 10
92.98724568325328
 20
-112.4362044163355
 30
0.0
 10
92.98724568325328
 20
-114.3675216380747
 30
0.0
 10
92.98724568325328
 20
-128.9182291344371
 30
0.0
 10
92.98724568325328
 20
-128.9182291344371
 30
0.0
 10
92.98724568325328
 20
-128.9182291344371
 30
0.0
 10
90.96791045699304
 20
-129.9920494119467
 30
0.0
 10
90.96791045699304
 20
-129.9920494119467
 30
0.0
 10
90.96791045699304
 20
-129.9920494119467
 30
0.0
 10
89.15819578094047
 20
-128.9182291344371
 30
0.0
 10
89.15819578094047
 20
-128.9182291344371
 30
0.0
 10
89.15819578094047
 20
-128.9182291344371
 30
0.0
 10
89.15819578094047
 20
-112.4362044163355
 30
0.0
 10
89.15819578094047
 20
-112.4362044163355
 30
0.0
  0
SPLINE
  5
42
330
1F
100
AcDbEntity
  8
_U+30EC_U+30A4_U+30E4_U+30FC 1
 62
     7
420
 16777215
370
     9
100
AcDbSpline
210
0.0
220
0.0
230
1.0
 70
    11
 71
     3
 72
    20
 73
    16
 74
     0
 42
0.0000000001
 43
0.0000000001
 12
1.0
 22
0.0
 32
0.0
 13
1.0
 23
0.0
 33
0.0
 40
0.0
 40
0.0
 40
0.0
 40
0.0
 40
1.0
 40
1.0
 40
1.0
 40
2.0
 40
2.0
 40
2.0
 40
3.0
 40
3.0
 40
3.0
 40
4.0
 40
4.0
 40
4.0
 40
5.0
 40
5.0
 40
5.0
 40
5.0
 10
89.15819578094047
 20
-128.9182291344371
 30
0.0
 10
89.15819578094047
 20
-128.9182291344371
 30
0.0
 10
90.96791045699304
 20
-129.9920494119467
 30
0.0
 10
90.96791045699304
 20
-129.9920494119467
 30
0.0
 10
90.96791045699304
 20
-129.9920494119467
 30
0.0
 10
90.96791045699304
 20
-132.0270833003266
 30
0.0
 10
90.96791045699304
 20
-132.0270833003266
 30
0.0
 10
90.96791045699304
 20
-132.0270833003266
 30
0.0
 10
77.3043335833577
 20
-140.2029905205051
 30
0.0
 10
76.83612692863598
 20
-140.4372349648906
 30
0.0
 10
76.07786639242526
 20
-140.8096624647978
 30
0.0
 10
74.40217199073135
 20
-137.6053819100431
 30
0.0
 10
75.06363030718947
 20
-137.2471007990214
 30
0.0
 10
75.50114720334702
 20
-137.0100694101919
 30
0.0
 10
89.15819578094047
 20
-128.9182291344371
 30
0.0
 10
89.15819578094047
 20
-128.9182291344371
 30
0.0
  0
SPLINE
  5
43
330
1F
100
AcDbEntity
  8
_U+30EC_U+30A4_U+30E4_U+30FC 1
 62
     7
420
 16777215
370
     9
100
AcDbSpline
210
0.0
220
0.0
230
1.0
 70
    11
 71
     3
 72
    20
 73
    16
 74
     0
 42
0.0000000001
 43
0.0000000001
 12
1.0
 22
0.0
 32
0.0
 13
1.0
 23
0.0
 33
0.0
 40
0.0
 40
0.0
 40
0.0
 40
0.0
 40
1.0
 40
1.0
 40
1.0
 40
2.0
 40
2.0
 40
2.0
 40
3.0
 40
3.0
 40
3.0
 40
4.0
 40
4.0
 40
4.0
 40
5.0
 40
5.0
 40
5.0
 40
5.0
 10
106.9757308819328
 20
-137.0469346879603
 30
0.0
 10
107.7226319739889
 20
-137.5406119100592
 30
0.0
 10
106.272927010974
 20
-140.6463616315051
 30
0.0
 10
105.1174387071196
 20
-140.353203298245
 30
0.0
 10
104.8583587137293
 20
-140.2150555205015
 30
0.0
 10
90.96791045699304
 20
-132.0270833003266
 30
0.0
 10
90.96791045699304
 20
-132.0270833003266
 30
0.0
 10
90.96791045699304
 20
-132.0270833003266
 30
0.0
 10
90.96791045699304
 20
-129.9920494119467
 30
0.0
 10
90.96791045699304
 20
-129.9920494119467
 30
0.0
 10
90.96791045699304
 20
-129.9920494119467
 30
0.0
 10
92.98724568325328
 20
-128.9182291344371
 30
0.0
 10
92.98724568325328
 20
-128.9182291344371
 30
0.0
 10
92.98724568325328
 20
-128.9182291344371
 30
0.0
 10
106.9757308819328
 20
-137.0469346879603
 30
0.0
 10
106.9757308819328
 20
-137.0469346879603
 30
0.0
  0
POLYLINE
  5
44
330
1F
100
AcDbEntity
  8
_U+30EC_U+30A4_U+30E4_U+30FC 1
 62
     7
420
 16777215
370
     9
100
AcDb2dPolyline
 66
     1
 10
0.0
 20
0.0
 30
0.0
  0
VERTEX
  5
45
330
44
100
AcDbEntity
  8
_U+30EC_U+30A4_U+30E4_U+30FC 1
 62
     7
420
 16777215
370
     9
100
AcDbVertex
100
AcDb2dVertex
 10
92.98724568325328
 20
-128.9182291344371
 30
0.0
  0
VERTEX
  5
46
330
44
100
AcDbEntity
  8
_U+30EC_U+30A4_U+30E4_U+30FC 1
 62
     7
420
 16777215
370
     9
100
AcDbVertex
100
AcDb2dVertex
 10
93.47439650415836
 20
-128.3229166345859
 30
0.0
  0
VERTEX
  5
47
330
44
100
AcDbEntity
  8
_U+30EC_U+30A4_U+30E4_U+30FC 1
 62
     7
420
 16777215
370
     9
100
AcDbVertex
100
AcDb2dVertex
 10
93.47439650415836
 20
-112.7565971940331
 30
0.0
  0
VERTEX
  5
48
330
44
100
AcDbEntity
  8
_U+30EC_U+30A4_U+30E4_U+30FC 1
 62
     7
420
 16777215
370
     9
100
AcDbVertex
100
AcDb2dVertex
 10
92.98724568325328
 20
-112.4362044163355
 30
0.0
  0
VERTEX
  5
49
330
44
100
AcDbEntity
  8
_U+30EC_U+30A4_U+30E4_U+30FC 1
 62
     7
420
 16777215
370
     9
100
AcDbVertex
100
AcDb2dVertex
 10
92.98724568325328
 20
-128.9182291344371
 30
0.0
  0
SEQEND
  5
4A
330
44
100
AcDbEntity
  8
_U+30EC_U+30A4_U+30E4_U+30FC 1
 62
     7
420
 16777215
370
     9
  0
POLYLINE
  5
4B
330
1F
100
AcDbEntity
  8
_U+30EC_U+30A4_U+30E4_U+30FC 1
 62
     7
420
 16777215
370
     9
100
AcDb2dPolyline
 66
     1
 10
0.0
 20
0.0
 30
0.0
  0
VERTEX
  5
4C
330
4B
100
AcDbEntity
  8
_U+30EC_U+30A4_U+30E4_U+30FC 1
 62
     7
420
 16777215
370
     9
100
AcDbVertex
100
AcDb2dVertex
 10
89.15819578094047
 20
-128.9182291344371
 30
0.0
  0
VERTEX
  5
4D
330
4B
100
AcDbEntity
  8
_U+30EC_U+30A4_U+30E4_U+30FC 1
 62
     7
420
 16777215
370
     9
100
AcDbVertex
100
AcDb2dVertex
 10
88.67143301558106
 20
-128.3229166345859
 30
0.0
  0
VERTEX
  5
4E
330
4B
100
AcDbEntity
  8
_U+30EC_U+30A4_U+30E4_U+30FC 1
 62
     7
420
 16777215
370
     9
100
AcDbVertex
100
AcDb2dVertex
 10
88.67143301558106
 20
-112.7565971940331
 30
0.0
  0
VERTEX
  5
4F
330
4B
100
AcDbEntity
  8
_U+30EC_U+30A4_U+30E4_U+30FC 1
 62
     7
420
 16777215
370
     9
100
AcDbVertex
100
AcDb2dVertex
 10
89.15819578094047
 20
-112.4362044163355
 30
0.0
  0
VERTEX
  5
50
330
4B
100
AcDbEntity
  8
_U+30EC_U+30A4_U+30E4_U+30FC 1
 62
     7
420
 16777215
370
     9
100
AcDbVertex
100
AcDb2dVertex
 10
89.15819578094047
 20
-128.9182291344371
 30
0.0
  0
SEQEND
  5
51
330
4B
100
AcDbEntity
  8
_U+30EC_U+30A4_U+30E4_U+30FC 1
 62
     7
420
 16777215
370
     9
  0
POLYLINE
  5
52
330
1F
100
AcDbEntity
  8
_U+30EC_U+30A4_U+30E4_U+30FC 1
 62
     7
420
 16777215
370
     9
100
AcDb2dPolyline
 66
     1
 10
0.0
 20
0.0
 30
0.0
  0
VERTEX
  5
53
330
52
100
AcDbEntity
  8
_U+30EC_U+30A4_U+30E4_U+30FC 1
 62
     7
420
 16777215
370
     9
100
AcDbVertex
100
AcDb2dVertex
 10
93.47439650415836
 20
-128.3229166345859
 30
0.0
  0
VERTEX
  5
54
330
52
100
AcDbEntity
  8
_U+30EC_U+30A4_U+30E4_U+30FC 1
 62
     7
420
 16777215
370
     9
100
AcDbVertex
100
AcDb2dVertex
 10
94.31224370500532
 20
-127.6087533014311
 30
0.0
  0
VERTEX
  5
55
330
52
100
AcDbEntity
  8
_U+30EC_U+30A4_U+30E4_U+30FC 1
 62
     7
420
 16777215
370
     9
100
AcDbVertex
100
AcDb2dVertex
 10
94.31224370500532
 20
-112.4362044163355
 30
0.0
  0
VERTEX
  5
56
330
52
100
AcDbEntity
  8
_U+30EC_U+30A4_U+30E4_U+30FC 1
 62
     7
420
 16777215
370
     9
100
AcDbVertex
100
AcDb2dVertex
 10
93.47439650415836
 20
-112.7565971940331
 30
0.0
  0
VERTEX
  5
57
330
52
100
AcDbEntity
  8
_U+30EC_U+30A4_U+30E4_U+30FC 1
 62
     7
420
 16777215
370
     9
100
AcDbVertex
100
AcDb2dVertex
 10
93.47439650415836
 20
-128.3229166345859
 30
0.0
  0
SEQEND
  5
58
330
52
100
AcDbEntity
  8
_U+30EC_U+30A4_U+30E4_U+30FC 1
 62
     7
420
 16777215
370
     9
  0
POLYLINE
  5
59
330
1F
100
AcDbEntity
  8
_U+30EC_U+30A4_U+30E4_U+30FC 1
 62
     7
420
 16777215
370
     9
100
AcDb2dPolyline
 66
     1
 10
0.0
 20
0.0
 30
0.0
  0
VERTEX
  5
5A
330
59
100
AcDbEntity
  8
_U+30EC_U+30A4_U+30E4_U+30FC 1
 62
     7
420
 16777215
370
     9
100
AcDbVertex
100
AcDb2dVertex
 10
88.67143301558106
 20
-128.3229166345859
 30
0.0
  0
VERTEX
  5
5B
330
59
100
AcDbEntity
  8
_U+30EC_U+30A4_U+30E4_U+30FC 1
 62
     7
420
 16777215
370
     9
100
AcDbVertex
100
AcDb2dVertex
 10
87.83358581473409
 20
-127.6087533014311
 30
0.0
  0
VERTEX
  5
5C
330
59
100
AcDbEntity
  8
_U+30EC_U+30A4_U+30E4_U+30FC 1
 62
     7
420
 16777215
370
     9
100
AcDbVertex
100
AcDb2dVertex
 10
87.83358581473409
 20
-112.4362044163355
 30
0.0
  0
VERTEX
  5
5D
330
59
100
AcDbEntity
  8
_U+30EC_U+30A4_U+30E4_U+30FC 1
 62
     7
420
 16777215
370
     9
100
AcDbVertex
100
AcDb2dVertex
 10
88.67143301558106
 20
-112.7565971940331
 30
0.0
  0
VERTEX
  5
5E
330
59
100
AcDbEntity
  8
_U+30EC_U+30A4_U+30E4_U+30FC 1
 62
     7
420
 16777215
370
     9
100
AcDbVertex
100
AcDb2dVertex
 10
88.67143301558106
 20
-128.3229166345859
 30
0.0
  0
SEQEND
  5
5F
330
59
100
AcDbEntity
  8
_U+30EC_U+30A4_U+30E4_U+30FC 1
 62
     7
420
 16777215
370
     9
  0
POLYLINE
  5
60
330
1F
100
AcDbEntity
  8
_U+30EC_U+30A4_U+30E4_U+30FC 1
 62
     7
420
 16777215
370
     9
100
AcDb2dPolyline
 66
     1
 10
0.0
 20
0.0
 30
0.0
  0
VERTEX
  5
61
330
60
100
AcDbEntity
  8
_U+30EC_U+30A4_U+30E4_U+30FC 1
 62
     7
420
 16777215
370
     9
100
AcDbVertex
100
AcDb2dVertex
 10
92.98724568325328
 20
-128.9182291344371
 30
0.0
  0
VERTEX
  5
62
330
60
100
AcDbEntity
  8
_U+30EC_U+30A4_U+30E4_U+30FC 1
 62
     7
420
 16777215
370
     9
100
AcDbVertex
100
AcDb2dVertex
 10
93.47439650415836
 20
-128.3229166345859
 30
0.0
  0
VERTEX
  5
63
330
60
100
AcDbEntity
  8
_U+30EC_U+30A4_U+30E4_U+30FC 1
 62
     7
420
 16777215
370
     9
100
AcDbVertex
100
AcDb2dVertex
 10
107.6075558658137
 20
-136.6572916325024
 30
0.0
  0
VERTEX
  5
64
330
60
100
AcDbEntity
  8
_U+30EC_U+30A4_U+30E4_U+30FC 1
 62
     7
420
 16777215
370
     9
100
AcDbVertex
100
AcDb2dVertex
 10
107.0653011574255
 20
-137.1354819101605
 30
0.0
  0
VERTEX
  5
65
330
60
100
AcDbEntity
  8
_U+30EC_U+30A4_U+30E4_U+30FC 1
 62
     7
420
 16777215
370
     9
100
AcDbVertex
100
AcDb2dVertex
 10
92.98724568325328
 20
-128.9182291344371
 30
0.0
  0
SEQEND
  5
66
330
60
100
AcDbEntity
  8
_U+30EC_U+30A4_U+30E4_U+30FC 1
 62
     7
420
 16777215
370
     9
  0
POLYLINE
  5
67
330
1F
100
AcDbEntity
  8
_U+30EC_U+30A4_U+30E4_U+30FC 1
 62
     7
420
 16777215
370
     9
100
AcDb2dPolyline
 66
     1
 10
0.0
 20
0.0
 30
0.0
  0
VERTEX
  5
68
330
67
100
AcDbEntity
  8
_U+30EC_U+30A4_U+30E4_U+30FC 1
 62
     7
420
 16777215
370
     9
100
AcDbVertex
100
AcDb2dVertex
 10
93.47439650415836
 20
-128.3229166345859
 30
0.0
  0
VERTEX
  5
69
330
67
100
AcDbEntity
  8
_U+30EC_U+30A4_U+30E4_U+30FC 1
 62
     7
420
 16777215
370
     9
100
AcDbVertex
100
AcDb2dVertex
 10
94.31224370500532
 20
-127.6087533014311
 30
0.0
  0
VERTEX
  5
6A
330
67
100
AcDbEntity
  8
_U+30EC_U+30A4_U+30E4_U+30FC 1
 62
     7
420
 16777215
370
     9
100
AcDbVertex
100
AcDb2dVertex
 10
107.6075558658137
 20
-135.2682291328496
 30
0.0
  0
VERTEX
  5
6B
330
67
100
AcDbEntity
  8
_U+30EC_U+30A4_U+30E4_U+30FC 1
 62
     7
420
 16777215
370
     9
100
AcDbVertex
100
AcDb2dVertex
 10
107.6075558658137
 20
-136.6572916325024
 30
0.0
  0
VERTEX
  5
6C
330
67
100
AcDbEntity
  8
_U+30EC_U+30A4_U+30E4_U+30FC 1
 62
     7
420
 16777215
370
     9
100
AcDbVertex
100
AcDb2dVertex
 10
93.47439650415836
 20
-128.3229166345859
 30
0.0
  0
SEQEND
  5
6D
330
67
100
AcDbEntity
  8
_U+30EC_U+30A4_U+30E4_U+30FC 1
 62
     7
420
 16777215
370
     9
  0
POLYLINE
  5
6E
330
1F
100
AcDbEntity
  8
_U+30EC_U+30A4_U+30E4_U+30FC 1
 62
     7
420
 16777215
370
     9
100
AcDb2dPolyline
 66
     1
 10
0.0
 20
0.0
 30
0.0
  0
VERTEX
  5
6F
330
6E
100
AcDbEntity
  8
_U+30EC_U+30A4_U+30E4_U+30FC 1
 62
     7
420
 16777215
370
     9
100
AcDbVertex
100
AcDb2dVertex
 10
89.15819578094047
 20
-128.9182291344371
 30
0.0
  0
VERTEX
  5
70
330
6E
100
AcDbEntity
  8
_U+30EC_U+30A4_U+30E4_U+30FC 1
 62
     7
420
 16777215
370
     9
100
AcDbVertex
100
AcDb2dVertex
 10
88.67143301558106
 20
-128.3229166345859
 30
0.0
  0
VERTEX
  5
71
330
6E
100
AcDbEntity
  8
_U+30EC_U+30A4_U+30E4_U+30FC 1
 62
     7
420
 16777215
370
     9
100
AcDbVertex
100
AcDb2dVertex
 10
74.6040667078028
 20
-136.7227319102636
 30
0.0
  0
VERTEX
  5
72
330
6E
100
AcDbEntity
  8
_U+30EC_U+30A4_U+30E4_U+30FC 1
 62
     7
420
 16777215
370
     9
100
AcDbVertex
100
AcDb2dVertex
 10
75.14596863842218
 20
-137.2009221879217
 30
0.0
  0
VERTEX
  5
73
330
6E
100
AcDbEntity
  8
_U+30EC_U+30A4_U+30E4_U+30FC 1
 62
     7
420
 16777215
370
     9
100
AcDbVertex
100
AcDb2dVertex
 10
89.15819578094047
 20
-128.9182291344371
 30
0.0
  0
SEQEND
  5
74
330
6E
100
AcDbEntity
  8
_U+30EC_U+30A4_U+30E4_U+30FC 1
 62
     7
420
 16777215
370
     9
  0
POLYLINE
  5
75
330
1F
100
AcDbEntity
  8
_U+30EC_U+30A4_U+30E4_U+30FC 1
 62
     7
420
 16777215
370
     9
100
AcDb2dPolyline
 66
     1
 10
0.0
 20
0.0
 30
0.0
  0
VERTEX
  5
76
330
75
100
AcDbEntity
  8
_U+30EC_U+30A4_U+30E4_U+30FC 1
 62
     7
420
 16777215
370
     9
100
AcDbVertex
100
AcDb2dVertex
 10
88.67143301558106
 20
-128.3229166345859
 30
0.0
  0
VERTEX
  5
77
330
75
100
AcDbEntity
  8
_U+30EC_U+30A4_U+30E4_U+30FC 1
 62
     7
420
 16777215
370
     9
100
AcDbVertex
100
AcDb2dVertex
 10
87.83358581473409
 20
-127.6087533014311
 30
0.0
  0
VERTEX
  5
78
330
75
100
AcDbEntity
  8
_U+30EC_U+30A4_U+30E4_U+30FC 1
 62
     7
420
 16777215
370
     9
100
AcDbVertex
100
AcDb2dVertex
 10
74.6040667078028
 20
-135.3336694106109
 30
0.0
  0
VERTEX
  5
79
330
75
100
AcDbEntity
  8
_U+30EC_U+30A4_U+30E4_U+30FC 1
 62
     7
420
 16777215
370
     9
100
AcDbVertex
100
AcDb2dVertex
 10
74.6040667078028
 20
-136.7227319102636
 30
0.0
  0
VERTEX
  5
7A
330
75
100
AcDbEntity
  8
_U+30EC_U+30A4_U+30E4_U+30FC 1
 62
     7
420
 16777215
370
     9
100
AcDbVertex
100
AcDb2dVertex
 10
88.67143301558106
 20
-128.3229166345859
 30
0.0
  0
SEQEND
  5
7B
330
75
100
AcDbEntity
  8
_U+30EC_U+30A4_U+30E4_U+30FC 1
 62
     7
420
 16777215
370
     9
  0
SPLINE
  5
7C
330
1F
100
AcDbEntity
  8
_U+30EC_U+30A4_U+30E4_U+30FC 1
 62
     7
420
 16777215
370
     9
100
AcDbSpline
210
0.0
220
0.0
230
1.0
 70
    11
 71
     3
 72
    14
 73
    10
 74
     0
 42
0.0000000001
 43
0.0000000001
 12
1.0
 22
0.0
 32
0.0
 13
1.0
 23
0.0
 33
0.0
 40
0.0
 40
0.0
 40
0.0
 40
0.0
 40
1.0
 40
1.0
 40
1.0
 40
2.0
 40
2.0
 40
2.0
 40
3.0
 40
3.0
 40
3.0
 40
3.0
 10
106.6828900560705
 20
-139.1628957985429
 30
0.0
 10
106.6828900560705
 20
-139.1628957985429
 30
0.0
 10
107.2892471954001
 20
-139.6314552428702
 30
0.0
 10
107.2892471954001
 20
-139.6314552428702
 30
0.0
 10
107.2892471954001
 20
-139.6314552428702
 30
0.0
 10
105.9862950738421
 20
-140.3883399649027
 30
0.0
 10
105.1567055292665
 20
-140.363857187131
 30
0.0
 10
105.6969114701138
 20
-140.5009819093194
 30
0.0
 10
106.2680939555417
 20
-139.8974144094703
 30
0.0
 10
106.6828900560705
 20
-139.1628957985429
 30
0.0
  0
SPLINE
  5
7D
330
1F
100
AcDbEntity
  8
_U+30EC_U+30A4_U+30E4_U+30FC 1
 62
     7
420
 16777215
370
     9
100
AcDbSpline
210
0.0
220
0.0
230
1.0
 70
    11
 71
     3
 72
    14
 73
    10
 74
     0
 42
0.0000000001
 43
0.0000000001
 12
1.0
 22
0.0
 32
0.0
 13
1.0
 23
0.0
 33
0.0
 40
0.0
 40
0.0
 40
0.0
 40
0.0
 40
1.0
 40
1.0
 40
1.0
 40
2.0
 40
2.0
 40
2.0
 40
3.0
 40
3.0
 40
3.0
 40
3.0
 10
75.48703609223945
 20
-139.252148576298
 30
0.0
 10
75.48703609223945
 20
-139.252148576298
 30
0.0
 10
74.90170531132053
 20
-139.641086076201
 30
0.0
 10
74.90170531132053
 20
-139.641086076201
 30
0.0
 10
74.90170531132053
 20
-139.641086076201
 30
0.0
 10
76.2080766668811
 20
-140.3521449649117
 30
0.0
 10
76.49058110411825
 20
-140.4110588537864
 30
0.0
 10
76.16503777909023
 20
-140.2801430204856
 30
0.0
 10
75.80502806605261
 20
-139.8233310761551
 30
0.0
 10
75.48703609223945
 20
-139.252148576298
 30
0.0
  0
INSERT
  5
7F
330
1F
100
AcDbEntity
  8
_U+30EC_U+30A4_U+30E4_U+30FC 1
100
AcDbBlockReference
  2
block 2
 10
0.0
 20
0.0
 30
0.0
  0
INSERT
  5
A2
330
1F
100
AcDbEntity
  8
_U+30EC_U+30A4_U+30E4_U+30FC 1
100
AcDbBlockReference
  2
block 3
 10
0.0
 20
0.0
 30
0.0
  0
INSERT
  5
BE
330
1F
100
AcDbEntity
  8
_U+30EC_U+30A4_U+30E4_U+30FC 1
100
AcDbBlockReference
  2
block 4
 10
0.0
 20
0.0
 30
0.0
  0
INSERT
  5
DA
330
1F
100
AcDbEntity
  8
_U+30EC_U+30A4_U+30E4_U+30FC 1
100
AcDbBlockReference
  2
block 5
 10
0.0
 20
0.0
 30
0.0
  0
POLYLINE
  5
E5
330
1F
100
AcDbEntity
  8
_U+30EC_U+30A4_U+30E4_U+30FC 1
 62
   179
420
  2234388
370
     9
100
AcDb2dPolyline
 66
     1
 10
0.0
 20
0.0
 30
0.0
  0
VERTEX
  5
E6
330
E5
100
AcDbEntity
  8
_U+30EC_U+30A4_U+30E4_U+30FC 1
 62
   179
420
  2234388
370
     9
100
AcDbVertex
100
AcDb2dVertex
 10
93.74000288627107
 20
-133.9174077442981
 30
0.0
  0
VERTEX
  5
E7
330
E5
100
AcDbEntity
  8
_U+30EC_U+30A4_U+30E4_U+30FC 1
 62
   179
420
  2234388
370
     9
100
AcDbVertex
100
AcDb2dVertex
 10
79.70918435533818
 20
-142.583217464354
 30
0.0
  0
SEQEND
  5
E8
330
E5
100
AcDbEntity
  8
_U+30EC_U+30A4_U+30E4_U+30FC 1
 62
   179
420
  2234388
370
     9
  0
POLYLINE
  5
E9
330
1F
100
AcDbEntity
  8
_U+30EC_U+30A4_U+30E4_U+30FC 1
 62
   179
420
  2234388
370
     9
100
AcDb2dPolyline
 66
     1
 10
0.0
 20
0.0
 30
0.0
  0
VERTEX
  5
EA
330
E9
100
AcDbEntity
  8
_U+30EC_U+30A4_U+30E4_U+30FC 1
 62
   179
420
  2234388
370
     9
100
AcDbVertex
100
AcDb2dVertex
 10
77.4093908028997
 20
-140.9384969092101
 30
0.0
  0
VERTEX
  5
EB
330
E9
100
AcDbEntity
  8
_U+30EC_U+30A4_U+30E4_U+30FC 1
 62
   179
420
  2234388
370
     9
100
AcDbVertex
100
AcDb2dVertex
 10
82.5574083126939
 20
-144.6109841305136
 30
0.0
  0
SEQEND
  5
EC
330
E9
100
AcDbEntity
  8
_U+30EC_U+30A4_U+30E4_U+30FC 1
 62
   179
420
  2234388
370
     9
  0
SPLINE
  5
ED
330
1F
100
AcDbEntity
  8
_U+30EC_U+30A4_U+30E4_U+30FC 1
 62
   179
420
  2234388
370
     9
100
AcDbSpline
210
0.0
220
0.0
230
1.0
 70
    11
 71
     3
 72
    17
 73
    13
 74
     0
 42
0.0000000001
 43
0.0000000001
 12
1.0
 22
0.0
 32
0.0
 13
1.0
 23
0.0
 33
0.0
 40
0.0
 40
0.0
 40
0.0
 40
0.0
 40
1.0
 40
1.0
 40
1.0
 40
2.0
 40
2.0
 40
2.0
 40
3.0
 40
3.0
 40
3.0
 40
4.0
 40
4.0
 40
4.0
 40
4.0
 10
79.70918435533818
 20
-142.6831241309957
 30
0.0
 10
79.76428824282125
 20
-142.6831241309957
 30
0.0
 10
79.80909101945602
 20
-142.6383213532296
 30
0.0
 10
79.80909101945602
 20
-142.583217464354
 30
0.0
 10
79.80909101945602
 20
-142.5280782977016
 30
0.0
 10
79.76428824282125
 20
-142.4832755199349
 30
0.0
 10
79.70918435533818
 20
-142.4832755199349
 30
0.0
 10
79.65404720230877
 20
-142.4832755199349
 30
0.0
 10
79.60927769122034
 20
-142.5280782977016
 30
0.0
 10
79.60927769122034
 20
-142.583217464354
 30
0.0
 10
79.60927769122034
 20
-142.6383213532296
 30
0.0
 10
79.65404720230877
 20
-142.6831241309957
 30
0.0
 10
79.70918435533818
 20
-142.6831241309957
 30
0.0
  0
HATCH
  5
EE
330
1F
100
AcDbEntity
  8
_U+30EC_U+30A4_U+30E4_U+30FC 1
 62
   179
420
  2234388
100
AcDbHatch
 10
0.0
 20
0.0
 30
0.0
210
0.0
220
0.0
230
1.0
  2
SOLID
 70
     1
 71
     0
 91
        1
 92
        1
 93
        1
 72
     4
 94
        3
 73
     0
 74
     1
 95
       17
 96
       13
 40
0.0
 40
0.0
 40
0.0
 40
0.0
 40
1.0
 40
1.0
 40
1.0
 40
2.0
 40
2.0
 40
2.0
 40
3.0
 40
3.0
 40
3.0
 40
4.0
 40
4.0
 40
4.0
 40
4.0
 10
79.70918435533818
 20
-142.6831241309957
 10
79.76428824282125
 20
-142.6831241309957
 10
79.80909101945602
 20
-142.6383213532296
 10
79.80909101945602
 20
-142.583217464354
 10
79.80909101945602
 20
-142.5280782977016
 10
79.76428824282125
 20
-142.4832755199349
 10
79.70918435533818
 20
-142.4832755199349
 10
79.65404720230877
 20
-142.4832755199349
 10
79.60927769122034
 20
-142.5280782977016
 10
79.60927769122034
 20
-142.583217464354
 10
79.60927769122034
 20
-142.6383213532296
 10
79.65404720230877
 20
-142.6831241309957
 10
79.70918435533818
 20
-142.6831241309957
 97
        0
 97
        0
 75
     2
 76
     1
 98
        0
  0
SPLINE
  5
EF
330
1F
100
AcDbEntity
  8
_U+30EC_U+30A4_U+30E4_U+30FC 1
 62
   179
420
  2234388
370
     9
100
AcDbSpline
210
0.0
220
0.0
230
1.0
 70
    11
 71
     3
 72
    17
 73
    13
 74
     0
 42
0.0000000001
 43
0.0000000001
 12
1.0
 22
0.0
 32
0.0
 13
1.0
 23
0.0
 33
0.0
 40
0.0
 40
0.0
 40
0.0
 40
0.0
 40
1.0
 40
1.0
 40
1.0
 40
2.0
 40
2.0
 40
2.0
 40
3.0
 40
3.0
 40
3.0
 40
4.0
 40
4.0
 40
4.0
 40
4.0
 10
93.74000288627107
 20
-134.0173144109404
 30
0.0
 10
93.79514442099574
 20
-134.0173144109404
 30
0.0
 10
93.8399095503889
 20
-133.9725116331737
 30
0.0
 10
93.8399095503889
 20
-133.9174077442981
 30
0.0
 10
93.8399095503889
 20
-133.8622685776457
 30
0.0
 10
93.79514442099574
 20
-133.8175010776565
 30
0.0
 10
93.74000288627107
 20
-133.8175010776565
 30
0.0
 10
93.684898998788
 20
-133.8175010776565
 30
0.0
 10
93.64009622215323
 20
-133.8622685776457
 30
0.0
 10
93.64009622215323
 20
-133.9174077442981
 30
0.0
 10
93.64009622215323
 20
-133.9725116331737
 30
0.0
 10
93.684898998788
 20
-134.0173144109404
 30
0.0
 10
93.74000288627107
 20
-134.0173144109404
 30
0.0
  0
HATCH
  5
F0
330
1F
100
AcDbEntity
  8
_U+30EC_U+30A4_U+30E4_U+30FC 1
 62
   179
420
  2234388
100
AcDbHatch
 10
0.0
 20
0.0
 30
0.0
210
0.0
220
0.0
230
1.0
  2
SOLID
 70
     1
 71
     0
 91
        1
 92
        1
 93
        1
 72
     4
 94
        3
 73
     0
 74
     1
 95
       17
 96
       13
 40
0.0
 40
0.0
 40
0.0
 40
0.0
 40
1.0
 40
1.0
 40
1.0
 40
2.0
 40
2.0
 40
2.0
 40
3.0
 40
3.0
 40
3.0
 40
4.0
 40
4.0
 40
4.0
 40
4.0
 10
93.74000288627107
 20
-134.0173144109404
 10
93.79514442099574
 20
-134.0173144109404
 10
93.8399095503889
 20
-133.9725116331737
 10
93.8399095503889
 20
-133.9174077442981
 10
93.8399095503889
 20
-133.8622685776457
 10
93.79514442099574
 20
-133.8175010776565
 10
93.74000288627107
 20
-133.8175010776565
 10
93.684898998788
 20
-133.8175010776565
 10
93.64009622215323
 20
-133.8622685776457
 10
93.64009622215323
 20
-133.9174077442981
 10
93.64009622215323
 20
-133.9725116331737
 10
93.684898998788
 20
-134.0173144109404
 10
93.74000288627107
 20
-134.0173144109404
 97
        0
 97
        0
 75
     2
 76
     1
 98
        0
  0
ENDSEC
  0
SECTION
  2
OBJECTS
  0
DICTIONARY
  5
C
330
0
100
AcDbDictionary
281
     1
  3
ACAD_GROUP
350
D
  3
ACAD_LAYOUT
350
1A
  3
ACAD_MATERIAL
350
3B
  3
ACAD_MLEADERSTYLE
350
F2
  3
ACAD_MLINESTYLE
350
17
  3
ACAD_PLOTSETTINGS
350
19
  3
ACAD_PLOTSTYLENAME
350
E
  3
ACAD_TABLESTYLE
350
F1
  3
ACAD_VISUALSTYLE
350
2A
  0
SUN
  5
3F
330
29
100
AcDbSun
 90
        1
290
     0
 63
     7
421
 16777215
 40
1.0
291
     1
 91
  2455826
 92
 54000000
292
     0
 70
     2
 71
   256
280
     1
  0
DICTIONARY
  5
D
102
{ACAD_REACTORS
330
C
102
}
330
C
100
AcDbDictionary
281
     1
  0
DICTIONARY
  5
1A
102
{ACAD_REACTORS
330
C
102
}
330
C
100
AcDbDictionary
281
     1
  3
Layout1
350
1E
  3
Layout2
350
26
  3
Model
350
22
  0
DICTIONARY
  5
3B
102
{ACAD_REACTORS
330
C
102
}
330
C
100
AcDbDictionary
281
     1
  3
ByBlock
350
3D
  3
ByLayer
350
3C
  3
Global
350
3E
  0
DICTIONARY
  5
F2
102
{ACAD_REACTORS
330
C
102
}
330
C
100
AcDbDictionary
281
     1
  0
DICTIONARY
  5
17
102
{ACAD_REACTORS
330
C
102
}
330
C
100
AcDbDictionary
281
     1
  3
Standard
350
18
  0
DICTIONARY
  5
19
102
{ACAD_REACTORS
330
C
102
}
330
C
100
AcDbDictionary
281
     1
  0
ACDBDICTIONARYWDFLT
  5
E
102
{ACAD_REACTORS
330
C
102
}
330
C
100
AcDbDictionary
281
     1
  3
Normal
350
F
100
AcDbDictionaryWithDefault
340
F
  0
DICTIONARY
  5
F1
102
{ACAD_REACTORS
330
C
102
}
330
C
100
AcDbDictionary
281
     1
  0
DICTIONARY
  5
2A
102
{ACAD_REACTORS
330
C
102
}
330
C
100
AcDbDictionary
281
     1
  3
2dWireframe
350
2F
  3
3D Hidden
350
31
  3
3dWireframe
350
30
  3
Basic
350
32
  3
Brighten
350
36
  3
ColorChange
350
3A
  3
Conceptual
350
34
  3
Dim
350
35
  3
Facepattern
350
39
  3
Flat
350
2B
  3
FlatWithEdges
350
2C
  3
Gouraud
350
2D
  3
GouraudWithEdges
350
2E
  3
Linepattern
350
38
  3
Realistic
350
33
  3
Thicken
350
37
  0
LAYOUT
  5
1E
102
{ACAD_REACTORS
330
1A
102
}
330
1A
100
AcDbPlotSettings
  1

  2
none_device
  4

  6

 40
0.0
 41
0.0
 42
0.0
 43
0.0
 44
0.0
 45
0.0
 46
0.0
 47
0.0
 48
0.0
 49
0.0
140
0.0
141
0.0
142
1.0
143
1.0
 70
   688
 72
     0
 73
     0
 74
     5
  7

 75
    16
 76
     0
 77
     2
 78
   300
147
1.0
148
0.0
149
0.0
100
AcDbLayout
  1
Layout1
 70
     1
 71
     1
 10
0.0
 20
0.0
 11
12.0
 21
9.0
 12
0.0
 22
0.0
 32
0.0
 14
1.000000000000000E+20
 24
1.000000000000000E+20
 34
1.000000000000000E+20
 15
-1.000000000000000E+20
 25
-1.000000000000000E+20
 35
-1.000000000000000E+20
146
0.0
 13
0.0
 23
0.0
 33
0.0
 16
1.0
 26
0.0
 36
0.0
 17
0.0
 27
1.0
 37
0.0
 76
     0
330
1B
  0
LAYOUT
  5
26
102
{ACAD_REACTORS
330
1A
102
}
330
1A
100
AcDbPlotSettings
  1

  2
none_device
  4

  6

 40
0.0
 41
0.0
 42
0.0
 43
0.0
 44
0.0
 45
0.0
 46
0.0
 47
0.0
 48
0.0
 49
0.0
140
0.0
141
0.0
142
1.0
143
1.0
 70
   688
 72
     0
 73
     0
 74
     5
  7

 75
    16
 76
     0
 77
     2
 78
   300
147
1.0
148
0.0
149
0.0
100
AcDbLayout
  1
Layout2
 70
     1
 71
     2
 10
0.0
 20
0.0
 11
0.0
 21
0.0
 12
0.0
 22
0.0
 32
0.0
 14
0.0
 24
0.0
 34
0.0
 15
0.0
 25
0.0
 35
0.0
146
0.0
 13
0.0
 23
0.0
 33
0.0
 16
1.0
 26
0.0
 36
0.0
 17
0.0
 27
1.0
 37
0.0
 76
     0
330
23
  0
LAYOUT
  5
22
102
{ACAD_REACTORS
330
1A
102
}
330
1A
100
AcDbPlotSettings
  1

  2
none_device
  4

  6

 40
0.0
 41
0.0
 42
0.0
 43
0.0
 44
0.0
 45
0.0
 46
0.0
 47
0.0
 48
0.0
 49
0.0
140
0.0
141
0.0
142
1.0
143
1.0
 70
  1712
 72
     0
 73
     0
 74
     0
  7

 75
     0
 76
     0
 77
     2
 78
   300
147
1.0
148
0.0
149
0.0
100
AcDbLayout
  1
Model
 70
     1
 71
     0
 10
0.0
 20
0.0
 11
12.0
 21
9.0
 12
0.0
 22
0.0
 32
0.0
 14
1.000000000000000E+20
 24
1.000000000000000E+20
 34
1.000000000000000E+20
 15
-1.000000000000000E+20
 25
-1.000000000000000E+20
 35
-1.000000000000000E+20
146
0.0
 13
0.0
 23
0.0
 33
0.0
 16
1.0
 26
0.0
 36
0.0
 17
0.0
 27
1.0
 37
0.0
 76
     0
330
1F
331
29
  0
MATERIAL
  5
3D
102
{ACAD_REACTORS
330
3B
102
}
330
3B
100
AcDbMaterial
  1
ByBlock
 72
     1
 94
      127
  0
MATERIAL
  5
3C
102
{ACAD_REACTORS
330
3B
102
}
330
3B
100
AcDbMaterial
  1
ByLayer
 72
     1
 94
      127
  0
MATERIAL
  5
3E
102
{ACAD_REACTORS
330
3B
102
}
330
3B
100
AcDbMaterial
  1
Global
 72
     1
 94
      127
  0
MLINESTYLE
  5
18
102
{ACAD_REACTORS
330
17
102
}
330
17
100
AcDbMlineStyle
  2
Standard
 70
     0
  3

 62
   256
 51
90.0
 52
90.0
 71
     2
 49
0.5
 62
   256
  6
BYLAYER
 49
-0.5
 62
   256
  6
BYLAYER
  0
ACDBPLACEHOLDER
  5
F
102
{ACAD_REACTORS
330
E
102
}
330
E
  0
VISUALSTYLE
  5
2F
102
{ACAD_REACTORS
330
2A
102
}
330
2A
100
AcDbVisualStyle
  2
2dWireframe
 70
     4
177
     2
291
     0
 71
     0
176
     1
 72
     2
176
     1
 73
     0
176
     1
 90
        0
176
     1
 40
-0.6
176
     1
 41
-30.0
176
     1
 62
     5
 63
     7
421
 16777215
176
     1
 74
     1
176
     1
 91
        4
176
     1
 64
     7
176
     1
 65
   257
176
     1
 75
     1
176
     1
175
     1
176
     1
 42
1.0
176
     1
 92
        0
176
     1
 66
   257
176
     1
 43
1.0
176
     1
 76
     1
176
     1
 77
     6
176
     1
 78
     2
176
     1
 67
     7
176
     1
 79
     5
176
     1
170
     0
176
     1
171
     0
176
     1
290
     0
176
     1
 93
        1
176
     1
 44
0.0
176
     1
173
     0
176
     1
  0
VISUALSTYLE
  5
31
102
{ACAD_REACTORS
330
2A
102
}
330
2A
100
AcDbVisualStyle
  2
3D Hidden
 70
     6
177
     2
291
     0
 71
     1
176
     1
 72
     2
176
     1
 73
     2
176
     1
 90
        0
176
     1
 40
-0.6
176
     1
 41
-30.0
176
     1
 62
     5
 63
     7
421
 16777215
176
     1
 74
     2
176
     1
 91
        2
176
     1
 64
     7
176
     1
 65
   257
176
     1
 75
     2
176
     1
175
     1
176
     1
 42
40.0
176
     1
 92
        0
176
     1
 66
   257
176
     1
 43
1.0
176
     1
 76
     1
176
     1
 77
     6
176
     1
 78
     2
176
     1
 67
     7
176
     1
 79
     3
176
     1
170
     0
176
     1
171
     0
176
     1
290
     0
176
     1
 93
        1
176
     1
 44
0.0
176
     1
173
     0
176
     1
  0
VISUALSTYLE
  5
30
102
{ACAD_REACTORS
330
2A
102
}
330
2A
100
AcDbVisualStyle
  2
3dWireframe
 70
     5
177
     2
291
     0
 71
     0
176
     1
 72
     2
176
     1
 73
     0
176
     1
 90
        0
176
     1
 40
-0.6
176
     1
 41
-30.0
176
     1
 62
     5
 63
     7
421
 16777215
176
     1
 74
     1
176
     1
 91
        4
176
     1
 64
     7
176
     1
 65
   257
176
     1
 75
     1
176
     1
175
     1
176
     1
 42
1.0
176
     1
 92
        0
176
     1
 66
   257
176
     1
 43
1.0
176
     1
 76
     1
176
     1
 77
     6
176
     1
 78
     2
176
     1
 67
     7
176
     1
 79
     5
176
     1
170
     0
176
     1
171
     0
176
     1
290
     0
176
     1
 93
        1
176
     1
 44
0.0
176
     1
173
     0
176
     1
  0
VISUALSTYLE
  5
32
102
{ACAD_REACTORS
330
2A
102
}
330
2A
100
AcDbVisualStyle
  2
Basic
 70
     7
177
     2
291
     1
 71
     1
176
     1
 72
     0
176
     1
 73
     1
176
     1
 90
        0
176
     1
 40
-0.6
176
     1
 41
-30.0
176
     1
 62
     5
 63
     7
421
 16777215
176
     1
 74
     0
176
     1
 91
        4
176
     1
 64
     7
176
     1
 65
   257
176
     1
 75
     1
176
     1
175
     1
176
     1
 42
1.0
176
     1
 92
        8
176
     1
 66
     7
176
     1
 43
1.0
176
     1
 76
     1
176
     1
 77
     6
176
     1
 78
     2
176
     1
 67
     7
176
     1
 79
     5
176
     1
170
     0
176
     1
171
     0
176
     1
290
     0
176
     1
 93
        1
176
     1
 44
0.0
176
     1
173
     0
176
     1
  0
VISUALSTYLE
  5
36
102
{ACAD_REACTORS
330
2A
102
}
330
2A
100
AcDbVisualStyle
  2
Brighten
 70
    12
177
     2
291
     1
 71
     2
176
     1
 72
     2
176
     1
 73
     0
176
     1
 90
        0
176
     1
 40
-0.6
176
     1
 41
-30.0
176
     1
 62
     5
 63
     7
421
 16777215
176
     1
 74
     1
176
     1
 91
        4
176
     1
 64
     7
176
     1
 65
   257
176
     1
 75
     1
176
     1
175
     1
176
     1
 42
1.0
176
     1
 92
        8
176
     1
 66
     7
176
     1
 43
1.0
176
     1
 76
     1
176
     1
 77
     6
176
     1
 78
     2
176
     1
 67
     7
176
     1
 79
     5
176
     1
170
     0
176
     1
171
     0
176
     1
290
     0
176
     1
 93
        1
176
     1
 44
50.0
176
     1
173
     0
176
     1
  0
VISUALSTYLE
  5
3A
102
{ACAD_REACTORS
330
2A
102
}
330
2A
100
AcDbVisualStyle
  2
ColorChange
 70
    16
177
     2
291
     1
 71
     2
176
     1
 72
     2
176
     1
 73
     3
176
     1
 90
        0
176
     1
 40
-0.6
176
     1
 41
-30.0
176
     1
 62
     5
 63
     8
421
  8421504
176
     1
 74
     1
176
     1
 91
        4
176
     1
 64
     7
176
     1
 65
   257
176
     1
 75
     1
176
     1
175
     1
176
     1
 42
1.0
176
     1
 92
        8
176
     1
 66
     8
424
  8421504
176
     1
 43
1.0
176
     1
 76
     1
176
     1
 77
     6
176
     1
 78
     2
176
     1
 67
     7
176
     1
 79
     5
176
     1
170
     0
176
     1
171
     0
176
     1
290
     0
176
     1
 93
        1
176
     1
 44
0.0
176
     1
173
     0
176
     1
  0
VISUALSTYLE
  5
34
102
{ACAD_REACTORS
330
2A
102
}
330
2A
100
AcDbVisualStyle
  2
Conceptual
 70
     9
177
     2
291
     0
 71
     3
176
     1
 72
     2
176
     1
 73
     0
176
     1
 90
        0
176
     1
 40
-0.6
176
     1
 41
-30.0
176
     1
 62
     5
 63
     7
421
 16777215
176
     1
 74
     2
176
     1
 91
        2
176
     1
 64
     7
176
     1
 65
   257
176
     1
 75
     1
176
     1
175
     1
176
     1
 42
40.0
176
     1
 92
        8
176
     1
 66
     7
176
     1
 43
1.0
176
     1
 76
     1
176
     1
 77
     6
176
     1
 78
     2
176
     1
 67
     7
176
     1
 79
     3
176
     1
170
     0
176
     1
171
     0
176
     1
290
     0
176
     1
 93
        1
176
     1
 44
0.0
176
     1
173
     0
176
     1
  0
VISUALSTYLE
  5
35
102
{ACAD_REACTORS
330
2A
102
}
330
2A
100
AcDbVisualStyle
  2
Dim
 70
    11
177
     2
291
     1
 71
     2
176
     1
 72
     2
176
     1
 73
     0
176
     1
 90
        0
176
     1
 40
-0.6
176
     1
 41
-30.0
176
     1
 62
     5
 63
     7
421
 16777215
176
     1
 74
     1
176
     1
 91
        4
176
     1
 64
     7
176
     1
 65
   257
176
     1
 75
     1
176
     1
175
     1
176
     1
 42
1.0
176
     1
 92
        8
176
     1
 66
     7
176
     1
 43
1.0
176
     1
 76
     1
176
     1
 77
     6
176
     1
 78
     2
176
     1
 67
     7
176
     1
 79
     5
176
     1
170
     0
176
     1
171
     0
176
     1
290
     0
176
     1
 93
        1
176
     1
 44
-50.0
176
     1
173
     0
176
     1
  0
VISUALSTYLE
  5
39
102
{ACAD_REACTORS
330
2A
102
}
330
2A
100
AcDbVisualStyle
  2
Facepattern
 70
    15
177
     2
291
     1
 71
     2
176
     1
 72
     2
176
     1
 73
     0
176
     1
 90
        0
176
     1
 40
-0.6
176
     1
 41
-30.0
176
     1
 62
     5
 63
     7
421
 16777215
176
     1
 74
     1
176
     1
 91
        4
176
     1
 64
     7
176
     1
 65
   257
176
     1
 75
     1
176
     1
175
     1
176
     1
 42
1.0
176
     1
 92
        8
176
     1
 66
     7
176
     1
 43
1.0
176
     1
 76
     1
176
     1
 77
     6
176
     1
 78
     2
176
     1
 67
     7
176
     1
 79
     5
176
     1
170
     0
176
     1
171
     0
176
     1
290
     0
176
     1
 93
        1
176
     1
 44
0.0
176
     1
173
     0
176
     1
  0
VISUALSTYLE
  5
2B
102
{ACAD_REACTORS
330
2A
102
}
330
2A
100
AcDbVisualStyle
  2
Flat
 70
     0
177
     2
291
     1
 71
     2
176
     1
 72
     1
176
     1
 73
     1
176
     1
 90
        2
176
     1
 40
-0.6
176
     1
 41
30.0
176
     1
 62
     5
 63
     7
421
 16777215
176
     1
 74
     0
176
     1
 91
        4
176
     1
 64
     7
176
     1
 65
   257
176
     1
 75
     1
176
     1
175
     1
176
     1
 42
1.0
176
     1
 92
        8
176
     1
 66
     7
176
     1
 43
1.0
176
     1
 76
     1
176
     1
 77
     6
176
     1
 78
     2
176
     1
 67
     7
176
     1
 79
     5
176
     1
170
     0
176
     1
171
     0
176
     1
290
     0
176
     1
 93
       13
176
     1
 44
0.0
176
     1
173
     0
176
     1
  0
VISUALSTYLE
  5
2C
102
{ACAD_REACTORS
330
2A
102
}
330
2A
100
AcDbVisualStyle
  2
FlatWithEdges
 70
     1
177
     2
291
     1
 71
     2
176
     1
 72
     1
176
     1
 73
     1
176
     1
 90
        2
176
     1
 40
-0.6
176
     1
 41
30.0
176
     1
 62
     5
 63
     7
421
 16777215
176
     1
 74
     1
176
     1
 91
        4
176
     1
 64
     7
176
     1
 65
   257
176
     1
 75
     1
176
     1
175
     1
176
     1
 42
1.0
176
     1
 92
        0
176
     1
 66
   257
176
     1
 43
1.0
176
     1
 76
     1
176
     1
 77
     6
176
     1
 78
     2
176
     1
 67
     7
176
     1
 79
     5
176
     1
170
     0
176
     1
171
     0
176
     1
290
     0
176
     1
 93
       13
176
     1
 44
0.0
176
     1
173
     0
176
     1
  0
VISUALSTYLE
  5
2D
102
{ACAD_REACTORS
330
2A
102
}
330
2A
100
AcDbVisualStyle
  2
Gouraud
 70
     2
177
     2
291
     1
 71
     2
176
     1
 72
     2
176
     1
 73
     1
176
     1
 90
        2
176
     1
 40
-0.6
176
     1
 41
30.0
176
     1
 62
     5
 63
     7
421
 16777215
176
     1
 74
     0
176
     1
 91
        4
176
     1
 64
     7
176
     1
 65
   257
176
     1
 75
     1
176
     1
175
     1
176
     1
 42
1.0
176
     1
 92
        0
176
     1
 66
     7
176
     1
 43
1.0
176
     1
 76
     1
176
     1
 77
     6
176
     1
 78
     2
176
     1
 67
     7
176
     1
 79
     5
176
     1
170
     0
176
     1
171
     0
176
     1
290
     0
176
     1
 93
       13
176
     1
 44
0.0
176
     1
173
     0
176
     1
  0
VISUALSTYLE
  5
2E
102
{ACAD_REACTORS
330
2A
102
}
330
2A
100
AcDbVisualStyle
  2
GouraudWithEdges
 70
     3
177
     2
291
     1
 71
     2
176
     1
 72
     2
176
     1
 73
     1
176
     1
 90
        2
176
     1
 40
-0.6
176
     1
 41
30.0
176
     1
 62
     5
 63
     7
421
 16777215
176
     1
 74
     1
176
     1
 91
        4
176
     1
 64
     7
176
     1
 65
   257
176
     1
 75
     1
176
     1
175
     1
176
     1
 42
1.0
176
     1
 92
        0
176
     1
 66
   257
176
     1
 43
1.0
176
     1
 76
     1
176
     1
 77
     6
176
     1
 78
     2
176
     1
 67
     7
176
     1
 79
     5
176
     1
170
     0
176
     1
171
     0
176
     1
290
     0
176
     1
 93
       13
176
     1
 44
0.0
176
     1
173
     0
176
     1
  0
VISUALSTYLE
  5
38
102
{ACAD_REACTORS
330
2A
102
}
330
2A
100
AcDbVisualStyle
  2
Linepattern
 70
    14
177
     2
291
     1
 71
     2
176
     1
 72
     2
176
     1
 73
     0
176
     1
 90
        0
176
     1
 40
-0.6
176
     1
 41
-30.0
176
     1
 62
     5
 63
     7
421
 16777215
176
     1
 74
     1
176
     1
 91
        4
176
     1
 64
     7
176
     1
 65
   257
176
     1
 75
     7
176
     1
175
     7
176
     1
 42
1.0
176
     1
 92
        8
176
     1
 66
     7
176
     1
 43
1.0
176
     1
 76
     1
176
     1
 77
     6
176
     1
 78
     2
176
     1
 67
     7
176
     1
 79
     5
176
     1
170
     0
176
     1
171
     0
176
     1
290
     0
176
     1
 93
        1
176
     1
 44
0.0
176
     1
173
     0
176
     1
  0
VISUALSTYLE
  5
33
102
{ACAD_REACTORS
330
2A
102
}
330
2A
100
AcDbVisualStyle
  2
Realistic
 70
     8
177
     2
291
     0
 71
     2
176
     1
 72
     2
176
     1
 73
     0
176
     1
 90
        0
176
     1
 40
-0.6
176
     1
 41
-30.0
176
     1
 62
     5
 63
     7
421
 16777215
176
     1
 74
     1
176
     1
 91
        0
176
     1
 64
     7
176
     1
 65
   257
176
     1
 75
     1
176
     1
175
     1
176
     1
 42
1.0
176
     1
 92
        8
176
     1
 66
     8
424
  7895160
176
     1
 43
1.0
176
     1
 76
     1
176
     1
 77
     6
176
     1
 78
     2
176
     1
 67
     7
176
     1
 79
     5
176
     1
170
     0
176
     1
171
     0
176
     1
290
     0
176
     1
 93
       13
176
     1
 44
0.0
176
     1
173
     0
176
     1
  0
VISUALSTYLE
  5
37
102
{ACAD_REACTORS
330
2A
102
}
330
2A
100
AcDbVisualStyle
  2
Thicken
 70
    13
177
     2
291
     1
 71
     2
176
     1
 72
     2
176
     1
 73
     0
176
     1
 90
        0
176
     1
 40
-0.6
176
     1
 41
-30.0
176
     1
 62
     5
 63
     7
421
 16777215
176
     1
 74
     1
176
     1
 91
        4
176
     1
 64
     7
176
     1
 65
   257
176
     1
 75
     1
176
     1
175
     1
176
     1
 42
1.0
176
     1
 92
       12
176
     1
 66
     7
176
     1
 43
1.0
176
     1
 76
     1
176
     1
 77
     6
176
     1
 78
     2
176
     1
 67
     7
176
     1
 79
     5
176
     1
170
     0
176
     1
171
     0
176
     1
290
     0
176
     1
 93
        1
176
     1
 44
0.0
176
     1
173
     0
176
     1
  0
ENDSEC
  0
EOF
