  0
SECTION
  2
HEADER
  9
$ACADVER
  1
AC1024
  9
$ACADMAINTVER
 70
     6
  9
$DWGCODEPAGE
  3
UNDEFINED
  9
$INSBASE
 10
0.0
 20
0.0
 30
0.0
  9
$EXTMIN
 10
1.000000000000000E+20
 20
1.000000000000000E+20
 30
1.000000000000000E+20
  9
$EXTMAX
 10
-1.000000000000000E+20
 20
-1.000000000000000E+20
 30
-1.000000000000000E+20
  9
$LIMMIN
 10
0.0
 20
0.0
  9
$LIMMAX
 10
12.0
 20
9.0
  9
$ORTHOMODE
 70
     0
  9
$REGENMODE
 70
     1
  9
$FILLMODE
 70
     1
  9
$QTEXTMODE
 70
     0
  9
$MIRRTEXT
 70
     1
  9
$LTSCALE
 40
1.0
  9
$ATTMODE
 70
     1
  9
$TEXTSIZE
 40
0.2
  9
$TRACEWID
 40
0.05
  9
$TEXTSTYLE
  7
Standard
  9
$CLAYER
  8
0
  9
$CELTYPE
  6
ByLayer
  9
$CECOLOR
 62
   256
  9
$CELTSCALE
 40
1.0
  9
$DISPSILH
 70
     0
  9
$DIMSCALE
 40
1.0
  9
$DIMASZ
 40
0.18
  9
$DIMEXO
 40
0.0625
  9
$DIMDLI
 40
0.38
  9
$DIMRND
 40
0.0
  9
$DIMDLE
 40
0.0
  9
$DIMEXE
 40
0.18
  9
$DIMTP
 40
0.0
  9
$DIMTM
 40
0.0
  9
$DIMTXT
 40
0.18
  9
$DIMCEN
 40
0.09
  9
$DIMTSZ
 40
0.0
  9
$DIMTOL
 70
     0
  9
$DIMLIM
 70
     0
  9
$DIMTIH
 70
     1
  9
$DIMTOH
 70
     1
  9
$DIMSE1
 70
     0
  9
$DIMSE2
 70
     0
  9
$DIMTAD
 70
     0
  9
$DIMZIN
 70
     0
  9
$DIMBLK
  1

  9
$DIMASO
 70
     1
  9
$DIMSHO
 70
     1
  9
$DIMPOST
  1

  9
$DIMAPOST
  1

  9
$DIMALT
 70
     0
  9
$DIMALTD
 70
     2
  9
$DIMALTF
 40
25.4
  9
$DIMLFAC
 40
1.0
  9
$DIMTOFL
 70
     0
  9
$DIMTVP
 40
0.0
  9
$DIMTIX
 70
     0
  9
$DIMSOXD
 70
     0
  9
$DIMSAH
 70
     0
  9
$DIMBLK1
  1

  9
$DIMBLK2
  1

  9
$DIMSTYLE
  2
Standard
  9
$DIMCLRD
 70
     0
  9
$DIMCLRE
 70
     0
  9
$DIMCLRT
 70
     0
  9
$DIMTFAC
 40
1.0
  9
$DIMGAP
 40
0.09
  9
$DIMJUST
 70
     0
  9
$DIMSD1
 70
     0
  9
$DIMSD2
 70
     0
  9
$DIMTOLJ
 70
     1
  9
$DIMTZIN
 70
     0
  9
$DIMALTZ
 70
     0
  9
$DIMALTTZ
 70
     0
  9
$DIMUPT
 70
     0
  9
$DIMDEC
 70
     4
  9
$DIMTDEC
 70
     4
  9
$DIMALTU
 70
     2
  9
$DIMALTTD
 70
     2
  9
$DIMTXSTY
  7
Standard
  9
$DIMAUNIT
 70
     0
  9
$DIMADEC
 70
     0
  9
$DIMALTRND
 40
0.0
  9
$DIMAZIN
 70
     0
  9
$DIMDSEP
 70
    46
  9
$DIMATFIT
 70
     3
  9
$DIMFRAC
 70
     0
  9
$DIMLDRBLK
  1

  9
$DIMLUNIT
 70
     2
  9
$DIMLWD
 70
    -2
  9
$DIMLWE
 70
    -2
  9
$DIMTMOVE
 70
     0
  9
$DIMFXL
 40
1.0
  9
$DIMFXLON
 70
     0
  9
$DIMJOGANG
 40
0.7853981633974483
  9
$DIMTFILL
 70
     0
  9
$DIMTFILLCLR
 70
     0
  9
$DIMARCSYM
 70
     0
  9
$DIMLTYPE
  6

  9
$DIMLTEX1
  6

  9
$DIMLTEX2
  6

  9
$DIMTXTDIRECTION
 70
     0
  9
$LUNITS
 70
     2
  9
$LUPREC
 70
     4
  9
$SKETCHINC
 40
0.1
  9
$FILLETRAD
 40
0.5
  9
$AUNITS
 70
     0
  9
$AUPREC
 70
     0
  9
$MENU
  1
.
  9
$ELEVATION
 40
0.0
  9
$PELEVATION
 40
0.0
  9
$THICKNESS
 40
0.0
  9
$LIMCHECK
 70
     0
  9
$CHAMFERA
 40
0.5
  9
$CHAMFERB
 40
0.5
  9
$CHAMFERC
 40
1.0
  9
$CHAMFERD
 40
0.0
  9
$SKPOLY
 70
     0
  9
$TDCREATE
 40
2457917.617523148
  9
$TDUCREATE
 40
2457917.242523148
  9
$TDUPDATE
 40
2457917.617523148
  9
$TDUUPDATE
 40
2457917.242523148
  9
$TDINDWG
 40
0.0000000116
  9
$TDUSRTIMER
 40
0.0000000116
  9
$USRTIMER
 70
     1
  9
$ANGBASE
 50
0.0
  9
$ANGDIR
 70
     0
  9
$PDMODE
 70
     0
  9
$PDSIZE
 40
0.0
  9
$PLINEWID
 40
0.0
  9
$SPLFRAME
 70
     0
  9
$SPLINETYPE
 70
     6
  9
$SPLINESEGS
 70
     8
  9
$HANDSEED
  5
C5
  9
$SURFTAB1
 70
     6
  9
$SURFTAB2
 70
     6
  9
$SURFTYPE
 70
     6
  9
$SURFU
 70
     6
  9
$SURFV
 70
     6
  9
$UCSBASE
  2

  9
$UCSNAME
  2

  9
$UCSORG
 10
0.0
 20
0.0
 30
0.0
  9
$UCSXDIR
 10
1.0
 20
0.0
 30
0.0
  9
$UCSYDIR
 10
0.0
 20
1.0
 30
0.0
  9
$UCSORTHOREF
  2

  9
$UCSORTHOVIEW
 70
     0
  9
$UCSORGTOP
 10
0.0
 20
0.0
 30
0.0
  9
$UCSORGBOTTOM
 10
0.0
 20
0.0
 30
0.0
  9
$UCSORGLEFT
 10
0.0
 20
0.0
 30
0.0
  9
$UCSORGRIGHT
 10
0.0
 20
0.0
 30
0.0
  9
$UCSORGFRONT
 10
0.0
 20
0.0
 30
0.0
  9
$UCSORGBACK
 10
0.0
 20
0.0
 30
0.0
  9
$PUCSBASE
  2

  9
$PUCSNAME
  2

  9
$PUCSORG
 10
0.0
 20
0.0
 30
0.0
  9
$PUCSXDIR
 10
1.0
 20
0.0
 30
0.0
  9
$PUCSYDIR
 10
0.0
 20
1.0
 30
0.0
  9
$PUCSORTHOREF
  2

  9
$PUCSORTHOVIEW
 70
     0
  9
$PUCSORGTOP
 10
0.0
 20
0.0
 30
0.0
  9
$PUCSORGBOTTOM
 10
0.0
 20
0.0
 30
0.0
  9
$PUCSORGLEFT
 10
0.0
 20
0.0
 30
0.0
  9
$PUCSORGRIGHT
 10
0.0
 20
0.0
 30
0.0
  9
$PUCSORGFRONT
 10
0.0
 20
0.0
 30
0.0
  9
$PUCSORGBACK
 10
0.0
 20
0.0
 30
0.0
  9
$USERI1
 70
     0
  9
$USERI2
 70
     0
  9
$USERI3
 70
     0
  9
$USERI4
 70
     0
  9
$USERI5
 70
     0
  9
$USERR1
 40
0.0
  9
$USERR2
 40
0.0
  9
$USERR3
 40
0.0
  9
$USERR4
 40
0.0
  9
$USERR5
 40
0.0
  9
$WORLDVIEW
 70
     1
  9
$SHADEDGE
 70
     3
  9
$SHADEDIF
 70
    70
  9
$TILEMODE
 70
     1
  9
$MAXACTVP
 70
    64
  9
$PINSBASE
 10
0.0
 20
0.0
 30
0.0
  9
$PLIMCHECK
 70
     0
  9
$PEXTMIN
 10
1.000000000000000E+20
 20
1.000000000000000E+20
 30
1.000000000000000E+20
  9
$PEXTMAX
 10
-1.000000000000000E+20
 20
-1.000000000000000E+20
 30
-1.000000000000000E+20
  9
$PLIMMIN
 10
0.0
 20
0.0
  9
$PLIMMAX
 10
12.0
 20
9.0
  9
$UNITMODE
 70
     0
  9
$VISRETAIN
 70
     1
  9
$PLINEGEN
 70
     0
  9
$PSLTSCALE
 70
     1
  9
$TREEDEPTH
 70
  3020
  9
$CMLSTYLE
  2
Standard
  9
$CMLJUST
 70
     0
  9
$CMLSCALE
 40
1.0
  9
$PROXYGRAPHICS
 70
     1
  9
$MEASUREMENT
 70
     0
  9
$CELWEIGHT
370
    -1
  9
$ENDCAPS
280
     0
  9
$JOINSTYLE
280
     0
  9
$LWDISPLAY
290
     1
  9
$INSUNITS
 70
     1
  9
$HYPERLINKBASE
  1

  9
$STYLESHEET
  1

  9
$XEDIT
290
     1
  9
$CEPSNTYPE
380
     0
  9
$PSTYLEMODE
290
     1
  9
$FINGERPRINTGUID
  2
{1F715CD6-4B3F-EC5D-9FB3-0AE6DBAB522B}
  9
$VERSIONGUID
  2
{FAEB1C32-E019-11D5-929B-00C0DF256EC4}
  9
$EXTNAMES
290
     1
  9
$PSVPSCALE
 40
0.0
  9
$OLESTARTUP
290
     0
  9
$SORTENTS
280
   127
  9
$INDEXCTL
280
     0
  9
$HIDETEXT
280
     1
  9
$XCLIPFRAME
280
     2
  9
$HALOGAP
280
     0
  9
$OBSCOLOR
 70
   257
  9
$OBSLTYPE
280
     0
  9
$INTERSECTIONDISPLAY
280
     0
  9
$INTERSECTIONCOLOR
 70
   257
  9
$DIMASSOC
280
     2
  9
$PROJECTNAME
  1

  9
$CAMERADISPLAY
290
     0
  9
$LENSLENGTH
 40
50.0
  9
$CAMERAHEIGHT
 40
0.0
  9
$STEPSPERSEC
 40
2.0
  9
$STEPSIZE
 40
6.0
  9
$3DDWFPREC
 40
2.0
  9
$PSOLWIDTH
 40
0.25
  9
$PSOLHEIGHT
 40
4.0
  9
$LOFTANG1
 40
1.570796326794897
  9
$LOFTANG2
 40
1.570796326794897
  9
$LOFTMAG1
 40
0.0
  9
$LOFTMAG2
 40
0.0
  9
$LOFTPARAM
 70
     7
  9
$LOFTNORMALS
280
     1
  9
$LATITUDE
 40
37.795
  9
$LONGITUDE
 40
-122.394
  9
$NORTHDIRECTION
 40
0.0
  9
$TIMEZONE
 70
 -8000
  9
$LIGHTGLYPHDISPLAY
280
     1
  9
$TILEMODELIGHTSYNCH
280
     1
  9
$CMATERIAL
347
3C
  9
$SOLIDHIST
280
     1
  9
$SHOWHIST
280
     1
  9
$DWFFRAME
280
     2
  9
$DGNFRAME
280
     2
  9
$REALWORLDSCALE
290
     1
  9
$INTERFERECOLOR
 62
   256
  9
$CSHADOW
280
     0
  9
$SHADOWPLANELOCATION
 40
0.0
  0
ENDSEC
  0
SECTION
  2
CLASSES
  0
CLASS
  1
ACDBDICTIONARYWDFLT
  2
AcDbDictionaryWithDefault
  3
ObjectDBX Classes
 90
        0
 91
        4
280
     0
281
     0
  0
CLASS
  1
VISUALSTYLE
  2
AcDbVisualStyle
  3
ObjectDBX Classes
 90
     4095
 91
        4
280
     0
281
     0
  0
CLASS
  1
MATERIAL
  2
AcDbMaterial
  3
ObjectDBX Classes
 90
     1153
 91
        4
280
     0
281
     0
  0
CLASS
  1
SUN
  2
AcDbSun
  3
SCENEOE
 90
     1024
 91
        4
280
     0
281
     0
  0
ENDSEC
  0
SECTION
  2
TABLES
  0
TABLE
  2
VPORT
  5
8
330
0
100
AcDbSymbolTable
 70
     1
  0
VPORT
  5
29
330
8
100
AcDbSymbolTableRecord
100
AcDbViewportTableRecord
  2
*Active
 70
     0
 10
0.0
 20
0.0
 11
1.0
 21
1.0
 12
0.0
 22
0.0
 13
0.0
 23
0.0
 14
0.5
 24
0.5
 15
0.5
 25
0.5
 16
0.0
 26
0.0
 36
1.0
 17
91.00082462281999
 27
-128.4993055234307
 37
0.0
 40
256.9986110468615
 41
0.7081814508812795
 42
50.0
 43
0.0
 44
0.0
 50
0.0
 51
0.0
 71
     0
 72
   100
 73
     1
 74
     3
 75
     0
 76
     0
 77
     0
 78
     0
281
     0
 65
     1
110
0.0
120
0.0
130
0.0
111
1.0
121
0.0
131
0.0
112
0.0
122
1.0
132
0.0
 79
     0
146
0.0
 60
     3
 61
     5
292
     1
282
     1
141
0.0
142
0.0
 63
   250
361
3F
  0
ENDTAB
  0
TABLE
  2
LTYPE
  5
5
330
0
100
AcDbSymbolTable
 70
     1
  0
LTYPE
  5
14
330
5
100
AcDbSymbolTableRecord
100
AcDbLinetypeTableRecord
  2
ByBlock
 70
     0
  3

 72
    65
 73
     0
 40
0.0
  0
LTYPE
  5
15
330
5
100
AcDbSymbolTableRecord
100
AcDbLinetypeTableRecord
  2
ByLayer
 70
     0
  3

 72
    65
 73
     0
 40
0.0
  0
LTYPE
  5
16
330
5
100
AcDbSymbolTableRecord
100
AcDbLinetypeTableRecord
  2
Continuous
 70
     0
  3
Solid line
 72
    65
 73
     0
 40
0.0
  0
ENDTAB
  0
TABLE
  2
LAYER
  5
2
330
0
100
AcDbSymbolTable
 70
     2
  0
LAYER
  5
10
330
2
100
AcDbSymbolTableRecord
100
AcDbLayerTableRecord
  2
0
 70
     0
 62
     7
  6
Continuous
370
    -3
390
F
347
3E
  0
LAYER
  5
40
330
2
100
AcDbSymbolTableRecord
100
AcDbLayerTableRecord
  2
_U+30EC_U+30A4_U+30E4_U+30FC 1
 70
     0
 62
     7
  6
Continuous
370
    -3
390
F
347
3E
  0
ENDTAB
  0
TABLE
  2
STYLE
  5
3
330
0
100
AcDbSymbolTable
 70
     1
  0
STYLE
  5
11
330
3
100
AcDbSymbolTableRecord
100
AcDbTextStyleTableRecord
  2
Standard
 70
     0
 40
0.0
 41
1.0
 50
0.0
 71
     0
 42
0.2
  3
txt
  4

  0
ENDTAB
  0
TABLE
  2
VIEW
  5
6
330
0
100
AcDbSymbolTable
 70
     0
  0
ENDTAB
  0
TABLE
  2
UCS
  5
7
330
0
100
AcDbSymbolTable
 70
     0
  0
ENDTAB
  0
TABLE
  2
APPID
  5
9
330
0
100
AcDbSymbolTable
 70
     1
  0
APPID
  5
12
330
9
100
AcDbSymbolTableRecord
100
AcDbRegAppTableRecord
  2
ACAD
 70
     0
  0
ENDTAB
  0
TABLE
  2
DIMSTYLE
  5
A
330
0
100
AcDbSymbolTable
 70
     1
100
AcDbDimStyleTable
  0
DIMSTYLE
105
27
330
A
100
AcDbSymbolTableRecord
100
AcDbDimStyleTableRecord
  2
Standard
 70
     0
178
     0
340
11
  0
ENDTAB
  0
TABLE
  2
BLOCK_RECORD
  5
1
330
0
100
AcDbSymbolTable
 70
     4
  0
BLOCK_RECORD
  5
1F
330
1
100
AcDbSymbolTableRecord
100
AcDbBlockTableRecord
  2
*Model_Space
340
22
 70
     0
280
     1
281
     0
  0
BLOCK_RECORD
  5
1B
330
1
100
AcDbSymbolTableRecord
100
AcDbBlockTableRecord
  2
*Paper_Space
340
1E
 70
     0
280
     1
281
     0
  0
BLOCK_RECORD
  5
23
330
1
100
AcDbSymbolTableRecord
100
AcDbBlockTableRecord
  2
*Paper_Space0
340
26
 70
     0
280
     1
281
     0
  0
BLOCK_RECORD
  5
41
330
1
100
AcDbSymbolTableRecord
100
AcDbBlockTableRecord
  2
block 2
340
0
102
{BLKREFS
331
42
102
}
 70
     0
280
     1
281
     0
  0
BLOCK_RECORD
  5
64
330
1
100
AcDbSymbolTableRecord
100
AcDbBlockTableRecord
  2
block 3
340
0
102
{BLKREFS
331
65
102
}
 70
     0
280
     1
281
     0
  0
BLOCK_RECORD
  5
87
330
1
100
AcDbSymbolTableRecord
100
AcDbBlockTableRecord
  2
block 4
340
0
102
{BLKREFS
331
88
102
}
 70
     0
280
     1
281
     0
  0
ENDTAB
  0
ENDSEC
  0
SECTION
  2
BLOCKS
  0
BLOCK
  5
20
330
1F
100
AcDbEntity
  8
0
100
AcDbBlockBegin
  2
*Model_Space
 70
     0
 10
0.0
 20
0.0
 30
0.0
  3
*Model_Space
  1

  0
ENDBLK
  5
21
330
1F
100
AcDbEntity
  8
0
100
AcDbBlockEnd
  0
BLOCK
  5
1C
330
1B
100
AcDbEntity
 67
     1
  8
0
100
AcDbBlockBegin
  2
*Paper_Space
 70
     0
 10
0.0
 20
0.0
 30
0.0
  3
*Paper_Space
  1

  0
ENDBLK
  5
1D
330
1B
100
AcDbEntity
 67
     1
  8
0
100
AcDbBlockEnd
  0
BLOCK
  5
24
330
23
100
AcDbEntity
  8
0
100
AcDbBlockBegin
  2
*Paper_Space0
 70
     0
 10
0.0
 20
0.0
 30
0.0
  3
*Paper_Space0
  1

  0
ENDBLK
  5
25
330
23
100
AcDbEntity
  8
0
100
AcDbBlockEnd
  0
BLOCK
  5
43
330
41
100
AcDbEntity
  8
0
100
AcDbBlockBegin
  2
block 2
 70
     0
 10
0.0
 20
0.0
 30
0.0
  3
block 2
  1

  0
SPLINE
  5
45
330
41
100
AcDbEntity
  8
_U+30EC_U+30A4_U+30E4_U+30FC 1
370
     0
100
AcDbSpline
210
0.0
220
0.0
230
1.0
 70
    11
 71
     3
 72
    62
 73
    58
 74
     0
 42
0.0000000001
 43
0.0000000001
 12
1.0
 22
0.0
 32
0.0
 13
1.0
 23
0.0
 33
0.0
 40
0.0
 40
0.0
 40
0.0
 40
0.0
 40
1.0
 40
1.0
 40
1.0
 40
2.0
 40
2.0
 40
2.0
 40
3.0
 40
3.0
 40
3.0
 40
4.0
 40
4.0
 40
4.0
 40
5.0
 40
5.0
 40
5.0
 40
6.0
 40
6.0
 40
6.0
 40
7.0
 40
7.0
 40
7.0
 40
8.0
 40
8.0
 40
8.0
 40
9.0
 40
9.0
 40
9.0
 40
10.0
 40
10.0
 40
10.0
 40
11.0
 40
11.0
 40
11.0
 40
12.0
 40
12.0
 40
12.0
 40
13.0
 40
13.0
 40
13.0
 40
14.0
 40
14.0
 40
14.0
 40
15.0
 40
15.0
 40
15.0
 40
16.0
 40
16.0
 40
16.0
 40
17.0
 40
17.0
 40
17.0
 40
18.0
 40
18.0
 40
18.0
 40
19.0
 40
19.0
 40
19.0
 40
19.0
 10
82.19739445644719
 20
-138.9531032638728
 30
0.0
 10
82.10816648337921
 20
-138.920374856763
 30
0.0
 10
81.91041800252587
 20
-138.8259792404671
 30
0.0
 10
81.8570190225045
 20
-138.6082492057993
 30
0.0
 10
81.82566865358872
 20
-138.4776800869084
 30
0.0
 10
81.8556409843104
 20
-138.382939961064
 30
0.0
 10
81.88079018135272
 20
-138.3019802171606
 30
0.0
 10
81.88079018135272
 20
-138.3019802171606
 30
0.0
 10
82.08749591046771
 20
-138.3770832987391
 30
0.0
 10
82.08749591046771
 20
-138.3770832987391
 30
0.0
 10
82.06406926116802
 20
-138.4473632466382
 30
0.0
 10
81.99378931326892
 20
-138.6716389627279
 30
0.0
 10
82.26009519427873
 20
-138.768790655412
 30
0.0
 10
82.3892862749756
 20
-138.8156439540114
 30
0.0
 10
82.55637340601021
 20
-138.8022080816189
 30
0.0
 10
82.63440481875112
 20
-138.5875786328878
 30
0.0
 10
82.67419567160576
 20
-138.4780245964569
 30
0.0
 10
82.65524764643689
 20
-138.4194579732076
 30
0.0
 10
82.63629962126801
 20
-138.3788058464817
 30
0.0
 10
82.59203014428255
 20
-138.2837212110888
 30
0.0
 10
82.48678247720817
 20
-138.2320447788101
 30
0.0
 10
82.43510604492943
 20
-138.2134412631897
 30
0.0
 10
82.41719154840612
 20
-138.2068955817677
 30
0.0
 10
82.38274059355362
 20
-138.196560295312
 30
0.0
 10
82.35552433922015
 20
-138.1907036329871
 30
0.0
 10
82.35552433922015
 20
-138.1907036329871
 30
0.0
 10
82.42218693685973
 20
-138.0081135722688
 30
0.0
 10
82.42218693685973
 20
-138.0081135722688
 30
0.0
 10
82.45577661784093
 20
-138.0270615974377
 30
0.0
 10
82.49487845159851
 20
-138.0439425653154
 30
0.0
 10
82.50073511392343
 20
-138.0460096226066
 30
0.0
 10
82.56223006833514
 20
-138.0684027432607
 30
0.0
 10
82.75653345370323
 20
-138.1162895705056
 30
0.0
 10
82.8374931976066
 20
-137.8937364021585
 30
0.0
 10
82.89829913292127
 20
-137.7266492711239
 30
0.0
 10
82.79374048494392
 20
-137.6298420879884
 30
0.0
 10
82.69038762038643
 20
-137.5922905471992
 30
0.0
 10
82.44199623589992
 20
-137.5020290454856
 30
0.0
 10
82.35449081057457
 20
-137.7180365324108
 30
0.0
 10
82.325896518047
 20
-137.7841823657276
 30
0.0
 10
82.325896518047
 20
-137.7841823657276
 30
0.0
 10
82.13503822816416
 20
-137.7145914369255
 30
0.0
 10
82.13503822816416
 20
-137.7145914369255
 30
0.0
 10
82.18568113179734
 20
-137.6002142668152
 30
0.0
 10
82.34036591908504
 20
-137.2557047182902
 30
0.0
 10
82.76962481654718
 20
-137.4117675437721
 30
0.0
 10
82.98029240547021
 20
-137.4885931730931
 30
0.0
 10
83.1635714852855
 20
-137.6904757685288
 30
0.0
 10
83.06228567801915
 20
-137.968839483737
 30
0.0
 10
82.9987236663163
 20
-138.1438503343877
 30
0.0
 10
82.88090140072075
 20
-138.1886365756959
 30
0.0
 10
82.76652423061046
 20
-138.2124077345441
 30
0.0
 10
82.81475556740395
 20
-138.2592610331435
 30
0.0
 10
82.95841604913888
 20
-138.3970648525535
 30
0.0
 10
82.86350366852024
 20
-138.6575140712384
 30
0.0
 10
82.74774846021585
 20
-138.975496384527
 30
0.0
 10
82.45784367513207
 20
-139.0478433897172
 30
0.0
 10
82.19739445644719
 20
-138.9531032638728
 30
0.0
  0
HATCH
  5
46
330
41
100
AcDbEntity
  8
_U+30EC_U+30A4_U+30E4_U+30FC 1
 62
   179
420
  2234388
100
AcDbHatch
 10
0.0
 20
0.0
 30
0.0
210
0.0
220
0.0
230
1.0
  2
SOLID
 70
     1
 71
     0
 91
        1
 92
        1
 93
        1
 72
     4
 94
        3
 73
     0
 74
     1
 95
       62
 96
       58
 40
0.0
 40
0.0
 40
0.0
 40
0.0
 40
1.0
 40
1.0
 40
1.0
 40
2.0
 40
2.0
 40
2.0
 40
3.0
 40
3.0
 40
3.0
 40
4.0
 40
4.0
 40
4.0
 40
5.0
 40
5.0
 40
5.0
 40
6.0
 40
6.0
 40
6.0
 40
7.0
 40
7.0
 40
7.0
 40
8.0
 40
8.0
 40
8.0
 40
9.0
 40
9.0
 40
9.0
 40
10.0
 40
10.0
 40
10.0
 40
11.0
 40
11.0
 40
11.0
 40
12.0
 40
12.0
 40
12.0
 40
13.0
 40
13.0
 40
13.0
 40
14.0
 40
14.0
 40
14.0
 40
15.0
 40
15.0
 40
15.0
 40
16.0
 40
16.0
 40
16.0
 40
17.0
 40
17.0
 40
17.0
 40
18.0
 40
18.0
 40
18.0
 40
19.0
 40
19.0
 40
19.0
 40
19.0
 10
82.19739445644719
 20
-138.9531032638728
 10
82.10816648337921
 20
-138.920374856763
 10
81.91041800252587
 20
-138.8259792404671
 10
81.8570190225045
 20
-138.6082492057993
 10
81.82566865358872
 20
-138.4776800869084
 10
81.8556409843104
 20
-138.382939961064
 10
81.88079018135272
 20
-138.3019802171606
 10
81.88079018135272
 20
-138.3019802171606
 10
82.08749591046771
 20
-138.3770832987391
 10
82.08749591046771
 20
-138.3770832987391
 10
82.06406926116802
 20
-138.4473632466382
 10
81.99378931326892
 20
-138.6716389627279
 10
82.26009519427873
 20
-138.768790655412
 10
82.3892862749756
 20
-138.8156439540114
 10
82.55637340601021
 20
-138.8022080816189
 10
82.63440481875112
 20
-138.5875786328878
 10
82.67419567160576
 20
-138.4780245964569
 10
82.65524764643689
 20
-138.4194579732076
 10
82.63629962126801
 20
-138.3788058464817
 10
82.59203014428255
 20
-138.2837212110888
 10
82.48678247720817
 20
-138.2320447788101
 10
82.43510604492943
 20
-138.2134412631897
 10
82.41719154840612
 20
-138.2068955817677
 10
82.38274059355362
 20
-138.196560295312
 10
82.35552433922015
 20
-138.1907036329871
 10
82.35552433922015
 20
-138.1907036329871
 10
82.42218693685973
 20
-138.0081135722688
 10
82.42218693685973
 20
-138.0081135722688
 10
82.45577661784093
 20
-138.0270615974377
 10
82.49487845159851
 20
-138.0439425653154
 10
82.50073511392343
 20
-138.0460096226066
 10
82.56223006833514
 20
-138.0684027432607
 10
82.75653345370323
 20
-138.1162895705056
 10
82.8374931976066
 20
-137.8937364021585
 10
82.89829913292127
 20
-137.7266492711239
 10
82.79374048494392
 20
-137.6298420879884
 10
82.69038762038643
 20
-137.5922905471992
 10
82.44199623589992
 20
-137.5020290454856
 10
82.35449081057457
 20
-137.7180365324108
 10
82.325896518047
 20
-137.7841823657276
 10
82.325896518047
 20
-137.7841823657276
 10
82.13503822816416
 20
-137.7145914369255
 10
82.13503822816416
 20
-137.7145914369255
 10
82.18568113179734
 20
-137.6002142668152
 10
82.34036591908504
 20
-137.2557047182902
 10
82.76962481654718
 20
-137.4117675437721
 10
82.98029240547021
 20
-137.4885931730931
 10
83.1635714852855
 20
-137.6904757685288
 10
83.06228567801915
 20
-137.968839483737
 10
82.9987236663163
 20
-138.1438503343877
 10
82.88090140072075
 20
-138.1886365756959
 10
82.76652423061046
 20
-138.2124077345441
 10
82.81475556740395
 20
-138.2592610331435
 10
82.95841604913888
 20
-138.3970648525535
 10
82.86350366852024
 20
-138.6575140712384
 10
82.74774846021585
 20
-138.975496384527
 10
82.45784367513207
 20
-139.0478433897172
 10
82.19739445644719
 20
-138.9531032638728
 97
        0
 97
        0
 75
     2
 76
     1
 98
        0
  0
SPLINE
  5
47
330
41
100
AcDbEntity
  8
_U+30EC_U+30A4_U+30E4_U+30FC 1
370
     0
100
AcDbSpline
210
0.0
220
0.0
230
1.0
 70
    11
 71
     3
 72
    29
 73
    25
 74
     0
 42
0.0000000001
 43
0.0000000001
 12
1.0
 22
0.0
 32
0.0
 13
1.0
 23
0.0
 33
0.0
 40
0.0
 40
0.0
 40
0.0
 40
0.0
 40
1.0
 40
1.0
 40
1.0
 40
2.0
 40
2.0
 40
2.0
 40
3.0
 40
3.0
 40
3.0
 40
4.0
 40
4.0
 40
4.0
 40
5.0
 40
5.0
 40
5.0
 40
6.0
 40
6.0
 40
6.0
 40
7.0
 40
7.0
 40
7.0
 40
8.0
 40
8.0
 40
8.0
 40
8.0
 10
83.76319035449323
 20
-139.2796983158745
 30
0.0
 10
83.5902465611337
 20
-139.4398952559386
 30
0.0
 10
83.4207478632594
 20
-139.3982096005671
 30
0.0
 10
83.31119382682846
 20
-139.3585910024867
 30
0.0
 10
83.16029864457451
 20
-139.3034694747228
 30
0.0
 10
83.04282088852749
 20
-139.2111409157181
 30
0.0
 10
83.01577688896828
 20
-139.0075357725398
 30
0.0
 10
82.98494328437529
 20
-138.7894612283235
 30
0.0
 10
83.04816078652964
 20
-138.5600178690058
 30
0.0
 10
83.10379907861642
 20
-138.4070556294607
 30
0.0
 10
83.15306394405549
 20
-138.272007886439
 30
0.0
 10
83.25503877041888
 20
-138.0411864889272
 30
0.0
 10
83.42247041100202
 20
-137.8902913066733
 30
0.0
 10
83.59334714707042
 20
-137.7366400480311
 30
0.0
 10
83.7523383037147
 20
-137.7697129646895
 30
0.0
 10
83.87343341002124
 20
-137.8138101869007
 30
0.0
 10
84.02260604453255
 20
-137.8678981860191
 30
0.0
 10
84.1426676221935
 20
-137.9591932163783
 30
0.0
 10
84.16971162175271
 20
-138.162453850008
 30
0.0
 10
84.19727238563472
 20
-138.3774278082876
 30
0.0
 10
84.14111732922514
 20
-138.5999809766347
 30
0.0
 10
84.08186168687884
 20
-138.762933993087
 30
0.0
 10
84.02312280885533
 20
-138.9241644617967
 30
0.0
 10
83.92459307797719
 20
-139.1336262672999
 30
0.0
 10
83.76319035449323
 20
-139.2796983158745
 30
0.0
  0
SPLINE
  5
48
330
41
100
AcDbEntity
  8
_U+30EC_U+30A4_U+30E4_U+30FC 1
370
     0
100
AcDbSpline
210
0.0
220
0.0
230
1.0
 70
    11
 71
     3
 72
    17
 73
    13
 74
     0
 42
0.0000000001
 43
0.0000000001
 12
1.0
 22
0.0
 32
0.0
 13
1.0
 23
0.0
 33
0.0
 40
0.0
 40
0.0
 40
0.0
 40
0.0
 40
1.0
 40
1.0
 40
1.0
 40
2.0
 40
2.0
 40
2.0
 40
3.0
 40
3.0
 40
3.0
 40
4.0
 40
4.0
 40
4.0
 40
4.0
 10
83.80763208625295
 20
-137.9946776998763
 30
0.0
 10
83.5731933384817
 20
-137.9092393318421
 30
0.0
 10
83.43246118790925
 20
-138.1600422831683
 30
0.0
 10
83.3146389223137
 20
-138.4838812587818
 30
0.0
 10
83.20525714065703
 20
-138.7839490755471
 30
0.0
 10
83.13342689978957
 20
-139.086428459152
 30
0.0
 10
83.37768416969378
 20
-139.1753119226715
 30
0.0
 10
83.61057262449667
 20
-139.2600612716086
 30
0.0
 10
83.75251055848896
 20
-139.0123589062191
 30
0.0
 10
83.87136635273008
 20
-138.6864528733145
 30
0.0
 10
83.9805758796125
 20
-138.3863850565492
 30
0.0
 10
84.0503390631888
 20
-138.0832166538472
 30
0.0
 10
83.80763208625295
 20
-137.9946776998763
 30
0.0
  0
HATCH
  5
49
330
41
100
AcDbEntity
  8
_U+30EC_U+30A4_U+30E4_U+30FC 1
 62
   179
420
  2234388
100
AcDbHatch
 10
0.0
 20
0.0
 30
0.0
210
0.0
220
0.0
230
1.0
  2
SOLID
 70
     1
 71
     0
 91
        2
 92
        1
 93
        1
 72
     4
 94
        3
 73
     0
 74
     1
 95
       29
 96
       25
 40
0.0
 40
0.0
 40
0.0
 40
0.0
 40
1.0
 40
1.0
 40
1.0
 40
2.0
 40
2.0
 40
2.0
 40
3.0
 40
3.0
 40
3.0
 40
4.0
 40
4.0
 40
4.0
 40
5.0
 40
5.0
 40
5.0
 40
6.0
 40
6.0
 40
6.0
 40
7.0
 40
7.0
 40
7.0
 40
8.0
 40
8.0
 40
8.0
 40
8.0
 10
83.76319035449323
 20
-139.2796983158745
 10
83.5902465611337
 20
-139.4398952559386
 10
83.4207478632594
 20
-139.3982096005671
 10
83.31119382682846
 20
-139.3585910024867
 10
83.16029864457451
 20
-139.3034694747228
 10
83.04282088852749
 20
-139.2111409157181
 10
83.01577688896828
 20
-139.0075357725398
 10
82.98494328437529
 20
-138.7894612283235
 10
83.04816078652964
 20
-138.5600178690058
 10
83.10379907861642
 20
-138.4070556294607
 10
83.15306394405549
 20
-138.272007886439
 10
83.25503877041888
 20
-138.0411864889272
 10
83.42247041100202
 20
-137.8902913066733
 10
83.59334714707042
 20
-137.7366400480311
 10
83.7523383037147
 20
-137.7697129646895
 10
83.87343341002124
 20
-137.8138101869007
 10
84.02260604453255
 20
-137.8678981860191
 10
84.1426676221935
 20
-137.9591932163783
 10
84.16971162175271
 20
-138.162453850008
 10
84.19727238563472
 20
-138.3774278082876
 10
84.14111732922514
 20
-138.5999809766347
 10
84.08186168687884
 20
-138.762933993087
 10
84.02312280885533
 20
-138.9241644617967
 10
83.92459307797719
 20
-139.1336262672999
 10
83.76319035449323
 20
-139.2796983158745
 97
        0
 97
        0
 92
        1
 93
        1
 72
     4
 94
        3
 73
     0
 74
     1
 95
       17
 96
       13
 40
0.0
 40
0.0
 40
0.0
 40
0.0
 40
1.0
 40
1.0
 40
1.0
 40
2.0
 40
2.0
 40
2.0
 40
3.0
 40
3.0
 40
3.0
 40
4.0
 40
4.0
 40
4.0
 40
4.0
 10
83.80763208625295
 20
-137.9946776998763
 10
83.5731933384817
 20
-137.9092393318421
 10
83.43246118790925
 20
-138.1600422831683
 10
83.3146389223137
 20
-138.4838812587818
 10
83.20525714065703
 20
-138.7839490755471
 10
83.13342689978957
 20
-139.086428459152
 10
83.37768416969378
 20
-139.1753119226715
 10
83.61057262449667
 20
-139.2600612716086
 10
83.75251055848896
 20
-139.0123589062191
 10
83.87136635273008
 20
-138.6864528733145
 10
83.9805758796125
 20
-138.3863850565492
 10
84.0503390631888
 20
-138.0832166538472
 10
83.80763208625295
 20
-137.9946776998763
 97
        0
 97
        0
 75
     2
 76
     1
 98
        0
  0
POLYLINE
  5
4A
330
41
100
AcDbEntity
  8
_U+30EC_U+30A4_U+30E4_U+30FC 1
370
     0
100
AcDb2dPolyline
 66
     1
 10
0.0
 20
0.0
 30
0.0
  0
VERTEX
  5
4B
330
4A
100
AcDbEntity
  8
_U+30EC_U+30A4_U+30E4_U+30FC 1
370
     0
100
AcDbVertex
100
AcDb2dVertex
 10
85.22580564275606
 20
-140.0011013104858
 30
0.0
  0
VERTEX
  5
4C
330
4A
100
AcDbEntity
  8
_U+30EC_U+30A4_U+30E4_U+30FC 1
370
     0
100
AcDbVertex
100
AcDb2dVertex
 10
85.5911580189668
 20
-138.997200486084
 30
0.0
  0
VERTEX
  5
4D
330
4A
100
AcDbEntity
  8
_U+30EC_U+30A4_U+30E4_U+30FC 1
370
     0
100
AcDbVertex
100
AcDb2dVertex
 10
85.65282522815276
 20
-138.8463053038301
 30
0.0
  0
VERTEX
  5
4E
330
4A
100
AcDbEntity
  8
_U+30EC_U+30A4_U+30E4_U+30FC 1
370
     0
100
AcDbVertex
100
AcDb2dVertex
 10
85.56618107669874
 20
-138.9792859895607
 30
0.0
  0
VERTEX
  5
4F
330
4A
100
AcDbEntity
  8
_U+30EC_U+30A4_U+30E4_U+30FC 1
370
     0
100
AcDbVertex
100
AcDb2dVertex
 10
84.87388913893778
 20
-139.8732882679831
 30
0.0
  0
VERTEX
  5
50
330
4A
100
AcDbEntity
  8
_U+30EC_U+30A4_U+30E4_U+30FC 1
370
     0
100
AcDbVertex
100
AcDb2dVertex
 10
84.61946883735209
 20
-139.7806151994299
 30
0.0
  0
VERTEX
  5
51
330
4A
100
AcDbEntity
  8
_U+30EC_U+30A4_U+30E4_U+30FC 1
370
     0
100
AcDbVertex
100
AcDb2dVertex
 10
84.66563311685442
 20
-138.6516574089135
 30
0.0
  0
VERTEX
  5
52
330
4A
100
AcDbEntity
  8
_U+30EC_U+30A4_U+30E4_U+30FC 1
370
     0
100
AcDbVertex
100
AcDb2dVertex
 10
84.68475339679756
 20
-138.493872035689
 30
0.0
  0
VERTEX
  5
53
330
4A
100
AcDbEntity
  8
_U+30EC_U+30A4_U+30E4_U+30FC 1
370
     0
100
AcDbVertex
100
AcDb2dVertex
 10
84.63307696451882
 20
-138.6485568229768
 30
0.0
  0
VERTEX
  5
54
330
4A
100
AcDbEntity
  8
_U+30EC_U+30A4_U+30E4_U+30FC 1
370
     0
100
AcDbVertex
100
AcDb2dVertex
 10
84.26772458830807
 20
-139.6524576473786
 30
0.0
  0
VERTEX
  5
55
330
4A
100
AcDbEntity
  8
_U+30EC_U+30A4_U+30E4_U+30FC 1
370
     0
100
AcDbVertex
100
AcDb2dVertex
 10
84.06291366170997
 20
-139.5780435848972
 30
0.0
  0
VERTEX
  5
56
330
4A
100
AcDbEntity
  8
_U+30EC_U+30A4_U+30E4_U+30FC 1
370
     0
100
AcDbVertex
100
AcDb2dVertex
 10
84.59104679959877
 20
-138.1266248569614
 30
0.0
  0
VERTEX
  5
57
330
4A
100
AcDbEntity
  8
_U+30EC_U+30A4_U+30E4_U+30FC 1
370
     0
100
AcDbVertex
100
AcDb2dVertex
 10
84.89111461636404
 20
-138.2358343838438
 30
0.0
  0
VERTEX
  5
58
330
4A
100
AcDbEntity
  8
_U+30EC_U+30A4_U+30E4_U+30FC 1
370
     0
100
AcDbVertex
100
AcDb2dVertex
 10
84.84615612028152
 20
-139.4419623132298
 30
0.0
  0
VERTEX
  5
59
330
4A
100
AcDbEntity
  8
_U+30EC_U+30A4_U+30E4_U+30FC 1
370
     0
100
AcDbVertex
100
AcDb2dVertex
 10
84.83358152176037
 20
-139.5883788713529
 30
0.0
  0
VERTEX
  5
5A
330
4A
100
AcDbEntity
  8
_U+30EC_U+30A4_U+30E4_U+30FC 1
370
     0
100
AcDbVertex
100
AcDb2dVertex
 10
84.91781410637472
 20
-139.4681450389177
 30
0.0
  0
VERTEX
  5
5B
330
4A
100
AcDbEntity
  8
_U+30EC_U+30A4_U+30E4_U+30FC 1
370
     0
100
AcDbVertex
100
AcDb2dVertex
 10
85.66040443822033
 20
-138.5159206467946
 30
0.0
  0
VERTEX
  5
5C
330
4A
100
AcDbEntity
  8
_U+30EC_U+30A4_U+30E4_U+30FC 1
370
     0
100
AcDbVertex
100
AcDb2dVertex
 10
85.95874970724296
 20
-138.62444115458
 30
0.0
  0
VERTEX
  5
5D
330
4A
100
AcDbEntity
  8
_U+30EC_U+30A4_U+30E4_U+30FC 1
370
     0
100
AcDbVertex
100
AcDb2dVertex
 10
85.43044431457989
 20
-140.0758598825158
 30
0.0
  0
VERTEX
  5
5E
330
4A
100
AcDbEntity
  8
_U+30EC_U+30A4_U+30E4_U+30FC 1
370
     0
100
AcDbVertex
100
AcDb2dVertex
 10
85.22580564275606
 20
-140.0011013104858
 30
0.0
  0
SEQEND
  5
5F
330
4A
100
AcDbEntity
  8
_U+30EC_U+30A4_U+30E4_U+30FC 1
370
     0
  0
HATCH
  5
60
330
41
100
AcDbEntity
  8
_U+30EC_U+30A4_U+30E4_U+30FC 1
 62
   179
420
  2234388
100
AcDbHatch
 10
0.0
 20
0.0
 30
0.0
210
0.0
220
0.0
230
1.0
  2
SOLID
 70
     1
 71
     0
 91
        1
 92
        1
 93
       19
 72
     1
 10
85.22580564275606
 20
-140.0011013104858
 11
85.5911580189668
 21
-138.997200486084
 72
     1
 10
85.5911580189668
 20
-138.997200486084
 11
85.65282522815276
 21
-138.8463053038301
 72
     1
 10
85.65282522815276
 20
-138.8463053038301
 11
85.56618107669874
 21
-138.9792859895607
 72
     1
 10
85.56618107669874
 20
-138.9792859895607
 11
84.87388913893778
 21
-139.8732882679831
 72
     1
 10
84.87388913893778
 20
-139.8732882679831
 11
84.61946883735209
 21
-139.7806151994299
 72
     1
 10
84.61946883735209
 20
-139.7806151994299
 11
84.66563311685442
 21
-138.6516574089135
 72
     1
 10
84.66563311685442
 20
-138.6516574089135
 11
84.68475339679756
 21
-138.493872035689
 72
     1
 10
84.68475339679756
 20
-138.493872035689
 11
84.63307696451882
 21
-138.6485568229768
 72
     1
 10
84.63307696451882
 20
-138.6485568229768
 11
84.26772458830807
 21
-139.6524576473786
 72
     1
 10
84.26772458830807
 20
-139.6524576473786
 11
84.06291366170997
 21
-139.5780435848972
 72
     1
 10
84.06291366170997
 20
-139.5780435848972
 11
84.59104679959877
 21
-138.1266248569614
 72
     1
 10
84.59104679959877
 20
-138.1266248569614
 11
84.89111461636404
 21
-138.2358343838438
 72
     1
 10
84.89111461636404
 20
-138.2358343838438
 11
84.84615612028152
 21
-139.4419623132298
 72
     1
 10
84.84615612028152
 20
-139.4419623132298
 11
84.83358152176037
 21
-139.5883788713529
 72
     1
 10
84.83358152176037
 20
-139.5883788713529
 11
84.91781410637472
 21
-139.4681450389177
 72
     1
 10
84.91781410637472
 20
-139.4681450389177
 11
85.66040443822033
 21
-138.5159206467946
 72
     1
 10
85.66040443822033
 20
-138.5159206467946
 11
85.95874970724296
 21
-138.62444115458
 72
     1
 10
85.95874970724296
 20
-138.62444115458
 11
85.43044431457989
 21
-140.0758598825158
 72
     1
 10
85.43044431457989
 20
-140.0758598825158
 11
85.22580564275606
 21
-140.0011013104858
 97
        0
 75
     2
 76
     1
 98
        0
  0
SPLINE
  5
61
330
41
100
AcDbEntity
  8
_U+30EC_U+30A4_U+30E4_U+30FC 1
370
     0
100
AcDbSpline
210
0.0
220
0.0
230
1.0
 70
    11
 71
     3
 72
    44
 73
    40
 74
     0
 42
0.0000000001
 43
0.0000000001
 12
1.0
 22
0.0
 32
0.0
 13
1.0
 23
0.0
 33
0.0
 40
0.0
 40
0.0
 40
0.0
 40
0.0
 40
1.0
 40
1.0
 40
1.0
 40
2.0
 40
2.0
 40
2.0
 40
3.0
 40
3.0
 40
3.0
 40
4.0
 40
4.0
 40
4.0
 40
5.0
 40
5.0
 40
5.0
 40
6.0
 40
6.0
 40
6.0
 40
7.0
 40
7.0
 40
7.0
 40
8.0
 40
8.0
 40
8.0
 40
9.0
 40
9.0
 40
9.0
 40
10.0
 40
10.0
 40
10.0
 40
11.0
 40
11.0
 40
11.0
 40
12.0
 40
12.0
 40
12.0
 40
13.0
 40
13.0
 40
13.0
 40
13.0
 10
86.6482855686157
 20
-140.5188991619189
 30
0.0
 10
86.64156763241947
 20
-140.4692897869313
 30
0.0
 10
86.63984508467685
 20
-140.4121012018761
 30
0.0
 10
86.71667071399791
 20
-140.1947156767569
 30
0.0
 10
86.79590791015866
 20
-139.9649278078907
 30
0.0
 10
86.76404077692011
 20
-139.8788004207595
 30
0.0
 10
86.59695364588549
 20
-139.8181667402191
 30
0.0
 10
86.59695364588549
 20
-139.8181667402191
 30
0.0
 10
86.21334226360293
 20
-139.6786403730665
 30
0.0
 10
86.21334226360293
 20
-139.6786403730665
 30
0.0
 10
86.21334226360293
 20
-139.6786403730665
 30
0.0
 10
85.99406193596677
 20
-140.2808430638881
 30
0.0
 10
85.99406193596677
 20
-140.2808430638881
 30
0.0
 10
85.99406193596677
 20
-140.2808430638881
 30
0.0
 10
85.77357582491078
 20
-140.2005723390818
 30
0.0
 10
85.77357582491078
 20
-140.2005723390818
 30
0.0
 10
85.77357582491078
 20
-140.2005723390818
 30
0.0
 10
86.30188121757384
 20
-138.7494981206946
 30
0.0
 10
86.30188121757384
 20
-138.7494981206946
 30
0.0
 10
86.30188121757384
 20
-138.7494981206946
 30
0.0
 10
86.93577878685981
 20
-138.9803195182063
 30
0.0
 10
86.93577878685981
 20
-138.9803195182063
 30
0.0
 10
87.22413327897522
 20
-139.0850504209579
 30
0.0
 10
87.32266300985337
 20
-139.3031249651742
 30
0.0
 10
87.23498532975375
 20
-139.5439371395932
 30
0.0
 10
87.21758759755325
 20
-139.5914794572896
 30
0.0
 10
87.18141409495813
 20
-139.665893519771
 30
0.0
 10
87.1121676757046
 20
-139.7265272003114
 30
0.0
 10
87.021217154894
 20
-139.803697339181
 30
0.0
 10
86.95300426428606
 20
-139.7988742055017
 30
0.0
 10
86.88961450735746
 20
-139.7940510718223
 30
0.0
 10
87.00433618701628
 20
-139.8808674780506
 30
0.0
 10
87.05118948561568
 20
-139.9497693877556
 30
0.0
 10
86.94749211150966
 20
-140.2474256376812
 30
0.0
 10
86.85860864799021
 20
-140.5030517226867
 30
0.0
 10
86.88169078774139
 20
-140.5454263971553
 30
0.0
 10
86.92647702904964
 20
-140.6201849691852
 30
0.0
 10
86.92647702904964
 20
-140.6201849691852
 30
0.0
 10
86.6482855686157
 20
-140.5188991619189
 30
0.0
 10
86.6482855686157
 20
-140.5188991619189
 30
0.0
  0
SPLINE
  5
62
330
41
100
AcDbEntity
  8
_U+30EC_U+30A4_U+30E4_U+30FC 1
370
     0
100
AcDbSpline
210
0.0
220
0.0
230
1.0
 70
    11
 71
     3
 72
    20
 73
    16
 74
     0
 42
0.0000000001
 43
0.0000000001
 12
1.0
 22
0.0
 32
0.0
 13
1.0
 23
0.0
 33
0.0
 40
0.0
 40
0.0
 40
0.0
 40
0.0
 40
1.0
 40
1.0
 40
1.0
 40
2.0
 40
2.0
 40
2.0
 40
3.0
 40
3.0
 40
3.0
 40
4.0
 40
4.0
 40
4.0
 40
5.0
 40
5.0
 40
5.0
 40
5.0
 10
86.86756589625186
 20
-139.1804795658993
 30
0.0
 10
86.86756589625186
 20
-139.1804795658993
 30
0.0
 10
86.45002032343959
 20
-139.0285508549998
 30
0.0
 10
86.45002032343959
 20
-139.0285508549998
 30
0.0
 10
86.45002032343959
 20
-139.0285508549998
 30
0.0
 10
86.28568926879316
 20
-139.4798583635675
 30
0.0
 10
86.28568926879316
 20
-139.4798583635675
 30
0.0
 10
86.28568926879316
 20
-139.4798583635675
 30
0.0
 10
86.70134003908856
 20
-139.6307535458215
 30
0.0
 10
86.70134003908856
 20
-139.6307535458215
 30
0.0
 10
86.79470212673883
 20
-139.6648599911255
 30
0.0
 10
86.94783662105819
 20
-139.6397107940831
 30
0.0
 10
87.00640324430744
 20
-139.478824834922
 30
0.0
 10
87.03327498909238
 20
-139.4050997915376
 30
0.0
 10
87.0542900715524
 20
-139.2483479469587
 30
0.0
 10
86.86756589625186
 20
-139.1804795658993
 30
0.0
  0
HATCH
  5
63
330
41
100
AcDbEntity
  8
_U+30EC_U+30A4_U+30E4_U+30FC 1
 62
   179
420
  2234388
100
AcDbHatch
 10
0.0
 20
0.0
 30
0.0
210
0.0
220
0.0
230
1.0
  2
SOLID
 70
     1
 71
     0
 91
        2
 92
        1
 93
        1
 72
     4
 94
        3
 73
     0
 74
     1
 95
       44
 96
       40
 40
0.0
 40
0.0
 40
0.0
 40
0.0
 40
1.0
 40
1.0
 40
1.0
 40
2.0
 40
2.0
 40
2.0
 40
3.0
 40
3.0
 40
3.0
 40
4.0
 40
4.0
 40
4.0
 40
5.0
 40
5.0
 40
5.0
 40
6.0
 40
6.0
 40
6.0
 40
7.0
 40
7.0
 40
7.0
 40
8.0
 40
8.0
 40
8.0
 40
9.0
 40
9.0
 40
9.0
 40
10.0
 40
10.0
 40
10.0
 40
11.0
 40
11.0
 40
11.0
 40
12.0
 40
12.0
 40
12.0
 40
13.0
 40
13.0
 40
13.0
 40
13.0
 10
86.6482855686157
 20
-140.5188991619189
 10
86.64156763241947
 20
-140.4692897869313
 10
86.63984508467685
 20
-140.4121012018761
 10
86.71667071399791
 20
-140.1947156767569
 10
86.79590791015866
 20
-139.9649278078907
 10
86.76404077692011
 20
-139.8788004207595
 10
86.59695364588549
 20
-139.8181667402191
 10
86.59695364588549
 20
-139.8181667402191
 10
86.21334226360293
 20
-139.6786403730665
 10
86.21334226360293
 20
-139.6786403730665
 10
86.21334226360293
 20
-139.6786403730665
 10
85.99406193596677
 20
-140.2808430638881
 10
85.99406193596677
 20
-140.2808430638881
 10
85.99406193596677
 20
-140.2808430638881
 10
85.77357582491078
 20
-140.2005723390818
 10
85.77357582491078
 20
-140.2005723390818
 10
85.77357582491078
 20
-140.2005723390818
 10
86.30188121757384
 20
-138.7494981206946
 10
86.30188121757384
 20
-138.7494981206946
 10
86.30188121757384
 20
-138.7494981206946
 10
86.93577878685981
 20
-138.9803195182063
 10
86.93577878685981
 20
-138.9803195182063
 10
87.22413327897522
 20
-139.0850504209579
 10
87.32266300985337
 20
-139.3031249651742
 10
87.23498532975375
 20
-139.5439371395932
 10
87.21758759755325
 20
-139.5914794572896
 10
87.18141409495813
 20
-139.665893519771
 10
87.1121676757046
 20
-139.7265272003114
 10
87.021217154894
 20
-139.803697339181
 10
86.95300426428606
 20
-139.7988742055017
 10
86.88961450735746
 20
-139.7940510718223
 10
87.00433618701628
 20
-139.8808674780506
 10
87.05118948561568
 20
-139.9497693877556
 10
86.94749211150966
 20
-140.2474256376812
 10
86.85860864799021
 20
-140.5030517226867
 10
86.88169078774139
 20
-140.5454263971553
 10
86.92647702904964
 20
-140.6201849691852
 10
86.92647702904964
 20
-140.6201849691852
 10
86.6482855686157
 20
-140.5188991619189
 10
86.6482855686157
 20
-140.5188991619189
 97
        0
 97
        0
 92
        1
 93
        1
 72
     4
 94
        3
 73
     0
 74
     1
 95
       20
 96
       16
 40
0.0
 40
0.0
 40
0.0
 40
0.0
 40
1.0
 40
1.0
 40
1.0
 40
2.0
 40
2.0
 40
2.0
 40
3.0
 40
3.0
 40
3.0
 40
4.0
 40
4.0
 40
4.0
 40
5.0
 40
5.0
 40
5.0
 40
5.0
 10
86.86756589625186
 20
-139.1804795658993
 10
86.86756589625186
 20
-139.1804795658993
 10
86.45002032343959
 20
-139.0285508549998
 10
86.45002032343959
 20
-139.0285508549998
 10
86.45002032343959
 20
-139.0285508549998
 10
86.28568926879316
 20
-139.4798583635675
 10
86.28568926879316
 20
-139.4798583635675
 10
86.28568926879316
 20
-139.4798583635675
 10
86.70134003908856
 20
-139.6307535458215
 10
86.70134003908856
 20
-139.6307535458215
 10
86.79470212673883
 20
-139.6648599911255
 10
86.94783662105819
 20
-139.6397107940831
 10
87.00640324430744
 20
-139.478824834922
 10
87.03327498909238
 20
-139.4050997915376
 10
87.0542900715524
 20
-139.2483479469587
 10
86.86756589625186
 20
-139.1804795658993
 97
        0
 97
        0
 75
     2
 76
     1
 98
        0
  0
ENDBLK
  5
44
330
41
100
AcDbEntity
  8
0
100
AcDbBlockEnd
  0
BLOCK
  5
66
330
64
100
AcDbEntity
  8
0
100
AcDbBlockBegin
  2
block 3
 70
     0
 10
0.0
 20
0.0
 30
0.0
  3
block 3
  1

  0
SPLINE
  5
68
330
64
100
AcDbEntity
  8
_U+30EC_U+30A4_U+30E4_U+30FC 1
370
     0
100
AcDbSpline
210
0.0
220
0.0
230
1.0
 70
    11
 71
     3
 72
    62
 73
    58
 74
     0
 42
0.0000000001
 43
0.0000000001
 12
1.0
 22
0.0
 32
0.0
 13
1.0
 23
0.0
 33
0.0
 40
0.0
 40
0.0
 40
0.0
 40
0.0
 40
1.0
 40
1.0
 40
1.0
 40
2.0
 40
2.0
 40
2.0
 40
3.0
 40
3.0
 40
3.0
 40
4.0
 40
4.0
 40
4.0
 40
5.0
 40
5.0
 40
5.0
 40
6.0
 40
6.0
 40
6.0
 40
7.0
 40
7.0
 40
7.0
 40
8.0
 40
8.0
 40
8.0
 40
9.0
 40
9.0
 40
9.0
 40
10.0
 40
10.0
 40
10.0
 40
11.0
 40
11.0
 40
11.0
 40
12.0
 40
12.0
 40
12.0
 40
13.0
 40
13.0
 40
13.0
 40
14.0
 40
14.0
 40
14.0
 40
15.0
 40
15.0
 40
15.0
 40
16.0
 40
16.0
 40
16.0
 40
17.0
 40
17.0
 40
17.0
 40
18.0
 40
18.0
 40
18.0
 40
19.0
 40
19.0
 40
19.0
 40
19.0
 10
77.95630965933037
 20
-124.0508259781019
 30
0.0
 10
77.88878578781947
 20
-124.1181775948385
 30
0.0
 10
77.71997610904224
 20
-124.2571871976683
 30
0.0
 10
77.5001790170833
 20
-124.2137789945542
 30
0.0
 10
77.36823185999822
 20
-124.186734994995
 30
0.0
 10
77.2948513261624
 20
-124.1195556330326
 30
0.0
 10
77.23215058833085
 20
-124.062711557526
 30
0.0
 10
77.23215058833085
 20
-124.062711557526
 30
0.0
 10
77.38786890426415
 20
-123.907165496367
 30
0.0
 10
77.38786890426415
 20
-123.907165496367
 30
0.0
 10
77.44161239383405
 20
-123.9581529095487
 30
0.0
 10
77.61524520629064
 20
-124.1166273018702
 30
0.0
 10
77.81574976353218
 20
-123.9161227446286
 30
0.0
 10
77.91290145621622
 20
-123.8187987971703
 30
0.0
 10
77.97146807946547
 20
-123.6618746978172
 30
0.0
 10
77.80954859165873
 20
-123.5001274647847
 30
0.0
 10
77.72755531910978
 20
-123.4179619374615
 30
0.0
 10
77.66588810992381
 20
-123.4105549821682
 30
0.0
 10
77.62110186861557
 20
-123.4105549821682
 30
0.0
 10
77.51637096586397
 20
-123.4105549821682
 30
0.0
 10
77.42507593550485
 20
-123.483935516004
 30
0.0
 10
77.38649086607005
 20
-123.5226928402131
 30
0.0
 10
77.37271048412904
 20
-123.5361287126056
 30
0.0
 10
77.3485948157323
 20
-123.5630004573905
 30
0.0
 10
77.3320583574031
 20
-123.5853935780446
 30
0.0
 10
77.3320583574031
 20
-123.5853935780446
 30
0.0
 10
77.19459904754163
 20
-123.4477620134089
 30
0.0
 10
77.19459904754163
 20
-123.4477620134089
 30
0.0
 10
77.22594941645741
 20
-123.425541147529
 30
0.0
 10
77.2576442949217
 20
-123.3971191097757
 30
0.0
 10
77.26212291905253
 20
-123.3926404856449
 30
0.0
 10
77.3086317081034
 20
-123.3463039513683
 30
0.0
 10
77.4340331837665
 20
-123.190585635435
 30
0.0
 10
77.26660154318336
 20
-123.0229817400776
 30
0.0
 10
77.14120006752026
 20
-122.8974080096402
 30
0.0
 10
77.0092529104352
 20
-122.9513237539844
 30
0.0
 10
76.93173826201706
 20
-123.0290106571768
 30
0.0
 10
76.74432506761947
 20
-123.2160793420258
 30
0.0
 10
76.90314396948949
 20
-123.3864393137714
 30
0.0
 10
76.95103079673447
 20
-123.4403550581156
 30
0.0
 10
76.95103079673447
 20
-123.4403550581156
 30
0.0
 10
76.80702580545102
 20
-123.5840155398505
 30
0.0
 10
76.80702580545102
 20
-123.5840155398505
 30
0.0
 10
76.72503253290208
 20
-123.4897921783289
 30
0.0
 10
76.47836369615818
 20
-123.2040215078275
 30
0.0
 10
76.8011691431261
 20
-122.8810438060853
 30
0.0
 10
76.95998804499612
 20
-122.7223971589896
 30
0.0
 10
77.22009275413248
 20
-122.6416096698604
 30
0.0
 10
77.42955455963568
 20
-122.8510714753636
 30
0.0
 10
77.56115720717222
 20
-122.9826741229002
 30
0.0
 10
77.55254446845909
 20
-123.1082478533375
 30
0.0
 10
77.5249837045771
 20
-123.2219360043508
 30
0.0
 10
77.58837346150568
 20
-123.1981648455025
 30
0.0
 10
77.77371959861213
 20
-123.1263346046351
 30
0.0
 10
77.96974553172285
 20
-123.3223605377458
 30
0.0
 10
78.20917966794771
 20
-123.5616224191964
 30
0.0
 10
78.15199108289256
 20
-123.8548000449912
 30
0.0
 10
77.95630965933037
 20
-124.0508259781019
 30
0.0
  0
HATCH
  5
69
330
64
100
AcDbEntity
  8
_U+30EC_U+30A4_U+30E4_U+30FC 1
 62
   179
420
  2234388
100
AcDbHatch
 10
0.0
 20
0.0
 30
0.0
210
0.0
220
0.0
230
1.0
  2
SOLID
 70
     1
 71
     0
 91
        1
 92
        1
 93
        1
 72
     4
 94
        3
 73
     0
 74
     1
 95
       62
 96
       58
 40
0.0
 40
0.0
 40
0.0
 40
0.0
 40
1.0
 40
1.0
 40
1.0
 40
2.0
 40
2.0
 40
2.0
 40
3.0
 40
3.0
 40
3.0
 40
4.0
 40
4.0
 40
4.0
 40
5.0
 40
5.0
 40
5.0
 40
6.0
 40
6.0
 40
6.0
 40
7.0
 40
7.0
 40
7.0
 40
8.0
 40
8.0
 40
8.0
 40
9.0
 40
9.0
 40
9.0
 40
10.0
 40
10.0
 40
10.0
 40
11.0
 40
11.0
 40
11.0
 40
12.0
 40
12.0
 40
12.0
 40
13.0
 40
13.0
 40
13.0
 40
14.0
 40
14.0
 40
14.0
 40
15.0
 40
15.0
 40
15.0
 40
16.0
 40
16.0
 40
16.0
 40
17.0
 40
17.0
 40
17.0
 40
18.0
 40
18.0
 40
18.0
 40
19.0
 40
19.0
 40
19.0
 40
19.0
 10
77.95630965933037
 20
-124.0508259781019
 10
77.88878578781947
 20
-124.1181775948385
 10
77.71997610904224
 20
-124.2571871976683
 10
77.5001790170833
 20
-124.2137789945542
 10
77.36823185999822
 20
-124.186734994995
 10
77.2948513261624
 20
-124.1195556330326
 10
77.23215058833085
 20
-124.062711557526
 10
77.23215058833085
 20
-124.062711557526
 10
77.38786890426415
 20
-123.907165496367
 10
77.38786890426415
 20
-123.907165496367
 10
77.44161239383405
 20
-123.9581529095487
 10
77.61524520629064
 20
-124.1166273018702
 10
77.81574976353218
 20
-123.9161227446286
 10
77.91290145621622
 20
-123.8187987971703
 10
77.97146807946547
 20
-123.6618746978172
 10
77.80954859165873
 20
-123.5001274647847
 10
77.72755531910978
 20
-123.4179619374615
 10
77.66588810992381
 20
-123.4105549821682
 10
77.62110186861557
 20
-123.4105549821682
 10
77.51637096586397
 20
-123.4105549821682
 10
77.42507593550485
 20
-123.483935516004
 10
77.38649086607005
 20
-123.5226928402131
 10
77.37271048412904
 20
-123.5361287126056
 10
77.3485948157323
 20
-123.5630004573905
 10
77.3320583574031
 20
-123.5853935780446
 10
77.3320583574031
 20
-123.5853935780446
 10
77.19459904754163
 20
-123.4477620134089
 10
77.19459904754163
 20
-123.4477620134089
 10
77.22594941645741
 20
-123.425541147529
 10
77.2576442949217
 20
-123.3971191097757
 10
77.26212291905253
 20
-123.3926404856449
 10
77.3086317081034
 20
-123.3463039513683
 10
77.4340331837665
 20
-123.190585635435
 10
77.26660154318336
 20
-123.0229817400776
 10
77.14120006752026
 20
-122.8974080096402
 10
77.0092529104352
 20
-122.9513237539844
 10
76.93173826201706
 20
-123.0290106571768
 10
76.74432506761947
 20
-123.2160793420258
 10
76.90314396948949
 20
-123.3864393137714
 10
76.95103079673447
 20
-123.4403550581156
 10
76.95103079673447
 20
-123.4403550581156
 10
76.80702580545102
 20
-123.5840155398505
 10
76.80702580545102
 20
-123.5840155398505
 10
76.72503253290208
 20
-123.4897921783289
 10
76.47836369615818
 20
-123.2040215078275
 10
76.8011691431261
 20
-122.8810438060853
 10
76.95998804499612
 20
-122.7223971589896
 10
77.22009275413248
 20
-122.6416096698604
 10
77.42955455963568
 20
-122.8510714753636
 10
77.56115720717222
 20
-122.9826741229002
 10
77.55254446845909
 20
-123.1082478533375
 10
77.5249837045771
 20
-123.2219360043508
 10
77.58837346150568
 20
-123.1981648455025
 10
77.77371959861213
 20
-123.1263346046351
 10
77.96974553172285
 20
-123.3223605377458
 10
78.20917966794771
 20
-123.5616224191964
 10
78.15199108289256
 20
-123.8548000449912
 10
77.95630965933037
 20
-124.0508259781019
 97
        0
 97
        0
 75
     2
 76
     1
 98
        0
  0
SPLINE
  5
6A
330
64
100
AcDbEntity
  8
_U+30EC_U+30A4_U+30E4_U+30FC 1
370
     0
100
AcDbSpline
210
0.0
220
0.0
230
1.0
 70
    11
 71
     3
 72
    29
 73
    25
 74
     0
 42
0.0000000001
 43
0.0000000001
 12
1.0
 22
0.0
 32
0.0
 13
1.0
 23
0.0
 33
0.0
 40
0.0
 40
0.0
 40
0.0
 40
0.0
 40
1.0
 40
1.0
 40
1.0
 40
2.0
 40
2.0
 40
2.0
 40
3.0
 40
3.0
 40
3.0
 40
4.0
 40
4.0
 40
4.0
 40
5.0
 40
5.0
 40
5.0
 40
6.0
 40
6.0
 40
6.0
 40
7.0
 40
7.0
 40
7.0
 40
8.0
 40
8.0
 40
8.0
 40
8.0
 10
78.91404620422982
 20
-122.7697672219117
 30
0.0
 10
78.98570419032302
 20
-122.9940429380015
 30
0.0
 10
78.87683917298912
 20
-123.1302964644431
 30
0.0
 10
78.79415688134313
 20
-123.2126342465406
 30
0.0
 10
78.68046873032989
 20
-123.3263223975538
 30
0.0
 10
78.54748804459925
 20
-123.3936740142905
 30
0.0
 10
78.35146211148853
 20
-123.332351314653
 30
0.0
 10
78.14062226779124
 20
-123.2679280290789
 30
0.0
 10
77.95975475481562
 20
-123.1137600061139
 30
0.0
 10
77.84434405605975
 20
-122.9985215621323
 30
0.0
 10
77.74271373924488
 20
-122.8968912453174
 30
0.0
 10
77.57666013685584
 20
-122.7070664840802
 30
0.0
 10
77.51051430353904
 20
-122.4915757614778
 30
0.0
 10
77.44333494157667
 20
-122.2716064147446
 30
0.0
 10
77.54083114380924
 20
-122.1415540601764
 30
0.0
 10
77.63178166461984
 20
-122.0502590298173
 30
0.0
 10
77.74409177743898
 20
-121.9381211717724
 30
0.0
 10
77.87707246316963
 20
-121.8676689690991
 30
0.0
 10
78.07344290582887
 20
-121.9289916687365
 30
0.0
 10
78.27980412539533
 20
-121.994965247279
 30
0.0
 10
78.45757105243422
 20
-122.1400037672081
 30
0.0
 10
78.58021645170912
 20
-122.262649166483
 30
0.0
 10
78.70148381278992
 20
-122.3839165275638
 30
0.0
 10
78.84996742820418
 20
-122.5618557093769
 30
0.0
 10
78.91404620422982
 20
-122.7697672219117
 30
0.0
  0
SPLINE
  5
6B
330
64
100
AcDbEntity
  8
_U+30EC_U+30A4_U+30E4_U+30FC 1
370
     0
100
AcDbSpline
210
0.0
220
0.0
230
1.0
 70
    11
 71
     3
 72
    17
 73
    13
 74
     0
 42
0.0000000001
 43
0.0000000001
 12
1.0
 22
0.0
 32
0.0
 13
1.0
 23
0.0
 33
0.0
 40
0.0
 40
0.0
 40
0.0
 40
0.0
 40
1.0
 40
1.0
 40
1.0
 40
2.0
 40
2.0
 40
2.0
 40
3.0
 40
3.0
 40
3.0
 40
4.0
 40
4.0
 40
4.0
 40
4.0
 10
77.76820744583573
 20
-122.1865125562589
 30
0.0
 10
77.59181855699094
 20
-122.363073699878
 30
0.0
 10
77.75925019757408
 20
-122.5963066642294
 30
0.0
 10
78.00281844838125
 20
-122.8400471698108
 30
0.0
 10
78.22881671221363
 20
-123.0660454336432
 30
0.0
 10
78.47272947256933
 20
-123.2589707808172
 30
0.0
 10
78.65669757148166
 20
-123.0750026819049
 30
0.0
 10
78.83170842213235
 20
-122.8999918312542
 30
0.0
 10
78.66703285793741
 20
-122.6664143573542
 30
0.0
 10
78.42174205938763
 20
-122.4211235588045
 30
0.0
 10
78.19608830510376
 20
-122.1952975497463
 30
0.0
 10
77.95079750655397
 20
-122.0039224955407
 30
0.0
 10
77.76820744583573
 20
-122.1865125562589
 30
0.0
  0
HATCH
  5
6C
330
64
100
AcDbEntity
  8
_U+30EC_U+30A4_U+30E4_U+30FC 1
 62
   179
420
  2234388
100
AcDbHatch
 10
0.0
 20
0.0
 30
0.0
210
0.0
220
0.0
230
1.0
  2
SOLID
 70
     1
 71
     0
 91
        2
 92
        1
 93
        1
 72
     4
 94
        3
 73
     0
 74
     1
 95
       29
 96
       25
 40
0.0
 40
0.0
 40
0.0
 40
0.0
 40
1.0
 40
1.0
 40
1.0
 40
2.0
 40
2.0
 40
2.0
 40
3.0
 40
3.0
 40
3.0
 40
4.0
 40
4.0
 40
4.0
 40
5.0
 40
5.0
 40
5.0
 40
6.0
 40
6.0
 40
6.0
 40
7.0
 40
7.0
 40
7.0
 40
8.0
 40
8.0
 40
8.0
 40
8.0
 10
78.91404620422982
 20
-122.7697672219117
 10
78.98570419032302
 20
-122.9940429380015
 10
78.87683917298912
 20
-123.1302964644431
 10
78.79415688134313
 20
-123.2126342465406
 10
78.68046873032989
 20
-123.3263223975538
 10
78.54748804459925
 20
-123.3936740142905
 10
78.35146211148853
 20
-123.332351314653
 10
78.14062226779124
 20
-123.2679280290789
 10
77.95975475481562
 20
-123.1137600061139
 10
77.84434405605975
 20
-122.9985215621323
 10
77.74271373924488
 20
-122.8968912453174
 10
77.57666013685584
 20
-122.7070664840802
 10
77.51051430353904
 20
-122.4915757614778
 10
77.44333494157667
 20
-122.2716064147446
 10
77.54083114380924
 20
-122.1415540601764
 10
77.63178166461984
 20
-122.0502590298173
 10
77.74409177743898
 20
-121.9381211717724
 10
77.87707246316963
 20
-121.8676689690991
 10
78.07344290582887
 20
-121.9289916687365
 10
78.27980412539533
 20
-121.994965247279
 10
78.45757105243422
 20
-122.1400037672081
 10
78.58021645170912
 20
-122.262649166483
 10
78.70148381278992
 20
-122.3839165275638
 10
78.84996742820418
 20
-122.5618557093769
 10
78.91404620422982
 20
-122.7697672219117
 97
        0
 97
        0
 92
        1
 93
        1
 72
     4
 94
        3
 73
     0
 74
     1
 95
       17
 96
       13
 40
0.0
 40
0.0
 40
0.0
 40
0.0
 40
1.0
 40
1.0
 40
1.0
 40
2.0
 40
2.0
 40
2.0
 40
3.0
 40
3.0
 40
3.0
 40
4.0
 40
4.0
 40
4.0
 40
4.0
 10
77.76820744583573
 20
-122.1865125562589
 10
77.59181855699094
 20
-122.363073699878
 10
77.75925019757408
 20
-122.5963066642294
 10
78.00281844838125
 20
-122.8400471698108
 10
78.22881671221363
 20
-123.0660454336432
 10
78.47272947256933
 20
-123.2589707808172
 10
78.65669757148166
 20
-123.0750026819049
 10
78.83170842213235
 20
-122.8999918312542
 10
78.66703285793741
 20
-122.6664143573542
 10
78.42174205938763
 20
-122.4211235588045
 10
78.19608830510376
 20
-122.1952975497463
 10
77.95079750655397
 20
-122.0039224955407
 10
77.76820744583573
 20
-122.1865125562589
 97
        0
 97
        0
 75
     2
 76
     1
 98
        0
  0
POLYLINE
  5
6D
330
64
100
AcDbEntity
  8
_U+30EC_U+30A4_U+30E4_U+30FC 1
370
     0
100
AcDb2dPolyline
 66
     1
 10
0.0
 20
0.0
 30
0.0
  0
VERTEX
  5
6E
330
6D
100
AcDbEntity
  8
_U+30EC_U+30A4_U+30E4_U+30FC 1
370
     0
100
AcDbVertex
100
AcDb2dVertex
 10
80.18597545738406
 20
-121.7491576844065
 30
0.0
  0
VERTEX
  5
6F
330
6D
100
AcDbEntity
  8
_U+30EC_U+30A4_U+30E4_U+30FC 1
370
     0
100
AcDbVertex
100
AcDb2dVertex
 10
79.43046601746877
 20
-120.9938204992654
 30
0.0
  0
VERTEX
  5
70
330
6D
100
AcDbEntity
  8
_U+30EC_U+30A4_U+30E4_U+30FC 1
370
     0
100
AcDbVertex
100
AcDb2dVertex
 10
79.31987845239226
 20
-120.874103431153
 30
0.0
  0
VERTEX
  5
71
330
6D
100
AcDbEntity
  8
_U+30EC_U+30A4_U+30E4_U+30FC 1
370
     0
100
AcDbVertex
100
AcDb2dVertex
 10
79.40359427268383
 20
-121.008634409852
 30
0.0
  0
VERTEX
  5
72
330
6D
100
AcDbEntity
  8
_U+30EC_U+30A4_U+30E4_U+30FC 1
370
     0
100
AcDbVertex
100
AcDb2dVertex
 10
79.92104761456835
 20
-122.0139132724479
 30
0.0
  0
VERTEX
  5
73
330
6D
100
AcDbEntity
  8
_U+30EC_U+30A4_U+30E4_U+30FC 1
370
     0
100
AcDbVertex
100
AcDb2dVertex
 10
79.72950030558846
 20
-122.2054605814278
 30
0.0
  0
VERTEX
  5
74
330
6D
100
AcDbEntity
  8
_U+30EC_U+30A4_U+30E4_U+30FC 1
370
     0
100
AcDbVertex
100
AcDb2dVertex
 10
78.72594399073519
 20
-121.6862846918007
 30
0.0
  0
VERTEX
  5
75
330
6D
100
AcDbEntity
  8
_U+30EC_U+30A4_U+30E4_U+30FC 1
370
     0
100
AcDbVertex
100
AcDb2dVertex
 10
78.59124075726191
 20
-121.6025688715091
 30
0.0
  0
VERTEX
  5
76
330
6D
100
AcDbEntity
  8
_U+30EC_U+30A4_U+30E4_U+30FC 1
370
     0
100
AcDbVertex
100
AcDb2dVertex
 10
78.70940753240599
 20
-121.714706729554
 30
0.0
  0
VERTEX
  5
77
330
6D
100
AcDbEntity
  8
_U+30EC_U+30A4_U+30E4_U+30FC 1
370
     0
100
AcDbVertex
100
AcDb2dVertex
 10
79.46491697232128
 20
-122.470043914695
 30
0.0
  0
VERTEX
  5
78
330
6D
100
AcDbEntity
  8
_U+30EC_U+30A4_U+30E4_U+30FC 1
370
     0
100
AcDbVertex
100
AcDb2dVertex
 10
79.31092120413061
 20
-122.6242119376599
 30
0.0
  0
VERTEX
  5
79
330
6D
100
AcDbEntity
  8
_U+30EC_U+30A4_U+30E4_U+30FC 1
370
     0
100
AcDbVertex
100
AcDb2dVertex
 10
78.21882593530641
 20
-121.53228892361
 30
0.0
  0
VERTEX
  5
7A
330
6D
100
AcDbEntity
  8
_U+30EC_U+30A4_U+30E4_U+30FC 1
370
     0
100
AcDbVertex
100
AcDb2dVertex
 10
78.4448241991388
 20
-121.3064629145519
 30
0.0
  0
VERTEX
  5
7B
330
6D
100
AcDbEntity
  8
_U+30EC_U+30A4_U+30E4_U+30FC 1
370
     0
100
AcDbVertex
100
AcDb2dVertex
 10
79.51866046189117
 20
-121.8568169183205
 30
0.0
  0
VERTEX
  5
7C
330
6D
100
AcDbEntity
  8
_U+30EC_U+30A4_U+30E4_U+30FC 1
370
     0
100
AcDbVertex
100
AcDb2dVertex
 10
79.64578448529689
 20
-121.9301974521563
 30
0.0
  0
VERTEX
  5
7D
330
6D
100
AcDbEntity
  8
_U+30EC_U+30A4_U+30E4_U+30FC 1
370
     0
100
AcDbVertex
100
AcDb2dVertex
 10
79.57240395146107
 20
-121.8030734287506
 30
0.0
  0
VERTEX
  5
7E
330
6D
100
AcDbEntity
  8
_U+30EC_U+30A4_U+30E4_U+30FC 1
370
     0
100
AcDbVertex
100
AcDb2dVertex
 10
79.02360024066077
 20
-120.7275146182556
 30
0.0
  0
VERTEX
  5
7F
330
6D
100
AcDbEntity
  8
_U+30EC_U+30A4_U+30E4_U+30FC 1
370
     0
100
AcDbVertex
100
AcDb2dVertex
 10
79.24822046629906
 20
-120.5030666473916
 30
0.0
  0
VERTEX
  5
80
330
6D
100
AcDbEntity
  8
_U+30EC_U+30A4_U+30E4_U+30FC 1
370
     0
100
AcDbVertex
100
AcDb2dVertex
 10
80.33997122557473
 20
-121.5949896614415
 30
0.0
  0
VERTEX
  5
81
330
6D
100
AcDbEntity
  8
_U+30EC_U+30A4_U+30E4_U+30FC 1
370
     0
100
AcDbVertex
100
AcDb2dVertex
 10
80.18597545738406
 20
-121.7491576844065
 30
0.0
  0
SEQEND
  5
82
330
6D
100
AcDbEntity
  8
_U+30EC_U+30A4_U+30E4_U+30FC 1
370
     0
  0
HATCH
  5
83
330
64
100
AcDbEntity
  8
_U+30EC_U+30A4_U+30E4_U+30FC 1
 62
   179
420
  2234388
100
AcDbHatch
 10
0.0
 20
0.0
 30
0.0
210
0.0
220
0.0
230
1.0
  2
SOLID
 70
     1
 71
     0
 91
        1
 92
        1
 93
       19
 72
     1
 10
80.18597545738406
 20
-121.7491576844065
 11
79.43046601746877
 21
-120.9938204992654
 72
     1
 10
79.43046601746877
 20
-120.9938204992654
 11
79.31987845239226
 21
-120.874103431153
 72
     1
 10
79.31987845239226
 20
-120.874103431153
 11
79.40359427268383
 21
-121.008634409852
 72
     1
 10
79.40359427268383
 20
-121.008634409852
 11
79.92104761456835
 21
-122.0139132724479
 72
     1
 10
79.92104761456835
 20
-122.0139132724479
 11
79.72950030558846
 21
-122.2054605814278
 72
     1
 10
79.72950030558846
 20
-122.2054605814278
 11
78.72594399073519
 21
-121.6862846918007
 72
     1
 10
78.72594399073519
 20
-121.6862846918007
 11
78.59124075726191
 21
-121.6025688715091
 72
     1
 10
78.59124075726191
 20
-121.6025688715091
 11
78.70940753240599
 21
-121.714706729554
 72
     1
 10
78.70940753240599
 20
-121.714706729554
 11
79.46491697232128
 21
-122.470043914695
 72
     1
 10
79.46491697232128
 20
-122.470043914695
 11
79.31092120413061
 21
-122.6242119376599
 72
     1
 10
79.31092120413061
 20
-122.6242119376599
 11
78.21882593530641
 21
-121.53228892361
 72
     1
 10
78.21882593530641
 20
-121.53228892361
 11
78.4448241991388
 21
-121.3064629145519
 72
     1
 10
78.4448241991388
 20
-121.3064629145519
 11
79.51866046189117
 21
-121.8568169183205
 72
     1
 10
79.51866046189117
 20
-121.8568169183205
 11
79.64578448529689
 21
-121.9301974521563
 72
     1
 10
79.64578448529689
 20
-121.9301974521563
 11
79.57240395146107
 21
-121.8030734287506
 72
     1
 10
79.57240395146107
 20
-121.8030734287506
 11
79.02360024066077
 21
-120.7275146182556
 72
     1
 10
79.02360024066077
 20
-120.7275146182556
 11
79.24822046629906
 21
-120.5030666473916
 72
     1
 10
79.24822046629906
 20
-120.5030666473916
 11
80.33997122557473
 21
-121.5949896614415
 72
     1
 10
80.33997122557473
 20
-121.5949896614415
 11
80.18597545738406
 21
-121.7491576844065
 97
        0
 75
     2
 76
     1
 98
        0
  0
SPLINE
  5
84
330
64
100
AcDbEntity
  8
_U+30EC_U+30A4_U+30E4_U+30FC 1
370
     0
100
AcDbSpline
210
0.0
220
0.0
230
1.0
 70
    11
 71
     3
 72
    44
 73
    40
 74
     0
 42
0.0000000001
 43
0.0000000001
 12
1.0
 22
0.0
 32
0.0
 13
1.0
 23
0.0
 33
0.0
 40
0.0
 40
0.0
 40
0.0
 40
0.0
 40
1.0
 40
1.0
 40
1.0
 40
2.0
 40
2.0
 40
2.0
 40
3.0
 40
3.0
 40
3.0
 40
4.0
 40
4.0
 40
4.0
 40
5.0
 40
5.0
 40
5.0
 40
6.0
 40
6.0
 40
6.0
 40
7.0
 40
7.0
 40
7.0
 40
8.0
 40
8.0
 40
8.0
 40
9.0
 40
9.0
 40
9.0
 40
10.0
 40
10.0
 40
10.0
 40
11.0
 40
11.0
 40
11.0
 40
12.0
 40
12.0
 40
12.0
 40
13.0
 40
13.0
 40
13.0
 40
13.0
 10
81.25602211510267
 20
-120.6787665171393
 30
0.0
 10
81.20847979740621
 20
-120.6639526065528
 30
0.0
 10
81.15611434603042
 20
-120.6413872311244
 30
0.0
 10
80.99143878183548
 20
-120.4798122528662
 30
0.0
 10
80.81642793118479
 20
-120.3108303193147
 30
0.0
 10
80.72513290082567
 20
-120.3034233640214
 30
0.0
 10
80.59938691561405
 20
-120.4289970944587
 30
0.0
 10
80.59938691561405
 20
-120.4289970944587
 30
0.0
 10
80.3106879139501
 20
-120.7176960961227
 30
0.0
 10
80.3106879139501
 20
-120.7176960961227
 30
0.0
 10
80.3106879139501
 20
-120.7176960961227
 30
0.0
 10
80.76406247980898
 20
-121.1708984072073
 30
0.0
 10
80.76406247980898
 20
-121.1708984072073
 30
0.0
 10
80.76406247980898
 20
-121.1708984072073
 30
0.0
 10
80.59800887741994
 20
-121.3369520095963
 30
0.0
 10
80.59800887741994
 20
-121.3369520095963
 30
0.0
 10
80.59800887741994
 20
-121.3369520095963
 30
0.0
 10
79.50591360859575
 20
-120.2450289955464
 30
0.0
 10
79.50591360859575
 20
-120.2450289955464
 30
0.0
 10
79.50591360859575
 20
-120.2450289955464
 30
0.0
 10
79.98340384285137
 20
-119.7678832708393
 30
0.0
 10
79.98340384285137
 20
-119.7678832708393
 30
0.0
 10
80.20010034887359
 20
-119.5510145100428
 30
0.0
 10
80.43953448509845
 20
-119.553770586431
 30
0.0
 10
80.6207465076226
 20
-119.7348103541809
 30
0.0
 10
80.65657550066919
 20
-119.7706393472275
 30
0.0
 10
80.70859644249647
 20
-119.8352348875759
 30
0.0
 10
80.73409014908731
 20
-119.9234293319983
 30
0.0
 10
80.76544051800309
 20
-120.0386677759799
 30
0.0
 10
80.73271211089322
 20
-120.098440182649
 30
0.0
 10
80.70136174197744
 20
-120.1537339651873
 30
0.0
 10
80.82848576538316
 20
-120.0863823484506
 30
0.0
 10
80.91082354748063
 20
-120.0731187308324
 30
0.0
 10
81.1364773017645
 20
-120.2927435680171
 30
0.0
 10
81.33112519668111
 20
-120.4813625458345
 30
0.0
 10
81.37901202392608
 20
-120.4784342146721
 30
0.0
 10
81.46548392060585
 20
-120.4693047116362
 30
0.0
 10
81.46548392060585
 20
-120.4693047116362
 30
0.0
 10
81.25602211510267
 20
-120.6787665171393
 30
0.0
 10
81.25602211510267
 20
-120.6787665171393
 30
0.0
  0
SPLINE
  5
85
330
64
100
AcDbEntity
  8
_U+30EC_U+30A4_U+30E4_U+30FC 1
370
     0
100
AcDbSpline
210
0.0
220
0.0
230
1.0
 70
    11
 71
     3
 72
    20
 73
    16
 74
     0
 42
0.0000000001
 43
0.0000000001
 12
1.0
 22
0.0
 32
0.0
 13
1.0
 23
0.0
 33
0.0
 40
0.0
 40
0.0
 40
0.0
 40
0.0
 40
1.0
 40
1.0
 40
1.0
 40
2.0
 40
2.0
 40
2.0
 40
3.0
 40
3.0
 40
3.0
 40
4.0
 40
4.0
 40
4.0
 40
5.0
 40
5.0
 40
5.0
 40
5.0
 10
80.13567706329941
 20
-119.9144720837367
 30
0.0
 10
80.13567706329941
 20
-119.9144720837367
 30
0.0
 10
79.82148435504463
 20
-120.2284925372172
 30
0.0
 10
79.82148435504463
 20
-120.2284925372172
 30
0.0
 10
79.82148435504463
 20
-120.2284925372172
 30
0.0
 10
80.16117076989026
 20
-120.5681789520628
 30
0.0
 10
80.16117076989026
 20
-120.5681789520628
 30
0.0
 10
80.16117076989026
 20
-120.5681789520628
 30
0.0
 10
80.47398543995095
 20
-120.2555365367764
 30
0.0
 10
80.47398543995095
 20
-120.2555365367764
 30
0.0
 10
80.54426538785005
 20
-120.1852565888773
 30
0.0
 10
80.5862955527701
 20
-120.0355671900432
 30
0.0
 10
80.4650281916893
 20
-119.9144720837367
 30
0.0
 10
80.40956215437679
 20
-119.8590060464241
 30
0.0
 10
80.27623695909762
 20
-119.7737399331642
 30
0.0
 10
80.13567706329941
 20
-119.9144720837367
 30
0.0
  0
HATCH
  5
86
330
64
100
AcDbEntity
  8
_U+30EC_U+30A4_U+30E4_U+30FC 1
 62
   179
420
  2234388
100
AcDbHatch
 10
0.0
 20
0.0
 30
0.0
210
0.0
220
0.0
230
1.0
  2
SOLID
 70
     1
 71
     0
 91
        2
 92
        1
 93
        1
 72
     4
 94
        3
 73
     0
 74
     1
 95
       44
 96
       40
 40
0.0
 40
0.0
 40
0.0
 40
0.0
 40
1.0
 40
1.0
 40
1.0
 40
2.0
 40
2.0
 40
2.0
 40
3.0
 40
3.0
 40
3.0
 40
4.0
 40
4.0
 40
4.0
 40
5.0
 40
5.0
 40
5.0
 40
6.0
 40
6.0
 40
6.0
 40
7.0
 40
7.0
 40
7.0
 40
8.0
 40
8.0
 40
8.0
 40
9.0
 40
9.0
 40
9.0
 40
10.0
 40
10.0
 40
10.0
 40
11.0
 40
11.0
 40
11.0
 40
12.0
 40
12.0
 40
12.0
 40
13.0
 40
13.0
 40
13.0
 40
13.0
 10
81.25602211510267
 20
-120.6787665171393
 10
81.20847979740621
 20
-120.6639526065528
 10
81.15611434603042
 20
-120.6413872311244
 10
80.99143878183548
 20
-120.4798122528662
 10
80.81642793118479
 20
-120.3108303193147
 10
80.72513290082567
 20
-120.3034233640214
 10
80.59938691561405
 20
-120.4289970944587
 10
80.59938691561405
 20
-120.4289970944587
 10
80.3106879139501
 20
-120.7176960961227
 10
80.3106879139501
 20
-120.7176960961227
 10
80.3106879139501
 20
-120.7176960961227
 10
80.76406247980898
 20
-121.1708984072073
 10
80.76406247980898
 20
-121.1708984072073
 10
80.76406247980898
 20
-121.1708984072073
 10
80.59800887741994
 20
-121.3369520095963
 10
80.59800887741994
 20
-121.3369520095963
 10
80.59800887741994
 20
-121.3369520095963
 10
79.50591360859575
 20
-120.2450289955464
 10
79.50591360859575
 20
-120.2450289955464
 10
79.50591360859575
 20
-120.2450289955464
 10
79.98340384285137
 20
-119.7678832708393
 10
79.98340384285137
 20
-119.7678832708393
 10
80.20010034887359
 20
-119.5510145100428
 10
80.43953448509845
 20
-119.553770586431
 10
80.6207465076226
 20
-119.7348103541809
 10
80.65657550066919
 20
-119.7706393472275
 10
80.70859644249647
 20
-119.8352348875759
 10
80.73409014908731
 20
-119.9234293319983
 10
80.76544051800309
 20
-120.0386677759799
 10
80.73271211089322
 20
-120.098440182649
 10
80.70136174197744
 20
-120.1537339651873
 10
80.82848576538316
 20
-120.0863823484506
 10
80.91082354748063
 20
-120.0731187308324
 10
81.1364773017645
 20
-120.2927435680171
 10
81.33112519668111
 20
-120.4813625458345
 10
81.37901202392608
 20
-120.4784342146721
 10
81.46548392060585
 20
-120.4693047116362
 10
81.46548392060585
 20
-120.4693047116362
 10
81.25602211510267
 20
-120.6787665171393
 10
81.25602211510267
 20
-120.6787665171393
 97
        0
 97
        0
 92
        1
 93
        1
 72
     4
 94
        3
 73
     0
 74
     1
 95
       20
 96
       16
 40
0.0
 40
0.0
 40
0.0
 40
0.0
 40
1.0
 40
1.0
 40
1.0
 40
2.0
 40
2.0
 40
2.0
 40
3.0
 40
3.0
 40
3.0
 40
4.0
 40
4.0
 40
4.0
 40
5.0
 40
5.0
 40
5.0
 40
5.0
 10
80.13567706329941
 20
-119.9144720837367
 10
80.13567706329941
 20
-119.9144720837367
 10
79.82148435504463
 20
-120.2284925372172
 10
79.82148435504463
 20
-120.2284925372172
 10
79.82148435504463
 20
-120.2284925372172
 10
80.16117076989026
 20
-120.5681789520628
 10
80.16117076989026
 20
-120.5681789520628
 10
80.16117076989026
 20
-120.5681789520628
 10
80.47398543995095
 20
-120.2555365367764
 10
80.47398543995095
 20
-120.2555365367764
 10
80.54426538785005
 20
-120.1852565888773
 10
80.5862955527701
 20
-120.0355671900432
 10
80.4650281916893
 20
-119.9144720837367
 10
80.40956215437679
 20
-119.8590060464241
 10
80.27623695909762
 20
-119.7737399331642
 10
80.13567706329941
 20
-119.9144720837367
 97
        0
 97
        0
 75
     2
 76
     1
 98
        0
  0
ENDBLK
  5
67
330
64
100
AcDbEntity
  8
0
100
AcDbBlockEnd
  0
BLOCK
  5
89
330
87
100
AcDbEntity
  8
0
100
AcDbBlockBegin
  2
block 4
 70
     0
 10
0.0
 20
0.0
 30
0.0
  3
block 4
  1

  0
SPLINE
  5
8B
330
87
100
AcDbEntity
  8
_U+30EC_U+30A4_U+30E4_U+30FC 1
370
     0
100
AcDbSpline
210
0.0
220
0.0
230
1.0
 70
    11
 71
     3
 72
    44
 73
    40
 74
     0
 42
0.0000000001
 43
0.0000000001
 12
1.0
 22
0.0
 32
0.0
 13
1.0
 23
0.0
 33
0.0
 40
0.0
 40
0.0
 40
0.0
 40
0.0
 40
1.0
 40
1.0
 40
1.0
 40
2.0
 40
2.0
 40
2.0
 40
3.0
 40
3.0
 40
3.0
 40
4.0
 40
4.0
 40
4.0
 40
5.0
 40
5.0
 40
5.0
 40
6.0
 40
6.0
 40
6.0
 40
7.0
 40
7.0
 40
7.0
 40
8.0
 40
8.0
 40
8.0
 40
9.0
 40
9.0
 40
9.0
 40
10.0
 40
10.0
 40
10.0
 40
11.0
 40
11.0
 40
11.0
 40
12.0
 40
12.0
 40
12.0
 40
13.0
 40
13.0
 40
13.0
 40
13.0
 10
99.28007267483277
 20
-133.3865179788062
 30
0.0
 10
99.24768877727142
 20
-133.6538573884615
 30
0.0
 10
99.23804250991272
 20
-133.7723686731541
 30
0.0
 10
99.31038951510297
 20
-133.9060383779818
 30
0.0
 10
99.31038951510297
 20
-133.9060383779818
 30
0.0
 10
99.84093421983144
 20
-133.3369086038186
 30
0.0
 10
99.84093421983144
 20
-133.3369086038186
 30
0.0
 10
99.84093421983144
 20
-133.3369086038186
 30
0.0
 10
99.99114038298833
 20
-133.4767794805197
 30
0.0
 10
99.99114038298833
 20
-133.4767794805197
 30
0.0
 10
99.99114038298833
 20
-133.4767794805197
 30
0.0
 10
99.28971894219147
 20
-134.2284993154012
 30
0.0
 10
99.28971894219147
 20
-134.2284993154012
 30
0.0
 10
99.04994029641807
 20
-133.9615044152943
 30
0.0
 10
99.03753795267117
 20
-133.8598740984795
 30
0.0
 10
99.0819796844309
 20
-133.3751491637048
 30
0.0
 10
99.11126299605552
 20
-133.0523437167369
 30
0.0
 10
99.10643986237618
 20
-132.9582926099896
 30
0.0
 10
99.00584307420688
 20
-132.8645860127908
 30
0.0
 10
98.91902666797859
 20
-132.7836262688874
 30
0.0
 10
98.7743326575981
 20
-132.7471082567438
 30
0.0
 10
98.63997393367335
 20
-132.8907687384787
 30
0.0
 10
98.4628960257315
 20
-133.081282518813
 30
0.0
 10
98.62550453263529
 20
-133.2445800448139
 30
0.0
 10
98.70749780518425
 20
-133.3272623364599
 30
0.0
 10
98.70749780518425
 20
-133.3272623364599
 30
0.0
 10
98.55488007518767
 20
-133.4909043720092
 30
0.0
 10
98.55488007518767
 20
-133.4909043720092
 30
0.0
 10
98.46771915941085
 20
-133.398231303456
 30
0.0
 10
98.3926160778324
 20
-133.3141709736159
 30
0.0
 10
98.36092119936811
 20
-133.1743000969148
 30
0.0
 10
98.31854652489953
 20
-132.984130826129
 30
0.0
 10
98.42086586081146
 20
-132.8249674147104
 30
0.0
 10
98.50010305697221
 20
-132.7398735562248
 30
0.0
 10
98.68889428956389
 20
-132.5373019416921
 30
0.0
 10
98.96519094748093
 20
-132.5114637255527
 30
0.0
 10
99.1646619760769
 20
-132.6974988817562
 30
0.0
 10
99.3317491071115
 20
-132.8532171976895
 30
0.0
 10
99.32520342568954
 20
-133.005834927686
 30
0.0
 10
99.28007267483277
 20
-133.3865179788062
 30
0.0
  0
HATCH
  5
8C
330
87
100
AcDbEntity
  8
_U+30EC_U+30A4_U+30E4_U+30FC 1
 62
   179
420
  2234388
100
AcDbHatch
 10
0.0
 20
0.0
 30
0.0
210
0.0
220
0.0
230
1.0
  2
SOLID
 70
     1
 71
     0
 91
        1
 92
        1
 93
        1
 72
     4
 94
        3
 73
     0
 74
     1
 95
       44
 96
       40
 40
0.0
 40
0.0
 40
0.0
 40
0.0
 40
1.0
 40
1.0
 40
1.0
 40
2.0
 40
2.0
 40
2.0
 40
3.0
 40
3.0
 40
3.0
 40
4.0
 40
4.0
 40
4.0
 40
5.0
 40
5.0
 40
5.0
 40
6.0
 40
6.0
 40
6.0
 40
7.0
 40
7.0
 40
7.0
 40
8.0
 40
8.0
 40
8.0
 40
9.0
 40
9.0
 40
9.0
 40
10.0
 40
10.0
 40
10.0
 40
11.0
 40
11.0
 40
11.0
 40
12.0
 40
12.0
 40
12.0
 40
13.0
 40
13.0
 40
13.0
 40
13.0
 10
99.28007267483277
 20
-133.3865179788062
 10
99.24768877727142
 20
-133.6538573884615
 10
99.23804250991272
 20
-133.7723686731541
 10
99.31038951510297
 20
-133.9060383779818
 10
99.31038951510297
 20
-133.9060383779818
 10
99.84093421983144
 20
-133.3369086038186
 10
99.84093421983144
 20
-133.3369086038186
 10
99.84093421983144
 20
-133.3369086038186
 10
99.99114038298833
 20
-133.4767794805197
 10
99.99114038298833
 20
-133.4767794805197
 10
99.99114038298833
 20
-133.4767794805197
 10
99.28971894219147
 20
-134.2284993154012
 10
99.28971894219147
 20
-134.2284993154012
 10
99.04994029641807
 20
-133.9615044152943
 10
99.03753795267117
 20
-133.8598740984795
 10
99.0819796844309
 20
-133.3751491637048
 10
99.11126299605552
 20
-133.0523437167369
 10
99.10643986237618
 20
-132.9582926099896
 10
99.00584307420688
 20
-132.8645860127908
 10
98.91902666797859
 20
-132.7836262688874
 10
98.7743326575981
 20
-132.7471082567438
 10
98.63997393367335
 20
-132.8907687384787
 10
98.4628960257315
 20
-133.081282518813
 10
98.62550453263529
 20
-133.2445800448139
 10
98.70749780518425
 20
-133.3272623364599
 10
98.70749780518425
 20
-133.3272623364599
 10
98.55488007518767
 20
-133.4909043720092
 10
98.55488007518767
 20
-133.4909043720092
 10
98.46771915941085
 20
-133.398231303456
 10
98.3926160778324
 20
-133.3141709736159
 10
98.36092119936811
 20
-133.1743000969148
 10
98.31854652489953
 20
-132.984130826129
 10
98.42086586081146
 20
-132.8249674147104
 10
98.50010305697221
 20
-132.7398735562248
 10
98.68889428956389
 20
-132.5373019416921
 10
98.96519094748093
 20
-132.5114637255527
 10
99.1646619760769
 20
-132.6974988817562
 10
99.3317491071115
 20
-132.8532171976895
 10
99.32520342568954
 20
-133.005834927686
 10
99.28007267483277
 20
-133.3865179788062
 97
        0
 97
        0
 75
     2
 76
     1
 98
        0
  0
SPLINE
  5
8D
330
87
100
AcDbEntity
  8
_U+30EC_U+30A4_U+30E4_U+30FC 1
370
     0
100
AcDbSpline
210
0.0
220
0.0
230
1.0
 70
    11
 71
     3
 72
    29
 73
    25
 74
     0
 42
0.0000000001
 43
0.0000000001
 12
1.0
 22
0.0
 32
0.0
 13
1.0
 23
0.0
 33
0.0
 40
0.0
 40
0.0
 40
0.0
 40
0.0
 40
1.0
 40
1.0
 40
1.0
 40
2.0
 40
2.0
 40
2.0
 40
3.0
 40
3.0
 40
3.0
 40
4.0
 40
4.0
 40
4.0
 40
5.0
 40
5.0
 40
5.0
 40
6.0
 40
6.0
 40
6.0
 40
7.0
 40
7.0
 40
7.0
 40
8.0
 40
8.0
 40
8.0
 40
8.0
 10
100.5857638637425
 20
-132.5782985779665
 30
0.0
 10
100.6656900790002
 20
-132.8001627272166
 30
0.0
 10
100.5609591762487
 20
-132.9400336039178
 30
0.0
 10
100.4817219800879
 20
-133.0251274624034
 30
0.0
 10
100.372167943657
 20
-133.1426052184505
 30
0.0
 10
100.2412543152175
 20
-133.2146077140922
 30
0.0
 10
100.0435058343641
 20
-133.1601752054252
 30
0.0
 10
99.83025442382716
 20
-133.1029866203701
 30
0.0
 10
99.64421926762367
 20
-132.9551920240529
 30
0.0
 10
99.52501896383403
 20
-132.8442599494278
 30
0.0
 10
99.4199435515339
 20
-132.7464192376467
 30
0.0
 10
99.2473442677229
 20
-132.5624511387344
 30
0.0
 10
99.17396373388706
 20
-132.349544237746
 30
0.0
 10
99.09886065230862
 20
-132.1318142030782
 30
0.0
 10
99.19153372086184
 20
-131.998489007799
 30
0.0
 10
99.27938365573571
 20
-131.9040933915032
 30
0.0
 10
99.38755965397256
 20
-131.7879936736502
 30
0.0
 10
99.51847328241205
 20
-131.7132351016203
 30
0.0
 10
99.7162217632654
 20
-131.7673231007387
 30
0.0
 10
99.92499454967154
 20
-131.825889723988
 30
0.0
 10
100.1075846103898
 20
-131.9650715815921
 30
0.0
 10
100.2347086337955
 20
-132.0828938471876
 30
0.0
 10
100.3597655999101
 20
-132.2000270936861
 30
0.0
 10
100.5144503871978
 20
-132.3729708870457
 30
0.0
 10
100.5857638637425
 20
-132.5782985779665
 30
0.0
  0
SPLINE
  5
8E
330
87
100
AcDbEntity
  8
_U+30EC_U+30A4_U+30E4_U+30FC 1
370
     0
100
AcDbSpline
210
0.0
220
0.0
230
1.0
 70
    11
 71
     3
 72
    17
 73
    13
 74
     0
 42
0.0000000001
 43
0.0000000001
 12
1.0
 22
0.0
 32
0.0
 13
1.0
 23
0.0
 33
0.0
 40
0.0
 40
0.0
 40
0.0
 40
0.0
 40
1.0
 40
1.0
 40
1.0
 40
2.0
 40
2.0
 40
2.0
 40
3.0
 40
3.0
 40
3.0
 40
4.0
 40
4.0
 40
4.0
 40
4.0
 10
99.42063257063096
 20
-132.0353515294912
 30
0.0
 10
99.25044485365962
 20
-132.2179415902094
 30
0.0
 10
99.42580021385884
 20
-132.4453178922359
 30
0.0
 10
99.67798120337912
 20
-132.6802734043299
 30
0.0
 10
99.91155867727906
 20
-132.8980034389977
 30
0.0
 10
100.1620171190567
 20
-133.0826605570071
 30
0.0
 10
100.3394395365471
 20
-132.8924912862213
 30
0.0
 10
100.5082492153243
 20
-132.7112792636972
 30
0.0
 10
100.3356499315133
 20
-132.4839029616707
 30
0.0
 10
100.0820909037989
 20
-132.2468803922855
 30
0.0
 10
99.84851342989899
 20
-132.0291503576177
 30
0.0
 10
99.5963324403787
 20
-131.8465602968995
 30
0.0
 10
99.42063257063096
 20
-132.0353515294912
 30
0.0
  0
HATCH
  5
8F
330
87
100
AcDbEntity
  8
_U+30EC_U+30A4_U+30E4_U+30FC 1
 62
   179
420
  2234388
100
AcDbHatch
 10
0.0
 20
0.0
 30
0.0
210
0.0
220
0.0
230
1.0
  2
SOLID
 70
     1
 71
     0
 91
        2
 92
        1
 93
        1
 72
     4
 94
        3
 73
     0
 74
     1
 95
       29
 96
       25
 40
0.0
 40
0.0
 40
0.0
 40
0.0
 40
1.0
 40
1.0
 40
1.0
 40
2.0
 40
2.0
 40
2.0
 40
3.0
 40
3.0
 40
3.0
 40
4.0
 40
4.0
 40
4.0
 40
5.0
 40
5.0
 40
5.0
 40
6.0
 40
6.0
 40
6.0
 40
7.0
 40
7.0
 40
7.0
 40
8.0
 40
8.0
 40
8.0
 40
8.0
 10
100.5857638637425
 20
-132.5782985779665
 10
100.6656900790002
 20
-132.8001627272166
 10
100.5609591762487
 20
-132.9400336039178
 10
100.4817219800879
 20
-133.0251274624034
 10
100.372167943657
 20
-133.1426052184505
 10
100.2412543152175
 20
-133.2146077140922
 10
100.0435058343641
 20
-133.1601752054252
 10
99.83025442382716
 20
-133.1029866203701
 10
99.64421926762367
 20
-132.9551920240529
 10
99.52501896383403
 20
-132.8442599494278
 10
99.4199435515339
 20
-132.7464192376467
 10
99.2473442677229
 20
-132.5624511387344
 10
99.17396373388706
 20
-132.349544237746
 10
99.09886065230862
 20
-132.1318142030782
 10
99.19153372086184
 20
-131.998489007799
 10
99.27938365573571
 20
-131.9040933915032
 10
99.38755965397256
 20
-131.7879936736502
 10
99.51847328241205
 20
-131.7132351016203
 10
99.7162217632654
 20
-131.7673231007387
 10
99.92499454967154
 20
-131.825889723988
 10
100.1075846103898
 20
-131.9650715815921
 10
100.2347086337955
 20
-132.0828938471876
 10
100.3597655999101
 20
-132.2000270936861
 10
100.5144503871978
 20
-132.3729708870457
 10
100.5857638637425
 20
-132.5782985779665
 97
        0
 97
        0
 92
        1
 93
        1
 72
     4
 94
        3
 73
     0
 74
     1
 95
       17
 96
       13
 40
0.0
 40
0.0
 40
0.0
 40
0.0
 40
1.0
 40
1.0
 40
1.0
 40
2.0
 40
2.0
 40
2.0
 40
3.0
 40
3.0
 40
3.0
 40
4.0
 40
4.0
 40
4.0
 40
4.0
 10
99.42063257063096
 20
-132.0353515294912
 10
99.25044485365962
 20
-132.2179415902094
 10
99.42580021385884
 20
-132.4453178922359
 10
99.67798120337912
 20
-132.6802734043299
 10
99.91155867727906
 20
-132.8980034389977
 10
100.1620171190567
 20
-133.0826605570071
 10
100.3394395365471
 20
-132.8924912862213
 10
100.5082492153243
 20
-132.7112792636972
 10
100.3356499315133
 20
-132.4839029616707
 10
100.0820909037989
 20
-132.2468803922855
 10
99.84851342989899
 20
-132.0291503576177
 10
99.5963324403787
 20
-131.8465602968995
 10
99.42063257063096
 20
-132.0353515294912
 97
        0
 97
        0
 75
     2
 76
     1
 98
        0
  0
SPLINE
  5
90
330
87
100
AcDbEntity
  8
_U+30EC_U+30A4_U+30E4_U+30FC 1
370
     0
100
AcDbSpline
210
0.0
220
0.0
230
1.0
 70
    11
 71
     3
 72
    29
 73
    25
 74
     0
 42
0.0000000001
 43
0.0000000001
 12
1.0
 22
0.0
 32
0.0
 13
1.0
 23
0.0
 33
0.0
 40
0.0
 40
0.0
 40
0.0
 40
0.0
 40
1.0
 40
1.0
 40
1.0
 40
2.0
 40
2.0
 40
2.0
 40
3.0
 40
3.0
 40
3.0
 40
4.0
 40
4.0
 40
4.0
 40
5.0
 40
5.0
 40
5.0
 40
6.0
 40
6.0
 40
6.0
 40
7.0
 40
7.0
 40
7.0
 40
8.0
 40
8.0
 40
8.0
 40
8.0
 10
101.3884711118057
 20
-131.7177137257511
 30
0.0
 10
101.4680528175149
 20
-131.9392333654527
 30
0.0
 10
101.3636664243119
 20
-132.0794487517024
 30
0.0
 10
101.2844292281511
 20
-132.1641981006395
 30
0.0
 10
101.1748751917202
 20
-132.2820203662351
 30
0.0
 10
101.0439615632807
 20
-132.3536783523282
 30
0.0
 10
100.8462130824273
 20
-132.2992458436613
 30
0.0
 10
100.6329616718904
 20
-132.2420572586062
 30
0.0
 10
100.4465820061384
 20
-132.0946071718375
 30
0.0
 10
100.3273817023487
 20
-131.9836750972124
 30
0.0
 10
100.2223062900486
 20
-131.8858343854313
 30
0.0
 10
100.0497070062376
 20
-131.7015217769705
 30
0.0
 10
99.97667098195028
 20
-131.488614875982
 30
0.0
 10
99.90156790037183
 20
-131.2712293508628
 30
0.0
 10
99.99424096892506
 20
-131.1375596460351
 30
0.0
 10
100.0820909037989
 20
-131.0431640297392
 30
0.0
 10
100.1902669020358
 20
-130.9274088214348
 30
0.0
 10
100.3211805304753
 20
-130.8523057398564
 30
0.0
 10
100.5189290113286
 20
-130.9067382485233
 30
0.0
 10
100.7277017977348
 20
-130.9653048717726
 30
0.0
 10
100.910291858453
 20
-131.1044867293767
 30
0.0
 10
101.0374158818587
 20
-131.2223089949722
 30
0.0
 10
101.1624728479733
 20
-131.3394422414707
 30
0.0
 10
101.317157635261
 20
-131.5120415252817
 30
0.0
 10
101.3884711118057
 20
-131.7177137257511
 30
0.0
  0
SPLINE
  5
91
330
87
100
AcDbEntity
  8
_U+30EC_U+30A4_U+30E4_U+30FC 1
370
     0
100
AcDbSpline
210
0.0
220
0.0
230
1.0
 70
    11
 71
     3
 72
    17
 73
    13
 74
     0
 42
0.0000000001
 43
0.0000000001
 12
1.0
 22
0.0
 32
0.0
 13
1.0
 23
0.0
 33
0.0
 40
0.0
 40
0.0
 40
0.0
 40
0.0
 40
1.0
 40
1.0
 40
1.0
 40
2.0
 40
2.0
 40
2.0
 40
3.0
 40
3.0
 40
3.0
 40
4.0
 40
4.0
 40
4.0
 40
4.0
 10
100.2229953091456
 20
-131.1747666772758
 30
0.0
 10
100.0528075921743
 20
-131.357356737994
 30
0.0
 10
100.2281629523735
 20
-131.5847330400205
 30
0.0
 10
100.4803439418938
 20
-131.8196885521145
 30
0.0
 10
100.7139214157937
 20
-132.0374185867823
 30
0.0
 10
100.9647243671199
 20
-132.2220757047917
 30
0.0
 10
101.1418022750618
 20
-132.0315619244574
 30
0.0
 10
101.310611953839
 20
-131.8506944114818
 30
0.0
 10
101.1383571795765
 20
-131.6229735999068
 30
0.0
 10
100.8844536423136
 20
-131.3862955400701
 30
0.0
 10
100.6508761684137
 20
-131.1685655054023
 30
0.0
 10
100.3990396884419
 20
-130.9859754446841
 30
0.0
 10
100.2229953091456
 20
-131.1747666772758
 30
0.0
  0
HATCH
  5
92
330
87
100
AcDbEntity
  8
_U+30EC_U+30A4_U+30E4_U+30FC 1
 62
   179
420
  2234388
100
AcDbHatch
 10
0.0
 20
0.0
 30
0.0
210
0.0
220
0.0
230
1.0
  2
SOLID
 70
     1
 71
     0
 91
        2
 92
        1
 93
        1
 72
     4
 94
        3
 73
     0
 74
     1
 95
       29
 96
       25
 40
0.0
 40
0.0
 40
0.0
 40
0.0
 40
1.0
 40
1.0
 40
1.0
 40
2.0
 40
2.0
 40
2.0
 40
3.0
 40
3.0
 40
3.0
 40
4.0
 40
4.0
 40
4.0
 40
5.0
 40
5.0
 40
5.0
 40
6.0
 40
6.0
 40
6.0
 40
7.0
 40
7.0
 40
7.0
 40
8.0
 40
8.0
 40
8.0
 40
8.0
 10
101.3884711118057
 20
-131.7177137257511
 10
101.4680528175149
 20
-131.9392333654527
 10
101.3636664243119
 20
-132.0794487517024
 10
101.2844292281511
 20
-132.1641981006395
 10
101.1748751917202
 20
-132.2820203662351
 10
101.0439615632807
 20
-132.3536783523282
 10
100.8462130824273
 20
-132.2992458436613
 10
100.6329616718904
 20
-132.2420572586062
 10
100.4465820061384
 20
-132.0946071718375
 10
100.3273817023487
 20
-131.9836750972124
 10
100.2223062900486
 20
-131.8858343854313
 10
100.0497070062376
 20
-131.7015217769705
 10
99.97667098195028
 20
-131.488614875982
 10
99.90156790037183
 20
-131.2712293508628
 10
99.99424096892506
 20
-131.1375596460351
 10
100.0820909037989
 20
-131.0431640297392
 10
100.1902669020358
 20
-130.9274088214348
 10
100.3211805304753
 20
-130.8523057398564
 10
100.5189290113286
 20
-130.9067382485233
 10
100.7277017977348
 20
-130.9653048717726
 10
100.910291858453
 20
-131.1044867293767
 10
101.0374158818587
 20
-131.2223089949722
 10
101.1624728479733
 20
-131.3394422414707
 10
101.317157635261
 20
-131.5120415252817
 10
101.3884711118057
 20
-131.7177137257511
 97
        0
 97
        0
 92
        1
 93
        1
 72
     4
 94
        3
 73
     0
 74
     1
 95
       17
 96
       13
 40
0.0
 40
0.0
 40
0.0
 40
0.0
 40
1.0
 40
1.0
 40
1.0
 40
2.0
 40
2.0
 40
2.0
 40
3.0
 40
3.0
 40
3.0
 40
4.0
 40
4.0
 40
4.0
 40
4.0
 10
100.2229953091456
 20
-131.1747666772758
 10
100.0528075921743
 20
-131.357356737994
 10
100.2281629523735
 20
-131.5847330400205
 10
100.4803439418938
 20
-131.8196885521145
 10
100.7139214157937
 20
-132.0374185867823
 10
100.9647243671199
 20
-132.2220757047917
 10
101.1418022750618
 20
-132.0315619244574
 10
101.310611953839
 20
-131.8506944114818
 10
101.1383571795765
 20
-131.6229735999068
 10
100.8844536423136
 20
-131.3862955400701
 10
100.6508761684137
 20
-131.1685655054023
 10
100.3990396884419
 20
-130.9859754446841
 10
100.2229953091456
 20
-131.1747666772758
 97
        0
 97
        0
 75
     2
 76
     1
 98
        0
  0
ENDBLK
  5
8A
330
87
100
AcDbEntity
  8
0
100
AcDbBlockEnd
  0
ENDSEC
  0
SECTION
  2
ENTITIES
  0
INSERT
  5
42
330
1F
100
AcDbEntity
  8
_U+30EC_U+30A4_U+30E4_U+30FC 1
100
AcDbBlockReference
  2
block 2
 10
0.0
 20
0.0
 30
0.0
  0
INSERT
  5
65
330
1F
100
AcDbEntity
  8
_U+30EC_U+30A4_U+30E4_U+30FC 1
100
AcDbBlockReference
  2
block 3
 10
0.0
 20
0.0
 30
0.0
  0
INSERT
  5
88
330
1F
100
AcDbEntity
  8
_U+30EC_U+30A4_U+30E4_U+30FC 1
100
AcDbBlockReference
  2
block 4
 10
0.0
 20
0.0
 30
0.0
  0
POLYLINE
  5
93
330
1F
100
AcDbEntity
  8
_U+30EC_U+30A4_U+30E4_U+30FC 1
 62
   179
420
  2234388
370
     9
100
AcDb2dPolyline
 66
     1
 10
0.0
 20
0.0
 30
0.0
  0
VERTEX
  5
94
330
93
100
AcDbEntity
  8
_U+30EC_U+30A4_U+30E4_U+30FC 1
 62
   179
420
  2234388
370
     9
100
AcDbVertex
100
AcDb2dVertex
 10
102.8498916409541
 20
-126.5283713572567
 30
0.0
  0
VERTEX
  5
95
330
93
100
AcDbEntity
  8
_U+30EC_U+30A4_U+30E4_U+30FC 1
 62
   179
420
  2234388
370
     9
100
AcDbVertex
100
AcDb2dVertex
 10
93.54329400240064
 20
-136.5970019102955
 30
0.0
  0
SEQEND
  5
96
330
93
100
AcDbEntity
  8
_U+30EC_U+30A4_U+30E4_U+30FC 1
 62
   179
420
  2234388
370
     9
  0
POLYLINE
  5
97
330
1F
100
AcDbEntity
  8
_U+30EC_U+30A4_U+30E4_U+30FC 1
 62
   179
420
  2234388
370
     9
100
AcDb2dPolyline
 66
     1
 10
0.0
 20
0.0
 30
0.0
  0
VERTEX
  5
98
330
97
100
AcDbEntity
  8
_U+30EC_U+30A4_U+30E4_U+30FC 1
 62
   179
420
  2234388
370
     9
100
AcDbVertex
100
AcDb2dVertex
 10
94.3022600941489
 20
-123.3600741358267
 30
0.0
  0
VERTEX
  5
99
330
97
100
AcDbEntity
  8
_U+30EC_U+30A4_U+30E4_U+30FC 1
 62
   179
420
  2234388
370
     9
100
AcDbVertex
100
AcDb2dVertex
 10
107.9799860841158
 20
-128.4571133012191
 30
0.0
  0
SEQEND
  5
9A
330
97
100
AcDbEntity
  8
_U+30EC_U+30A4_U+30E4_U+30FC 1
 62
   179
420
  2234388
370
     9
  0
POLYLINE
  5
9B
330
1F
100
AcDbEntity
  8
_U+30EC_U+30A4_U+30E4_U+30FC 1
 62
     7
420
 16777215
370
     9
100
AcDb2dPolyline
 66
     1
 10
0.0
 20
0.0
 30
0.0
  0
VERTEX
  5
9C
330
9B
100
AcDbEntity
  8
_U+30EC_U+30A4_U+30E4_U+30FC 1
 62
     7
420
 16777215
370
     9
100
AcDbVertex
100
AcDb2dVertex
 10
73.80255561713994
 20
-129.3316494121113
 30
0.0
  0
VERTEX
  5
9D
330
9B
100
AcDbEntity
  8
_U+30EC_U+30A4_U+30E4_U+30FC 1
 62
     7
420
 16777215
370
     9
100
AcDbVertex
100
AcDb2dVertex
 10
96.77445614218905
 20
-137.8268910766542
 30
0.0
  0
VERTEX
  5
9E
330
9B
100
AcDbEntity
  8
_U+30EC_U+30A4_U+30E4_U+30FC 1
 62
     7
420
 16777215
370
     9
100
AcDbVertex
100
AcDb2dVertex
 10
96.77445614218905
 20
-139.7148166317378
 30
0.0
  0
VERTEX
  5
9F
330
9B
100
AcDbEntity
  8
_U+30EC_U+30A4_U+30E4_U+30FC 1
 62
     7
420
 16777215
370
     9
100
AcDbVertex
100
AcDb2dVertex
 10
73.80255561713994
 20
-131.2195396894174
 30
0.0
  0
VERTEX
  5
A0
330
9B
100
AcDbEntity
  8
_U+30EC_U+30A4_U+30E4_U+30FC 1
 62
     7
420
 16777215
370
     9
100
AcDbVertex
100
AcDb2dVertex
 10
73.80255561713994
 20
-129.3316494121113
 30
0.0
  0
SEQEND
  5
A1
330
9B
100
AcDbEntity
  8
_U+30EC_U+30A4_U+30E4_U+30FC 1
 62
     7
420
 16777215
370
     9
  0
SPLINE
  5
A2
330
1F
100
AcDbEntity
  8
_U+30EC_U+30A4_U+30E4_U+30FC 1
 62
     7
420
 16777215
370
     9
100
AcDbSpline
210
0.0
220
0.0
230
1.0
 70
    11
 71
     3
 72
    23
 73
    19
 74
     0
 42
0.0000000001
 43
0.0000000001
 12
1.0
 22
0.0
 32
0.0
 13
1.0
 23
0.0
 33
0.0
 40
0.0
 40
0.0
 40
0.0
 40
0.0
 40
1.0
 40
1.0
 40
1.0
 40
2.0
 40
2.0
 40
2.0
 40
3.0
 40
3.0
 40
3.0
 40
4.0
 40
4.0
 40
4.0
 40
5.0
 40
5.0
 40
5.0
 40
6.0
 40
6.0
 40
6.0
 40
6.0
 10
96.77445614218905
 20
-138.8159741319626
 30
0.0
 10
96.93948558242325
 20
-138.8755935763921
 30
0.0
 10
97.10243608683558
 20
-138.9372591319325
 30
0.0
 10
97.26778057404773
 20
-139.0116599652473
 30
0.0
 10
97.26778057404773
 20
-139.4643444095785
 30
0.0
 10
96.93602836028921
 20
-141.2475302424656
 30
0.0
 10
98.67130692712969
 20
-142.0395516311565
 30
0.0
 10
97.12483502213902
 20
-141.5114432979554
 30
0.0
 10
78.28325661393885
 20
-134.4245257997269
 30
0.0
 10
77.94494273368106
 20
-134.3077210775341
 30
0.0
 10
77.48365052322738
 20
-134.1485830220182
 30
0.0
 10
74.469517266791
 20
-132.5765699668559
 30
0.0
 10
74.82504670216514
 20
-131.5978233004338
 30
0.0
 10
75.68014473590532
 20
-131.9140885781328
 30
0.0
 10
96.77445614218905
 20
-139.7148166317378
 30
0.0
 10
96.77445614218905
 20
-139.7148166317378
 30
0.0
 10
96.77445614218905
 20
-139.7148166317378
 30
0.0
 10
96.77445614218905
 20
-138.8159741319626
 30
0.0
 10
96.77445614218905
 20
-138.8159741319626
 30
0.0
  0
POLYLINE
  5
A3
330
1F
100
AcDbEntity
  8
_U+30EC_U+30A4_U+30E4_U+30FC 1
 62
     7
420
 16777215
370
     9
100
AcDb2dPolyline
 66
     1
 10
0.0
 20
0.0
 30
0.0
  0
VERTEX
  5
A4
330
A3
100
AcDbEntity
  8
_U+30EC_U+30A4_U+30E4_U+30FC 1
 62
     7
420
 16777215
370
     9
100
AcDbVertex
100
AcDb2dVertex
 10
73.80255561713994
 20
-129.3316494121113
 30
0.0
  0
VERTEX
  5
A5
330
A3
100
AcDbEntity
  8
_U+30EC_U+30A4_U+30E4_U+30FC 1
 62
     7
420
 16777215
370
     9
100
AcDbVertex
100
AcDb2dVertex
 10
88.78012384614145
 20
-114.389041082514
 30
0.0
  0
VERTEX
  5
A6
330
A3
100
AcDbEntity
  8
_U+30EC_U+30A4_U+30E4_U+30FC 1
 62
     7
420
 16777215
370
     9
100
AcDbVertex
100
AcDb2dVertex
 10
88.78012384614145
 20
-115.6678605266387
 30
0.0
  0
VERTEX
  5
A7
330
A3
100
AcDbEntity
  8
_U+30EC_U+30A4_U+30E4_U+30FC 1
 62
     7
420
 16777215
370
     9
100
AcDbVertex
100
AcDb2dVertex
 10
74.95010831459592
 20
-129.7553708008944
 30
0.0
  0
VERTEX
  5
A8
330
A3
100
AcDbEntity
  8
_U+30EC_U+30A4_U+30E4_U+30FC 1
 62
     7
420
 16777215
370
     9
100
AcDbVertex
100
AcDb2dVertex
 10
73.80255561713994
 20
-129.3316494121113
 30
0.0
  0
SEQEND
  5
A9
330
A3
100
AcDbEntity
  8
_U+30EC_U+30A4_U+30E4_U+30FC 1
 62
     7
420
 16777215
370
     9
  0
POLYLINE
  5
AA
330
1F
100
AcDbEntity
  8
_U+30EC_U+30A4_U+30E4_U+30FC 1
 62
     7
420
 16777215
370
     9
100
AcDb2dPolyline
 66
     1
 10
0.0
 20
0.0
 30
0.0
  0
VERTEX
  5
AB
330
AA
100
AcDbEntity
  8
_U+30EC_U+30A4_U+30E4_U+30FC 1
 62
     7
420
 16777215
370
     9
100
AcDbVertex
100
AcDb2dVertex
 10
88.78012384614145
 20
-115.6678605266387
 30
0.0
  0
VERTEX
  5
AC
330
AA
100
AcDbEntity
  8
_U+30EC_U+30A4_U+30E4_U+30FC 1
 62
     7
420
 16777215
370
     9
100
AcDbVertex
100
AcDb2dVertex
 10
89.61797104698842
 20
-115.8222008043779
 30
0.0
  0
VERTEX
  5
AD
330
AA
100
AcDbEntity
  8
_U+30EC_U+30A4_U+30E4_U+30FC 1
 62
     7
420
 16777215
370
     9
100
AcDbVertex
100
AcDb2dVertex
 10
75.7993483439753
 20
-130.0702602452604
 30
0.0
  0
VERTEX
  5
AE
330
AA
100
AcDbEntity
  8
_U+30EC_U+30A4_U+30E4_U+30FC 1
 62
     7
420
 16777215
370
     9
100
AcDbVertex
100
AcDb2dVertex
 10
74.95010831459592
 20
-129.7553708008944
 30
0.0
  0
VERTEX
  5
AF
330
AA
100
AcDbEntity
  8
_U+30EC_U+30A4_U+30E4_U+30FC 1
 62
     7
420
 16777215
370
     9
100
AcDbVertex
100
AcDb2dVertex
 10
88.78012384614145
 20
-115.6678605266387
 30
0.0
  0
SEQEND
  5
B0
330
AA
100
AcDbEntity
  8
_U+30EC_U+30A4_U+30E4_U+30FC 1
 62
     7
420
 16777215
370
     9
  0
SPLINE
  5
B1
330
1F
100
AcDbEntity
  8
_U+30EC_U+30A4_U+30E4_U+30FC 1
 62
     7
420
 16777215
370
     9
100
AcDbSpline
210
0.0
220
0.0
230
1.0
 70
    11
 71
     3
 72
    17
 73
    13
 74
     0
 42
0.0000000001
 43
0.0000000001
 12
1.0
 22
0.0
 32
0.0
 13
1.0
 23
0.0
 33
0.0
 40
0.0
 40
0.0
 40
0.0
 40
0.0
 40
1.0
 40
1.0
 40
1.0
 40
2.0
 40
2.0
 40
2.0
 40
3.0
 40
3.0
 40
3.0
 40
4.0
 40
4.0
 40
4.0
 40
4.0
 10
82.30883901123768
 20
-132.4773688557698
 30
0.0
 10
82.30883901123768
 20
-132.4773688557698
 30
0.0
 10
75.7993483439753
 20
-130.0702602452604
 30
0.0
 10
75.7993483439753
 20
-130.0702602452604
 30
0.0
 10
75.7993483439753
 20
-130.0702602452604
 30
0.0
 10
89.39748494150237
 20
-116.0426869154339
 30
0.0
 10
89.61797104698842
 20
-115.8222008043779
 30
0.0
 10
89.30929049930796
 20
-116.858485526341
 30
0.0
 10
88.33915163516937
 20
-120.0555341366529
 30
0.0
 10
92.41814458666114
 20
-121.9958119139456
 30
0.0
 10
90.85269323771026
 20
-123.6274091357599
 30
0.0
 10
82.30883901123768
 20
-132.4773688557698
 30
0.0
 10
82.30883901123768
 20
-132.4773688557698
 30
0.0
  0
POLYLINE
  5
B2
330
1F
100
AcDbEntity
  8
_U+30EC_U+30A4_U+30E4_U+30FC 1
 62
     7
420
 16777215
370
     9
100
AcDb2dPolyline
 66
     1
 10
0.0
 20
0.0
 30
0.0
  0
VERTEX
  5
B3
330
B2
100
AcDbEntity
  8
_U+30EC_U+30A4_U+30E4_U+30FC 1
 62
     7
420
 16777215
370
     9
100
AcDbVertex
100
AcDb2dVertex
 10
92.41814458666114
 20
-121.9958119139456
 30
0.0
  0
VERTEX
  5
B4
330
B2
100
AcDbEntity
  8
_U+30EC_U+30A4_U+30E4_U+30FC 1
 62
     7
420
 16777215
370
     9
100
AcDbVertex
100
AcDb2dVertex
 10
92.41814458666114
 20
-122.7675133026416
 30
0.0
  0
VERTEX
  5
B5
330
B2
100
AcDbEntity
  8
_U+30EC_U+30A4_U+30E4_U+30FC 1
 62
     7
420
 16777215
370
     9
100
AcDbVertex
100
AcDb2dVertex
 10
82.93999371735781
 20
-132.7408938557037
 30
0.0
  0
VERTEX
  5
B6
330
B2
100
AcDbEntity
  8
_U+30EC_U+30A4_U+30E4_U+30FC 1
 62
     7
420
 16777215
370
     9
100
AcDbVertex
100
AcDb2dVertex
 10
82.30883901123768
 20
-132.4773688557698
 30
0.0
  0
VERTEX
  5
B7
330
B2
100
AcDbEntity
  8
_U+30EC_U+30A4_U+30E4_U+30FC 1
 62
     7
420
 16777215
370
     9
100
AcDbVertex
100
AcDb2dVertex
 10
92.41814458666114
 20
-121.9958119139456
 30
0.0
  0
SEQEND
  5
B8
330
B2
100
AcDbEntity
  8
_U+30EC_U+30A4_U+30E4_U+30FC 1
 62
     7
420
 16777215
370
     9
  0
POLYLINE
  5
B9
330
1F
100
AcDbEntity
  8
_U+30EC_U+30A4_U+30E4_U+30FC 1
 62
     7
420
 16777215
370
     9
100
AcDb2dPolyline
 66
     1
 10
0.0
 20
0.0
 30
0.0
  0
VERTEX
  5
BA
330
B9
100
AcDbEntity
  8
_U+30EC_U+30A4_U+30E4_U+30FC 1
 62
     7
420
 16777215
370
     9
100
AcDbVertex
100
AcDb2dVertex
 10
92.41814458666114
 20
-122.7675133026416
 30
0.0
  0
VERTEX
  5
BB
330
B9
100
AcDbEntity
  8
_U+30EC_U+30A4_U+30E4_U+30FC 1
 62
     7
420
 16777215
370
     9
100
AcDbVertex
100
AcDb2dVertex
 10
93.73379399754057
 20
-123.0927391358934
 30
0.0
  0
VERTEX
  5
BC
330
B9
100
AcDbEntity
  8
_U+30EC_U+30A4_U+30E4_U+30FC 1
 62
     7
420
 16777215
370
     9
100
AcDbVertex
100
AcDb2dVertex
 10
84.33385395957525
 20
-133.2259633000268
 30
0.0
  0
VERTEX
  5
BD
330
B9
100
AcDbEntity
  8
_U+30EC_U+30A4_U+30E4_U+30FC 1
 62
     7
420
 16777215
370
     9
100
AcDbVertex
100
AcDb2dVertex
 10
82.93999371735781
 20
-132.7408938557037
 30
0.0
  0
VERTEX
  5
BE
330
B9
100
AcDbEntity
  8
_U+30EC_U+30A4_U+30E4_U+30FC 1
 62
     7
420
 16777215
370
     9
100
AcDbVertex
100
AcDb2dVertex
 10
92.41814458666114
 20
-122.7675133026416
 30
0.0
  0
SEQEND
  5
BF
330
B9
100
AcDbEntity
  8
_U+30EC_U+30A4_U+30E4_U+30FC 1
 62
     7
420
 16777215
370
     9
  0
SPLINE
  5
C0
330
1F
100
AcDbEntity
  8
_U+30EC_U+30A4_U+30E4_U+30FC 1
 62
     7
420
 16777215
370
     9
100
AcDbSpline
210
0.0
220
0.0
230
1.0
 70
    11
 71
     3
 72
    20
 73
    16
 74
     0
 42
0.0000000001
 43
0.0000000001
 12
1.0
 22
0.0
 32
0.0
 13
1.0
 23
0.0
 33
0.0
 40
0.0
 40
0.0
 40
0.0
 40
0.0
 40
1.0
 40
1.0
 40
1.0
 40
2.0
 40
2.0
 40
2.0
 40
3.0
 40
3.0
 40
3.0
 40
4.0
 40
4.0
 40
4.0
 40
5.0
 40
5.0
 40
5.0
 40
5.0
 10
97.25712668543065
 20
-139.9897363538913
 30
0.0
 10
97.25712668543065
 20
-139.9897363538913
 30
0.0
 10
101.3312865814902
 20
-141.695064131243
 30
0.0
 10
101.3312865814902
 20
-141.695064131243
 30
0.0
 10
101.3312865814902
 20
-141.695064131243
 30
0.0
 10
100.4703677145652
 20
-142.7475413532019
 30
0.0
 10
100.4703677145652
 20
-142.7475413532019
 30
0.0
 10
100.4703677145652
 20
-142.7475413532019
 30
0.0
 10
98.42602054449857
 20
-141.9530857978448
 30
0.0
 10
98.42602054449857
 20
-141.9530857978448
 30
0.0
 10
98.42602054449857
 20
-141.9530857978448
 30
0.0
 10
97.61265612080479
 20
-141.4476963535273
 30
0.0
 10
97.37012140477013
 20
-140.5929863537409
 30
0.0
 10
97.33015168356764
 20
-140.3979707982336
 30
0.0
 10
97.28467862917219
 20
-140.218830242723
 30
0.0
 10
97.25712668543065
 20
-139.9897363538913
 30
0.0
  0
SPLINE
  5
C1
330
1F
100
AcDbEntity
  8
_U+30EC_U+30A4_U+30E4_U+30FC 1
 62
   179
420
  2234388
370
     9
100
AcDbSpline
210
0.0
220
0.0
230
1.0
 70
    11
 71
     3
 72
    17
 73
    13
 74
     0
 42
0.0000000001
 43
0.0000000001
 12
1.0
 22
0.0
 32
0.0
 13
1.0
 23
0.0
 33
0.0
 40
0.0
 40
0.0
 40
0.0
 40
0.0
 40
1.0
 40
1.0
 40
1.0
 40
2.0
 40
2.0
 40
2.0
 40
3.0
 40
3.0
 40
3.0
 40
4.0
 40
4.0
 40
4.0
 40
4.0
 10
102.8347221965136
 20
-126.6355099683412
 30
0.0
 10
102.8898587639499
 20
-126.6355099683412
 30
0.0
 10
102.9346262628078
 20
-126.5907071905745
 30
0.0
 10
102.9346262628078
 20
-126.5356033016995
 30
0.0
 10
102.9346262628078
 20
-126.4804641350465
 30
0.0
 10
102.8898587639499
 20
-126.4356966350579
 30
0.0
 10
102.8347221965136
 20
-126.4356966350579
 30
0.0
 10
102.7796157112069
 20
-126.4356966350579
 30
0.0
 10
102.7348129345721
 20
-126.4804641350465
 30
0.0
 10
102.7348129345721
 20
-126.5356033016995
 30
0.0
 10
102.7348129345721
 20
-126.5907071905745
 30
0.0
 10
102.7796157112069
 20
-126.6355099683412
 30
0.0
 10
102.8347221965136
 20
-126.6355099683412
 30
0.0
  0
HATCH
  5
C2
330
1F
100
AcDbEntity
  8
_U+30EC_U+30A4_U+30E4_U+30FC 1
 62
   179
420
  2234388
100
AcDbHatch
 10
0.0
 20
0.0
 30
0.0
210
0.0
220
0.0
230
1.0
  2
SOLID
 70
     1
 71
     0
 91
        1
 92
        1
 93
        1
 72
     4
 94
        3
 73
     0
 74
     1
 95
       17
 96
       13
 40
0.0
 40
0.0
 40
0.0
 40
0.0
 40
1.0
 40
1.0
 40
1.0
 40
2.0
 40
2.0
 40
2.0
 40
3.0
 40
3.0
 40
3.0
 40
4.0
 40
4.0
 40
4.0
 40
4.0
 10
102.8347221965136
 20
-126.6355099683412
 10
102.8898587639499
 20
-126.6355099683412
 10
102.9346262628078
 20
-126.5907071905745
 10
102.9346262628078
 20
-126.5356033016995
 10
102.9346262628078
 20
-126.4804641350465
 10
102.8898587639499
 20
-126.4356966350579
 10
102.8347221965136
 20
-126.4356966350579
 10
102.7796157112069
 20
-126.4356966350579
 10
102.7348129345721
 20
-126.4804641350465
 10
102.7348129345721
 20
-126.5356033016995
 10
102.7348129345721
 20
-126.5907071905745
 10
102.7796157112069
 20
-126.6355099683412
 10
102.8347221965136
 20
-126.6355099683412
 97
        0
 97
        0
 75
     2
 76
     1
 98
        0
  0
ENDSEC
  0
SECTION
  2
OBJECTS
  0
DICTIONARY
  5
C
330
0
100
AcDbDictionary
281
     1
  3
ACAD_GROUP
350
D
  3
ACAD_LAYOUT
350
1A
  3
ACAD_MATERIAL
350
3B
  3
ACAD_MLEADERSTYLE
350
C4
  3
ACAD_MLINESTYLE
350
17
  3
ACAD_PLOTSETTINGS
350
19
  3
ACAD_PLOTSTYLENAME
350
E
  3
ACAD_TABLESTYLE
350
C3
  3
ACAD_VISUALSTYLE
350
2A
  0
SUN
  5
3F
330
29
100
AcDbSun
 90
        1
290
     0
 63
     7
421
 16777215
 40
1.0
291
     1
 91
  2455826
 92
 54000000
292
     0
 70
     2
 71
   256
280
     1
  0
DICTIONARY
  5
D
102
{ACAD_REACTORS
330
C
102
}
330
C
100
AcDbDictionary
281
     1
  0
DICTIONARY
  5
1A
102
{ACAD_REACTORS
330
C
102
}
330
C
100
AcDbDictionary
281
     1
  3
Layout1
350
1E
  3
Layout2
350
26
  3
Model
350
22
  0
DICTIONARY
  5
3B
102
{ACAD_REACTORS
330
C
102
}
330
C
100
AcDbDictionary
281
     1
  3
ByBlock
350
3D
  3
ByLayer
350
3C
  3
Global
350
3E
  0
DICTIONARY
  5
C4
102
{ACAD_REACTORS
330
C
102
}
330
C
100
AcDbDictionary
281
     1
  0
DICTIONARY
  5
17
102
{ACAD_REACTORS
330
C
102
}
330
C
100
AcDbDictionary
281
     1
  3
Standard
350
18
  0
DICTIONARY
  5
19
102
{ACAD_REACTORS
330
C
102
}
330
C
100
AcDbDictionary
281
     1
  0
ACDBDICTIONARYWDFLT
  5
E
102
{ACAD_REACTORS
330
C
102
}
330
C
100
AcDbDictionary
281
     1
  3
Normal
350
F
100
AcDbDictionaryWithDefault
340
F
  0
DICTIONARY
  5
C3
102
{ACAD_REACTORS
330
C
102
}
330
C
100
AcDbDictionary
281
     1
  0
DICTIONARY
  5
2A
102
{ACAD_REACTORS
330
C
102
}
330
C
100
AcDbDictionary
281
     1
  3
2dWireframe
350
2F
  3
3D Hidden
350
31
  3
3dWireframe
350
30
  3
Basic
350
32
  3
Brighten
350
36
  3
ColorChange
350
3A
  3
Conceptual
350
34
  3
Dim
350
35
  3
Facepattern
350
39
  3
Flat
350
2B
  3
FlatWithEdges
350
2C
  3
Gouraud
350
2D
  3
GouraudWithEdges
350
2E
  3
Linepattern
350
38
  3
Realistic
350
33
  3
Thicken
350
37
  0
LAYOUT
  5
1E
102
{ACAD_REACTORS
330
1A
102
}
330
1A
100
AcDbPlotSettings
  1

  2
none_device
  4

  6

 40
0.0
 41
0.0
 42
0.0
 43
0.0
 44
0.0
 45
0.0
 46
0.0
 47
0.0
 48
0.0
 49
0.0
140
0.0
141
0.0
142
1.0
143
1.0
 70
   688
 72
     0
 73
     0
 74
     5
  7

 75
    16
 76
     0
 77
     2
 78
   300
147
1.0
148
0.0
149
0.0
100
AcDbLayout
  1
Layout1
 70
     1
 71
     1
 10
0.0
 20
0.0
 11
12.0
 21
9.0
 12
0.0
 22
0.0
 32
0.0
 14
1.000000000000000E+20
 24
1.000000000000000E+20
 34
1.000000000000000E+20
 15
-1.000000000000000E+20
 25
-1.000000000000000E+20
 35
-1.000000000000000E+20
146
0.0
 13
0.0
 23
0.0
 33
0.0
 16
1.0
 26
0.0
 36
0.0
 17
0.0
 27
1.0
 37
0.0
 76
     0
330
1B
  0
LAYOUT
  5
26
102
{ACAD_REACTORS
330
1A
102
}
330
1A
100
AcDbPlotSettings
  1

  2
none_device
  4

  6

 40
0.0
 41
0.0
 42
0.0
 43
0.0
 44
0.0
 45
0.0
 46
0.0
 47
0.0
 48
0.0
 49
0.0
140
0.0
141
0.0
142
1.0
143
1.0
 70
   688
 72
     0
 73
     0
 74
     5
  7

 75
    16
 76
     0
 77
     2
 78
   300
147
1.0
148
0.0
149
0.0
100
AcDbLayout
  1
Layout2
 70
     1
 71
     2
 10
0.0
 20
0.0
 11
0.0
 21
0.0
 12
0.0
 22
0.0
 32
0.0
 14
0.0
 24
0.0
 34
0.0
 15
0.0
 25
0.0
 35
0.0
146
0.0
 13
0.0
 23
0.0
 33
0.0
 16
1.0
 26
0.0
 36
0.0
 17
0.0
 27
1.0
 37
0.0
 76
     0
330
23
  0
LAYOUT
  5
22
102
{ACAD_REACTORS
330
1A
102
}
330
1A
100
AcDbPlotSettings
  1

  2
none_device
  4

  6

 40
0.0
 41
0.0
 42
0.0
 43
0.0
 44
0.0
 45
0.0
 46
0.0
 47
0.0
 48
0.0
 49
0.0
140
0.0
141
0.0
142
1.0
143
1.0
 70
  1712
 72
     0
 73
     0
 74
     0
  7

 75
     0
 76
     0
 77
     2
 78
   300
147
1.0
148
0.0
149
0.0
100
AcDbLayout
  1
Model
 70
     1
 71
     0
 10
0.0
 20
0.0
 11
12.0
 21
9.0
 12
0.0
 22
0.0
 32
0.0
 14
1.000000000000000E+20
 24
1.000000000000000E+20
 34
1.000000000000000E+20
 15
-1.000000000000000E+20
 25
-1.000000000000000E+20
 35
-1.000000000000000E+20
146
0.0
 13
0.0
 23
0.0
 33
0.0
 16
1.0
 26
0.0
 36
0.0
 17
0.0
 27
1.0
 37
0.0
 76
     0
330
1F
331
29
  0
MATERIAL
  5
3D
102
{ACAD_REACTORS
330
3B
102
}
330
3B
100
AcDbMaterial
  1
ByBlock
 72
     1
 94
      127
  0
MATERIAL
  5
3C
102
{ACAD_REACTORS
330
3B
102
}
330
3B
100
AcDbMaterial
  1
ByLayer
 72
     1
 94
      127
  0
MATERIAL
  5
3E
102
{ACAD_REACTORS
330
3B
102
}
330
3B
100
AcDbMaterial
  1
Global
 72
     1
 94
      127
  0
MLINESTYLE
  5
18
102
{ACAD_REACTORS
330
17
102
}
330
17
100
AcDbMlineStyle
  2
Standard
 70
     0
  3

 62
   256
 51
90.0
 52
90.0
 71
     2
 49
0.5
 62
   256
  6
BYLAYER
 49
-0.5
 62
   256
  6
BYLAYER
  0
ACDBPLACEHOLDER
  5
F
102
{ACAD_REACTORS
330
E
102
}
330
E
  0
VISUALSTYLE
  5
2F
102
{ACAD_REACTORS
330
2A
102
}
330
2A
100
AcDbVisualStyle
  2
2dWireframe
 70
     4
177
     2
291
     0
 71
     0
176
     1
 72
     2
176
     1
 73
     0
176
     1
 90
        0
176
     1
 40
-0.6
176
     1
 41
-30.0
176
     1
 62
     5
 63
     7
421
 16777215
176
     1
 74
     1
176
     1
 91
        4
176
     1
 64
     7
176
     1
 65
   257
176
     1
 75
     1
176
     1
175
     1
176
     1
 42
1.0
176
     1
 92
        0
176
     1
 66
   257
176
     1
 43
1.0
176
     1
 76
     1
176
     1
 77
     6
176
     1
 78
     2
176
     1
 67
     7
176
     1
 79
     5
176
     1
170
     0
176
     1
171
     0
176
     1
290
     0
176
     1
 93
        1
176
     1
 44
0.0
176
     1
173
     0
176
     1
  0
VISUALSTYLE
  5
31
102
{ACAD_REACTORS
330
2A
102
}
330
2A
100
AcDbVisualStyle
  2
3D Hidden
 70
     6
177
     2
291
     0
 71
     1
176
     1
 72
     2
176
     1
 73
     2
176
     1
 90
        0
176
     1
 40
-0.6
176
     1
 41
-30.0
176
     1
 62
     5
 63
     7
421
 16777215
176
     1
 74
     2
176
     1
 91
        2
176
     1
 64
     7
176
     1
 65
   257
176
     1
 75
     2
176
     1
175
     1
176
     1
 42
40.0
176
     1
 92
        0
176
     1
 66
   257
176
     1
 43
1.0
176
     1
 76
     1
176
     1
 77
     6
176
     1
 78
     2
176
     1
 67
     7
176
     1
 79
     3
176
     1
170
     0
176
     1
171
     0
176
     1
290
     0
176
     1
 93
        1
176
     1
 44
0.0
176
     1
173
     0
176
     1
  0
VISUALSTYLE
  5
30
102
{ACAD_REACTORS
330
2A
102
}
330
2A
100
AcDbVisualStyle
  2
3dWireframe
 70
     5
177
     2
291
     0
 71
     0
176
     1
 72
     2
176
     1
 73
     0
176
     1
 90
        0
176
     1
 40
-0.6
176
     1
 41
-30.0
176
     1
 62
     5
 63
     7
421
 16777215
176
     1
 74
     1
176
     1
 91
        4
176
     1
 64
     7
176
     1
 65
   257
176
     1
 75
     1
176
     1
175
     1
176
     1
 42
1.0
176
     1
 92
        0
176
     1
 66
   257
176
     1
 43
1.0
176
     1
 76
     1
176
     1
 77
     6
176
     1
 78
     2
176
     1
 67
     7
176
     1
 79
     5
176
     1
170
     0
176
     1
171
     0
176
     1
290
     0
176
     1
 93
        1
176
     1
 44
0.0
176
     1
173
     0
176
     1
  0
VISUALSTYLE
  5
32
102
{ACAD_REACTORS
330
2A
102
}
330
2A
100
AcDbVisualStyle
  2
Basic
 70
     7
177
     2
291
     1
 71
     1
176
     1
 72
     0
176
     1
 73
     1
176
     1
 90
        0
176
     1
 40
-0.6
176
     1
 41
-30.0
176
     1
 62
     5
 63
     7
421
 16777215
176
     1
 74
     0
176
     1
 91
        4
176
     1
 64
     7
176
     1
 65
   257
176
     1
 75
     1
176
     1
175
     1
176
     1
 42
1.0
176
     1
 92
        8
176
     1
 66
     7
176
     1
 43
1.0
176
     1
 76
     1
176
     1
 77
     6
176
     1
 78
     2
176
     1
 67
     7
176
     1
 79
     5
176
     1
170
     0
176
     1
171
     0
176
     1
290
     0
176
     1
 93
        1
176
     1
 44
0.0
176
     1
173
     0
176
     1
  0
VISUALSTYLE
  5
36
102
{ACAD_REACTORS
330
2A
102
}
330
2A
100
AcDbVisualStyle
  2
Brighten
 70
    12
177
     2
291
     1
 71
     2
176
     1
 72
     2
176
     1
 73
     0
176
     1
 90
        0
176
     1
 40
-0.6
176
     1
 41
-30.0
176
     1
 62
     5
 63
     7
421
 16777215
176
     1
 74
     1
176
     1
 91
        4
176
     1
 64
     7
176
     1
 65
   257
176
     1
 75
     1
176
     1
175
     1
176
     1
 42
1.0
176
     1
 92
        8
176
     1
 66
     7
176
     1
 43
1.0
176
     1
 76
     1
176
     1
 77
     6
176
     1
 78
     2
176
     1
 67
     7
176
     1
 79
     5
176
     1
170
     0
176
     1
171
     0
176
     1
290
     0
176
     1
 93
        1
176
     1
 44
50.0
176
     1
173
     0
176
     1
  0
VISUALSTYLE
  5
3A
102
{ACAD_REACTORS
330
2A
102
}
330
2A
100
AcDbVisualStyle
  2
ColorChange
 70
    16
177
     2
291
     1
 71
     2
176
     1
 72
     2
176
     1
 73
     3
176
     1
 90
        0
176
     1
 40
-0.6
176
     1
 41
-30.0
176
     1
 62
     5
 63
     8
421
  8421504
176
     1
 74
     1
176
     1
 91
        4
176
     1
 64
     7
176
     1
 65
   257
176
     1
 75
     1
176
     1
175
     1
176
     1
 42
1.0
176
     1
 92
        8
176
     1
 66
     8
424
  8421504
176
     1
 43
1.0
176
     1
 76
     1
176
     1
 77
     6
176
     1
 78
     2
176
     1
 67
     7
176
     1
 79
     5
176
     1
170
     0
176
     1
171
     0
176
     1
290
     0
176
     1
 93
        1
176
     1
 44
0.0
176
     1
173
     0
176
     1
  0
VISUALSTYLE
  5
34
102
{ACAD_REACTORS
330
2A
102
}
330
2A
100
AcDbVisualStyle
  2
Conceptual
 70
     9
177
     2
291
     0
 71
     3
176
     1
 72
     2
176
     1
 73
     0
176
     1
 90
        0
176
     1
 40
-0.6
176
     1
 41
-30.0
176
     1
 62
     5
 63
     7
421
 16777215
176
     1
 74
     2
176
     1
 91
        2
176
     1
 64
     7
176
     1
 65
   257
176
     1
 75
     1
176
     1
175
     1
176
     1
 42
40.0
176
     1
 92
        8
176
     1
 66
     7
176
     1
 43
1.0
176
     1
 76
     1
176
     1
 77
     6
176
     1
 78
     2
176
     1
 67
     7
176
     1
 79
     3
176
     1
170
     0
176
     1
171
     0
176
     1
290
     0
176
     1
 93
        1
176
     1
 44
0.0
176
     1
173
     0
176
     1
  0
VISUALSTYLE
  5
35
102
{ACAD_REACTORS
330
2A
102
}
330
2A
100
AcDbVisualStyle
  2
Dim
 70
    11
177
     2
291
     1
 71
     2
176
     1
 72
     2
176
     1
 73
     0
176
     1
 90
        0
176
     1
 40
-0.6
176
     1
 41
-30.0
176
     1
 62
     5
 63
     7
421
 16777215
176
     1
 74
     1
176
     1
 91
        4
176
     1
 64
     7
176
     1
 65
   257
176
     1
 75
     1
176
     1
175
     1
176
     1
 42
1.0
176
     1
 92
        8
176
     1
 66
     7
176
     1
 43
1.0
176
     1
 76
     1
176
     1
 77
     6
176
     1
 78
     2
176
     1
 67
     7
176
     1
 79
     5
176
     1
170
     0
176
     1
171
     0
176
     1
290
     0
176
     1
 93
        1
176
     1
 44
-50.0
176
     1
173
     0
176
     1
  0
VISUALSTYLE
  5
39
102
{ACAD_REACTORS
330
2A
102
}
330
2A
100
AcDbVisualStyle
  2
Facepattern
 70
    15
177
     2
291
     1
 71
     2
176
     1
 72
     2
176
     1
 73
     0
176
     1
 90
        0
176
     1
 40
-0.6
176
     1
 41
-30.0
176
     1
 62
     5
 63
     7
421
 16777215
176
     1
 74
     1
176
     1
 91
        4
176
     1
 64
     7
176
     1
 65
   257
176
     1
 75
     1
176
     1
175
     1
176
     1
 42
1.0
176
     1
 92
        8
176
     1
 66
     7
176
     1
 43
1.0
176
     1
 76
     1
176
     1
 77
     6
176
     1
 78
     2
176
     1
 67
     7
176
     1
 79
     5
176
     1
170
     0
176
     1
171
     0
176
     1
290
     0
176
     1
 93
        1
176
     1
 44
0.0
176
     1
173
     0
176
     1
  0
VISUALSTYLE
  5
2B
102
{ACAD_REACTORS
330
2A
102
}
330
2A
100
AcDbVisualStyle
  2
Flat
 70
     0
177
     2
291
     1
 71
     2
176
     1
 72
     1
176
     1
 73
     1
176
     1
 90
        2
176
     1
 40
-0.6
176
     1
 41
30.0
176
     1
 62
     5
 63
     7
421
 16777215
176
     1
 74
     0
176
     1
 91
        4
176
     1
 64
     7
176
     1
 65
   257
176
     1
 75
     1
176
     1
175
     1
176
     1
 42
1.0
176
     1
 92
        8
176
     1
 66
     7
176
     1
 43
1.0
176
     1
 76
     1
176
     1
 77
     6
176
     1
 78
     2
176
     1
 67
     7
176
     1
 79
     5
176
     1
170
     0
176
     1
171
     0
176
     1
290
     0
176
     1
 93
       13
176
     1
 44
0.0
176
     1
173
     0
176
     1
  0
VISUALSTYLE
  5
2C
102
{ACAD_REACTORS
330
2A
102
}
330
2A
100
AcDbVisualStyle
  2
FlatWithEdges
 70
     1
177
     2
291
     1
 71
     2
176
     1
 72
     1
176
     1
 73
     1
176
     1
 90
        2
176
     1
 40
-0.6
176
     1
 41
30.0
176
     1
 62
     5
 63
     7
421
 16777215
176
     1
 74
     1
176
     1
 91
        4
176
     1
 64
     7
176
     1
 65
   257
176
     1
 75
     1
176
     1
175
     1
176
     1
 42
1.0
176
     1
 92
        0
176
     1
 66
   257
176
     1
 43
1.0
176
     1
 76
     1
176
     1
 77
     6
176
     1
 78
     2
176
     1
 67
     7
176
     1
 79
     5
176
     1
170
     0
176
     1
171
     0
176
     1
290
     0
176
     1
 93
       13
176
     1
 44
0.0
176
     1
173
     0
176
     1
  0
VISUALSTYLE
  5
2D
102
{ACAD_REACTORS
330
2A
102
}
330
2A
100
AcDbVisualStyle
  2
Gouraud
 70
     2
177
     2
291
     1
 71
     2
176
     1
 72
     2
176
     1
 73
     1
176
     1
 90
        2
176
     1
 40
-0.6
176
     1
 41
30.0
176
     1
 62
     5
 63
     7
421
 16777215
176
     1
 74
     0
176
     1
 91
        4
176
     1
 64
     7
176
     1
 65
   257
176
     1
 75
     1
176
     1
175
     1
176
     1
 42
1.0
176
     1
 92
        0
176
     1
 66
     7
176
     1
 43
1.0
176
     1
 76
     1
176
     1
 77
     6
176
     1
 78
     2
176
     1
 67
     7
176
     1
 79
     5
176
     1
170
     0
176
     1
171
     0
176
     1
290
     0
176
     1
 93
       13
176
     1
 44
0.0
176
     1
173
     0
176
     1
  0
VISUALSTYLE
  5
2E
102
{ACAD_REACTORS
330
2A
102
}
330
2A
100
AcDbVisualStyle
  2
GouraudWithEdges
 70
     3
177
     2
291
     1
 71
     2
176
     1
 72
     2
176
     1
 73
     1
176
     1
 90
        2
176
     1
 40
-0.6
176
     1
 41
30.0
176
     1
 62
     5
 63
     7
421
 16777215
176
     1
 74
     1
176
     1
 91
        4
176
     1
 64
     7
176
     1
 65
   257
176
     1
 75
     1
176
     1
175
     1
176
     1
 42
1.0
176
     1
 92
        0
176
     1
 66
   257
176
     1
 43
1.0
176
     1
 76
     1
176
     1
 77
     6
176
     1
 78
     2
176
     1
 67
     7
176
     1
 79
     5
176
     1
170
     0
176
     1
171
     0
176
     1
290
     0
176
     1
 93
       13
176
     1
 44
0.0
176
     1
173
     0
176
     1
  0
VISUALSTYLE
  5
38
102
{ACAD_REACTORS
330
2A
102
}
330
2A
100
AcDbVisualStyle
  2
Linepattern
 70
    14
177
     2
291
     1
 71
     2
176
     1
 72
     2
176
     1
 73
     0
176
     1
 90
        0
176
     1
 40
-0.6
176
     1
 41
-30.0
176
     1
 62
     5
 63
     7
421
 16777215
176
     1
 74
     1
176
     1
 91
        4
176
     1
 64
     7
176
     1
 65
   257
176
     1
 75
     7
176
     1
175
     7
176
     1
 42
1.0
176
     1
 92
        8
176
     1
 66
     7
176
     1
 43
1.0
176
     1
 76
     1
176
     1
 77
     6
176
     1
 78
     2
176
     1
 67
     7
176
     1
 79
     5
176
     1
170
     0
176
     1
171
     0
176
     1
290
     0
176
     1
 93
        1
176
     1
 44
0.0
176
     1
173
     0
176
     1
  0
VISUALSTYLE
  5
33
102
{ACAD_REACTORS
330
2A
102
}
330
2A
100
AcDbVisualStyle
  2
Realistic
 70
     8
177
     2
291
     0
 71
     2
176
     1
 72
     2
176
     1
 73
     0
176
     1
 90
        0
176
     1
 40
-0.6
176
     1
 41
-30.0
176
     1
 62
     5
 63
     7
421
 16777215
176
     1
 74
     1
176
     1
 91
        0
176
     1
 64
     7
176
     1
 65
   257
176
     1
 75
     1
176
     1
175
     1
176
     1
 42
1.0
176
     1
 92
        8
176
     1
 66
     8
424
  7895160
176
     1
 43
1.0
176
     1
 76
     1
176
     1
 77
     6
176
     1
 78
     2
176
     1
 67
     7
176
     1
 79
     5
176
     1
170
     0
176
     1
171
     0
176
     1
290
     0
176
     1
 93
       13
176
     1
 44
0.0
176
     1
173
     0
176
     1
  0
VISUALSTYLE
  5
37
102
{ACAD_REACTORS
330
2A
102
}
330
2A
100
AcDbVisualStyle
  2
Thicken
 70
    13
177
     2
291
     1
 71
     2
176
     1
 72
     2
176
     1
 73
     0
176
     1
 90
        0
176
     1
 40
-0.6
176
     1
 41
-30.0
176
     1
 62
     5
 63
     7
421
 16777215
176
     1
 74
     1
176
     1
 91
        4
176
     1
 64
     7
176
     1
 65
   257
176
     1
 75
     1
176
     1
175
     1
176
     1
 42
1.0
176
     1
 92
       12
176
     1
 66
     7
176
     1
 43
1.0
176
     1
 76
     1
176
     1
 77
     6
176
     1
 78
     2
176
     1
 67
     7
176
     1
 79
     5
176
     1
170
     0
176
     1
171
     0
176
     1
290
     0
176
     1
 93
        1
176
     1
 44
0.0
176
     1
173
     0
176
     1
  0
ENDSEC
  0
EOF
