  0
SECTION
  2
HEADER
  9
$ACADVER
  1
AC1024
  9
$ACADMAINTVER
 70
     6
  9
$DWGCODEPAGE
  3
UNDEFINED
  9
$INSBASE
 10
0.0
 20
0.0
 30
0.0
  9
$EXTMIN
 10
1.000000000000000E+20
 20
1.000000000000000E+20
 30
1.000000000000000E+20
  9
$EXTMAX
 10
-1.000000000000000E+20
 20
-1.000000000000000E+20
 30
-1.000000000000000E+20
  9
$LIMMIN
 10
0.0
 20
0.0
  9
$LIMMAX
 10
12.0
 20
9.0
  9
$ORTHOMODE
 70
     0
  9
$REGENMODE
 70
     1
  9
$FILLMODE
 70
     1
  9
$QTEXTMODE
 70
     0
  9
$MIRRTEXT
 70
     1
  9
$LTSCALE
 40
1.0
  9
$ATTMODE
 70
     1
  9
$TEXTSIZE
 40
0.2
  9
$TRACEWID
 40
0.05
  9
$TEXTSTYLE
  7
Standard
  9
$CLAYER
  8
0
  9
$CELTYPE
  6
ByLayer
  9
$CECOLOR
 62
   256
  9
$CELTSCALE
 40
1.0
  9
$DISPSILH
 70
     0
  9
$DIMSCALE
 40
1.0
  9
$DIMASZ
 40
0.18
  9
$DIMEXO
 40
0.0625
  9
$DIMDLI
 40
0.38
  9
$DIMRND
 40
0.0
  9
$DIMDLE
 40
0.0
  9
$DIMEXE
 40
0.18
  9
$DIMTP
 40
0.0
  9
$DIMTM
 40
0.0
  9
$DIMTXT
 40
0.18
  9
$DIMCEN
 40
0.09
  9
$DIMTSZ
 40
0.0
  9
$DIMTOL
 70
     0
  9
$DIMLIM
 70
     0
  9
$DIMTIH
 70
     1
  9
$DIMTOH
 70
     1
  9
$DIMSE1
 70
     0
  9
$DIMSE2
 70
     0
  9
$DIMTAD
 70
     0
  9
$DIMZIN
 70
     0
  9
$DIMBLK
  1

  9
$DIMASO
 70
     1
  9
$DIMSHO
 70
     1
  9
$DIMPOST
  1

  9
$DIMAPOST
  1

  9
$DIMALT
 70
     0
  9
$DIMALTD
 70
     2
  9
$DIMALTF
 40
25.4
  9
$DIMLFAC
 40
1.0
  9
$DIMTOFL
 70
     0
  9
$DIMTVP
 40
0.0
  9
$DIMTIX
 70
     0
  9
$DIMSOXD
 70
     0
  9
$DIMSAH
 70
     0
  9
$DIMBLK1
  1

  9
$DIMBLK2
  1

  9
$DIMSTYLE
  2
Standard
  9
$DIMCLRD
 70
     0
  9
$DIMCLRE
 70
     0
  9
$DIMCLRT
 70
     0
  9
$DIMTFAC
 40
1.0
  9
$DIMGAP
 40
0.09
  9
$DIMJUST
 70
     0
  9
$DIMSD1
 70
     0
  9
$DIMSD2
 70
     0
  9
$DIMTOLJ
 70
     1
  9
$DIMTZIN
 70
     0
  9
$DIMALTZ
 70
     0
  9
$DIMALTTZ
 70
     0
  9
$DIMUPT
 70
     0
  9
$DIMDEC
 70
     4
  9
$DIMTDEC
 70
     4
  9
$DIMALTU
 70
     2
  9
$DIMALTTD
 70
     2
  9
$DIMTXSTY
  7
Standard
  9
$DIMAUNIT
 70
     0
  9
$DIMADEC
 70
     0
  9
$DIMALTRND
 40
0.0
  9
$DIMAZIN
 70
     0
  9
$DIMDSEP
 70
    46
  9
$DIMATFIT
 70
     3
  9
$DIMFRAC
 70
     0
  9
$DIMLDRBLK
  1

  9
$DIMLUNIT
 70
     2
  9
$DIMLWD
 70
    -2
  9
$DIMLWE
 70
    -2
  9
$DIMTMOVE
 70
     0
  9
$DIMFXL
 40
1.0
  9
$DIMFXLON
 70
     0
  9
$DIMJOGANG
 40
0.7853981633974483
  9
$DIMTFILL
 70
     0
  9
$DIMTFILLCLR
 70
     0
  9
$DIMARCSYM
 70
     0
  9
$DIMLTYPE
  6

  9
$DIMLTEX1
  6

  9
$DIMLTEX2
  6

  9
$DIMTXTDIRECTION
 70
     0
  9
$LUNITS
 70
     2
  9
$LUPREC
 70
     4
  9
$SKETCHINC
 40
0.1
  9
$FILLETRAD
 40
0.5
  9
$AUNITS
 70
     0
  9
$AUPREC
 70
     0
  9
$MENU
  1
.
  9
$ELEVATION
 40
0.0
  9
$PELEVATION
 40
0.0
  9
$THICKNESS
 40
0.0
  9
$LIMCHECK
 70
     0
  9
$CHAMFERA
 40
0.5
  9
$CHAMFERB
 40
0.5
  9
$CHAMFERC
 40
1.0
  9
$CHAMFERD
 40
0.0
  9
$SKPOLY
 70
     0
  9
$TDCREATE
 40
2457917.61744213
  9
$TDUCREATE
 40
2457917.24244213
  9
$TDUPDATE
 40
2457917.61744213
  9
$TDUUPDATE
 40
2457917.24244213
  9
$TDINDWG
 40
0.0000000116
  9
$TDUSRTIMER
 40
0.0000000116
  9
$USRTIMER
 70
     1
  9
$ANGBASE
 50
0.0
  9
$ANGDIR
 70
     0
  9
$PDMODE
 70
     0
  9
$PDSIZE
 40
0.0
  9
$PLINEWID
 40
0.0
  9
$SPLFRAME
 70
     0
  9
$SPLINETYPE
 70
     6
  9
$SPLINESEGS
 70
     8
  9
$HANDSEED
  5
ED
  9
$SURFTAB1
 70
     6
  9
$SURFTAB2
 70
     6
  9
$SURFTYPE
 70
     6
  9
$SURFU
 70
     6
  9
$SURFV
 70
     6
  9
$UCSBASE
  2

  9
$UCSNAME
  2

  9
$UCSORG
 10
0.0
 20
0.0
 30
0.0
  9
$UCSXDIR
 10
1.0
 20
0.0
 30
0.0
  9
$UCSYDIR
 10
0.0
 20
1.0
 30
0.0
  9
$UCSORTHOREF
  2

  9
$UCSORTHOVIEW
 70
     0
  9
$UCSORGTOP
 10
0.0
 20
0.0
 30
0.0
  9
$UCSORGBOTTOM
 10
0.0
 20
0.0
 30
0.0
  9
$UCSORGLEFT
 10
0.0
 20
0.0
 30
0.0
  9
$UCSORGRIGHT
 10
0.0
 20
0.0
 30
0.0
  9
$UCSORGFRONT
 10
0.0
 20
0.0
 30
0.0
  9
$UCSORGBACK
 10
0.0
 20
0.0
 30
0.0
  9
$PUCSBASE
  2

  9
$PUCSNAME
  2

  9
$PUCSORG
 10
0.0
 20
0.0
 30
0.0
  9
$PUCSXDIR
 10
1.0
 20
0.0
 30
0.0
  9
$PUCSYDIR
 10
0.0
 20
1.0
 30
0.0
  9
$PUCSORTHOREF
  2

  9
$PUCSORTHOVIEW
 70
     0
  9
$PUCSORGTOP
 10
0.0
 20
0.0
 30
0.0
  9
$PUCSORGBOTTOM
 10
0.0
 20
0.0
 30
0.0
  9
$PUCSORGLEFT
 10
0.0
 20
0.0
 30
0.0
  9
$PUCSORGRIGHT
 10
0.0
 20
0.0
 30
0.0
  9
$PUCSORGFRONT
 10
0.0
 20
0.0
 30
0.0
  9
$PUCSORGBACK
 10
0.0
 20
0.0
 30
0.0
  9
$USERI1
 70
     0
  9
$USERI2
 70
     0
  9
$USERI3
 70
     0
  9
$USERI4
 70
     0
  9
$USERI5
 70
     0
  9
$USERR1
 40
0.0
  9
$USERR2
 40
0.0
  9
$USERR3
 40
0.0
  9
$USERR4
 40
0.0
  9
$USERR5
 40
0.0
  9
$WORLDVIEW
 70
     1
  9
$SHADEDGE
 70
     3
  9
$SHADEDIF
 70
    70
  9
$TILEMODE
 70
     1
  9
$MAXACTVP
 70
    64
  9
$PINSBASE
 10
0.0
 20
0.0
 30
0.0
  9
$PLIMCHECK
 70
     0
  9
$PEXTMIN
 10
1.000000000000000E+20
 20
1.000000000000000E+20
 30
1.000000000000000E+20
  9
$PEXTMAX
 10
-1.000000000000000E+20
 20
-1.000000000000000E+20
 30
-1.000000000000000E+20
  9
$PLIMMIN
 10
0.0
 20
0.0
  9
$PLIMMAX
 10
12.0
 20
9.0
  9
$UNITMODE
 70
     0
  9
$VISRETAIN
 70
     1
  9
$PLINEGEN
 70
     0
  9
$PSLTSCALE
 70
     1
  9
$TREEDEPTH
 70
  3020
  9
$CMLSTYLE
  2
Standard
  9
$CMLJUST
 70
     0
  9
$CMLSCALE
 40
1.0
  9
$PROXYGRAPHICS
 70
     1
  9
$MEASUREMENT
 70
     0
  9
$CELWEIGHT
370
    -1
  9
$ENDCAPS
280
     0
  9
$JOINSTYLE
280
     0
  9
$LWDISPLAY
290
     1
  9
$INSUNITS
 70
     1
  9
$HYPERLINKBASE
  1

  9
$STYLESHEET
  1

  9
$XEDIT
290
     1
  9
$CEPSNTYPE
380
     0
  9
$PSTYLEMODE
290
     1
  9
$FINGERPRINTGUID
  2
{97CD40C2-DAE1-9110-FB7F-92F47875F04C}
  9
$VERSIONGUID
  2
{FAEB1C32-E019-11D5-929B-00C0DF256EC4}
  9
$EXTNAMES
290
     1
  9
$PSVPSCALE
 40
0.0
  9
$OLESTARTUP
290
     0
  9
$SORTENTS
280
   127
  9
$INDEXCTL
280
     0
  9
$HIDETEXT
280
     1
  9
$XCLIPFRAME
280
     2
  9
$HALOGAP
280
     0
  9
$OBSCOLOR
 70
   257
  9
$OBSLTYPE
280
     0
  9
$INTERSECTIONDISPLAY
280
     0
  9
$INTERSECTIONCOLOR
 70
   257
  9
$DIMASSOC
280
     2
  9
$PROJECTNAME
  1

  9
$CAMERADISPLAY
290
     0
  9
$LENSLENGTH
 40
50.0
  9
$CAMERAHEIGHT
 40
0.0
  9
$STEPSPERSEC
 40
2.0
  9
$STEPSIZE
 40
6.0
  9
$3DDWFPREC
 40
2.0
  9
$PSOLWIDTH
 40
0.25
  9
$PSOLHEIGHT
 40
4.0
  9
$LOFTANG1
 40
1.570796326794897
  9
$LOFTANG2
 40
1.570796326794897
  9
$LOFTMAG1
 40
0.0
  9
$LOFTMAG2
 40
0.0
  9
$LOFTPARAM
 70
     7
  9
$LOFTNORMALS
280
     1
  9
$LATITUDE
 40
37.795
  9
$LONGITUDE
 40
-122.394
  9
$NORTHDIRECTION
 40
0.0
  9
$TIMEZONE
 70
 -8000
  9
$LIGHTGLYPHDISPLAY
280
     1
  9
$TILEMODELIGHTSYNCH
280
     1
  9
$CMATERIAL
347
3C
  9
$SOLIDHIST
280
     1
  9
$SHOWHIST
280
     1
  9
$DWFFRAME
280
     2
  9
$DGNFRAME
280
     2
  9
$REALWORLDSCALE
290
     1
  9
$INTERFERECOLOR
 62
   256
  9
$CSHADOW
280
     0
  9
$SHADOWPLANELOCATION
 40
0.0
  0
ENDSEC
  0
SECTION
  2
CLASSES
  0
CLASS
  1
ACDBDICTIONARYWDFLT
  2
AcDbDictionaryWithDefault
  3
ObjectDBX Classes
 90
        0
 91
        4
280
     0
281
     0
  0
CLASS
  1
VISUALSTYLE
  2
AcDbVisualStyle
  3
ObjectDBX Classes
 90
     4095
 91
        4
280
     0
281
     0
  0
CLASS
  1
MATERIAL
  2
AcDbMaterial
  3
ObjectDBX Classes
 90
     1153
 91
        4
280
     0
281
     0
  0
CLASS
  1
SUN
  2
AcDbSun
  3
SCENEOE
 90
     1024
 91
        4
280
     0
281
     0
  0
ENDSEC
  0
SECTION
  2
TABLES
  0
TABLE
  2
VPORT
  5
8
330
0
100
AcDbSymbolTable
 70
     1
  0
VPORT
  5
29
330
8
100
AcDbSymbolTableRecord
100
AcDbViewportTableRecord
  2
*Active
 70
     0
 10
0.0
 20
0.0
 11
1.0
 21
1.0
 12
0.0
 22
0.0
 13
0.0
 23
0.0
 14
0.5
 24
0.5
 15
0.5
 25
0.5
 16
0.0
 26
0.0
 36
1.0
 17
91.00082462281999
 27
-128.4993055234307
 37
0.0
 40
256.9986110468615
 41
0.7081814508812795
 42
50.0
 43
0.0
 44
0.0
 50
0.0
 51
0.0
 71
     0
 72
   100
 73
     1
 74
     3
 75
     0
 76
     0
 77
     0
 78
     0
281
     0
 65
     1
110
0.0
120
0.0
130
0.0
111
1.0
121
0.0
131
0.0
112
0.0
122
1.0
132
0.0
 79
     0
146
0.0
 60
     3
 61
     5
292
     1
282
     1
141
0.0
142
0.0
 63
   250
361
3F
  0
ENDTAB
  0
TABLE
  2
LTYPE
  5
5
330
0
100
AcDbSymbolTable
 70
     1
  0
LTYPE
  5
14
330
5
100
AcDbSymbolTableRecord
100
AcDbLinetypeTableRecord
  2
ByBlock
 70
     0
  3

 72
    65
 73
     0
 40
0.0
  0
LTYPE
  5
15
330
5
100
AcDbSymbolTableRecord
100
AcDbLinetypeTableRecord
  2
ByLayer
 70
     0
  3

 72
    65
 73
     0
 40
0.0
  0
LTYPE
  5
16
330
5
100
AcDbSymbolTableRecord
100
AcDbLinetypeTableRecord
  2
Continuous
 70
     0
  3
Solid line
 72
    65
 73
     0
 40
0.0
  0
ENDTAB
  0
TABLE
  2
LAYER
  5
2
330
0
100
AcDbSymbolTable
 70
     2
  0
LAYER
  5
10
330
2
100
AcDbSymbolTableRecord
100
AcDbLayerTableRecord
  2
0
 70
     0
 62
     7
  6
Continuous
370
    -3
390
F
347
3E
  0
LAYER
  5
40
330
2
100
AcDbSymbolTableRecord
100
AcDbLayerTableRecord
  2
_U+30EC_U+30A4_U+30E4_U+30FC 1
 70
     0
 62
     7
  6
Continuous
370
    -3
390
F
347
3E
  0
ENDTAB
  0
TABLE
  2
STYLE
  5
3
330
0
100
AcDbSymbolTable
 70
     1
  0
STYLE
  5
11
330
3
100
AcDbSymbolTableRecord
100
AcDbTextStyleTableRecord
  2
Standard
 70
     0
 40
0.0
 41
1.0
 50
0.0
 71
     0
 42
0.2
  3
txt
  4

  0
ENDTAB
  0
TABLE
  2
VIEW
  5
6
330
0
100
AcDbSymbolTable
 70
     0
  0
ENDTAB
  0
TABLE
  2
UCS
  5
7
330
0
100
AcDbSymbolTable
 70
     0
  0
ENDTAB
  0
TABLE
  2
APPID
  5
9
330
0
100
AcDbSymbolTable
 70
     1
  0
APPID
  5
12
330
9
100
AcDbSymbolTableRecord
100
AcDbRegAppTableRecord
  2
ACAD
 70
     0
  0
ENDTAB
  0
TABLE
  2
DIMSTYLE
  5
A
330
0
100
AcDbSymbolTable
 70
     1
100
AcDbDimStyleTable
  0
DIMSTYLE
105
27
330
A
100
AcDbSymbolTableRecord
100
AcDbDimStyleTableRecord
  2
Standard
 70
     0
178
     0
340
11
  0
ENDTAB
  0
TABLE
  2
BLOCK_RECORD
  5
1
330
0
100
AcDbSymbolTable
 70
     8
  0
BLOCK_RECORD
  5
1F
330
1
100
AcDbSymbolTableRecord
100
AcDbBlockTableRecord
  2
*Model_Space
340
22
 70
     0
280
     1
281
     0
  0
BLOCK_RECORD
  5
1B
330
1
100
AcDbSymbolTableRecord
100
AcDbBlockTableRecord
  2
*Paper_Space
340
1E
 70
     0
280
     1
281
     0
  0
BLOCK_RECORD
  5
23
330
1
100
AcDbSymbolTableRecord
100
AcDbBlockTableRecord
  2
*Paper_Space0
340
26
 70
     0
280
     1
281
     0
  0
BLOCK_RECORD
  5
4F
330
1
100
AcDbSymbolTableRecord
100
AcDbBlockTableRecord
  2
block 2
340
0
102
{BLKREFS
331
50
102
}
 70
     0
280
     1
281
     0
  0
BLOCK_RECORD
  5
6D
330
1
100
AcDbSymbolTableRecord
100
AcDbBlockTableRecord
  2
block 3
340
0
102
{BLKREFS
331
6E
102
}
 70
     0
280
     1
281
     0
  0
BLOCK_RECORD
  5
73
330
1
100
AcDbSymbolTableRecord
100
AcDbBlockTableRecord
  2
block 4
340
0
102
{BLKREFS
331
74
102
}
 70
     0
280
     1
281
     0
  0
BLOCK_RECORD
  5
8D
330
1
100
AcDbSymbolTableRecord
100
AcDbBlockTableRecord
  2
block 5
340
0
102
{BLKREFS
331
8E
102
}
 70
     0
280
     1
281
     0
  0
BLOCK_RECORD
  5
96
330
1
100
AcDbSymbolTableRecord
100
AcDbBlockTableRecord
  2
block 6
340
0
102
{BLKREFS
331
97
102
}
 70
     0
280
     1
281
     0
  0
BLOCK_RECORD
  5
B5
330
1
100
AcDbSymbolTableRecord
100
AcDbBlockTableRecord
  2
block 7
340
0
102
{BLKREFS
331
B6
102
}
 70
     0
280
     1
281
     0
  0
BLOCK_RECORD
  5
DE
330
1
100
AcDbSymbolTableRecord
100
AcDbBlockTableRecord
  2
block 8
340
0
102
{BLKREFS
331
DF
102
}
 70
     0
280
     1
281
     0
  0
ENDTAB
  0
ENDSEC
  0
SECTION
  2
BLOCKS
  0
BLOCK
  5
20
330
1F
100
AcDbEntity
  8
0
100
AcDbBlockBegin
  2
*Model_Space
 70
     0
 10
0.0
 20
0.0
 30
0.0
  3
*Model_Space
  1

  0
ENDBLK
  5
21
330
1F
100
AcDbEntity
  8
0
100
AcDbBlockEnd
  0
BLOCK
  5
1C
330
1B
100
AcDbEntity
 67
     1
  8
0
100
AcDbBlockBegin
  2
*Paper_Space
 70
     0
 10
0.0
 20
0.0
 30
0.0
  3
*Paper_Space
  1

  0
ENDBLK
  5
1D
330
1B
100
AcDbEntity
 67
     1
  8
0
100
AcDbBlockEnd
  0
BLOCK
  5
24
330
23
100
AcDbEntity
  8
0
100
AcDbBlockBegin
  2
*Paper_Space0
 70
     0
 10
0.0
 20
0.0
 30
0.0
  3
*Paper_Space0
  1

  0
ENDBLK
  5
25
330
23
100
AcDbEntity
  8
0
100
AcDbBlockEnd
  0
BLOCK
  5
51
330
4F
100
AcDbEntity
  8
0
100
AcDbBlockBegin
  2
block 2
 70
     0
 10
0.0
 20
0.0
 30
0.0
  3
block 2
  1

  0
SPLINE
  5
53
330
4F
100
AcDbEntity
  8
_U+30EC_U+30A4_U+30E4_U+30FC 1
370
     0
100
AcDbSpline
210
0.0
220
0.0
230
1.0
 70
    11
 71
     3
 72
    26
 73
    22
 74
     0
 42
0.0000000001
 43
0.0000000001
 12
1.0
 22
0.0
 32
0.0
 13
1.0
 23
0.0
 33
0.0
 40
0.0
 40
0.0
 40
0.0
 40
0.0
 40
1.0
 40
1.0
 40
1.0
 40
2.0
 40
2.0
 40
2.0
 40
3.0
 40
3.0
 40
3.0
 40
4.0
 40
4.0
 40
4.0
 40
5.0
 40
5.0
 40
5.0
 40
6.0
 40
6.0
 40
6.0
 40
7.0
 40
7.0
 40
7.0
 40
7.0
 10
119.8131862764703
 20
-103.2968817558598
 30
0.0
 10
119.8131862764703
 20
-103.2968817558598
 30
0.0
 10
119.8131862764703
 20
-103.5337320704707
 30
0.0
 10
119.8131862764703
 20
-103.5337320704707
 30
0.0
 10
119.5041612114434
 20
-103.5084106186542
 30
0.0
 10
118.9860188504618
 20
-103.3158297810287
 30
0.0
 10
118.4802788332272
 20
-102.9096530233177
 30
0.0
 10
118.4802788332272
 20
-102.9096530233177
 30
0.0
 10
118.4802788332272
 20
-103.7475002453305
 30
0.0
 10
118.4802788332272
 20
-103.7475002453305
 30
0.0
 10
118.4802788332272
 20
-103.7475002453305
 30
0.0
 10
118.2687499704328
 20
-103.7475002453305
 30
0.0
 10
118.2687499704328
 20
-103.7475002453305
 30
0.0
 10
118.2687499704328
 20
-103.7475002453305
 30
0.0
 10
118.2687499704328
 20
-102.6728027087068
 30
0.0
 10
118.2687499704328
 20
-102.6728027087068
 30
0.0
 10
118.2687499704328
 20
-102.6728027087068
 30
0.0
 10
118.4802788332272
 20
-102.6728027087068
 30
0.0
 10
118.4802788332272
 20
-102.6728027087068
 30
0.0
 10
118.7703558730852
 20
-102.996469429546
 30
0.0
 10
119.3625677869996
 20
-103.2629475653301
 30
0.0
 10
119.8131862764703
 20
-103.2968817558598
 30
0.0
  0
HATCH
  5
54
330
4F
100
AcDbEntity
  8
_U+30EC_U+30A4_U+30E4_U+30FC 1
 62
   179
420
  2234388
100
AcDbHatch
 10
0.0
 20
0.0
 30
0.0
210
0.0
220
0.0
230
1.0
  2
SOLID
 70
     1
 71
     0
 91
        1
 92
        1
 93
        1
 72
     4
 94
        3
 73
     0
 74
     1
 95
       26
 96
       22
 40
0.0
 40
0.0
 40
0.0
 40
0.0
 40
1.0
 40
1.0
 40
1.0
 40
2.0
 40
2.0
 40
2.0
 40
3.0
 40
3.0
 40
3.0
 40
4.0
 40
4.0
 40
4.0
 40
5.0
 40
5.0
 40
5.0
 40
6.0
 40
6.0
 40
6.0
 40
7.0
 40
7.0
 40
7.0
 40
7.0
 10
119.8131862764703
 20
-103.2968817558598
 10
119.8131862764703
 20
-103.2968817558598
 10
119.8131862764703
 20
-103.5337320704707
 10
119.8131862764703
 20
-103.5337320704707
 10
119.5041612114434
 20
-103.5084106186542
 10
118.9860188504618
 20
-103.3158297810287
 10
118.4802788332272
 20
-102.9096530233177
 10
118.4802788332272
 20
-102.9096530233177
 10
118.4802788332272
 20
-103.7475002453305
 10
118.4802788332272
 20
-103.7475002453305
 10
118.4802788332272
 20
-103.7475002453305
 10
118.2687499704328
 20
-103.7475002453305
 10
118.2687499704328
 20
-103.7475002453305
 10
118.2687499704328
 20
-103.7475002453305
 10
118.2687499704328
 20
-102.6728027087068
 10
118.2687499704328
 20
-102.6728027087068
 10
118.2687499704328
 20
-102.6728027087068
 10
118.4802788332272
 20
-102.6728027087068
 10
118.4802788332272
 20
-102.6728027087068
 10
118.7703558730852
 20
-102.996469429546
 10
119.3625677869996
 20
-103.2629475653301
 10
119.8131862764703
 20
-103.2968817558598
 97
        0
 97
        0
 75
     2
 76
     1
 98
        0
  0
ENDBLK
  5
52
330
4F
100
AcDbEntity
  8
0
100
AcDbBlockEnd
  0
BLOCK
  5
6F
330
6D
100
AcDbEntity
  8
0
100
AcDbBlockBegin
  2
block 3
 70
     0
 10
0.0
 20
0.0
 30
0.0
  3
block 3
  1

  0
SPLINE
  5
71
330
6D
100
AcDbEntity
  8
_U+30EC_U+30A4_U+30E4_U+30FC 1
370
     0
100
AcDbSpline
210
0.0
220
0.0
230
1.0
 70
    11
 71
     3
 72
    26
 73
    22
 74
     0
 42
0.0000000001
 43
0.0000000001
 12
1.0
 22
0.0
 32
0.0
 13
1.0
 23
0.0
 33
0.0
 40
0.0
 40
0.0
 40
0.0
 40
0.0
 40
1.0
 40
1.0
 40
1.0
 40
2.0
 40
2.0
 40
2.0
 40
3.0
 40
3.0
 40
3.0
 40
4.0
 40
4.0
 40
4.0
 40
5.0
 40
5.0
 40
5.0
 40
6.0
 40
6.0
 40
6.0
 40
7.0
 40
7.0
 40
7.0
 40
7.0
 10
69.41936304688127
 20
-154.041243451073
 30
0.0
 10
69.41936304688127
 20
-154.041243451073
 30
0.0
 10
69.18251273227035
 20
-154.041243451073
 30
0.0
 10
69.18251273227035
 20
-154.041243451073
 30
0.0
 10
69.20783418408693
 20
-153.7325628955946
 30
0.0
 10
69.4004150217124
 20
-153.2144205346131
 30
0.0
 10
69.80659177942336
 20
-152.7086805173784
 30
0.0
 10
69.80659177942336
 20
-152.7086805173784
 30
0.0
 10
68.96874455741059
 20
-152.7086805173784
 30
0.0
 10
68.96874455741059
 20
-152.7086805173784
 30
0.0
 10
68.96874455741059
 20
-152.7086805173784
 30
0.0
 10
68.96874455741059
 20
-152.4971516545841
 30
0.0
 10
68.96874455741059
 20
-152.4971516545841
 30
0.0
 10
68.96874455741059
 20
-152.4971516545841
 30
0.0
 10
70.04344209403428
 20
-152.4971516545841
 30
0.0
 10
70.04344209403428
 20
-152.4971516545841
 30
0.0
 10
70.04344209403428
 20
-152.4971516545841
 30
0.0
 10
70.04344209403428
 20
-152.7086805173784
 30
0.0
 10
70.04344209403428
 20
-152.7086805173784
 30
0.0
 10
69.71977537319506
 20
-152.9984130476879
 30
0.0
 10
69.45329723741098
 20
-153.5906249616023
 30
0.0
 10
69.41936304688127
 20
-154.041243451073
 30
0.0
  0
HATCH
  5
72
330
6D
100
AcDbEntity
  8
_U+30EC_U+30A4_U+30E4_U+30FC 1
 62
   179
420
  2234388
100
AcDbHatch
 10
0.0
 20
0.0
 30
0.0
210
0.0
220
0.0
230
1.0
  2
SOLID
 70
     1
 71
     0
 91
        1
 92
        1
 93
        1
 72
     4
 94
        3
 73
     0
 74
     1
 95
       26
 96
       22
 40
0.0
 40
0.0
 40
0.0
 40
0.0
 40
1.0
 40
1.0
 40
1.0
 40
2.0
 40
2.0
 40
2.0
 40
3.0
 40
3.0
 40
3.0
 40
4.0
 40
4.0
 40
4.0
 40
5.0
 40
5.0
 40
5.0
 40
6.0
 40
6.0
 40
6.0
 40
7.0
 40
7.0
 40
7.0
 40
7.0
 10
69.41936304688127
 20
-154.041243451073
 10
69.41936304688127
 20
-154.041243451073
 10
69.18251273227035
 20
-154.041243451073
 10
69.18251273227035
 20
-154.041243451073
 10
69.20783418408693
 20
-153.7325628955946
 10
69.4004150217124
 20
-153.2144205346131
 10
69.80659177942336
 20
-152.7086805173784
 10
69.80659177942336
 20
-152.7086805173784
 10
68.96874455741059
 20
-152.7086805173784
 10
68.96874455741059
 20
-152.7086805173784
 10
68.96874455741059
 20
-152.7086805173784
 10
68.96874455741059
 20
-152.4971516545841
 10
68.96874455741059
 20
-152.4971516545841
 10
68.96874455741059
 20
-152.4971516545841
 10
70.04344209403428
 20
-152.4971516545841
 10
70.04344209403428
 20
-152.4971516545841
 10
70.04344209403428
 20
-152.4971516545841
 10
70.04344209403428
 20
-152.7086805173784
 10
70.04344209403428
 20
-152.7086805173784
 10
69.71977537319506
 20
-152.9984130476879
 10
69.45329723741098
 20
-153.5906249616023
 10
69.41936304688127
 20
-154.041243451073
 97
        0
 97
        0
 75
     2
 76
     1
 98
        0
  0
ENDBLK
  5
70
330
6D
100
AcDbEntity
  8
0
100
AcDbBlockEnd
  0
BLOCK
  5
75
330
73
100
AcDbEntity
  8
0
100
AcDbBlockBegin
  2
block 4
 70
     0
 10
0.0
 20
0.0
 30
0.0
  3
block 4
  1

  0
SPLINE
  5
77
330
73
100
AcDbEntity
  8
_U+30EC_U+30A4_U+30E4_U+30FC 1
370
     0
100
AcDbSpline
210
0.0
220
0.0
230
1.0
 70
    11
 71
     3
 72
    26
 73
    22
 74
     0
 42
0.0000000001
 43
0.0000000001
 12
1.0
 22
0.0
 32
0.0
 13
1.0
 23
0.0
 33
0.0
 40
0.0
 40
0.0
 40
0.0
 40
0.0
 40
1.0
 40
1.0
 40
1.0
 40
2.0
 40
2.0
 40
2.0
 40
3.0
 40
3.0
 40
3.0
 40
4.0
 40
4.0
 40
4.0
 40
5.0
 40
5.0
 40
5.0
 40
6.0
 40
6.0
 40
6.0
 40
7.0
 40
7.0
 40
7.0
 40
7.0
 10
61.70131563127606
 20
-154.041243451073
 30
0.0
 10
61.70131563127606
 20
-154.041243451073
 30
0.0
 10
61.70131563127606
 20
-152.9370903480504
 30
0.0
 10
61.70131563127606
 20
-152.9370903480504
 30
0.0
 10
61.70131563127606
 20
-152.9370903480504
 30
0.0
 10
61.37127548378913
 20
-152.9370903480504
 30
0.0
 10
61.37127548378913
 20
-152.9370903480504
 30
0.0
 10
61.37127548378913
 20
-152.9370903480504
 30
0.0
 10
61.37127548378913
 20
-152.7889512421847
 30
0.0
 10
61.37127548378913
 20
-152.7889512421847
 30
0.0
 10
61.70338268856721
 20
-152.7741373315981
 30
0.0
 10
61.74989147761809
 20
-152.6115288246943
 30
0.0
 10
61.77951929879124
 20
-152.4971516545841
 30
0.0
 10
61.77951929879124
 20
-152.4971516545841
 30
0.0
 10
61.92559134736582
 20
-152.4971516545841
 30
0.0
 10
61.92559134736582
 20
-152.4971516545841
 30
0.0
 10
61.92559134736582
 20
-152.4971516545841
 30
0.0
 10
61.92559134736582
 20
-154.041243451073
 30
0.0
 10
61.92559134736582
 20
-154.041243451073
 30
0.0
 10
61.92559134736582
 20
-154.041243451073
 30
0.0
 10
61.70131563127606
 20
-154.041243451073
 30
0.0
 10
61.70131563127606
 20
-154.041243451073
 30
0.0
  0
HATCH
  5
78
330
73
100
AcDbEntity
  8
_U+30EC_U+30A4_U+30E4_U+30FC 1
 62
   179
420
  2234388
100
AcDbHatch
 10
0.0
 20
0.0
 30
0.0
210
0.0
220
0.0
230
1.0
  2
SOLID
 70
     1
 71
     0
 91
        1
 92
        1
 93
        1
 72
     4
 94
        3
 73
     0
 74
     1
 95
       26
 96
       22
 40
0.0
 40
0.0
 40
0.0
 40
0.0
 40
1.0
 40
1.0
 40
1.0
 40
2.0
 40
2.0
 40
2.0
 40
3.0
 40
3.0
 40
3.0
 40
4.0
 40
4.0
 40
4.0
 40
5.0
 40
5.0
 40
5.0
 40
6.0
 40
6.0
 40
6.0
 40
7.0
 40
7.0
 40
7.0
 40
7.0
 10
61.70131563127606
 20
-154.041243451073
 10
61.70131563127606
 20
-154.041243451073
 10
61.70131563127606
 20
-152.9370903480504
 10
61.70131563127606
 20
-152.9370903480504
 10
61.70131563127606
 20
-152.9370903480504
 10
61.37127548378913
 20
-152.9370903480504
 10
61.37127548378913
 20
-152.9370903480504
 10
61.37127548378913
 20
-152.9370903480504
 10
61.37127548378913
 20
-152.7889512421847
 10
61.37127548378913
 20
-152.7889512421847
 10
61.70338268856721
 20
-152.7741373315981
 10
61.74989147761809
 20
-152.6115288246943
 10
61.77951929879124
 20
-152.4971516545841
 10
61.77951929879124
 20
-152.4971516545841
 10
61.92559134736582
 20
-152.4971516545841
 10
61.92559134736582
 20
-152.4971516545841
 10
61.92559134736582
 20
-152.4971516545841
 10
61.92559134736582
 20
-154.041243451073
 10
61.92559134736582
 20
-154.041243451073
 10
61.92559134736582
 20
-154.041243451073
 10
61.70131563127606
 20
-154.041243451073
 10
61.70131563127606
 20
-154.041243451073
 97
        0
 97
        0
 75
     2
 76
     1
 98
        0
  0
POLYLINE
  5
79
330
73
100
AcDbEntity
  8
_U+30EC_U+30A4_U+30E4_U+30FC 1
370
     0
100
AcDb2dPolyline
 66
     1
 10
0.0
 20
0.0
 30
0.0
  0
VERTEX
  5
7A
330
79
100
AcDbEntity
  8
_U+30EC_U+30A4_U+30E4_U+30FC 1
370
     0
100
AcDbVertex
100
AcDb2dVertex
 10
62.48679740191302
 20
-154.041243451073
 30
0.0
  0
VERTEX
  5
7B
330
79
100
AcDbEntity
  8
_U+30EC_U+30A4_U+30E4_U+30FC 1
370
     0
100
AcDbVertex
100
AcDb2dVertex
 10
62.48679740191302
 20
-153.7897514806498
 30
0.0
  0
VERTEX
  5
7C
330
79
100
AcDbEntity
  8
_U+30EC_U+30A4_U+30E4_U+30FC 1
370
     0
100
AcDbVertex
100
AcDb2dVertex
 10
62.73846162711052
 20
-153.7897514806498
 30
0.0
  0
VERTEX
  5
7D
330
79
100
AcDbEntity
  8
_U+30EC_U+30A4_U+30E4_U+30FC 1
370
     0
100
AcDbVertex
100
AcDb2dVertex
 10
62.73846162711052
 20
-154.041243451073
 30
0.0
  0
VERTEX
  5
7E
330
79
100
AcDbEntity
  8
_U+30EC_U+30A4_U+30E4_U+30FC 1
370
     0
100
AcDbVertex
100
AcDb2dVertex
 10
62.48679740191302
 20
-154.041243451073
 30
0.0
  0
SEQEND
  5
7F
330
79
100
AcDbEntity
  8
_U+30EC_U+30A4_U+30E4_U+30FC 1
370
     0
  0
HATCH
  5
80
330
73
100
AcDbEntity
  8
_U+30EC_U+30A4_U+30E4_U+30FC 1
 62
   179
420
  2234388
100
AcDbHatch
 10
0.0
 20
0.0
 30
0.0
210
0.0
220
0.0
230
1.0
  2
SOLID
 70
     1
 71
     0
 91
        1
 92
        1
 93
        4
 72
     1
 10
62.48679740191302
 20
-154.041243451073
 11
62.48679740191302
 21
-153.7897514806498
 72
     1
 10
62.48679740191302
 20
-153.7897514806498
 11
62.73846162711052
 21
-153.7897514806498
 72
     1
 10
62.73846162711052
 20
-153.7897514806498
 11
62.73846162711052
 21
-154.041243451073
 72
     1
 10
62.73846162711052
 20
-154.041243451073
 11
62.48679740191302
 21
-154.041243451073
 97
        0
 75
     2
 76
     1
 98
        0
  0
SPLINE
  5
81
330
73
100
AcDbEntity
  8
_U+30EC_U+30A4_U+30E4_U+30FC 1
370
     0
100
AcDbSpline
210
0.0
220
0.0
230
1.0
 70
    11
 71
     3
 72
    44
 73
    40
 74
     0
 42
0.0000000001
 43
0.0000000001
 12
1.0
 22
0.0
 32
0.0
 13
1.0
 23
0.0
 33
0.0
 40
0.0
 40
0.0
 40
0.0
 40
0.0
 40
1.0
 40
1.0
 40
1.0
 40
2.0
 40
2.0
 40
2.0
 40
3.0
 40
3.0
 40
3.0
 40
4.0
 40
4.0
 40
4.0
 40
5.0
 40
5.0
 40
5.0
 40
6.0
 40
6.0
 40
6.0
 40
7.0
 40
7.0
 40
7.0
 40
8.0
 40
8.0
 40
8.0
 40
9.0
 40
9.0
 40
9.0
 40
10.0
 40
10.0
 40
10.0
 40
11.0
 40
11.0
 40
11.0
 40
12.0
 40
12.0
 40
12.0
 40
13.0
 40
13.0
 40
13.0
 40
13.0
 10
63.56821287473295
 20
-153.4597113331629
 30
0.0
 10
63.3503105852909
 20
-153.6181857254844
 30
0.0
 10
63.25712075241489
 20
-153.6925997879657
 30
0.0
 10
63.20854490607287
 20
-153.8362602697007
 30
0.0
 10
63.20854490607287
 20
-153.8362602697007
 30
0.0
 10
63.98696423096506
 20
-153.8362602697007
 30
0.0
 10
63.98696423096506
 20
-153.8362602697007
 30
0.0
 10
63.98696423096506
 20
-153.8362602697007
 30
0.0
 10
63.98696423096506
 20
-154.041243451073
 30
0.0
 10
63.98696423096506
 20
-154.041243451073
 30
0.0
 10
63.98696423096506
 20
-154.041243451073
 30
0.0
 10
62.95894773816651
 20
-154.041243451073
 30
0.0
 10
62.95894773816651
 20
-154.041243451073
 30
0.0
 10
62.99064261663082
 20
-153.6836425397041
 30
0.0
 10
63.05609943085056
 20
-153.6057833817374
 30
0.0
 10
63.44126110610149
 20
-153.3074381127148
 30
0.0
 10
63.69723170065556
 20
-153.1083115936674
 30
0.0
 10
63.7626885148753
 20
-153.0407877221565
 30
0.0
 10
63.7626885148753
 20
-152.903328412295
 30
0.0
 10
63.7626885148753
 20
-152.7848171276024
 30
0.0
 10
63.69085827400784
 20
-152.6535589896144
 30
0.0
 10
63.49414332180008
 20
-152.6535589896144
 30
0.0
 10
63.23386635788945
 20
-152.6535589896144
 30
0.0
 10
63.22542587395059
 20
-152.8843803871261
 30
0.0
 10
63.22111950459403
 20
-153.0008246145276
 30
0.0
 10
63.22111950459403
 20
-153.0008246145276
 30
0.0
 10
62.99701604327853
 20
-153.0008246145276
 30
0.0
 10
62.99701604327853
 20
-153.0008246145276
 30
0.0
 10
63.00545652721739
 20
-152.8737005911219
 30
0.0
 10
63.0159640684474
 20
-152.7617349878512
 30
0.0
 10
63.09640704802798
 20
-152.6432237031586
 30
0.0
 10
63.20630559400745
 20
-152.4823377439975
 30
0.0
 10
63.39251300498521
 20
-152.4482312986935
 30
0.0
 10
63.50895723238665
 20
-152.4482312986935
 30
0.0
 10
63.786115164175
 20
-152.4482312986935
 30
0.0
 10
63.99333765761278
 20
-152.6325439071544
 30
0.0
 10
63.99333765761278
 20
-152.9053954695862
 30
0.0
 10
63.99333765761278
 20
-153.1338053002582
 30
0.0
 10
63.8770656849856
 20
-153.233368559782
 30
0.0
 10
63.56821287473295
 20
-153.4597113331629
 30
0.0
  0
HATCH
  5
82
330
73
100
AcDbEntity
  8
_U+30EC_U+30A4_U+30E4_U+30FC 1
 62
   179
420
  2234388
100
AcDbHatch
 10
0.0
 20
0.0
 30
0.0
210
0.0
220
0.0
230
1.0
  2
SOLID
 70
     1
 71
     0
 91
        1
 92
        1
 93
        1
 72
     4
 94
        3
 73
     0
 74
     1
 95
       44
 96
       40
 40
0.0
 40
0.0
 40
0.0
 40
0.0
 40
1.0
 40
1.0
 40
1.0
 40
2.0
 40
2.0
 40
2.0
 40
3.0
 40
3.0
 40
3.0
 40
4.0
 40
4.0
 40
4.0
 40
5.0
 40
5.0
 40
5.0
 40
6.0
 40
6.0
 40
6.0
 40
7.0
 40
7.0
 40
7.0
 40
8.0
 40
8.0
 40
8.0
 40
9.0
 40
9.0
 40
9.0
 40
10.0
 40
10.0
 40
10.0
 40
11.0
 40
11.0
 40
11.0
 40
12.0
 40
12.0
 40
12.0
 40
13.0
 40
13.0
 40
13.0
 40
13.0
 10
63.56821287473295
 20
-153.4597113331629
 10
63.3503105852909
 20
-153.6181857254844
 10
63.25712075241489
 20
-153.6925997879657
 10
63.20854490607287
 20
-153.8362602697007
 10
63.20854490607287
 20
-153.8362602697007
 10
63.98696423096506
 20
-153.8362602697007
 10
63.98696423096506
 20
-153.8362602697007
 10
63.98696423096506
 20
-153.8362602697007
 10
63.98696423096506
 20
-154.041243451073
 10
63.98696423096506
 20
-154.041243451073
 10
63.98696423096506
 20
-154.041243451073
 10
62.95894773816651
 20
-154.041243451073
 10
62.95894773816651
 20
-154.041243451073
 10
62.99064261663082
 20
-153.6836425397041
 10
63.05609943085056
 20
-153.6057833817374
 10
63.44126110610149
 20
-153.3074381127148
 10
63.69723170065556
 20
-153.1083115936674
 10
63.7626885148753
 20
-153.0407877221565
 10
63.7626885148753
 20
-152.903328412295
 10
63.7626885148753
 20
-152.7848171276024
 10
63.69085827400784
 20
-152.6535589896144
 10
63.49414332180008
 20
-152.6535589896144
 10
63.23386635788945
 20
-152.6535589896144
 10
63.22542587395059
 20
-152.8843803871261
 10
63.22111950459403
 20
-153.0008246145276
 10
63.22111950459403
 20
-153.0008246145276
 10
62.99701604327853
 20
-153.0008246145276
 10
62.99701604327853
 20
-153.0008246145276
 10
63.00545652721739
 20
-152.8737005911219
 10
63.0159640684474
 20
-152.7617349878512
 10
63.09640704802798
 20
-152.6432237031586
 10
63.20630559400745
 20
-152.4823377439975
 10
63.39251300498521
 20
-152.4482312986935
 10
63.50895723238665
 20
-152.4482312986935
 10
63.786115164175
 20
-152.4482312986935
 10
63.99333765761278
 20
-152.6325439071544
 10
63.99333765761278
 20
-152.9053954695862
 10
63.99333765761278
 20
-153.1338053002582
 10
63.8770656849856
 20
-153.233368559782
 10
63.56821287473295
 20
-153.4597113331629
 97
        0
 97
        0
 75
     2
 76
     1
 98
        0
  0
ENDBLK
  5
76
330
73
100
AcDbEntity
  8
0
100
AcDbBlockEnd
  0
BLOCK
  5
8F
330
8D
100
AcDbEntity
  8
0
100
AcDbBlockBegin
  2
block 5
 70
     0
 10
0.0
 20
0.0
 30
0.0
  3
block 5
  1

  0
SPLINE
  5
91
330
8D
100
AcDbEntity
  8
_U+30EC_U+30A4_U+30E4_U+30FC 1
370
     0
100
AcDbSpline
210
0.0
220
0.0
230
1.0
 70
    11
 71
     3
 72
    62
 73
    58
 74
     0
 42
0.0000000001
 43
0.0000000001
 12
1.0
 22
0.0
 32
0.0
 13
1.0
 23
0.0
 33
0.0
 40
0.0
 40
0.0
 40
0.0
 40
0.0
 40
1.0
 40
1.0
 40
1.0
 40
2.0
 40
2.0
 40
2.0
 40
3.0
 40
3.0
 40
3.0
 40
4.0
 40
4.0
 40
4.0
 40
5.0
 40
5.0
 40
5.0
 40
6.0
 40
6.0
 40
6.0
 40
7.0
 40
7.0
 40
7.0
 40
8.0
 40
8.0
 40
8.0
 40
9.0
 40
9.0
 40
9.0
 40
10.0
 40
10.0
 40
10.0
 40
11.0
 40
11.0
 40
11.0
 40
12.0
 40
12.0
 40
12.0
 40
13.0
 40
13.0
 40
13.0
 40
14.0
 40
14.0
 40
14.0
 40
15.0
 40
15.0
 40
15.0
 40
16.0
 40
16.0
 40
16.0
 40
17.0
 40
17.0
 40
17.0
 40
18.0
 40
18.0
 40
18.0
 40
19.0
 40
19.0
 40
19.0
 40
19.0
 10
87.41137421859855
 20
-157.3237304294191
 30
0.0
 10
87.31611732843139
 20
-157.3237304294191
 30
0.0
 10
87.09821503898934
 20
-157.302715346959
 30
0.0
 10
86.9735025824233
 20
-157.116335681207
 30
0.0
 10
86.89943302949042
 20
-157.0043700779364
 30
0.0
 10
86.89512666013385
 20
-156.9048068184127
 30
0.0
 10
86.89099254555155
 20
-156.8204019790241
 30
0.0
 10
86.89099254555155
 20
-156.8204019790241
 30
0.0
 10
87.11096189228476
 20
-156.8204019790241
 30
0.0
 10
87.11096189228476
 20
-156.8204019790241
 30
0.0
 10
87.11302894957592
 20
-156.894471531957
 30
0.0
 10
87.12370874558019
 20
-157.129427044051
 30
0.0
 10
87.40724010401625
 20
-157.129427044051
 30
0.0
 10
87.54469941387772
 20
-157.129427044051
 30
0.0
 10
87.69697263432576
 20
-157.0594916057004
 30
0.0
 10
87.69697263432576
 20
-156.8310817750283
 30
0.0
 10
87.69697263432576
 20
-156.7146375476269
 30
0.0
 10
87.65890432921375
 20
-156.6657171917363
 30
0.0
 10
87.62720945074945
 20
-156.6340223132721
 30
0.0
 10
87.55313989781658
 20
-156.5602972698877
 30
0.0
 10
87.43669567041513
 20
-156.5475504165923
 30
0.0
 10
87.3817463974254
 20
-156.5475504165923
 30
0.0
 10
87.36279837225652
 20
-156.5475504165923
 30
0.0
 10
87.32679712443567
 20
-156.5496174738834
 30
0.0
 10
87.29923636055366
 20
-156.5537515884657
 30
0.0
 10
87.29923636055366
 20
-156.5537515884657
 30
0.0
 10
87.29923636055366
 20
-156.3591036935491
 30
0.0
 10
87.29923636055366
 20
-156.3591036935491
 30
0.0
 10
87.33730466566568
 20
-156.3653048654226
 30
0.0
 10
87.37967934013425
 20
-156.3677164322623
 30
0.0
 10
87.38605276678196
 20
-156.3677164322623
 30
0.0
 10
87.45150958100172
 20
-156.3677164322623
 30
0.0
 10
87.65046384527488
 20
-156.3467013498022
 30
0.0
 10
87.65046384527488
 20
-156.109678780417
 30
0.0
 10
87.65046384527488
 20
-155.9319118533782
 30
0.0
 10
87.51920570728687
 20
-155.8767903256141
 30
0.0
 10
87.4093071613074
 20
-155.8767903256141
 30
0.0
 10
87.14489608281447
 20
-155.8767903256141
 30
0.0
 10
87.13645559887561
 20
-156.109678780417
 30
0.0
 10
87.13214922951904
 20
-156.1813367665102
 30
0.0
 10
87.13214922951904
 20
-156.1813367665102
 30
0.0
 10
86.92906085066357
 20
-156.1813367665102
 30
0.0
 10
86.92906085066357
 20
-156.1813367665102
 30
0.0
 10
86.93750133460243
 20
-156.0566243099442
 30
0.0
 10
86.96506209848444
 20
-155.6800753734064
 30
0.0
 10
87.42188175982857
 20
-155.6800753734064
 30
0.0
 10
87.64615747591833
 20
-155.6800753734064
 30
0.0
 10
87.88731415988582
 20
-155.8071993968121
 30
0.0
 10
87.88731415988582
 20
-156.103133098995
 30
0.0
 10
87.88731415988582
 20
-156.2895127647471
 30
0.0
 10
87.79222952449292
 20
-156.3718505468445
 30
0.0
 10
87.6926662649692
 20
-156.433173246482
 30
0.0
 10
87.7541612193809
 20
-156.460734010364
 30
0.0
 10
87.93606226100209
 20
-156.5410047351703
 30
0.0
 10
87.93606226100209
 20
-156.8183349217329
 30
0.0
 10
87.93606226100209
 20
-157.156987807933
 30
0.0
 10
87.6885321503869
 20
-157.3237304294191
 30
0.0
 10
87.41137421859855
 20
-157.3237304294191
 30
0.0
  0
HATCH
  5
92
330
8D
100
AcDbEntity
  8
_U+30EC_U+30A4_U+30E4_U+30FC 1
 62
   179
420
  2234388
100
AcDbHatch
 10
0.0
 20
0.0
 30
0.0
210
0.0
220
0.0
230
1.0
  2
SOLID
 70
     1
 71
     0
 91
        1
 92
        1
 93
        1
 72
     4
 94
        3
 73
     0
 74
     1
 95
       62
 96
       58
 40
0.0
 40
0.0
 40
0.0
 40
0.0
 40
1.0
 40
1.0
 40
1.0
 40
2.0
 40
2.0
 40
2.0
 40
3.0
 40
3.0
 40
3.0
 40
4.0
 40
4.0
 40
4.0
 40
5.0
 40
5.0
 40
5.0
 40
6.0
 40
6.0
 40
6.0
 40
7.0
 40
7.0
 40
7.0
 40
8.0
 40
8.0
 40
8.0
 40
9.0
 40
9.0
 40
9.0
 40
10.0
 40
10.0
 40
10.0
 40
11.0
 40
11.0
 40
11.0
 40
12.0
 40
12.0
 40
12.0
 40
13.0
 40
13.0
 40
13.0
 40
14.0
 40
14.0
 40
14.0
 40
15.0
 40
15.0
 40
15.0
 40
16.0
 40
16.0
 40
16.0
 40
17.0
 40
17.0
 40
17.0
 40
18.0
 40
18.0
 40
18.0
 40
19.0
 40
19.0
 40
19.0
 40
19.0
 10
87.41137421859855
 20
-157.3237304294191
 10
87.31611732843139
 20
-157.3237304294191
 10
87.09821503898934
 20
-157.302715346959
 10
86.9735025824233
 20
-157.116335681207
 10
86.89943302949042
 20
-157.0043700779364
 10
86.89512666013385
 20
-156.9048068184127
 10
86.89099254555155
 20
-156.8204019790241
 10
86.89099254555155
 20
-156.8204019790241
 10
87.11096189228476
 20
-156.8204019790241
 10
87.11096189228476
 20
-156.8204019790241
 10
87.11302894957592
 20
-156.894471531957
 10
87.12370874558019
 20
-157.129427044051
 10
87.40724010401625
 20
-157.129427044051
 10
87.54469941387772
 20
-157.129427044051
 10
87.69697263432576
 20
-157.0594916057004
 10
87.69697263432576
 20
-156.8310817750283
 10
87.69697263432576
 20
-156.7146375476269
 10
87.65890432921375
 20
-156.6657171917363
 10
87.62720945074945
 20
-156.6340223132721
 10
87.55313989781658
 20
-156.5602972698877
 10
87.43669567041513
 20
-156.5475504165923
 10
87.3817463974254
 20
-156.5475504165923
 10
87.36279837225652
 20
-156.5475504165923
 10
87.32679712443567
 20
-156.5496174738834
 10
87.29923636055366
 20
-156.5537515884657
 10
87.29923636055366
 20
-156.5537515884657
 10
87.29923636055366
 20
-156.3591036935491
 10
87.29923636055366
 20
-156.3591036935491
 10
87.33730466566568
 20
-156.3653048654226
 10
87.37967934013425
 20
-156.3677164322623
 10
87.38605276678196
 20
-156.3677164322623
 10
87.45150958100172
 20
-156.3677164322623
 10
87.65046384527488
 20
-156.3467013498022
 10
87.65046384527488
 20
-156.109678780417
 10
87.65046384527488
 20
-155.9319118533782
 10
87.51920570728687
 20
-155.8767903256141
 10
87.4093071613074
 20
-155.8767903256141
 10
87.14489608281447
 20
-155.8767903256141
 10
87.13645559887561
 20
-156.109678780417
 10
87.13214922951904
 20
-156.1813367665102
 10
87.13214922951904
 20
-156.1813367665102
 10
86.92906085066357
 20
-156.1813367665102
 10
86.92906085066357
 20
-156.1813367665102
 10
86.93750133460243
 20
-156.0566243099442
 10
86.96506209848444
 20
-155.6800753734064
 10
87.42188175982857
 20
-155.6800753734064
 10
87.64615747591833
 20
-155.6800753734064
 10
87.88731415988582
 20
-155.8071993968121
 10
87.88731415988582
 20
-156.103133098995
 10
87.88731415988582
 20
-156.2895127647471
 10
87.79222952449292
 20
-156.3718505468445
 10
87.6926662649692
 20
-156.433173246482
 10
87.7541612193809
 20
-156.460734010364
 10
87.93606226100209
 20
-156.5410047351703
 10
87.93606226100209
 20
-156.8183349217329
 10
87.93606226100209
 20
-157.156987807933
 10
87.6885321503869
 20
-157.3237304294191
 10
87.41137421859855
 20
-157.3237304294191
 97
        0
 97
        0
 75
     2
 76
     1
 98
        0
  0
SPLINE
  5
93
330
8D
100
AcDbEntity
  8
_U+30EC_U+30A4_U+30E4_U+30FC 1
370
     0
100
AcDbSpline
210
0.0
220
0.0
230
1.0
 70
    11
 71
     3
 72
    29
 73
    25
 74
     0
 42
0.0000000001
 43
0.0000000001
 12
1.0
 22
0.0
 32
0.0
 13
1.0
 23
0.0
 33
0.0
 40
0.0
 40
0.0
 40
0.0
 40
0.0
 40
1.0
 40
1.0
 40
1.0
 40
2.0
 40
2.0
 40
2.0
 40
3.0
 40
3.0
 40
3.0
 40
4.0
 40
4.0
 40
4.0
 40
5.0
 40
5.0
 40
5.0
 40
6.0
 40
6.0
 40
6.0
 40
7.0
 40
7.0
 40
7.0
 40
8.0
 40
8.0
 40
8.0
 40
8.0
 10
88.99439559407085
 20
-157.095320598747
 30
0.0
 10
88.88656410538253
 20
-157.3047824042502
 30
0.0
 10
88.7131035477002
 20
-157.3237304294191
 30
0.0
 10
88.59665932029876
 20
-157.3237304294191
 30
0.0
 10
88.43594561591185
 20
-157.3237304294191
 30
0.0
 10
88.29417993669382
 20
-157.2775661499167
 30
0.0
 10
88.19892304652666
 20
-157.095320598747
 30
0.0
 10
88.09539792719491
 20
-156.9006727038304
 30
0.0
 10
88.07627764725177
 20
-156.6636501344452
 30
0.0
 10
88.07627764725177
 20
-156.5010416275414
 30
0.0
 10
88.07627764725177
 20
-156.357036636258
 30
0.0
 10
88.0931586151295
 20
-156.1055446658347
 30
0.0
 10
88.19892304652666
 20
-155.9064181467873
 30
0.0
 10
88.30692678998925
 20
-155.7031575131575
 30
0.0
 10
88.46764049437616
 20
-155.6800753734064
 30
0.0
 10
88.59665932029876
 20
-155.6800753734064
 30
0.0
 10
88.7553059673945
 20
-155.6800753734064
 30
0.0
 10
88.89913870390369
 20
-155.7245171051661
 30
0.0
 10
88.99439559407085
 20
-155.9064181467873
 30
0.0
 10
89.0937865988203
 20
-156.0989989844128
 30
0.0
 10
89.11704099334574
 20
-156.3274088150848
 30
0.0
 10
89.11704099334574
 20
-156.5010416275414
 30
0.0
 10
89.11704099334574
 20
-156.6722628731583
 30
0.0
 10
89.09602591088571
 20
-156.9027397611216
 30
0.0
 10
88.99439559407085
 20
-157.095320598747
 30
0.0
  0
SPLINE
  5
94
330
8D
100
AcDbEntity
  8
_U+30EC_U+30A4_U+30E4_U+30FC 1
370
     0
100
AcDbSpline
210
0.0
220
0.0
230
1.0
 70
    11
 71
     3
 72
    17
 73
    13
 74
     0
 42
0.0000000001
 43
0.0000000001
 12
1.0
 22
0.0
 32
0.0
 13
1.0
 23
0.0
 33
0.0
 40
0.0
 40
0.0
 40
0.0
 40
0.0
 40
1.0
 40
1.0
 40
1.0
 40
2.0
 40
2.0
 40
2.0
 40
3.0
 40
3.0
 40
3.0
 40
4.0
 40
4.0
 40
4.0
 40
4.0
 10
88.59665932029876
 20
-155.8726562110319
 30
0.0
 10
88.34706215239241
 20
-155.8726562110319
 30
0.0
 10
88.30055336334154
 20
-156.1561875694679
 30
0.0
 10
88.30055336334154
 20
-156.5010416275414
 30
0.0
 10
88.30055336334154
 20
-156.8204019790241
 30
0.0
 10
88.3365546111624
 20
-157.129427044051
 30
0.0
 10
88.59665932029876
 20
-157.129427044051
 30
0.0
 10
88.84418943091396
 20
-157.129427044051
 30
0.0
 10
88.89293753203025
 20
-156.8476182333575
 30
0.0
 10
88.89293753203025
 20
-156.5010416275414
 30
0.0
 10
88.89293753203025
 20
-156.1813367665102
 30
0.0
 10
88.85486922691823
 20
-155.8726562110319
 30
0.0
 10
88.59665932029876
 20
-155.8726562110319
 30
0.0
  0
HATCH
  5
95
330
8D
100
AcDbEntity
  8
_U+30EC_U+30A4_U+30E4_U+30FC 1
 62
   179
420
  2234388
100
AcDbHatch
 10
0.0
 20
0.0
 30
0.0
210
0.0
220
0.0
230
1.0
  2
SOLID
 70
     1
 71
     0
 91
        2
 92
        1
 93
        1
 72
     4
 94
        3
 73
     0
 74
     1
 95
       29
 96
       25
 40
0.0
 40
0.0
 40
0.0
 40
0.0
 40
1.0
 40
1.0
 40
1.0
 40
2.0
 40
2.0
 40
2.0
 40
3.0
 40
3.0
 40
3.0
 40
4.0
 40
4.0
 40
4.0
 40
5.0
 40
5.0
 40
5.0
 40
6.0
 40
6.0
 40
6.0
 40
7.0
 40
7.0
 40
7.0
 40
8.0
 40
8.0
 40
8.0
 40
8.0
 10
88.99439559407085
 20
-157.095320598747
 10
88.88656410538253
 20
-157.3047824042502
 10
88.7131035477002
 20
-157.3237304294191
 10
88.59665932029876
 20
-157.3237304294191
 10
88.43594561591185
 20
-157.3237304294191
 10
88.29417993669382
 20
-157.2775661499167
 10
88.19892304652666
 20
-157.095320598747
 10
88.09539792719491
 20
-156.9006727038304
 10
88.07627764725177
 20
-156.6636501344452
 10
88.07627764725177
 20
-156.5010416275414
 10
88.07627764725177
 20
-156.357036636258
 10
88.0931586151295
 20
-156.1055446658347
 10
88.19892304652666
 20
-155.9064181467873
 10
88.30692678998925
 20
-155.7031575131575
 10
88.46764049437616
 20
-155.6800753734064
 10
88.59665932029876
 20
-155.6800753734064
 10
88.7553059673945
 20
-155.6800753734064
 10
88.89913870390369
 20
-155.7245171051661
 10
88.99439559407085
 20
-155.9064181467873
 10
89.0937865988203
 20
-156.0989989844128
 10
89.11704099334574
 20
-156.3274088150848
 10
89.11704099334574
 20
-156.5010416275414
 10
89.11704099334574
 20
-156.6722628731583
 10
89.09602591088571
 20
-156.9027397611216
 10
88.99439559407085
 20
-157.095320598747
 97
        0
 97
        0
 92
        1
 93
        1
 72
     4
 94
        3
 73
     0
 74
     1
 95
       17
 96
       13
 40
0.0
 40
0.0
 40
0.0
 40
0.0
 40
1.0
 40
1.0
 40
1.0
 40
2.0
 40
2.0
 40
2.0
 40
3.0
 40
3.0
 40
3.0
 40
4.0
 40
4.0
 40
4.0
 40
4.0
 10
88.59665932029876
 20
-155.8726562110319
 10
88.34706215239241
 20
-155.8726562110319
 10
88.30055336334154
 20
-156.1561875694679
 10
88.30055336334154
 20
-156.5010416275414
 10
88.30055336334154
 20
-156.8204019790241
 10
88.3365546111624
 20
-157.129427044051
 10
88.59665932029876
 20
-157.129427044051
 10
88.84418943091396
 20
-157.129427044051
 10
88.89293753203025
 20
-156.8476182333575
 10
88.89293753203025
 20
-156.5010416275414
 10
88.89293753203025
 20
-156.1813367665102
 10
88.85486922691823
 20
-155.8726562110319
 10
88.59665932029876
 20
-155.8726562110319
 97
        0
 97
        0
 75
     2
 76
     1
 98
        0
  0
ENDBLK
  5
90
330
8D
100
AcDbEntity
  8
0
100
AcDbBlockEnd
  0
BLOCK
  5
98
330
96
100
AcDbEntity
  8
0
100
AcDbBlockBegin
  2
block 6
 70
     0
 10
0.0
 20
0.0
 30
0.0
  3
block 6
  1

  0
SPLINE
  5
9A
330
96
100
AcDbEntity
  8
_U+30EC_U+30A4_U+30E4_U+30FC 1
370
     0
100
AcDbSpline
210
0.0
220
0.0
230
1.0
 70
    11
 71
     3
 72
    26
 73
    22
 74
     0
 42
0.0000000001
 43
0.0000000001
 12
1.0
 22
0.0
 32
0.0
 13
1.0
 23
0.0
 33
0.0
 40
0.0
 40
0.0
 40
0.0
 40
0.0
 40
1.0
 40
1.0
 40
1.0
 40
2.0
 40
2.0
 40
2.0
 40
3.0
 40
3.0
 40
3.0
 40
4.0
 40
4.0
 40
4.0
 40
5.0
 40
5.0
 40
5.0
 40
6.0
 40
6.0
 40
6.0
 40
7.0
 40
7.0
 40
7.0
 40
7.0
 10
109.3714463702266
 20
-157.2730875257859
 30
0.0
 10
109.3714463702266
 20
-157.2730875257859
 30
0.0
 10
109.3714463702266
 20
-156.1689344227633
 30
0.0
 10
109.3714463702266
 20
-156.1689344227633
 30
0.0
 10
109.3714463702266
 20
-156.1689344227633
 30
0.0
 10
109.0414062227397
 20
-156.1689344227633
 30
0.0
 10
109.0414062227397
 20
-156.1689344227633
 30
0.0
 10
109.0414062227397
 20
-156.1689344227633
 30
0.0
 10
109.0414062227397
 20
-156.0207953168976
 30
0.0
 10
109.0414062227397
 20
-156.0207953168976
 30
0.0
 10
109.3735134275177
 20
-156.005981406311
 30
0.0
 10
109.4196777070201
 20
-155.8430283898587
 30
0.0
 10
109.4493055281932
 20
-155.7286512197484
 30
0.0
 10
109.4493055281932
 20
-155.7286512197484
 30
0.0
 10
109.5953775767678
 20
-155.7286512197484
 30
0.0
 10
109.5953775767678
 20
-155.7286512197484
 30
0.0
 10
109.5953775767678
 20
-155.7286512197484
 30
0.0
 10
109.5953775767678
 20
-157.2730875257859
 30
0.0
 10
109.5953775767678
 20
-157.2730875257859
 30
0.0
 10
109.5953775767678
 20
-157.2730875257859
 30
0.0
 10
109.3714463702266
 20
-157.2730875257859
 30
0.0
 10
109.3714463702266
 20
-157.2730875257859
 30
0.0
  0
HATCH
  5
9B
330
96
100
AcDbEntity
  8
_U+30EC_U+30A4_U+30E4_U+30FC 1
 62
   179
420
  2234388
100
AcDbHatch
 10
0.0
 20
0.0
 30
0.0
210
0.0
220
0.0
230
1.0
  2
SOLID
 70
     1
 71
     0
 91
        1
 92
        1
 93
        1
 72
     4
 94
        3
 73
     0
 74
     1
 95
       26
 96
       22
 40
0.0
 40
0.0
 40
0.0
 40
0.0
 40
1.0
 40
1.0
 40
1.0
 40
2.0
 40
2.0
 40
2.0
 40
3.0
 40
3.0
 40
3.0
 40
4.0
 40
4.0
 40
4.0
 40
5.0
 40
5.0
 40
5.0
 40
6.0
 40
6.0
 40
6.0
 40
7.0
 40
7.0
 40
7.0
 40
7.0
 10
109.3714463702266
 20
-157.2730875257859
 10
109.3714463702266
 20
-157.2730875257859
 10
109.3714463702266
 20
-156.1689344227633
 10
109.3714463702266
 20
-156.1689344227633
 10
109.3714463702266
 20
-156.1689344227633
 10
109.0414062227397
 20
-156.1689344227633
 10
109.0414062227397
 20
-156.1689344227633
 10
109.0414062227397
 20
-156.1689344227633
 10
109.0414062227397
 20
-156.0207953168976
 10
109.0414062227397
 20
-156.0207953168976
 10
109.3735134275177
 20
-156.005981406311
 10
109.4196777070201
 20
-155.8430283898587
 10
109.4493055281932
 20
-155.7286512197484
 10
109.4493055281932
 20
-155.7286512197484
 10
109.5953775767678
 20
-155.7286512197484
 10
109.5953775767678
 20
-155.7286512197484
 10
109.5953775767678
 20
-155.7286512197484
 10
109.5953775767678
 20
-157.2730875257859
 10
109.5953775767678
 20
-157.2730875257859
 10
109.5953775767678
 20
-157.2730875257859
 10
109.3714463702266
 20
-157.2730875257859
 10
109.3714463702266
 20
-157.2730875257859
 97
        0
 97
        0
 75
     2
 76
     1
 98
        0
  0
POLYLINE
  5
9C
330
96
100
AcDbEntity
  8
_U+30EC_U+30A4_U+30E4_U+30FC 1
370
     0
100
AcDb2dPolyline
 66
     1
 10
0.0
 20
0.0
 30
0.0
  0
VERTEX
  5
9D
330
9C
100
AcDbEntity
  8
_U+30EC_U+30A4_U+30E4_U+30FC 1
370
     0
100
AcDbVertex
100
AcDb2dVertex
 10
110.9286295295595
 20
-156.9261664104212
 30
0.0
  0
VERTEX
  5
9E
330
9C
100
AcDbEntity
  8
_U+30EC_U+30A4_U+30E4_U+30FC 1
370
     0
100
AcDbVertex
100
AcDb2dVertex
 10
110.9286295295595
 20
-157.2730875257859
 30
0.0
  0
VERTEX
  5
9F
330
9C
100
AcDbEntity
  8
_U+30EC_U+30A4_U+30E4_U+30FC 1
370
     0
100
AcDbVertex
100
AcDb2dVertex
 10
110.7108994948917
 20
-157.2730875257859
 30
0.0
  0
VERTEX
  5
A0
330
9C
100
AcDbEntity
  8
_U+30EC_U+30A4_U+30E4_U+30FC 1
370
     0
100
AcDbVertex
100
AcDb2dVertex
 10
110.7108994948917
 20
-156.9261664104212
 30
0.0
  0
VERTEX
  5
A1
330
9C
100
AcDbEntity
  8
_U+30EC_U+30A4_U+30E4_U+30FC 1
370
     0
100
AcDbVertex
100
AcDb2dVertex
 10
110.0549533145002
 20
-156.9261664104212
 30
0.0
  0
VERTEX
  5
A2
330
9C
100
AcDbEntity
  8
_U+30EC_U+30A4_U+30E4_U+30FC 1
370
     0
100
AcDbVertex
100
AcDb2dVertex
 10
110.0549533145002
 20
-156.7018906943315
 30
0.0
  0
VERTEX
  5
A3
330
9C
100
AcDbEntity
  8
_U+30EC_U+30A4_U+30E4_U+30FC 1
370
     0
100
AcDbVertex
100
AcDb2dVertex
 10
110.7343261441914
 20
-155.7286512197484
 30
0.0
  0
VERTEX
  5
A4
330
9C
100
AcDbEntity
  8
_U+30EC_U+30A4_U+30E4_U+30FC 1
370
     0
100
AcDbVertex
100
AcDb2dVertex
 10
110.9286295295595
 20
-155.7286512197484
 30
0.0
  0
VERTEX
  5
A5
330
9C
100
AcDbEntity
  8
_U+30EC_U+30A4_U+30E4_U+30FC 1
370
     0
100
AcDbVertex
100
AcDb2dVertex
 10
110.9286295295595
 20
-156.7270398913738
 30
0.0
  0
VERTEX
  5
A6
330
9C
100
AcDbEntity
  8
_U+30EC_U+30A4_U+30E4_U+30FC 1
370
     0
100
AcDbVertex
100
AcDb2dVertex
 10
111.1360242777716
 20
-156.7270398913738
 30
0.0
  0
VERTEX
  5
A7
330
9C
100
AcDbEntity
  8
_U+30EC_U+30A4_U+30E4_U+30FC 1
370
     0
100
AcDbVertex
100
AcDb2dVertex
 10
111.1360242777716
 20
-156.9261664104212
 30
0.0
  0
VERTEX
  5
A8
330
9C
100
AcDbEntity
  8
_U+30EC_U+30A4_U+30E4_U+30FC 1
370
     0
100
AcDbVertex
100
AcDb2dVertex
 10
110.9286295295595
 20
-156.9261664104212
 30
0.0
  0
SEQEND
  5
A9
330
9C
100
AcDbEntity
  8
_U+30EC_U+30A4_U+30E4_U+30FC 1
370
     0
  0
POLYLINE
  5
AA
330
96
100
AcDbEntity
  8
_U+30EC_U+30A4_U+30E4_U+30FC 1
370
     0
100
AcDb2dPolyline
 66
     1
 10
0.0
 20
0.0
 30
0.0
  0
VERTEX
  5
AB
330
AA
100
AcDbEntity
  8
_U+30EC_U+30A4_U+30E4_U+30FC 1
370
     0
100
AcDbVertex
100
AcDb2dVertex
 10
110.7108994948917
 20
-156.0714382205308
 30
0.0
  0
VERTEX
  5
AC
330
AA
100
AcDbEntity
  8
_U+30EC_U+30A4_U+30E4_U+30FC 1
370
     0
100
AcDbVertex
100
AcDb2dVertex
 10
110.2540798335476
 20
-156.7270398913738
 30
0.0
  0
VERTEX
  5
AD
330
AA
100
AcDbEntity
  8
_U+30EC_U+30A4_U+30E4_U+30FC 1
370
     0
100
AcDbVertex
100
AcDb2dVertex
 10
110.7108994948917
 20
-156.7270398913738
 30
0.0
  0
VERTEX
  5
AE
330
AA
100
AcDbEntity
  8
_U+30EC_U+30A4_U+30E4_U+30FC 1
370
     0
100
AcDbVertex
100
AcDb2dVertex
 10
110.7108994948917
 20
-156.0714382205308
 30
0.0
  0
SEQEND
  5
AF
330
AA
100
AcDbEntity
  8
_U+30EC_U+30A4_U+30E4_U+30FC 1
370
     0
  0
HATCH
  5
B0
330
96
100
AcDbEntity
  8
_U+30EC_U+30A4_U+30E4_U+30FC 1
 62
   179
420
  2234388
100
AcDbHatch
 10
0.0
 20
0.0
 30
0.0
210
0.0
220
0.0
230
1.0
  2
SOLID
 70
     1
 71
     0
 91
        2
 92
        1
 93
       11
 72
     1
 10
110.9286295295595
 20
-156.9261664104212
 11
110.9286295295595
 21
-157.2730875257859
 72
     1
 10
110.9286295295595
 20
-157.2730875257859
 11
110.7108994948917
 21
-157.2730875257859
 72
     1
 10
110.7108994948917
 20
-157.2730875257859
 11
110.7108994948917
 21
-156.9261664104212
 72
     1
 10
110.7108994948917
 20
-156.9261664104212
 11
110.0549533145002
 21
-156.9261664104212
 72
     1
 10
110.0549533145002
 20
-156.9261664104212
 11
110.0549533145002
 21
-156.7018906943315
 72
     1
 10
110.0549533145002
 20
-156.7018906943315
 11
110.7343261441914
 21
-155.7286512197484
 72
     1
 10
110.7343261441914
 20
-155.7286512197484
 11
110.9286295295595
 21
-155.7286512197484
 72
     1
 10
110.9286295295595
 20
-155.7286512197484
 11
110.9286295295595
 21
-156.7270398913738
 72
     1
 10
110.9286295295595
 20
-156.7270398913738
 11
111.1360242777716
 21
-156.7270398913738
 72
     1
 10
111.1360242777716
 20
-156.7270398913738
 11
111.1360242777716
 21
-156.9261664104212
 72
     1
 10
111.1360242777716
 20
-156.9261664104212
 11
110.9286295295595
 21
-156.9261664104212
 97
        0
 92
        1
 93
        3
 72
     1
 10
110.7108994948917
 20
-156.0714382205308
 11
110.2540798335476
 21
-156.7270398913738
 72
     1
 10
110.2540798335476
 20
-156.7270398913738
 11
110.7108994948917
 21
-156.7270398913738
 72
     1
 10
110.7108994948917
 20
-156.7270398913738
 11
110.7108994948917
 21
-156.0714382205308
 97
        0
 75
     2
 76
     1
 98
        0
  0
ENDBLK
  5
99
330
96
100
AcDbEntity
  8
0
100
AcDbBlockEnd
  0
BLOCK
  5
B7
330
B5
100
AcDbEntity
  8
0
100
AcDbBlockBegin
  2
block 7
 70
     0
 10
0.0
 20
0.0
 30
0.0
  3
block 7
  1

  0
SPLINE
  5
B9
330
B5
100
AcDbEntity
  8
_U+30EC_U+30A4_U+30E4_U+30FC 1
370
     0
100
AcDbSpline
210
0.0
220
0.0
230
1.0
 70
    11
 71
     3
 72
    29
 73
    25
 74
     0
 42
0.0000000001
 43
0.0000000001
 12
1.0
 22
0.0
 32
0.0
 13
1.0
 23
0.0
 33
0.0
 40
0.0
 40
0.0
 40
0.0
 40
0.0
 40
1.0
 40
1.0
 40
1.0
 40
2.0
 40
2.0
 40
2.0
 40
3.0
 40
3.0
 40
3.0
 40
4.0
 40
4.0
 40
4.0
 40
5.0
 40
5.0
 40
5.0
 40
6.0
 40
6.0
 40
6.0
 40
7.0
 40
7.0
 40
7.0
 40
8.0
 40
8.0
 40
8.0
 40
8.0
 10
68.05734454678775
 20
-157.3237304294191
 30
0.0
 10
67.79086641100368
 20
-157.3237304294191
 30
0.0
 10
67.53696287374076
 20
-157.1862711195576
 30
0.0
 10
67.53696287374076
 20
-156.8372829469018
 30
0.0
 10
67.53696287374076
 20
-156.5813123523477
 30
0.0
 10
67.67872855295879
 20
-156.4858832074063
 30
0.0
 10
67.78449298435596
 20
-156.4245605077689
 30
0.0
 10
67.65960827301565
 20
-156.3653048654226
 30
0.0
 10
67.58347166279164
 20
-156.2512722048608
 30
0.0
 10
67.58347166279164
 20
-156.0903862456996
 30
0.0
 10
67.58347166279164
 20
-155.8154676259767
 30
0.0
 10
67.7824259270648
 20
-155.6800753734064
 30
0.0
 10
68.05734454678775
 20
-155.6800753734064
 30
0.0
 10
68.34087590522381
 20
-155.6800753734064
 30
0.0
 10
68.53121743078387
 20
-155.8237358551413
 30
0.0
 10
68.53121743078387
 20
-156.0903862456996
 30
0.0
 10
68.53121743078387
 20
-156.2512722048608
 30
0.0
 10
68.4530137632687
 20
-156.3653048654226
 30
0.0
 10
68.32812905192839
 20
-156.4245605077689
 30
0.0
 10
68.41701251544784
 20
-156.4755479209506
 30
0.0
 10
68.57565916254359
 20
-156.5706325563435
 30
0.0
 10
68.57565916254359
 20
-156.8331488323195
 30
0.0
 10
68.57565916254359
 20
-157.2072862020176
 30
0.0
 10
68.29643417346409
 20
-157.3237304294191
 30
0.0
 10
68.05734454678775
 20
-157.3237304294191
 30
0.0
  0
SPLINE
  5
BA
330
B5
100
AcDbEntity
  8
_U+30EC_U+30A4_U+30E4_U+30FC 1
370
     0
100
AcDbSpline
210
0.0
220
0.0
230
1.0
 70
    11
 71
     3
 72
    17
 73
    13
 74
     0
 42
0.0000000001
 43
0.0000000001
 12
1.0
 22
0.0
 32
0.0
 13
1.0
 23
0.0
 33
0.0
 40
0.0
 40
0.0
 40
0.0
 40
0.0
 40
1.0
 40
1.0
 40
1.0
 40
2.0
 40
2.0
 40
2.0
 40
3.0
 40
3.0
 40
3.0
 40
4.0
 40
4.0
 40
4.0
 40
4.0
 10
68.05734454678775
 20
-156.5327365060057
 30
0.0
 10
67.91351181027856
 20
-156.5327365060057
 30
0.0
 10
67.76123858983053
 20
-156.619552912234
 30
0.0
 10
67.76123858983053
 20
-156.8224690363152
 30
0.0
 10
67.76123858983053
 20
-157.0274522176876
 30
0.0
 10
67.88819035846198
 20
-157.129427044051
 30
0.0
 10
68.05734454678775
 20
-157.129427044051
 30
0.0
 10
68.2435519577655
 20
-157.129427044051
 30
0.0
 10
68.35362275851924
 20
-157.0067816447761
 30
0.0
 10
68.35362275851924
 20
-156.8290147177372
 30
0.0
 10
68.35362275851924
 20
-156.60646154939
 30
0.0
 10
68.19066974206692
 20
-156.5327365060057
 30
0.0
 10
68.05734454678775
 20
-156.5327365060057
 30
0.0
  0
SPLINE
  5
BB
330
B5
100
AcDbEntity
  8
_U+30EC_U+30A4_U+30E4_U+30FC 1
370
     0
100
AcDbSpline
210
0.0
220
0.0
230
1.0
 70
    11
 71
     3
 72
    17
 73
    13
 74
     0
 42
0.0000000001
 43
0.0000000001
 12
1.0
 22
0.0
 32
0.0
 13
1.0
 23
0.0
 33
0.0
 40
0.0
 40
0.0
 40
0.0
 40
0.0
 40
1.0
 40
1.0
 40
1.0
 40
2.0
 40
2.0
 40
2.0
 40
3.0
 40
3.0
 40
3.0
 40
4.0
 40
4.0
 40
4.0
 40
4.0
 10
68.05734454678775
 20
-155.8726562110319
 30
0.0
 10
67.89232447304428
 20
-155.8726562110319
 30
0.0
 10
67.8077473788814
 20
-155.9677408464247
 30
0.0
 10
67.8077473788814
 20
-156.103133098995
 30
0.0
 10
67.8077473788814
 20
-156.2261230078185
 30
0.0
 10
67.87974987452313
 20
-156.3446342925111
 30
0.0
 10
68.05734454678775
 20
-156.3446342925111
 30
0.0
 10
68.23511147382665
 20
-156.3446342925111
 30
0.0
 10
68.3069417146941
 20
-156.2261230078185
 30
0.0
 10
68.3069417146941
 20
-156.103133098995
 30
0.0
 10
68.3069417146941
 20
-155.9677408464247
 30
0.0
 10
68.22029756324007
 20
-155.8726562110319
 30
0.0
 10
68.05734454678775
 20
-155.8726562110319
 30
0.0
  0
HATCH
  5
BC
330
B5
100
AcDbEntity
  8
_U+30EC_U+30A4_U+30E4_U+30FC 1
 62
   179
420
  2234388
100
AcDbHatch
 10
0.0
 20
0.0
 30
0.0
210
0.0
220
0.0
230
1.0
  2
SOLID
 70
     1
 71
     0
 91
        3
 92
        1
 93
        1
 72
     4
 94
        3
 73
     0
 74
     1
 95
       29
 96
       25
 40
0.0
 40
0.0
 40
0.0
 40
0.0
 40
1.0
 40
1.0
 40
1.0
 40
2.0
 40
2.0
 40
2.0
 40
3.0
 40
3.0
 40
3.0
 40
4.0
 40
4.0
 40
4.0
 40
5.0
 40
5.0
 40
5.0
 40
6.0
 40
6.0
 40
6.0
 40
7.0
 40
7.0
 40
7.0
 40
8.0
 40
8.0
 40
8.0
 40
8.0
 10
68.05734454678775
 20
-157.3237304294191
 10
67.79086641100368
 20
-157.3237304294191
 10
67.53696287374076
 20
-157.1862711195576
 10
67.53696287374076
 20
-156.8372829469018
 10
67.53696287374076
 20
-156.5813123523477
 10
67.67872855295879
 20
-156.4858832074063
 10
67.78449298435596
 20
-156.4245605077689
 10
67.65960827301565
 20
-156.3653048654226
 10
67.58347166279164
 20
-156.2512722048608
 10
67.58347166279164
 20
-156.0903862456996
 10
67.58347166279164
 20
-155.8154676259767
 10
67.7824259270648
 20
-155.6800753734064
 10
68.05734454678775
 20
-155.6800753734064
 10
68.34087590522381
 20
-155.6800753734064
 10
68.53121743078387
 20
-155.8237358551413
 10
68.53121743078387
 20
-156.0903862456996
 10
68.53121743078387
 20
-156.2512722048608
 10
68.4530137632687
 20
-156.3653048654226
 10
68.32812905192839
 20
-156.4245605077689
 10
68.41701251544784
 20
-156.4755479209506
 10
68.57565916254359
 20
-156.5706325563435
 10
68.57565916254359
 20
-156.8331488323195
 10
68.57565916254359
 20
-157.2072862020176
 10
68.29643417346409
 20
-157.3237304294191
 10
68.05734454678775
 20
-157.3237304294191
 97
        0
 97
        0
 92
        1
 93
        1
 72
     4
 94
        3
 73
     0
 74
     1
 95
       17
 96
       13
 40
0.0
 40
0.0
 40
0.0
 40
0.0
 40
1.0
 40
1.0
 40
1.0
 40
2.0
 40
2.0
 40
2.0
 40
3.0
 40
3.0
 40
3.0
 40
4.0
 40
4.0
 40
4.0
 40
4.0
 10
68.05734454678775
 20
-156.5327365060057
 10
67.91351181027856
 20
-156.5327365060057
 10
67.76123858983053
 20
-156.619552912234
 10
67.76123858983053
 20
-156.8224690363152
 10
67.76123858983053
 20
-157.0274522176876
 10
67.88819035846198
 20
-157.129427044051
 10
68.05734454678775
 20
-157.129427044051
 10
68.2435519577655
 20
-157.129427044051
 10
68.35362275851924
 20
-157.0067816447761
 10
68.35362275851924
 20
-156.8290147177372
 10
68.35362275851924
 20
-156.60646154939
 10
68.19066974206692
 20
-156.5327365060057
 10
68.05734454678775
 20
-156.5327365060057
 97
        0
 97
        0
 92
        1
 93
        1
 72
     4
 94
        3
 73
     0
 74
     1
 95
       17
 96
       13
 40
0.0
 40
0.0
 40
0.0
 40
0.0
 40
1.0
 40
1.0
 40
1.0
 40
2.0
 40
2.0
 40
2.0
 40
3.0
 40
3.0
 40
3.0
 40
4.0
 40
4.0
 40
4.0
 40
4.0
 10
68.05734454678775
 20
-155.8726562110319
 10
67.89232447304428
 20
-155.8726562110319
 10
67.8077473788814
 20
-155.9677408464247
 10
67.8077473788814
 20
-156.103133098995
 10
67.8077473788814
 20
-156.2261230078185
 10
67.87974987452313
 20
-156.3446342925111
 10
68.05734454678775
 20
-156.3446342925111
 10
68.23511147382665
 20
-156.3446342925111
 10
68.3069417146941
 20
-156.2261230078185
 10
68.3069417146941
 20
-156.103133098995
 10
68.3069417146941
 20
-155.9677408464247
 10
68.22029756324007
 20
-155.8726562110319
 10
68.05734454678775
 20
-155.8726562110319
 97
        0
 97
        0
 75
     2
 76
     1
 98
        0
  0
POLYLINE
  5
BD
330
B5
100
AcDbEntity
  8
_U+30EC_U+30A4_U+30E4_U+30FC 1
370
     0
100
AcDb2dPolyline
 66
     1
 10
0.0
 20
0.0
 30
0.0
  0
VERTEX
  5
BE
330
BD
100
AcDbEntity
  8
_U+30EC_U+30A4_U+30E4_U+30FC 1
370
     0
100
AcDbVertex
100
AcDb2dVertex
 10
68.79425047108269
 20
-157.2730875257859
 30
0.0
  0
VERTEX
  5
BF
330
BD
100
AcDbEntity
  8
_U+30EC_U+30A4_U+30E4_U+30FC 1
370
     0
100
AcDbVertex
100
AcDb2dVertex
 10
68.79425047108269
 20
-157.0212510458141
 30
0.0
  0
VERTEX
  5
C0
330
BD
100
AcDbEntity
  8
_U+30EC_U+30A4_U+30E4_U+30FC 1
370
     0
100
AcDbVertex
100
AcDb2dVertex
 10
69.04591469628019
 20
-157.0212510458141
 30
0.0
  0
VERTEX
  5
C1
330
BD
100
AcDbEntity
  8
_U+30EC_U+30A4_U+30E4_U+30FC 1
370
     0
100
AcDbVertex
100
AcDb2dVertex
 10
69.04591469628019
 20
-157.2730875257859
 30
0.0
  0
VERTEX
  5
C2
330
BD
100
AcDbEntity
  8
_U+30EC_U+30A4_U+30E4_U+30FC 1
370
     0
100
AcDbVertex
100
AcDb2dVertex
 10
68.79425047108269
 20
-157.2730875257859
 30
0.0
  0
SEQEND
  5
C3
330
BD
100
AcDbEntity
  8
_U+30EC_U+30A4_U+30E4_U+30FC 1
370
     0
  0
HATCH
  5
C4
330
B5
100
AcDbEntity
  8
_U+30EC_U+30A4_U+30E4_U+30FC 1
 62
   179
420
  2234388
100
AcDbHatch
 10
0.0
 20
0.0
 30
0.0
210
0.0
220
0.0
230
1.0
  2
SOLID
 70
     1
 71
     0
 91
        1
 92
        1
 93
        4
 72
     1
 10
68.79425047108269
 20
-157.2730875257859
 11
68.79425047108269
 21
-157.0212510458141
 72
     1
 10
68.79425047108269
 20
-157.0212510458141
 11
69.04591469628019
 21
-157.0212510458141
 72
     1
 10
69.04591469628019
 20
-157.0212510458141
 11
69.04591469628019
 21
-157.2730875257859
 72
     1
 10
69.04591469628019
 20
-157.2730875257859
 11
68.79425047108269
 21
-157.2730875257859
 97
        0
 75
     2
 76
     1
 98
        0
  0
SPLINE
  5
C5
330
B5
100
AcDbEntity
  8
_U+30EC_U+30A4_U+30E4_U+30FC 1
370
     0
100
AcDbSpline
210
0.0
220
0.0
230
1.0
 70
    11
 71
     3
 72
    44
 73
    40
 74
     0
 42
0.0000000001
 43
0.0000000001
 12
1.0
 22
0.0
 32
0.0
 13
1.0
 23
0.0
 33
0.0
 40
0.0
 40
0.0
 40
0.0
 40
0.0
 40
1.0
 40
1.0
 40
1.0
 40
2.0
 40
2.0
 40
2.0
 40
3.0
 40
3.0
 40
3.0
 40
4.0
 40
4.0
 40
4.0
 40
5.0
 40
5.0
 40
5.0
 40
6.0
 40
6.0
 40
6.0
 40
7.0
 40
7.0
 40
7.0
 40
8.0
 40
8.0
 40
8.0
 40
9.0
 40
9.0
 40
9.0
 40
10.0
 40
10.0
 40
10.0
 40
11.0
 40
11.0
 40
11.0
 40
12.0
 40
12.0
 40
12.0
 40
13.0
 40
13.0
 40
13.0
 40
13.0
 10
69.87566594390262
 20
-156.6912108983272
 30
0.0
 10
69.65776365446057
 20
-156.8500298001972
 30
0.0
 10
69.56457382158456
 20
-156.9240993531301
 30
0.0
 10
69.51599797524253
 20
-157.0681043444135
 30
0.0
 10
69.51599797524253
 20
-157.0681043444135
 30
0.0
 10
70.29441730013473
 20
-157.0681043444135
 30
0.0
 10
70.29441730013473
 20
-157.0681043444135
 30
0.0
 10
70.29441730013473
 20
-157.0681043444135
 30
0.0
 10
70.29441730013473
 20
-157.2730875257859
 30
0.0
 10
70.29441730013473
 20
-157.2730875257859
 30
0.0
 10
70.29441730013473
 20
-157.2730875257859
 30
0.0
 10
69.26640080733618
 20
-157.2730875257859
 30
0.0
 10
69.26640080733618
 20
-157.2730875257859
 30
0.0
 10
69.29809568580048
 20
-156.915486614417
 30
0.0
 10
69.36355250002022
 20
-156.8372829469018
 30
0.0
 10
69.74871417527116
 20
-156.5389376778792
 30
0.0
 10
70.00468476982522
 20
-156.3401556683802
 30
0.0
 10
70.07014158404496
 20
-156.2722872873208
 30
0.0
 10
70.07014158404496
 20
-156.1351724870079
 30
0.0
 10
70.07014158404496
 20
-156.0166612023153
 30
0.0
 10
69.9983113431775
 20
-155.8854030643273
 30
0.0
 10
69.80159639096975
 20
-155.8854030643273
 30
0.0
 10
69.54131942705912
 20
-155.8854030643273
 30
0.0
 10
69.53287894312025
 20
-156.1158799522905
 30
0.0
 10
69.5285725737637
 20
-156.2323241796919
 30
0.0
 10
69.5285725737637
 20
-156.2323241796919
 30
0.0
 10
69.30446911244819
 20
-156.2323241796919
 30
0.0
 10
69.30446911244819
 20
-156.2323241796919
 30
0.0
 10
69.31290959638706
 20
-156.1055446658347
 30
0.0
 10
69.32341713761707
 20
-155.9932345530156
 30
0.0
 10
69.40386011719765
 20
-155.874723268323
 30
0.0
 10
69.51375866317711
 20
-155.7141818187104
 30
0.0
 10
69.69996607415487
 20
-155.6800753734064
 30
0.0
 10
69.81641030155632
 20
-155.6800753734064
 30
0.0
 10
70.09356823334467
 20
-155.6800753734064
 30
0.0
 10
70.30079072678244
 20
-155.8643879818673
 30
0.0
 10
70.30079072678244
 20
-156.137239544299
 30
0.0
 10
70.30079072678244
 20
-156.3653048654226
 30
0.0
 10
70.18451875415526
 20
-156.4652126344948
 30
0.0
 10
69.87566594390262
 20
-156.6912108983272
 30
0.0
  0
HATCH
  5
C6
330
B5
100
AcDbEntity
  8
_U+30EC_U+30A4_U+30E4_U+30FC 1
 62
   179
420
  2234388
100
AcDbHatch
 10
0.0
 20
0.0
 30
0.0
210
0.0
220
0.0
230
1.0
  2
SOLID
 70
     1
 71
     0
 91
        1
 92
        1
 93
        1
 72
     4
 94
        3
 73
     0
 74
     1
 95
       44
 96
       40
 40
0.0
 40
0.0
 40
0.0
 40
0.0
 40
1.0
 40
1.0
 40
1.0
 40
2.0
 40
2.0
 40
2.0
 40
3.0
 40
3.0
 40
3.0
 40
4.0
 40
4.0
 40
4.0
 40
5.0
 40
5.0
 40
5.0
 40
6.0
 40
6.0
 40
6.0
 40
7.0
 40
7.0
 40
7.0
 40
8.0
 40
8.0
 40
8.0
 40
9.0
 40
9.0
 40
9.0
 40
10.0
 40
10.0
 40
10.0
 40
11.0
 40
11.0
 40
11.0
 40
12.0
 40
12.0
 40
12.0
 40
13.0
 40
13.0
 40
13.0
 40
13.0
 10
69.87566594390262
 20
-156.6912108983272
 10
69.65776365446057
 20
-156.8500298001972
 10
69.56457382158456
 20
-156.9240993531301
 10
69.51599797524253
 20
-157.0681043444135
 10
69.51599797524253
 20
-157.0681043444135
 10
70.29441730013473
 20
-157.0681043444135
 10
70.29441730013473
 20
-157.0681043444135
 10
70.29441730013473
 20
-157.0681043444135
 10
70.29441730013473
 20
-157.2730875257859
 10
70.29441730013473
 20
-157.2730875257859
 10
70.29441730013473
 20
-157.2730875257859
 10
69.26640080733618
 20
-157.2730875257859
 10
69.26640080733618
 20
-157.2730875257859
 10
69.29809568580048
 20
-156.915486614417
 10
69.36355250002022
 20
-156.8372829469018
 10
69.74871417527116
 20
-156.5389376778792
 10
70.00468476982522
 20
-156.3401556683802
 10
70.07014158404496
 20
-156.2722872873208
 10
70.07014158404496
 20
-156.1351724870079
 10
70.07014158404496
 20
-156.0166612023153
 10
69.9983113431775
 20
-155.8854030643273
 10
69.80159639096975
 20
-155.8854030643273
 10
69.54131942705912
 20
-155.8854030643273
 10
69.53287894312025
 20
-156.1158799522905
 10
69.5285725737637
 20
-156.2323241796919
 10
69.5285725737637
 20
-156.2323241796919
 10
69.30446911244819
 20
-156.2323241796919
 10
69.30446911244819
 20
-156.2323241796919
 10
69.31290959638706
 20
-156.1055446658347
 10
69.32341713761707
 20
-155.9932345530156
 10
69.40386011719765
 20
-155.874723268323
 10
69.51375866317711
 20
-155.7141818187104
 10
69.69996607415487
 20
-155.6800753734064
 10
69.81641030155632
 20
-155.6800753734064
 10
70.09356823334467
 20
-155.6800753734064
 10
70.30079072678244
 20
-155.8643879818673
 10
70.30079072678244
 20
-156.137239544299
 10
70.30079072678244
 20
-156.3653048654226
 10
70.18451875415526
 20
-156.4652126344948
 10
69.87566594390262
 20
-156.6912108983272
 97
        0
 97
        0
 75
     2
 76
     1
 98
        0
  0
ENDBLK
  5
B8
330
B5
100
AcDbEntity
  8
0
100
AcDbBlockEnd
  0
BLOCK
  5
E0
330
DE
100
AcDbEntity
  8
0
100
AcDbBlockBegin
  2
block 8
 70
     0
 10
0.0
 20
0.0
 30
0.0
  3
block 8
  1

  0
SPLINE
  5
E2
330
DE
100
AcDbEntity
  8
_U+30EC_U+30A4_U+30E4_U+30FC 1
370
     0
100
AcDbSpline
210
0.0
220
0.0
230
1.0
 70
    11
 71
     3
 72
    44
 73
    40
 74
     0
 42
0.0000000001
 43
0.0000000001
 12
1.0
 22
0.0
 32
0.0
 13
1.0
 23
0.0
 33
0.0
 40
0.0
 40
0.0
 40
0.0
 40
0.0
 40
1.0
 40
1.0
 40
1.0
 40
2.0
 40
2.0
 40
2.0
 40
3.0
 40
3.0
 40
3.0
 40
4.0
 40
4.0
 40
4.0
 40
5.0
 40
5.0
 40
5.0
 40
6.0
 40
6.0
 40
6.0
 40
7.0
 40
7.0
 40
7.0
 40
8.0
 40
8.0
 40
8.0
 40
9.0
 40
9.0
 40
9.0
 40
10.0
 40
10.0
 40
10.0
 40
11.0
 40
11.0
 40
11.0
 40
12.0
 40
12.0
 40
12.0
 40
13.0
 40
13.0
 40
13.0
 40
13.0
 10
93.88126353989774
 20
-126.3540445647657
 30
0.0
 10
93.85783689059805
 20
-126.3096028330059
 30
0.0
 10
93.83682180813803
 20
-126.2567206173074
 30
0.0
 10
93.83475475084687
 20
-126.0260714745699
 30
0.0
 10
93.83062063626457
 20
-125.7828477333112
 30
0.0
 10
93.77136499391827
 20
-125.7130845497349
 30
0.0
 10
93.59359806687938
 20
-125.7130845497349
 30
0.0
 10
93.59359806687938
 20
-125.7130845497349
 30
0.0
 10
93.18500974232875
 20
-125.7130845497349
 30
0.0
 10
93.18500974232875
 20
-125.7130845497349
 30
0.0
 10
93.18500974232875
 20
-125.7130845497349
 30
0.0
 10
93.18500974232875
 20
-126.3540445647657
 30
0.0
 10
93.18500974232875
 20
-126.3540445647657
 30
0.0
 10
93.18500974232875
 20
-126.3540445647657
 30
0.0
 10
92.95039873978324
 20
-126.3540445647657
 30
0.0
 10
92.95039873978324
 20
-126.3540445647657
 30
0.0
 10
92.95039873978324
 20
-126.3540445647657
 30
0.0
 10
92.95039873978324
 20
-124.8097805135024
 30
0.0
 10
92.95039873978324
 20
-124.8097805135024
 30
0.0
 10
92.95039873978324
 20
-124.8097805135024
 30
0.0
 10
93.62529294534369
 20
-124.8097805135024
 30
0.0
 10
93.62529294534369
 20
-124.8097805135024
 30
0.0
 10
93.93190644353092
 20
-124.8097805135024
 30
0.0
 10
94.09899357456554
 20
-124.9810017591193
 30
0.0
 10
94.09899357456554
 20
-125.2371446084477
 30
0.0
 10
94.09899357456554
 20
-125.2877875120808
 30
0.0
 10
94.09038083585241
 20
-125.3702975489526
 30
0.0
 10
94.04628361364121
 20
-125.4507405285332
 30
0.0
 10
93.9870279712949
 20
-125.5544379026392
 30
0.0
 10
93.92157115707516
 20
-125.573385927808
 30
0.0
 10
93.86024845743772
 20
-125.5902668956858
 30
0.0
 10
93.99736325775066
 20
-125.6326415701543
 30
0.0
 10
94.06523163881009
 20
-125.6813896712706
 30
0.0
 10
94.06971026294092
 20
-125.9964436533967
 30
0.0
 10
94.07384437752322
 20
-126.2672281585374
 30
0.0
 10
94.10967337056981
 20
-126.2990952917759
 30
0.0
 10
94.17719724208071
 20
-126.3540445647657
 30
0.0
 10
94.17719724208071
 20
-126.3540445647657
 30
0.0
 10
93.88126353989774
 20
-126.3540445647657
 30
0.0
 10
93.88126353989774
 20
-126.3540445647657
 30
0.0
  0
SPLINE
  5
E3
330
DE
100
AcDbEntity
  8
_U+30EC_U+30A4_U+30E4_U+30FC 1
370
     0
100
AcDbSpline
210
0.0
220
0.0
230
1.0
 70
    11
 71
     3
 72
    20
 73
    16
 74
     0
 42
0.0000000001
 43
0.0000000001
 12
1.0
 22
0.0
 32
0.0
 13
1.0
 23
0.0
 33
0.0
 40
0.0
 40
0.0
 40
0.0
 40
0.0
 40
1.0
 40
1.0
 40
1.0
 40
2.0
 40
2.0
 40
2.0
 40
3.0
 40
3.0
 40
3.0
 40
4.0
 40
4.0
 40
4.0
 40
5.0
 40
5.0
 40
5.0
 40
5.0
 10
93.62942705992599
 20
-125.0213093762968
 30
0.0
 10
93.62942705992599
 20
-125.0213093762968
 30
0.0
 10
93.18500974232875
 20
-125.0213093762968
 30
0.0
 10
93.18500974232875
 20
-125.0213093762968
 30
0.0
 10
93.18500974232875
 20
-125.0213093762968
 30
0.0
 10
93.18500974232875
 20
-125.5015556869406
 30
0.0
 10
93.18500974232875
 20
-125.5015556869406
 30
0.0
 10
93.18500974232875
 20
-125.5015556869406
 30
0.0
 10
93.62736000263483
 20
-125.5015556869406
 30
0.0
 10
93.62736000263483
 20
-125.5015556869406
 30
0.0
 10
93.72657875261002
 20
-125.5015556869406
 30
0.0
 10
93.86231551472886
 20
-125.4254190767166
 30
0.0
 10
93.86231551472886
 20
-125.2540255763254
 30
0.0
 10
93.86231551472886
 20
-125.175649654036
 30
0.0
 10
93.8282090694249
 20
-125.0213093762968
 30
0.0
 10
93.62942705992599
 20
-125.0213093762968
 30
0.0
  0
HATCH
  5
E4
330
DE
100
AcDbEntity
  8
_U+30EC_U+30A4_U+30E4_U+30FC 1
 62
   179
420
  2234388
100
AcDbHatch
 10
0.0
 20
0.0
 30
0.0
210
0.0
220
0.0
230
1.0
  2
SOLID
 70
     1
 71
     0
 91
        2
 92
        1
 93
        1
 72
     4
 94
        3
 73
     0
 74
     1
 95
       44
 96
       40
 40
0.0
 40
0.0
 40
0.0
 40
0.0
 40
1.0
 40
1.0
 40
1.0
 40
2.0
 40
2.0
 40
2.0
 40
3.0
 40
3.0
 40
3.0
 40
4.0
 40
4.0
 40
4.0
 40
5.0
 40
5.0
 40
5.0
 40
6.0
 40
6.0
 40
6.0
 40
7.0
 40
7.0
 40
7.0
 40
8.0
 40
8.0
 40
8.0
 40
9.0
 40
9.0
 40
9.0
 40
10.0
 40
10.0
 40
10.0
 40
11.0
 40
11.0
 40
11.0
 40
12.0
 40
12.0
 40
12.0
 40
13.0
 40
13.0
 40
13.0
 40
13.0
 10
93.88126353989774
 20
-126.3540445647657
 10
93.85783689059805
 20
-126.3096028330059
 10
93.83682180813803
 20
-126.2567206173074
 10
93.83475475084687
 20
-126.0260714745699
 10
93.83062063626457
 20
-125.7828477333112
 10
93.77136499391827
 20
-125.7130845497349
 10
93.59359806687938
 20
-125.7130845497349
 10
93.59359806687938
 20
-125.7130845497349
 10
93.18500974232875
 20
-125.7130845497349
 10
93.18500974232875
 20
-125.7130845497349
 10
93.18500974232875
 20
-125.7130845497349
 10
93.18500974232875
 20
-126.3540445647657
 10
93.18500974232875
 20
-126.3540445647657
 10
93.18500974232875
 20
-126.3540445647657
 10
92.95039873978324
 20
-126.3540445647657
 10
92.95039873978324
 20
-126.3540445647657
 10
92.95039873978324
 20
-126.3540445647657
 10
92.95039873978324
 20
-124.8097805135024
 10
92.95039873978324
 20
-124.8097805135024
 10
92.95039873978324
 20
-124.8097805135024
 10
93.62529294534369
 20
-124.8097805135024
 10
93.62529294534369
 20
-124.8097805135024
 10
93.93190644353092
 20
-124.8097805135024
 10
94.09899357456554
 20
-124.9810017591193
 10
94.09899357456554
 20
-125.2371446084477
 10
94.09899357456554
 20
-125.2877875120808
 10
94.09038083585241
 20
-125.3702975489526
 10
94.04628361364121
 20
-125.4507405285332
 10
93.9870279712949
 20
-125.5544379026392
 10
93.92157115707516
 20
-125.573385927808
 10
93.86024845743772
 20
-125.5902668956858
 10
93.99736325775066
 20
-125.6326415701543
 10
94.06523163881009
 20
-125.6813896712706
 10
94.06971026294092
 20
-125.9964436533967
 10
94.07384437752322
 20
-126.2672281585374
 10
94.10967337056981
 20
-126.2990952917759
 10
94.17719724208071
 20
-126.3540445647657
 10
94.17719724208071
 20
-126.3540445647657
 10
93.88126353989774
 20
-126.3540445647657
 10
93.88126353989774
 20
-126.3540445647657
 97
        0
 97
        0
 92
        1
 93
        1
 72
     4
 94
        3
 73
     0
 74
     1
 95
       20
 96
       16
 40
0.0
 40
0.0
 40
0.0
 40
0.0
 40
1.0
 40
1.0
 40
1.0
 40
2.0
 40
2.0
 40
2.0
 40
3.0
 40
3.0
 40
3.0
 40
4.0
 40
4.0
 40
4.0
 40
5.0
 40
5.0
 40
5.0
 40
5.0
 10
93.62942705992599
 20
-125.0213093762968
 10
93.62942705992599
 20
-125.0213093762968
 10
93.18500974232875
 20
-125.0213093762968
 10
93.18500974232875
 20
-125.0213093762968
 10
93.18500974232875
 20
-125.0213093762968
 10
93.18500974232875
 20
-125.5015556869406
 10
93.18500974232875
 20
-125.5015556869406
 10
93.18500974232875
 20
-125.5015556869406
 10
93.62736000263483
 20
-125.5015556869406
 10
93.62736000263483
 20
-125.5015556869406
 10
93.72657875261002
 20
-125.5015556869406
 10
93.86231551472886
 20
-125.4254190767166
 10
93.86231551472886
 20
-125.2540255763254
 10
93.86231551472886
 20
-125.175649654036
 10
93.8282090694249
 20
-125.0213093762968
 10
93.62942705992599
 20
-125.0213093762968
 97
        0
 97
        0
 75
     2
 76
     1
 98
        0
  0
SPLINE
  5
E5
330
DE
100
AcDbEntity
  8
_U+30EC_U+30A4_U+30E4_U+30FC 1
370
     0
100
AcDbSpline
210
0.0
220
0.0
230
1.0
 70
    11
 71
     3
 72
    62
 73
    58
 74
     0
 42
0.0000000001
 43
0.0000000001
 12
1.0
 22
0.0
 32
0.0
 13
1.0
 23
0.0
 33
0.0
 40
0.0
 40
0.0
 40
0.0
 40
0.0
 40
1.0
 40
1.0
 40
1.0
 40
2.0
 40
2.0
 40
2.0
 40
3.0
 40
3.0
 40
3.0
 40
4.0
 40
4.0
 40
4.0
 40
5.0
 40
5.0
 40
5.0
 40
6.0
 40
6.0
 40
6.0
 40
7.0
 40
7.0
 40
7.0
 40
8.0
 40
8.0
 40
8.0
 40
9.0
 40
9.0
 40
9.0
 40
10.0
 40
10.0
 40
10.0
 40
11.0
 40
11.0
 40
11.0
 40
12.0
 40
12.0
 40
12.0
 40
13.0
 40
13.0
 40
13.0
 40
14.0
 40
14.0
 40
14.0
 40
15.0
 40
15.0
 40
15.0
 40
16.0
 40
16.0
 40
16.0
 40
17.0
 40
17.0
 40
17.0
 40
18.0
 40
18.0
 40
18.0
 40
19.0
 40
19.0
 40
19.0
 40
19.0
 10
94.80833873497848
 20
-126.4048597231731
 30
0.0
 10
94.71325409958558
 20
-126.4048597231731
 30
0.0
 10
94.49552406491779
 20
-126.3836723859388
 30
0.0
 10
94.37081160835174
 20
-126.1974649749611
 30
0.0
 10
94.29639754587035
 20
-126.0853271169162
 30
0.0
 10
94.29226343128805
 20
-125.9859361121667
 30
0.0
 10
94.28812931670575
 20
-125.9013590180038
 30
0.0
 10
94.28812931670575
 20
-125.9013590180038
 30
0.0
 10
94.50792640866469
 20
-125.9013590180038
 30
0.0
 10
94.50792640866469
 20
-125.9013590180038
 30
0.0
 10
94.50999346595584
 20
-125.9754285709367
 30
0.0
 10
94.52101777150864
 20
-126.2102118282565
 30
0.0
 10
94.80420462039618
 20
-126.2102118282565
 30
0.0
 10
94.94200843980617
 20
-126.2102118282565
 30
0.0
 10
95.09428166025421
 20
-126.1404486446802
 30
0.0
 10
95.09428166025421
 20
-125.9118665592338
 30
0.0
 10
95.09428166025421
 20
-125.7955945866067
 30
0.0
 10
95.05604110036793
 20
-125.7468464854904
 30
0.0
 10
95.02434622190364
 20
-125.7151516070261
 30
0.0
 10
94.95027666897077
 20
-125.6410820540932
 30
0.0
 10
94.83383244156933
 20
-125.628507455572
 30
0.0
 10
94.77871091380533
 20
-125.628507455572
 30
0.0
 10
94.76010739818497
 20
-125.628507455572
 30
0.0
 10
94.72393389558985
 20
-125.6305745128632
 30
0.0
 10
94.69637313170786
 20
-125.6347086274455
 30
0.0
 10
94.69637313170786
 20
-125.6347086274455
 30
0.0
 10
94.69637313170786
 20
-125.4400607325289
 30
0.0
 10
94.69637313170786
 20
-125.4400607325289
 30
0.0
 10
94.73461369159413
 20
-125.4464341591766
 30
0.0
 10
94.77664385651417
 20
-125.448673471242
 30
0.0
 10
94.78318953793615
 20
-125.448673471242
 30
0.0
 10
94.8486463521559
 20
-125.448673471242
 30
0.0
 10
95.04742836165481
 20
-125.4274861340077
 30
0.0
 10
95.04742836165481
 20
-125.1904635646225
 30
0.0
 10
95.04742836165481
 20
-125.0128688923579
 30
0.0
 10
94.91651473321532
 20
-124.9577473645939
 30
0.0
 10
94.80627167768732
 20
-124.9577473645939
 30
0.0
 10
94.54203285396866
 20
-124.9577473645939
 30
0.0
 10
94.53342011525554
 20
-125.1904635646225
 30
0.0
 10
94.52928600067324
 20
-125.2624660602642
 30
0.0
 10
94.52928600067324
 20
-125.2624660602642
 30
0.0
 10
94.3260253670435
 20
-125.2624660602642
 30
0.0
 10
94.3260253670435
 20
-125.2624660602642
 30
0.0
 10
94.33463810575662
 20
-125.1375813489239
 30
0.0
 10
94.36219886963862
 20
-124.7610324123861
 30
0.0
 10
94.81901853098275
 20
-124.7610324123861
 30
0.0
 10
95.04329424707251
 20
-124.7610324123861
 30
0.0
 10
95.28445093104
 20
-124.8879841810176
 30
0.0
 10
95.28445093104
 20
-125.1840901379748
 30
0.0
 10
95.28445093104
 20
-125.3702975489526
 30
0.0
 10
95.1893662956471
 20
-125.4528075858243
 30
0.0
 10
95.08980303612339
 20
-125.5141302854617
 30
0.0
 10
95.15147024530935
 20
-125.5416910493438
 30
0.0
 10
95.33337128693056
 20
-125.6221340289243
 30
0.0
 10
95.33337128693056
 20
-125.8992919607127
 30
0.0
 10
95.33337128693056
 20
-126.2377725921385
 30
0.0
 10
95.08566892154109
 20
-126.4048597231731
 30
0.0
 10
94.80833873497848
 20
-126.4048597231731
 30
0.0
  0
HATCH
  5
E6
330
DE
100
AcDbEntity
  8
_U+30EC_U+30A4_U+30E4_U+30FC 1
 62
   179
420
  2234388
100
AcDbHatch
 10
0.0
 20
0.0
 30
0.0
210
0.0
220
0.0
230
1.0
  2
SOLID
 70
     1
 71
     0
 91
        1
 92
        1
 93
        1
 72
     4
 94
        3
 73
     0
 74
     1
 95
       62
 96
       58
 40
0.0
 40
0.0
 40
0.0
 40
0.0
 40
1.0
 40
1.0
 40
1.0
 40
2.0
 40
2.0
 40
2.0
 40
3.0
 40
3.0
 40
3.0
 40
4.0
 40
4.0
 40
4.0
 40
5.0
 40
5.0
 40
5.0
 40
6.0
 40
6.0
 40
6.0
 40
7.0
 40
7.0
 40
7.0
 40
8.0
 40
8.0
 40
8.0
 40
9.0
 40
9.0
 40
9.0
 40
10.0
 40
10.0
 40
10.0
 40
11.0
 40
11.0
 40
11.0
 40
12.0
 40
12.0
 40
12.0
 40
13.0
 40
13.0
 40
13.0
 40
14.0
 40
14.0
 40
14.0
 40
15.0
 40
15.0
 40
15.0
 40
16.0
 40
16.0
 40
16.0
 40
17.0
 40
17.0
 40
17.0
 40
18.0
 40
18.0
 40
18.0
 40
19.0
 40
19.0
 40
19.0
 40
19.0
 10
94.80833873497848
 20
-126.4048597231731
 10
94.71325409958558
 20
-126.4048597231731
 10
94.49552406491779
 20
-126.3836723859388
 10
94.37081160835174
 20
-126.1974649749611
 10
94.29639754587035
 20
-126.0853271169162
 10
94.29226343128805
 20
-125.9859361121667
 10
94.28812931670575
 20
-125.9013590180038
 10
94.28812931670575
 20
-125.9013590180038
 10
94.50792640866469
 20
-125.9013590180038
 10
94.50792640866469
 20
-125.9013590180038
 10
94.50999346595584
 20
-125.9754285709367
 10
94.52101777150864
 20
-126.2102118282565
 10
94.80420462039618
 20
-126.2102118282565
 10
94.94200843980617
 20
-126.2102118282565
 10
95.09428166025421
 20
-126.1404486446802
 10
95.09428166025421
 20
-125.9118665592338
 10
95.09428166025421
 20
-125.7955945866067
 10
95.05604110036793
 20
-125.7468464854904
 10
95.02434622190364
 20
-125.7151516070261
 10
94.95027666897077
 20
-125.6410820540932
 10
94.83383244156933
 20
-125.628507455572
 10
94.77871091380533
 20
-125.628507455572
 10
94.76010739818497
 20
-125.628507455572
 10
94.72393389558985
 20
-125.6305745128632
 10
94.69637313170786
 20
-125.6347086274455
 10
94.69637313170786
 20
-125.6347086274455
 10
94.69637313170786
 20
-125.4400607325289
 10
94.69637313170786
 20
-125.4400607325289
 10
94.73461369159413
 20
-125.4464341591766
 10
94.77664385651417
 20
-125.448673471242
 10
94.78318953793615
 20
-125.448673471242
 10
94.8486463521559
 20
-125.448673471242
 10
95.04742836165481
 20
-125.4274861340077
 10
95.04742836165481
 20
-125.1904635646225
 10
95.04742836165481
 20
-125.0128688923579
 10
94.91651473321532
 20
-124.9577473645939
 10
94.80627167768732
 20
-124.9577473645939
 10
94.54203285396866
 20
-124.9577473645939
 10
94.53342011525554
 20
-125.1904635646225
 10
94.52928600067324
 20
-125.2624660602642
 10
94.52928600067324
 20
-125.2624660602642
 10
94.3260253670435
 20
-125.2624660602642
 10
94.3260253670435
 20
-125.2624660602642
 10
94.33463810575662
 20
-125.1375813489239
 10
94.36219886963862
 20
-124.7610324123861
 10
94.81901853098275
 20
-124.7610324123861
 10
95.04329424707251
 20
-124.7610324123861
 10
95.28445093104
 20
-124.8879841810176
 10
95.28445093104
 20
-125.1840901379748
 10
95.28445093104
 20
-125.3702975489526
 10
95.1893662956471
 20
-125.4528075858243
 10
95.08980303612339
 20
-125.5141302854617
 10
95.15147024530935
 20
-125.5416910493438
 10
95.33337128693056
 20
-125.6221340289243
 10
95.33337128693056
 20
-125.8992919607127
 10
95.33337128693056
 20
-126.2377725921385
 10
95.08566892154109
 20
-126.4048597231731
 10
94.80833873497848
 20
-126.4048597231731
 97
        0
 97
        0
 75
     2
 76
     1
 98
        0
  0
SPLINE
  5
E7
330
DE
100
AcDbEntity
  8
_U+30EC_U+30A4_U+30E4_U+30FC 1
370
     0
100
AcDbSpline
210
0.0
220
0.0
230
1.0
 70
    11
 71
     3
 72
    29
 73
    25
 74
     0
 42
0.0000000001
 43
0.0000000001
 12
1.0
 22
0.0
 32
0.0
 13
1.0
 23
0.0
 33
0.0
 40
0.0
 40
0.0
 40
0.0
 40
0.0
 40
1.0
 40
1.0
 40
1.0
 40
2.0
 40
2.0
 40
2.0
 40
3.0
 40
3.0
 40
3.0
 40
4.0
 40
4.0
 40
4.0
 40
5.0
 40
5.0
 40
5.0
 40
6.0
 40
6.0
 40
6.0
 40
7.0
 40
7.0
 40
7.0
 40
8.0
 40
8.0
 40
8.0
 40
8.0
 10
96.3917046199993
 20
-126.1762776377268
 30
0.0
 10
96.28352862176246
 20
-126.38573944323
 30
0.0
 10
96.1102403188544
 20
-126.4048597231731
 30
0.0
 10
95.99379609145295
 20
-126.4048597231731
 30
0.0
 10
95.83291013229177
 20
-126.4048597231731
 30
0.0
 10
95.691316707848
 20
-126.3583509341222
 30
0.0
 10
95.59588756290658
 20
-126.1762776377268
 30
0.0
 10
95.49253469834909
 20
-125.9816297428102
 30
0.0
 10
95.4732421636317
 20
-125.7447794281992
 30
0.0
 10
95.4732421636317
 20
-125.5818264117469
 30
0.0
 10
95.4732421636317
 20
-125.4379936752377
 30
0.0
 10
95.49046764105795
 20
-125.1863294500402
 30
0.0
 10
95.59588756290658
 20
-124.987375185767
 30
0.0
 10
95.70406356114343
 20
-124.7842868069116
 30
0.0
 10
95.86460501075608
 20
-124.7610324123861
 30
0.0
 10
95.99379609145295
 20
-124.7610324123861
 30
0.0
 10
96.15261499332296
 20
-124.7610324123861
 30
0.0
 10
96.29627547505788
 20
-124.8054741441459
 30
0.0
 10
96.3917046199993
 20
-124.987375185767
 30
0.0
 10
96.4909233699745
 20
-125.1799560233925
 30
0.0
 10
96.51435001927419
 20
-125.4083658540646
 30
0.0
 10
96.51435001927419
 20
-125.5818264117469
 30
0.0
 10
96.51435001927419
 20
-125.7532199121381
 30
0.0
 10
96.49299042726564
 20
-125.9838690548756
 30
0.0
 10
96.3917046199993
 20
-126.1762776377268
 30
0.0
  0
SPLINE
  5
E8
330
DE
100
AcDbEntity
  8
_U+30EC_U+30A4_U+30E4_U+30FC 1
370
     0
100
AcDbSpline
210
0.0
220
0.0
230
1.0
 70
    11
 71
     3
 72
    17
 73
    13
 74
     0
 42
0.0000000001
 43
0.0000000001
 12
1.0
 22
0.0
 32
0.0
 13
1.0
 23
0.0
 33
0.0
 40
0.0
 40
0.0
 40
0.0
 40
0.0
 40
1.0
 40
1.0
 40
1.0
 40
2.0
 40
2.0
 40
2.0
 40
3.0
 40
3.0
 40
3.0
 40
4.0
 40
4.0
 40
4.0
 40
4.0
 10
95.99379609145295
 20
-124.9536132500116
 30
0.0
 10
95.74402666877234
 20
-124.9536132500116
 30
0.0
 10
95.69786238926999
 20
-125.2371446084477
 30
0.0
 10
95.69786238926999
 20
-125.5818264117469
 30
0.0
 10
95.69786238926999
 20
-125.9013590180038
 30
0.0
 10
95.73369138231658
 20
-126.2102118282565
 30
0.0
 10
95.99379609145295
 20
-126.2102118282565
 30
0.0
 10
96.24149845684241
 20
-126.2102118282565
 30
0.0
 10
96.29007430318443
 20
-125.9287475271116
 30
0.0
 10
96.29007430318443
 20
-125.5818264117469
 30
0.0
 10
96.29007430318443
 20
-125.2624660602642
 30
0.0
 10
96.25183374329816
 20
-124.9536132500116
 30
0.0
 10
95.99379609145295
 20
-124.9536132500116
 30
0.0
  0
HATCH
  5
E9
330
DE
100
AcDbEntity
  8
_U+30EC_U+30A4_U+30E4_U+30FC 1
 62
   179
420
  2234388
100
AcDbHatch
 10
0.0
 20
0.0
 30
0.0
210
0.0
220
0.0
230
1.0
  2
SOLID
 70
     1
 71
     0
 91
        2
 92
        1
 93
        1
 72
     4
 94
        3
 73
     0
 74
     1
 95
       29
 96
       25
 40
0.0
 40
0.0
 40
0.0
 40
0.0
 40
1.0
 40
1.0
 40
1.0
 40
2.0
 40
2.0
 40
2.0
 40
3.0
 40
3.0
 40
3.0
 40
4.0
 40
4.0
 40
4.0
 40
5.0
 40
5.0
 40
5.0
 40
6.0
 40
6.0
 40
6.0
 40
7.0
 40
7.0
 40
7.0
 40
8.0
 40
8.0
 40
8.0
 40
8.0
 10
96.3917046199993
 20
-126.1762776377268
 10
96.28352862176246
 20
-126.38573944323
 10
96.1102403188544
 20
-126.4048597231731
 10
95.99379609145295
 20
-126.4048597231731
 10
95.83291013229177
 20
-126.4048597231731
 10
95.691316707848
 20
-126.3583509341222
 10
95.59588756290658
 20
-126.1762776377268
 10
95.49253469834909
 20
-125.9816297428102
 10
95.4732421636317
 20
-125.7447794281992
 10
95.4732421636317
 20
-125.5818264117469
 10
95.4732421636317
 20
-125.4379936752377
 10
95.49046764105795
 20
-125.1863294500402
 10
95.59588756290658
 20
-124.987375185767
 10
95.70406356114343
 20
-124.7842868069116
 10
95.86460501075608
 20
-124.7610324123861
 10
95.99379609145295
 20
-124.7610324123861
 10
96.15261499332296
 20
-124.7610324123861
 10
96.29627547505788
 20
-124.8054741441459
 10
96.3917046199993
 20
-124.987375185767
 10
96.4909233699745
 20
-125.1799560233925
 10
96.51435001927419
 20
-125.4083658540646
 10
96.51435001927419
 20
-125.5818264117469
 10
96.51435001927419
 20
-125.7532199121381
 10
96.49299042726564
 20
-125.9838690548756
 10
96.3917046199993
 20
-126.1762776377268
 97
        0
 97
        0
 92
        1
 93
        1
 72
     4
 94
        3
 73
     0
 74
     1
 95
       17
 96
       13
 40
0.0
 40
0.0
 40
0.0
 40
0.0
 40
1.0
 40
1.0
 40
1.0
 40
2.0
 40
2.0
 40
2.0
 40
3.0
 40
3.0
 40
3.0
 40
4.0
 40
4.0
 40
4.0
 40
4.0
 10
95.99379609145295
 20
-124.9536132500116
 10
95.74402666877234
 20
-124.9536132500116
 10
95.69786238926999
 20
-125.2371446084477
 10
95.69786238926999
 20
-125.5818264117469
 10
95.69786238926999
 20
-125.9013590180038
 10
95.73369138231658
 20
-126.2102118282565
 10
95.99379609145295
 20
-126.2102118282565
 10
96.24149845684241
 20
-126.2102118282565
 10
96.29007430318443
 20
-125.9287475271116
 10
96.29007430318443
 20
-125.5818264117469
 10
96.29007430318443
 20
-125.2624660602642
 10
96.25183374329816
 20
-124.9536132500116
 10
95.99379609145295
 20
-124.9536132500116
 97
        0
 97
        0
 75
     2
 76
     1
 98
        0
  0
ENDBLK
  5
E1
330
DE
100
AcDbEntity
  8
0
100
AcDbBlockEnd
  0
ENDSEC
  0
SECTION
  2
ENTITIES
  0
SPLINE
  5
41
330
1F
100
AcDbEntity
  8
_U+30EC_U+30A4_U+30E4_U+30FC 1
370
     0
100
AcDbSpline
210
0.0
220
0.0
230
1.0
 70
    11
 71
     3
 72
    83
 73
    79
 74
     0
 42
0.0000000001
 43
0.0000000001
 12
1.0
 22
0.0
 32
0.0
 13
1.0
 23
0.0
 33
0.0
 40
0.0
 40
0.0
 40
0.0
 40
0.0
 40
1.0
 40
1.0
 40
1.0
 40
2.0
 40
2.0
 40
2.0
 40
3.0
 40
3.0
 40
3.0
 40
4.0
 40
4.0
 40
4.0
 40
5.0
 40
5.0
 40
5.0
 40
6.0
 40
6.0
 40
6.0
 40
7.0
 40
7.0
 40
7.0
 40
8.0
 40
8.0
 40
8.0
 40
9.0
 40
9.0
 40
9.0
 40
10.0
 40
10.0
 40
10.0
 40
11.0
 40
11.0
 40
11.0
 40
12.0
 40
12.0
 40
12.0
 40
13.0
 40
13.0
 40
13.0
 40
14.0
 40
14.0
 40
14.0
 40
15.0
 40
15.0
 40
15.0
 40
16.0
 40
16.0
 40
16.0
 40
17.0
 40
17.0
 40
17.0
 40
18.0
 40
18.0
 40
18.0
 40
19.0
 40
19.0
 40
19.0
 40
20.0
 40
20.0
 40
20.0
 40
21.0
 40
21.0
 40
21.0
 40
22.0
 40
22.0
 40
22.0
 40
23.0
 40
23.0
 40
23.0
 40
24.0
 40
24.0
 40
24.0
 40
25.0
 40
25.0
 40
25.0
 40
26.0
 40
26.0
 40
26.0
 40
26.0
 10
71.82714122309253
 20
-135.5097407994561
 30
0.0
 10
72.44104509631941
 20
-119.234055803525
 30
0.0
 10
85.52447892919987
 20
-106.1480463623519
 30
0.0
 10
101.8001635139726
 20
-105.5296621958397
 30
0.0
 10
101.8001635139726
 20
-105.5296621958397
 30
0.0
 10
101.7949776807715
 20
-105.5186202513981
 30
0.0
 10
101.7949776807715
 20
-105.5186202513981
 30
0.0
 10
101.7949776807715
 20
-105.5186202513981
 30
0.0
 10
101.7949776807715
 20
-104.7186613627092
 30
0.0
 10
101.7949776807715
 20
-104.7186613627092
 30
0.0
 10
101.7949776807715
 20
-104.7186613627092
 30
0.0
 10
100.5950746558281
 20
-104.7186613627092
 30
0.0
 10
100.5950746558281
 20
-104.7186613627092
 30
0.0
 10
100.5950746558281
 20
-104.7186613627092
 30
0.0
 10
100.5950746558281
 20
-103.5187583074538
 30
0.0
 10
100.5950746558281
 20
-103.5187583074538
 30
0.0
 10
100.5950746558281
 20
-103.5187583074538
 30
0.0
 10
101.7949776807715
 20
-103.5187583074538
 30
0.0
 10
101.7949776807715
 20
-103.5187583074538
 30
0.0
 10
101.7949776807715
 20
-103.5187583074538
 30
0.0
 10
101.7949776807715
 20
-103.5189346963426
 30
0.0
 10
101.7949776807715
 20
-103.5189346963426
 30
0.0
 10
101.7949776807715
 20
-103.5189346963426
 30
0.0
 10
101.7949776807715
 20
-98.51887414203689
 30
0.0
 10
101.7949776807715
 20
-98.51887414203689
 30
0.0
 10
101.7949776807715
 20
-98.51887414203689
 30
0.0
 10
116.9947606263261
 20
-98.51887414203689
 30
0.0
 10
116.9947606263261
 20
-98.51887414203689
 30
0.0
 10
116.9947606263261
 20
-98.51887414203689
 30
0.0
 10
116.9947606263261
 20
-99.71898886395903
 30
0.0
 10
116.9947606263261
 20
-99.71898886395903
 30
0.0
 10
116.9947606263261
 20
-99.71898886395903
 30
0.0
 10
102.9949159834919
 20
-99.71898886395903
 30
0.0
 10
102.9949159834919
 20
-99.71898886395903
 30
0.0
 10
102.9949159834919
 20
-99.71898886395903
 30
0.0
 10
102.9949159834919
 20
-106.7190524733202
 30
0.0
 10
102.9949159834919
 20
-106.7190524733202
 30
0.0
 10
102.9949159834919
 20
-106.7190524733202
 30
0.0
 10
103.0048995943483
 20
-106.7068463622121
 30
0.0
 10
103.0048995943483
 20
-106.7068463622121
 30
0.0
 10
86.43676223925893
 20
-106.7068463622121
 30
0.0
 10
73.00503091526427
 20
-120.138401636632
 30
0.0
 10
73.00503091526427
 20
-136.706539410268
 30
0.0
 10
73.00503091526427
 20
-136.706539410268
 30
0.0
 10
73.00503091526427
 20
-136.7124307991554
 30
0.0
 10
73.00503091526427
 20
-136.7124307991554
 30
0.0
 10
73.00503091526427
 20
-136.7124307991554
 30
0.0
 10
66.00493220496278
 20
-136.7124307991554
 30
0.0
 10
66.00493220496278
 20
-136.7124307991554
 30
0.0
 10
66.00493220496278
 20
-136.7124307991554
 30
0.0
 10
66.00493220496278
 20
-150.7122405178775
 30
0.0
 10
66.00493220496278
 20
-150.7122405178775
 30
0.0
 10
66.00493220496278
 20
-150.7122405178775
 30
0.0
 10
64.80499390224242
 20
-150.7122405178775
 30
0.0
 10
64.80499390224242
 20
-150.7122405178775
 30
0.0
 10
64.80499390224242
 20
-150.7122405178775
 30
0.0
 10
64.80499390224242
 20
-135.5124924661218
 30
0.0
 10
64.80499390224242
 20
-135.5124924661218
 30
0.0
 10
64.80499390224242
 20
-135.5124924661218
 30
0.0
 10
69.80487794135142
 20
-135.5124924661218
 30
0.0
 10
69.80487794135142
 20
-135.5124924661218
 30
0.0
 10
69.80487794135142
 20
-135.5124924661218
 30
0.0
 10
69.80452516358264
 20
-135.5124924661218
 30
0.0
 10
69.80452516358264
 20
-135.5124924661218
 30
0.0
 10
69.80452516358264
 20
-135.5124924661218
 30
0.0
 10
69.80452516358264
 20
-134.3125541330883
 30
0.0
 10
69.80452516358264
 20
-134.3125541330883
 30
0.0
 10
69.80452516358264
 20
-134.3125541330883
 30
0.0
 10
71.0047809662949
 20
-134.3125541330883
 30
0.0
 10
71.0047809662949
 20
-134.3125541330883
 30
0.0
 10
71.0047809662949
 20
-134.3125541330883
 30
0.0
 10
71.0047809662949
 20
-135.5124924661218
 30
0.0
 10
71.0047809662949
 20
-135.5124924661218
 30
0.0
 10
71.0047809662949
 20
-135.5124924661218
 30
0.0
 10
71.80474164871555
 20
-135.5124924661218
 30
0.0
 10
71.80474164871555
 20
-135.5124924661218
 30
0.0
 10
71.80474164871555
 20
-135.5124924661218
 30
0.0
 10
71.82714122309253
 20
-135.5097407994561
 30
0.0
 10
71.82714122309253
 20
-135.5097407994561
 30
0.0
  0
HATCH
  5
42
330
1F
100
AcDbEntity
  8
_U+30EC_U+30A4_U+30E4_U+30FC 1
 62
     9
420
 13224394
100
AcDbHatch
 10
0.0
 20
0.0
 30
0.0
210
0.0
220
0.0
230
1.0
  2
SOLID
 70
     1
 71
     0
 91
        1
 92
        1
 93
        1
 72
     4
 94
        3
 73
     0
 74
     1
 95
       83
 96
       79
 40
0.0
 40
0.0
 40
0.0
 40
0.0
 40
1.0
 40
1.0
 40
1.0
 40
2.0
 40
2.0
 40
2.0
 40
3.0
 40
3.0
 40
3.0
 40
4.0
 40
4.0
 40
4.0
 40
5.0
 40
5.0
 40
5.0
 40
6.0
 40
6.0
 40
6.0
 40
7.0
 40
7.0
 40
7.0
 40
8.0
 40
8.0
 40
8.0
 40
9.0
 40
9.0
 40
9.0
 40
10.0
 40
10.0
 40
10.0
 40
11.0
 40
11.0
 40
11.0
 40
12.0
 40
12.0
 40
12.0
 40
13.0
 40
13.0
 40
13.0
 40
14.0
 40
14.0
 40
14.0
 40
15.0
 40
15.0
 40
15.0
 40
16.0
 40
16.0
 40
16.0
 40
17.0
 40
17.0
 40
17.0
 40
18.0
 40
18.0
 40
18.0
 40
19.0
 40
19.0
 40
19.0
 40
20.0
 40
20.0
 40
20.0
 40
21.0
 40
21.0
 40
21.0
 40
22.0
 40
22.0
 40
22.0
 40
23.0
 40
23.0
 40
23.0
 40
24.0
 40
24.0
 40
24.0
 40
25.0
 40
25.0
 40
25.0
 40
26.0
 40
26.0
 40
26.0
 40
26.0
 10
71.82714122309253
 20
-135.5097407994561
 10
72.44104509631941
 20
-119.234055803525
 10
85.52447892919987
 20
-106.1480463623519
 10
101.8001635139726
 20
-105.5296621958397
 10
101.8001635139726
 20
-105.5296621958397
 10
101.7949776807715
 20
-105.5186202513981
 10
101.7949776807715
 20
-105.5186202513981
 10
101.7949776807715
 20
-105.5186202513981
 10
101.7949776807715
 20
-104.7186613627092
 10
101.7949776807715
 20
-104.7186613627092
 10
101.7949776807715
 20
-104.7186613627092
 10
100.5950746558281
 20
-104.7186613627092
 10
100.5950746558281
 20
-104.7186613627092
 10
100.5950746558281
 20
-104.7186613627092
 10
100.5950746558281
 20
-103.5187583074538
 10
100.5950746558281
 20
-103.5187583074538
 10
100.5950746558281
 20
-103.5187583074538
 10
101.7949776807715
 20
-103.5187583074538
 10
101.7949776807715
 20
-103.5187583074538
 10
101.7949776807715
 20
-103.5187583074538
 10
101.7949776807715
 20
-103.5189346963426
 10
101.7949776807715
 20
-103.5189346963426
 10
101.7949776807715
 20
-103.5189346963426
 10
101.7949776807715
 20
-98.51887414203689
 10
101.7949776807715
 20
-98.51887414203689
 10
101.7949776807715
 20
-98.51887414203689
 10
116.9947606263261
 20
-98.51887414203689
 10
116.9947606263261
 20
-98.51887414203689
 10
116.9947606263261
 20
-98.51887414203689
 10
116.9947606263261
 20
-99.71898886395903
 10
116.9947606263261
 20
-99.71898886395903
 10
116.9947606263261
 20
-99.71898886395903
 10
102.9949159834919
 20
-99.71898886395903
 10
102.9949159834919
 20
-99.71898886395903
 10
102.9949159834919
 20
-99.71898886395903
 10
102.9949159834919
 20
-106.7190524733202
 10
102.9949159834919
 20
-106.7190524733202
 10
102.9949159834919
 20
-106.7190524733202
 10
103.0048995943483
 20
-106.7068463622121
 10
103.0048995943483
 20
-106.7068463622121
 10
86.43676223925893
 20
-106.7068463622121
 10
73.00503091526427
 20
-120.138401636632
 10
73.00503091526427
 20
-136.706539410268
 10
73.00503091526427
 20
-136.706539410268
 10
73.00503091526427
 20
-136.7124307991554
 10
73.00503091526427
 20
-136.7124307991554
 10
73.00503091526427
 20
-136.7124307991554
 10
66.00493220496278
 20
-136.7124307991554
 10
66.00493220496278
 20
-136.7124307991554
 10
66.00493220496278
 20
-136.7124307991554
 10
66.00493220496278
 20
-150.7122405178775
 10
66.00493220496278
 20
-150.7122405178775
 10
66.00493220496278
 20
-150.7122405178775
 10
64.80499390224242
 20
-150.7122405178775
 10
64.80499390224242
 20
-150.7122405178775
 10
64.80499390224242
 20
-150.7122405178775
 10
64.80499390224242
 20
-135.5124924661218
 10
64.80499390224242
 20
-135.5124924661218
 10
64.80499390224242
 20
-135.5124924661218
 10
69.80487794135142
 20
-135.5124924661218
 10
69.80487794135142
 20
-135.5124924661218
 10
69.80487794135142
 20
-135.5124924661218
 10
69.80452516358264
 20
-135.5124924661218
 10
69.80452516358264
 20
-135.5124924661218
 10
69.80452516358264
 20
-135.5124924661218
 10
69.80452516358264
 20
-134.3125541330883
 10
69.80452516358264
 20
-134.3125541330883
 10
69.80452516358264
 20
-134.3125541330883
 10
71.0047809662949
 20
-134.3125541330883
 10
71.0047809662949
 20
-134.3125541330883
 10
71.0047809662949
 20
-134.3125541330883
 10
71.0047809662949
 20
-135.5124924661218
 10
71.0047809662949
 20
-135.5124924661218
 10
71.0047809662949
 20
-135.5124924661218
 10
71.80474164871555
 20
-135.5124924661218
 10
71.80474164871555
 20
-135.5124924661218
 10
71.80474164871555
 20
-135.5124924661218
 10
71.82714122309253
 20
-135.5097407994561
 10
71.82714122309253
 20
-135.5097407994561
 97
        0
 97
        0
 75
     2
 76
     1
 98
        0
  0
POLYLINE
  5
43
330
1F
100
AcDbEntity
  8
_U+30EC_U+30A4_U+30E4_U+30FC 1
 62
   179
420
  2234388
370
     9
100
AcDb2dPolyline
 66
     1
 10
0.0
 20
0.0
 30
0.0
  0
VERTEX
  5
44
330
43
100
AcDbEntity
  8
_U+30EC_U+30A4_U+30E4_U+30FC 1
 62
   179
420
  2234388
370
     9
100
AcDbVertex
100
AcDb2dVertex
 10
120.5552408132685
 20
-106.7080458066565
 30
0.0
  0
VERTEX
  5
45
330
43
100
AcDbEntity
  8
_U+30EC_U+30A4_U+30E4_U+30FC 1
 62
   179
420
  2234388
370
     9
100
AcDbVertex
100
AcDb2dVertex
 10
120.5552408132685
 20
-99.66056886397386
 30
0.0
  0
SEQEND
  5
46
330
43
100
AcDbEntity
  8
_U+30EC_U+30A4_U+30E4_U+30FC 1
 62
   179
420
  2234388
370
     9
  0
POLYLINE
  5
47
330
1F
100
AcDbEntity
  8
_U+30EC_U+30A4_U+30E4_U+30FC 1
 62
   179
420
  2234388
370
     9
100
AcDb2dPolyline
 66
     1
 10
0.0
 20
0.0
 30
0.0
  0
VERTEX
  5
48
330
47
100
AcDbEntity
  8
_U+30EC_U+30A4_U+30E4_U+30FC 1
 62
   179
420
  2234388
370
     9
100
AcDbVertex
100
AcDb2dVertex
 10
121.2925110722369
 20
-106.708222195545
 30
0.0
  0
VERTEX
  5
49
330
47
100
AcDbEntity
  8
_U+30EC_U+30A4_U+30E4_U+30FC 1
 62
   179
420
  2234388
370
     9
100
AcDbVertex
100
AcDb2dVertex
 10
103.9791659583816
 20
-106.708222195545
 30
0.0
  0
SEQEND
  5
4A
330
47
100
AcDbEntity
  8
_U+30EC_U+30A4_U+30E4_U+30FC 1
 62
   179
420
  2234388
370
     9
  0
POLYLINE
  5
4B
330
1F
100
AcDbEntity
  8
_U+30EC_U+30A4_U+30E4_U+30FC 1
 62
   179
420
  2234388
370
     9
100
AcDb2dPolyline
 66
     1
 10
0.0
 20
0.0
 30
0.0
  0
VERTEX
  5
4C
330
4B
100
AcDbEntity
  8
_U+30EC_U+30A4_U+30E4_U+30FC 1
 62
   179
420
  2234388
370
     9
100
AcDbVertex
100
AcDb2dVertex
 10
121.2931813499976
 20
-99.70829969729523
 30
0.0
  0
VERTEX
  5
4D
330
4B
100
AcDbEntity
  8
_U+30EC_U+30A4_U+30E4_U+30FC 1
 62
   179
420
  2234388
370
     9
100
AcDbVertex
100
AcDb2dVertex
 10
117.9889971927251
 20
-99.70829969729523
 30
0.0
  0
SEQEND
  5
4E
330
4B
100
AcDbEntity
  8
_U+30EC_U+30A4_U+30E4_U+30FC 1
 62
   179
420
  2234388
370
     9
  0
INSERT
  5
50
330
1F
100
AcDbEntity
  8
_U+30EC_U+30A4_U+30E4_U+30FC 1
100
AcDbBlockReference
  2
block 2
 10
0.0
 20
0.0
 30
0.0
  0
SPLINE
  5
55
330
1F
100
AcDbEntity
  8
_U+30EC_U+30A4_U+30E4_U+30FC 1
 62
   179
420
  2234388
370
     9
100
AcDbSpline
210
0.0
220
0.0
230
1.0
 70
    11
 71
     3
 72
    17
 73
    13
 74
     0
 42
0.0000000001
 43
0.0000000001
 12
1.0
 22
0.0
 32
0.0
 13
1.0
 23
0.0
 33
0.0
 40
0.0
 40
0.0
 40
0.0
 40
0.0
 40
1.0
 40
1.0
 40
1.0
 40
2.0
 40
2.0
 40
2.0
 40
3.0
 40
3.0
 40
3.0
 40
4.0
 40
4.0
 40
4.0
 40
4.0
 10
120.6551474773863
 20
-106.7080458066565
 30
0.0
 10
120.6551474773863
 20
-106.7633260844203
 30
0.0
 10
120.6103799785284
 20
-106.808128862187
 30
0.0
 10
120.5552408132685
 20
-106.808128862187
 30
0.0
 10
120.5001369257854
 20
-106.808128862187
 30
0.0
 10
120.4553341491506
 20
-106.7633260844203
 30
0.0
 10
120.4553341491506
 20
-106.7080458066565
 30
0.0
 10
120.4553341491506
 20
-106.6529066400034
 30
0.0
 10
120.5001369257854
 20
-106.6081391400145
 30
0.0
 10
120.5552408132685
 20
-106.6081391400145
 30
0.0
 10
120.6103799785284
 20
-106.6081391400145
 30
0.0
 10
120.6551474773863
 20
-106.6529066400034
 30
0.0
 10
120.6551474773863
 20
-106.7080458066565
 30
0.0
  0
HATCH
  5
56
330
1F
100
AcDbEntity
  8
_U+30EC_U+30A4_U+30E4_U+30FC 1
 62
   179
420
  2234388
100
AcDbHatch
 10
0.0
 20
0.0
 30
0.0
210
0.0
220
0.0
230
1.0
  2
SOLID
 70
     1
 71
     0
 91
        1
 92
        1
 93
        1
 72
     4
 94
        3
 73
     0
 74
     1
 95
       17
 96
       13
 40
0.0
 40
0.0
 40
0.0
 40
0.0
 40
1.0
 40
1.0
 40
1.0
 40
2.0
 40
2.0
 40
2.0
 40
3.0
 40
3.0
 40
3.0
 40
4.0
 40
4.0
 40
4.0
 40
4.0
 10
120.6551474773863
 20
-106.7080458066565
 10
120.6551474773863
 20
-106.7633260844203
 10
120.6103799785284
 20
-106.808128862187
 10
120.5552408132685
 20
-106.808128862187
 10
120.5001369257854
 20
-106.808128862187
 10
120.4553341491506
 20
-106.7633260844203
 10
120.4553341491506
 20
-106.7080458066565
 10
120.4553341491506
 20
-106.6529066400034
 10
120.5001369257854
 20
-106.6081391400145
 10
120.5552408132685
 20
-106.6081391400145
 10
120.6103799785284
 20
-106.6081391400145
 10
120.6551474773863
 20
-106.6529066400034
 10
120.6551474773863
 20
-106.7080458066565
 97
        0
 97
        0
 75
     2
 76
     1
 98
        0
  0
SPLINE
  5
57
330
1F
100
AcDbEntity
  8
_U+30EC_U+30A4_U+30E4_U+30FC 1
 62
   179
420
  2234388
370
     9
100
AcDbSpline
210
0.0
220
0.0
230
1.0
 70
    11
 71
     3
 72
    17
 73
    13
 74
     0
 42
0.0000000001
 43
0.0000000001
 12
1.0
 22
0.0
 32
0.0
 13
1.0
 23
0.0
 33
0.0
 40
0.0
 40
0.0
 40
0.0
 40
0.0
 40
1.0
 40
1.0
 40
1.0
 40
2.0
 40
2.0
 40
2.0
 40
3.0
 40
3.0
 40
3.0
 40
4.0
 40
4.0
 40
4.0
 40
4.0
 10
120.6537716440881
 20
-99.70829969729523
 30
0.0
 10
120.6537716440881
 20
-99.76357997505903
 30
0.0
 10
120.6090041452302
 20
-99.80838275282575
 30
0.0
 10
120.5538649799702
 20
-99.80838275282575
 30
0.0
 10
120.4987610924872
 20
-99.80838275282575
 30
0.0
 10
120.4539583158524
 20
-99.76357997505903
 30
0.0
 10
120.4539583158524
 20
-99.70829969729523
 30
0.0
 10
120.4539583158524
 20
-99.65316053064215
 30
0.0
 10
120.4987610924872
 20
-99.60839303065359
 30
0.0
 10
120.5538649799702
 20
-99.60839303065359
 30
0.0
 10
120.6090041452302
 20
-99.60839303065359
 30
0.0
 10
120.6537716440881
 20
-99.65316053064215
 30
0.0
 10
120.6537716440881
 20
-99.70829969729523
 30
0.0
  0
HATCH
  5
58
330
1F
100
AcDbEntity
  8
_U+30EC_U+30A4_U+30E4_U+30FC 1
 62
   179
420
  2234388
100
AcDbHatch
 10
0.0
 20
0.0
 30
0.0
210
0.0
220
0.0
230
1.0
  2
SOLID
 70
     1
 71
     0
 91
        1
 92
        1
 93
        1
 72
     4
 94
        3
 73
     0
 74
     1
 95
       17
 96
       13
 40
0.0
 40
0.0
 40
0.0
 40
0.0
 40
1.0
 40
1.0
 40
1.0
 40
2.0
 40
2.0
 40
2.0
 40
3.0
 40
3.0
 40
3.0
 40
4.0
 40
4.0
 40
4.0
 40
4.0
 10
120.6537716440881
 20
-99.70829969729523
 10
120.6537716440881
 20
-99.76357997505903
 10
120.6090041452302
 20
-99.80838275282575
 10
120.5538649799702
 20
-99.80838275282575
 10
120.4987610924872
 20
-99.80838275282575
 10
120.4539583158524
 20
-99.76357997505903
 10
120.4539583158524
 20
-99.70829969729523
 10
120.4539583158524
 20
-99.65316053064215
 10
120.4987610924872
 20
-99.60839303065359
 10
120.5538649799702
 20
-99.60839303065359
 10
120.6090041452302
 20
-99.60839303065359
 10
120.6537716440881
 20
-99.65316053064215
 10
120.6537716440881
 20
-99.70829969729523
 97
        0
 97
        0
 75
     2
 76
     1
 98
        0
  0
POLYLINE
  5
59
330
1F
100
AcDbEntity
  8
_U+30EC_U+30A4_U+30E4_U+30FC 1
 62
   179
420
  2234388
370
     9
100
AcDb2dPolyline
 66
     1
 10
0.0
 20
0.0
 30
0.0
  0
VERTEX
  5
5A
330
59
100
AcDbEntity
  8
_U+30EC_U+30A4_U+30E4_U+30FC 1
 62
   179
420
  2234388
370
     9
100
AcDbVertex
100
AcDb2dVertex
 10
65.95981192833611
 20
-154.784707183526
 30
0.0
  0
VERTEX
  5
5B
330
59
100
AcDbEntity
  8
_U+30EC_U+30A4_U+30E4_U+30FC 1
 62
   179
420
  2234388
370
     9
100
AcDbVertex
100
AcDb2dVertex
 10
61.04794594253715
 20
-154.784707183526
 30
0.0
  0
SEQEND
  5
5C
330
59
100
AcDbEntity
  8
_U+30EC_U+30A4_U+30E4_U+30FC 1
 62
   179
420
  2234388
370
     9
  0
POLYLINE
  5
5D
330
1F
100
AcDbEntity
  8
_U+30EC_U+30A4_U+30E4_U+30FC 1
 62
   179
420
  2234388
370
     9
100
AcDb2dPolyline
 66
     1
 10
0.0
 20
0.0
 30
0.0
  0
VERTEX
  5
5E
330
5D
100
AcDbEntity
  8
_U+30EC_U+30A4_U+30E4_U+30FC 1
 62
   179
420
  2234388
370
     9
100
AcDbVertex
100
AcDb2dVertex
 10
73.00742980409196
 20
-154.7840016279705
 30
0.0
  0
VERTEX
  5
5F
330
5D
100
AcDbEntity
  8
_U+30EC_U+30A4_U+30E4_U+30FC 1
 62
   179
420
  2234388
370
     9
100
AcDbVertex
100
AcDb2dVertex
 10
65.95981192833611
 20
-154.7840016279705
 30
0.0
  0
SEQEND
  5
60
330
5D
100
AcDbEntity
  8
_U+30EC_U+30A4_U+30E4_U+30FC 1
 62
   179
420
  2234388
370
     9
  0
POLYLINE
  5
61
330
1F
100
AcDbEntity
  8
_U+30EC_U+30A4_U+30E4_U+30FC 1
 62
   179
420
  2234388
370
     9
100
AcDb2dPolyline
 66
     1
 10
0.0
 20
0.0
 30
0.0
  0
VERTEX
  5
62
330
61
100
AcDbEntity
  8
_U+30EC_U+30A4_U+30E4_U+30FC 1
 62
   179
420
  2234388
370
     9
100
AcDbVertex
100
AcDb2dVertex
 10
73.00778258186074
 20
-158.7179677380983
 30
0.0
  0
VERTEX
  5
63
330
61
100
AcDbEntity
  8
_U+30EC_U+30A4_U+30E4_U+30FC 1
 62
   179
420
  2234388
370
     9
100
AcDbVertex
100
AcDb2dVertex
 10
73.00778258186074
 20
-137.7080402433505
 30
0.0
  0
SEQEND
  5
64
330
61
100
AcDbEntity
  8
_U+30EC_U+30A4_U+30E4_U+30FC 1
 62
   179
420
  2234388
370
     9
  0
POLYLINE
  5
65
330
1F
100
AcDbEntity
  8
_U+30EC_U+30A4_U+30E4_U+30FC 1
 62
   179
420
  2234388
370
     9
100
AcDb2dPolyline
 66
     1
 10
0.0
 20
0.0
 30
0.0
  0
VERTEX
  5
66
330
65
100
AcDbEntity
  8
_U+30EC_U+30A4_U+30E4_U+30FC 1
 62
   179
420
  2234388
370
     9
100
AcDbVertex
100
AcDb2dVertex
 10
66.00768387155925
 20
-155.7847969054981
 30
0.0
  0
VERTEX
  5
67
330
65
100
AcDbEntity
  8
_U+30EC_U+30A4_U+30E4_U+30FC 1
 62
   179
420
  2234388
370
     9
100
AcDbVertex
100
AcDb2dVertex
 10
66.00768387155925
 20
-151.7178688509593
 30
0.0
  0
SEQEND
  5
68
330
65
100
AcDbEntity
  8
_U+30EC_U+30A4_U+30E4_U+30FC 1
 62
   179
420
  2234388
370
     9
  0
POLYLINE
  5
69
330
1F
100
AcDbEntity
  8
_U+30EC_U+30A4_U+30E4_U+30FC 1
 62
   179
420
  2234388
370
     9
100
AcDb2dPolyline
 66
     1
 10
0.0
 20
0.0
 30
0.0
  0
VERTEX
  5
6A
330
69
100
AcDbEntity
  8
_U+30EC_U+30A4_U+30E4_U+30FC 1
 62
   179
420
  2234388
370
     9
100
AcDbVertex
100
AcDb2dVertex
 10
64.80499390224242
 20
-158.7179677380983
 30
0.0
  0
VERTEX
  5
6B
330
69
100
AcDbEntity
  8
_U+30EC_U+30A4_U+30E4_U+30FC 1
 62
   179
420
  2234388
370
     9
100
AcDbVertex
100
AcDb2dVertex
 10
64.80499390224242
 20
-151.7178688509593
 30
0.0
  0
SEQEND
  5
6C
330
69
100
AcDbEntity
  8
_U+30EC_U+30A4_U+30E4_U+30FC 1
 62
   179
420
  2234388
370
     9
  0
INSERT
  5
6E
330
1F
100
AcDbEntity
  8
_U+30EC_U+30A4_U+30E4_U+30FC 1
100
AcDbBlockReference
  2
block 3
 10
0.0
 20
0.0
 30
0.0
  0
INSERT
  5
74
330
1F
100
AcDbEntity
  8
_U+30EC_U+30A4_U+30E4_U+30FC 1
100
AcDbBlockReference
  2
block 4
 10
0.0
 20
0.0
 30
0.0
  0
SPLINE
  5
83
330
1F
100
AcDbEntity
  8
_U+30EC_U+30A4_U+30E4_U+30FC 1
 62
   179
420
  2234388
370
     9
100
AcDbSpline
210
0.0
220
0.0
230
1.0
 70
    11
 71
     3
 72
    17
 73
    13
 74
     0
 42
0.0000000001
 43
0.0000000001
 12
1.0
 22
0.0
 32
0.0
 13
1.0
 23
0.0
 33
0.0
 40
0.0
 40
0.0
 40
0.0
 40
0.0
 40
1.0
 40
1.0
 40
1.0
 40
2.0
 40
2.0
 40
2.0
 40
3.0
 40
3.0
 40
3.0
 40
4.0
 40
4.0
 40
4.0
 40
4.0
 10
73.00742980409196
 20
-154.8839082946121
 30
0.0
 10
73.06288646934381
 20
-154.8839082946121
 30
0.0
 10
73.10768924597858
 20
-154.8391407946235
 30
0.0
 10
73.10768924597858
 20
-154.7840016279705
 30
0.0
 10
73.10768924597858
 20
-154.7288977390955
 30
0.0
 10
73.06288646934381
 20
-154.6840949613288
 30
0.0
 10
73.00742980409196
 20
-154.6840949613288
 30
0.0
 10
72.95229063883201
 20
-154.6840949613288
 30
0.0
 10
72.90752498177325
 20
-154.7288977390955
 30
0.0
 10
72.90752498177325
 20
-154.7840016279705
 30
0.0
 10
72.90752498177325
 20
-154.8391407946235
 30
0.0
 10
72.95229063883201
 20
-154.8839082946121
 30
0.0
 10
73.00742980409196
 20
-154.8839082946121
 30
0.0
  0
HATCH
  5
84
330
1F
100
AcDbEntity
  8
_U+30EC_U+30A4_U+30E4_U+30FC 1
 62
   179
420
  2234388
100
AcDbHatch
 10
0.0
 20
0.0
 30
0.0
210
0.0
220
0.0
230
1.0
  2
SOLID
 70
     1
 71
     0
 91
        1
 92
        1
 93
        1
 72
     4
 94
        3
 73
     0
 74
     1
 95
       17
 96
       13
 40
0.0
 40
0.0
 40
0.0
 40
0.0
 40
1.0
 40
1.0
 40
1.0
 40
2.0
 40
2.0
 40
2.0
 40
3.0
 40
3.0
 40
3.0
 40
4.0
 40
4.0
 40
4.0
 40
4.0
 10
73.00742980409196
 20
-154.8839082946121
 10
73.06288646934381
 20
-154.8839082946121
 10
73.10768924597858
 20
-154.8391407946235
 10
73.10768924597858
 20
-154.7840016279705
 10
73.10768924597858
 20
-154.7288977390955
 10
73.06288646934381
 20
-154.6840949613288
 10
73.00742980409196
 20
-154.6840949613288
 10
72.95229063883201
 20
-154.6840949613288
 10
72.90752498177325
 20
-154.7288977390955
 10
72.90752498177325
 20
-154.7840016279705
 10
72.90752498177325
 20
-154.8391407946235
 10
72.95229063883201
 20
-154.8839082946121
 10
73.00742980409196
 20
-154.8839082946121
 97
        0
 97
        0
 75
     2
 76
     1
 98
        0
  0
SPLINE
  5
85
330
1F
100
AcDbEntity
  8
_U+30EC_U+30A4_U+30E4_U+30FC 1
 62
   179
420
  2234388
370
     9
100
AcDbSpline
210
0.0
220
0.0
230
1.0
 70
    11
 71
     3
 72
    17
 73
    13
 74
     0
 42
0.0000000001
 43
0.0000000001
 12
1.0
 22
0.0
 32
0.0
 13
1.0
 23
0.0
 33
0.0
 40
0.0
 40
0.0
 40
0.0
 40
0.0
 40
1.0
 40
1.0
 40
1.0
 40
2.0
 40
2.0
 40
2.0
 40
3.0
 40
3.0
 40
3.0
 40
4.0
 40
4.0
 40
4.0
 40
4.0
 10
66.00768387155925
 20
-154.8821796835014
 30
0.0
 10
66.06314053681109
 20
-154.8821796835014
 30
0.0
 10
66.10794331344586
 20
-154.8374121835129
 30
0.0
 10
66.10794331344586
 20
-154.7822730168598
 30
0.0
 10
66.10794331344586
 20
-154.7271691279849
 30
0.0
 10
66.06314053681109
 20
-154.6823663502182
 30
0.0
 10
66.00768387155925
 20
-154.6823663502182
 30
0.0
 10
65.95254470629929
 20
-154.6823663502182
 30
0.0
 10
65.90777720744141
 20
-154.7271691279849
 30
0.0
 10
65.90777720744141
 20
-154.7822730168598
 30
0.0
 10
65.90777720744141
 20
-154.8374121835129
 30
0.0
 10
65.95254470629929
 20
-154.8821796835014
 30
0.0
 10
66.00768387155925
 20
-154.8821796835014
 30
0.0
  0
HATCH
  5
86
330
1F
100
AcDbEntity
  8
_U+30EC_U+30A4_U+30E4_U+30FC 1
 62
   179
420
  2234388
100
AcDbHatch
 10
0.0
 20
0.0
 30
0.0
210
0.0
220
0.0
230
1.0
  2
SOLID
 70
     1
 71
     0
 91
        1
 92
        1
 93
        1
 72
     4
 94
        3
 73
     0
 74
     1
 95
       17
 96
       13
 40
0.0
 40
0.0
 40
0.0
 40
0.0
 40
1.0
 40
1.0
 40
1.0
 40
2.0
 40
2.0
 40
2.0
 40
3.0
 40
3.0
 40
3.0
 40
4.0
 40
4.0
 40
4.0
 40
4.0
 10
66.00768387155925
 20
-154.8821796835014
 10
66.06314053681109
 20
-154.8821796835014
 10
66.10794331344586
 20
-154.8374121835129
 10
66.10794331344586
 20
-154.7822730168598
 10
66.10794331344586
 20
-154.7271691279849
 10
66.06314053681109
 20
-154.6823663502182
 10
66.00768387155925
 20
-154.6823663502182
 10
65.95254470629929
 20
-154.6823663502182
 10
65.90777720744141
 20
-154.7271691279849
 10
65.90777720744141
 20
-154.7822730168598
 10
65.90777720744141
 20
-154.8374121835129
 10
65.95254470629929
 20
-154.8821796835014
 10
66.00768387155925
 20
-154.8821796835014
 97
        0
 97
        0
 75
     2
 76
     1
 98
        0
  0
SPLINE
  5
87
330
1F
100
AcDbEntity
  8
_U+30EC_U+30A4_U+30E4_U+30FC 1
 62
   179
420
  2234388
370
     9
100
AcDbSpline
210
0.0
220
0.0
230
1.0
 70
    11
 71
     3
 72
    17
 73
    13
 74
     0
 42
0.0000000001
 43
0.0000000001
 12
1.0
 22
0.0
 32
0.0
 13
1.0
 23
0.0
 33
0.0
 40
0.0
 40
0.0
 40
0.0
 40
0.0
 40
1.0
 40
1.0
 40
1.0
 40
2.0
 40
2.0
 40
2.0
 40
3.0
 40
3.0
 40
3.0
 40
4.0
 40
4.0
 40
4.0
 40
4.0
 10
64.80774720602041
 20
-154.8839082946121
 30
0.0
 10
64.86288473409884
 20
-154.8839082946121
 30
0.0
 10
64.90765223295672
 20
-154.8391407946235
 30
0.0
 10
64.90765223295672
 20
-154.7840016279705
 30
0.0
 10
64.90765223295672
 20
-154.7288977390955
 30
0.0
 10
64.86288473409884
 20
-154.6840949613288
 30
0.0
 10
64.80774720602041
 20
-154.6840949613288
 30
0.0
 10
64.75264168135581
 20
-154.6840949613288
 30
0.0
 10
64.70783890472106
 20
-154.7288977390955
 30
0.0
 10
64.70783890472106
 20
-154.7840016279705
 30
0.0
 10
64.70783890472106
 20
-154.8391407946235
 30
0.0
 10
64.75264168135581
 20
-154.8839082946121
 30
0.0
 10
64.80774720602041
 20
-154.8839082946121
 30
0.0
  0
HATCH
  5
88
330
1F
100
AcDbEntity
  8
_U+30EC_U+30A4_U+30E4_U+30FC 1
 62
   179
420
  2234388
100
AcDbHatch
 10
0.0
 20
0.0
 30
0.0
210
0.0
220
0.0
230
1.0
  2
SOLID
 70
     1
 71
     0
 91
        1
 92
        1
 93
        1
 72
     4
 94
        3
 73
     0
 74
     1
 95
       17
 96
       13
 40
0.0
 40
0.0
 40
0.0
 40
0.0
 40
1.0
 40
1.0
 40
1.0
 40
2.0
 40
2.0
 40
2.0
 40
3.0
 40
3.0
 40
3.0
 40
4.0
 40
4.0
 40
4.0
 40
4.0
 10
64.80774720602041
 20
-154.8839082946121
 10
64.86288473409884
 20
-154.8839082946121
 10
64.90765223295672
 20
-154.8391407946235
 10
64.90765223295672
 20
-154.7840016279705
 10
64.90765223295672
 20
-154.7288977390955
 10
64.86288473409884
 20
-154.6840949613288
 10
64.80774720602041
 20
-154.6840949613288
 10
64.75264168135581
 20
-154.6840949613288
 10
64.70783890472106
 20
-154.7288977390955
 10
64.70783890472106
 20
-154.7840016279705
 10
64.70783890472106
 20
-154.8391407946235
 10
64.75264168135581
 20
-154.8839082946121
 10
64.80774720602041
 20
-154.8839082946121
 97
        0
 97
        0
 75
     2
 76
     1
 98
        0
  0
POLYLINE
  5
89
330
1F
100
AcDbEntity
  8
_U+30EC_U+30A4_U+30E4_U+30FC 1
 62
   179
420
  2234388
370
     9
100
AcDb2dPolyline
 66
     1
 10
0.0
 20
0.0
 30
0.0
  0
VERTEX
  5
8A
330
89
100
AcDbEntity
  8
_U+30EC_U+30A4_U+30E4_U+30FC 1
 62
   179
420
  2234388
370
     9
100
AcDbVertex
100
AcDb2dVertex
 10
64.80499390224242
 20
-158.0003471827222
 30
0.0
  0
VERTEX
  5
8B
330
89
100
AcDbEntity
  8
_U+30EC_U+30A4_U+30E4_U+30FC 1
 62
   179
420
  2234388
370
     9
100
AcDbVertex
100
AcDb2dVertex
 10
117.0078486815478
 20
-157.9989713493893
 30
0.0
  0
SEQEND
  5
8C
330
89
100
AcDbEntity
  8
_U+30EC_U+30A4_U+30E4_U+30FC 1
 62
   179
420
  2234388
370
     9
  0
INSERT
  5
8E
330
1F
100
AcDbEntity
  8
_U+30EC_U+30A4_U+30E4_U+30FC 1
100
AcDbBlockReference
  2
block 5
 10
0.0
 20
0.0
 30
0.0
  0
INSERT
  5
97
330
1F
100
AcDbEntity
  8
_U+30EC_U+30A4_U+30E4_U+30FC 1
100
AcDbBlockReference
  2
block 6
 10
0.0
 20
0.0
 30
0.0
  0
POLYLINE
  5
B1
330
1F
100
AcDbEntity
  8
_U+30EC_U+30A4_U+30E4_U+30FC 1
 62
   179
420
  2234388
370
     9
100
AcDb2dPolyline
 66
     1
 10
0.0
 20
0.0
 30
0.0
  0
VERTEX
  5
B2
330
B1
100
AcDbEntity
  8
_U+30EC_U+30A4_U+30E4_U+30FC 1
 62
   179
420
  2234388
370
     9
100
AcDbVertex
100
AcDb2dVertex
 10
117.0078486815478
 20
-158.7179677380983
 30
0.0
  0
VERTEX
  5
B3
330
B1
100
AcDbEntity
  8
_U+30EC_U+30A4_U+30E4_U+30FC 1
 62
   179
420
  2234388
370
     9
100
AcDbVertex
100
AcDb2dVertex
 10
117.0078486815478
 20
-100.7189021970426
 30
0.0
  0
SEQEND
  5
B4
330
B1
100
AcDbEntity
  8
_U+30EC_U+30A4_U+30E4_U+30FC 1
 62
   179
420
  2234388
370
     9
  0
INSERT
  5
B6
330
1F
100
AcDbEntity
  8
_U+30EC_U+30A4_U+30E4_U+30FC 1
100
AcDbBlockReference
  2
block 7
 10
0.0
 20
0.0
 30
0.0
  0
SPLINE
  5
C7
330
1F
100
AcDbEntity
  8
_U+30EC_U+30A4_U+30E4_U+30FC 1
 62
   179
420
  2234388
370
     9
100
AcDbSpline
210
0.0
220
0.0
230
1.0
 70
    11
 71
     3
 72
    17
 73
    13
 74
     0
 42
0.0000000001
 43
0.0000000001
 12
1.0
 22
0.0
 32
0.0
 13
1.0
 23
0.0
 33
0.0
 40
0.0
 40
0.0
 40
0.0
 40
0.0
 40
1.0
 40
1.0
 40
1.0
 40
2.0
 40
2.0
 40
2.0
 40
3.0
 40
3.0
 40
3.0
 40
4.0
 40
4.0
 40
4.0
 40
4.0
 10
64.90490056636025
 20
-157.999324127167
 30
0.0
 10
64.90490056636025
 20
-157.944184960514
 30
0.0
 10
64.86013306750237
 20
-157.8994174605254
 30
0.0
 10
64.80464112447365
 20
-157.8994174605254
 30
0.0
 10
64.74989165047909
 20
-157.8994174605254
 30
0.0
 10
64.70508887271268
 20
-157.944184960514
 30
0.0
 10
64.70508887271268
 20
-157.999324127167
 30
0.0
 10
64.70508887271268
 20
-158.0547807938197
 30
0.0
 10
64.74989165047909
 20
-158.0995835715864
 30
0.0
 10
64.80464112447365
 20
-158.0995835715864
 30
0.0
 10
64.86013306750237
 20
-158.0995835715864
 30
0.0
 10
64.90490056636025
 20
-158.0547807938197
 30
0.0
 10
64.90490056636025
 20
-157.999324127167
 30
0.0
  0
SPLINE
  5
C8
330
1F
100
AcDbEntity
  8
_U+30EC_U+30A4_U+30E4_U+30FC 1
 62
   179
420
  2234388
370
     9
100
AcDbSpline
210
0.0
220
0.0
230
1.0
 70
    11
 71
     3
 72
    17
 73
    13
 74
     0
 42
0.0000000001
 43
0.0000000001
 12
1.0
 22
0.0
 32
0.0
 13
1.0
 23
0.0
 33
0.0
 40
0.0
 40
0.0
 40
0.0
 40
0.0
 40
1.0
 40
1.0
 40
1.0
 40
2.0
 40
2.0
 40
2.0
 40
3.0
 40
3.0
 40
3.0
 40
4.0
 40
4.0
 40
4.0
 40
4.0
 10
103.1075579250626
 20
-158.0003471827222
 30
0.0
 10
103.1075579250626
 20
-158.0554863493752
 30
0.0
 10
103.0627904262047
 20
-158.1002538493638
 30
0.0
 10
103.0076512609448
 20
-158.1002538493638
 30
0.0
 10
102.9525499742621
 20
-158.1002538493638
 30
0.0
 10
102.9077471964954
 20
-158.0554863493752
 30
0.0
 10
102.9077471964954
 20
-158.0003471827222
 30
0.0
 10
102.9077471964954
 20
-157.9452432938472
 30
0.0
 10
102.9525499742621
 20
-157.9004405160805
 30
0.0
 10
103.0076512609448
 20
-157.9004405160805
 30
0.0
 10
103.0627904262047
 20
-157.9004405160805
 30
0.0
 10
103.1075579250626
 20
-157.9452432938472
 30
0.0
 10
103.1075579250626
 20
-158.0003471827222
 30
0.0
  0
HATCH
  5
C9
330
1F
100
AcDbEntity
  8
_U+30EC_U+30A4_U+30E4_U+30FC 1
 62
   179
420
  2234388
100
AcDbHatch
 10
0.0
 20
0.0
 30
0.0
210
0.0
220
0.0
230
1.0
  2
SOLID
 70
     1
 71
     0
 91
        1
 92
        1
 93
        1
 72
     4
 94
        3
 73
     0
 74
     1
 95
       17
 96
       13
 40
0.0
 40
0.0
 40
0.0
 40
0.0
 40
1.0
 40
1.0
 40
1.0
 40
2.0
 40
2.0
 40
2.0
 40
3.0
 40
3.0
 40
3.0
 40
4.0
 40
4.0
 40
4.0
 40
4.0
 10
103.1075579250626
 20
-158.0003471827222
 10
103.1075579250626
 20
-158.0554863493752
 10
103.0627904262047
 20
-158.1002538493638
 10
103.0076512609448
 20
-158.1002538493638
 10
102.9525499742621
 20
-158.1002538493638
 10
102.9077471964954
 20
-158.0554863493752
 10
102.9077471964954
 20
-158.0003471827222
 10
102.9077471964954
 20
-157.9452432938472
 10
102.9525499742621
 20
-157.9004405160805
 10
103.0076512609448
 20
-157.9004405160805
 10
103.0627904262047
 20
-157.9004405160805
 10
103.1075579250626
 20
-157.9452432938472
 10
103.1075579250626
 20
-158.0003471827222
 97
        0
 97
        0
 75
     2
 76
     1
 98
        0
  0
SPLINE
  5
CA
330
1F
100
AcDbEntity
  8
_U+30EC_U+30A4_U+30E4_U+30FC 1
 62
   179
420
  2234388
370
     9
100
AcDbSpline
210
0.0
220
0.0
230
1.0
 70
    11
 71
     3
 72
    17
 73
    13
 74
     0
 42
0.0000000001
 43
0.0000000001
 12
1.0
 22
0.0
 32
0.0
 13
1.0
 23
0.0
 33
0.0
 40
0.0
 40
0.0
 40
0.0
 40
0.0
 40
1.0
 40
1.0
 40
1.0
 40
2.0
 40
2.0
 40
2.0
 40
3.0
 40
3.0
 40
3.0
 40
4.0
 40
4.0
 40
4.0
 40
4.0
 10
117.0950200682127
 20
-158.0013702382773
 30
0.0
 10
117.0950200682127
 20
-158.0565094049304
 30
0.0
 10
117.050217291578
 20
-158.1012769049189
 30
0.0
 10
116.995078126318
 20
-158.1012769049189
 30
0.0
 10
116.9396214610662
 20
-158.1012769049189
 30
0.0
 10
116.8948539622083
 20
-158.0565094049304
 30
0.0
 10
116.8948539622083
 20
-158.0013702382773
 30
0.0
 10
116.8948539622083
 20
-157.9462663494024
 30
0.0
 10
116.9396214610662
 20
-157.9014635716356
 30
0.0
 10
116.995078126318
 20
-157.9014635716356
 30
0.0
 10
117.050217291578
 20
-157.9014635716356
 30
0.0
 10
117.0950200682127
 20
-157.9462663494024
 30
0.0
 10
117.0950200682127
 20
-158.0013702382773
 30
0.0
  0
HATCH
  5
CB
330
1F
100
AcDbEntity
  8
_U+30EC_U+30A4_U+30E4_U+30FC 1
 62
   179
420
  2234388
100
AcDbHatch
 10
0.0
 20
0.0
 30
0.0
210
0.0
220
0.0
230
1.0
  2
SOLID
 70
     1
 71
     0
 91
        1
 92
        1
 93
        1
 72
     4
 94
        3
 73
     0
 74
     1
 95
       17
 96
       13
 40
0.0
 40
0.0
 40
0.0
 40
0.0
 40
1.0
 40
1.0
 40
1.0
 40
2.0
 40
2.0
 40
2.0
 40
3.0
 40
3.0
 40
3.0
 40
4.0
 40
4.0
 40
4.0
 40
4.0
 10
117.0950200682127
 20
-158.0013702382773
 10
117.0950200682127
 20
-158.0565094049304
 10
117.050217291578
 20
-158.1012769049189
 10
116.995078126318
 20
-158.1012769049189
 10
116.9396214610662
 20
-158.1012769049189
 10
116.8948539622083
 20
-158.0565094049304
 10
116.8948539622083
 20
-158.0013702382773
 10
116.8948539622083
 20
-157.9462663494024
 10
116.9396214610662
 20
-157.9014635716356
 10
116.995078126318
 20
-157.9014635716356
 10
117.050217291578
 20
-157.9014635716356
 10
117.0950200682127
 20
-157.9462663494024
 10
117.0950200682127
 20
-158.0013702382773
 97
        0
 97
        0
 75
     2
 76
     1
 98
        0
  0
SPLINE
  5
CC
330
1F
100
AcDbEntity
  8
_U+30EC_U+30A4_U+30E4_U+30FC 1
 62
   179
420
  2234388
370
     9
100
AcDbSpline
210
0.0
220
0.0
230
1.0
 70
    11
 71
     3
 72
    17
 73
    13
 74
     0
 42
0.0000000001
 43
0.0000000001
 12
1.0
 22
0.0
 32
0.0
 13
1.0
 23
0.0
 33
0.0
 40
0.0
 40
0.0
 40
0.0
 40
0.0
 40
1.0
 40
1.0
 40
1.0
 40
2.0
 40
2.0
 40
2.0
 40
3.0
 40
3.0
 40
3.0
 40
4.0
 40
4.0
 40
4.0
 40
4.0
 10
73.10768924597858
 20
-157.9989713493893
 30
0.0
 10
73.10768924597858
 20
-158.0540752382642
 30
0.0
 10
73.06288646934381
 20
-158.0988780160309
 30
0.0
 10
73.00778258186074
 20
-158.0988780160309
 30
0.0
 10
72.9526434166008
 20
-158.0988780160309
 30
0.0
 10
72.9078777595507
 20
-158.0540752382642
 30
0.0
 10
72.9078777595507
 20
-157.9989713493893
 30
0.0
 10
72.9078777595507
 20
-157.9438321827362
 30
0.0
 10
72.9526434166008
 20
-157.8990646827476
 30
0.0
 10
73.00778258186074
 20
-157.8990646827476
 30
0.0
 10
73.06288646934381
 20
-157.8990646827476
 30
0.0
 10
73.10768924597858
 20
-157.9438321827362
 30
0.0
 10
73.10768924597858
 20
-157.9989713493893
 30
0.0
  0
HATCH
  5
CD
330
1F
100
AcDbEntity
  8
_U+30EC_U+30A4_U+30E4_U+30FC 1
 62
   179
420
  2234388
100
AcDbHatch
 10
0.0
 20
0.0
 30
0.0
210
0.0
220
0.0
230
1.0
  2
SOLID
 70
     1
 71
     0
 91
        1
 92
        1
 93
        1
 72
     4
 94
        3
 73
     0
 74
     1
 95
       17
 96
       13
 40
0.0
 40
0.0
 40
0.0
 40
0.0
 40
1.0
 40
1.0
 40
1.0
 40
2.0
 40
2.0
 40
2.0
 40
3.0
 40
3.0
 40
3.0
 40
4.0
 40
4.0
 40
4.0
 40
4.0
 10
73.10768924597858
 20
-157.9989713493893
 10
73.10768924597858
 20
-158.0540752382642
 10
73.06288646934381
 20
-158.0988780160309
 10
73.00778258186074
 20
-158.0988780160309
 10
72.9526434166008
 20
-158.0988780160309
 10
72.9078777595507
 20
-158.0540752382642
 10
72.9078777595507
 20
-157.9989713493893
 10
72.9078777595507
 20
-157.9438321827362
 10
72.9526434166008
 20
-157.8990646827476
 10
73.00778258186074
 20
-157.8990646827476
 10
73.06288646934381
 20
-157.8990646827476
 10
73.10768924597858
 20
-157.9438321827362
 10
73.10768924597858
 20
-157.9989713493893
 97
        0
 97
        0
 75
     2
 76
     1
 98
        0
  0
POLYLINE
  5
CE
330
1F
100
AcDbEntity
  8
_U+30EC_U+30A4_U+30E4_U+30FC 1
 62
   179
420
  2234388
370
     9
100
AcDb2dPolyline
 66
     1
 10
0.0
 20
0.0
 30
0.0
  0
VERTEX
  5
CF
330
CE
100
AcDbEntity
  8
_U+30EC_U+30A4_U+30E4_U+30FC 1
 62
   179
420
  2234388
370
     9
100
AcDbVertex
100
AcDb2dVertex
 10
103.0076512609448
 20
-158.7179677380983
 30
0.0
  0
VERTEX
  5
D0
330
CE
100
AcDbEntity
  8
_U+30EC_U+30A4_U+30E4_U+30FC 1
 62
   179
420
  2234388
370
     9
100
AcDbVertex
100
AcDb2dVertex
 10
103.0076512609448
 20
-107.7081708064064
 30
0.0
  0
SEQEND
  5
D1
330
CE
100
AcDbEntity
  8
_U+30EC_U+30A4_U+30E4_U+30FC 1
 62
   179
420
  2234388
370
     9
  0
POLYLINE
  5
D2
330
1F
100
AcDbEntity
  8
_U+30EC_U+30A4_U+30E4_U+30FC 1
 62
   179
420
  2234388
370
     9
100
AcDb2dPolyline
 66
     1
 10
0.0
 20
0.0
 30
0.0
  0
VERTEX
  5
D3
330
D2
100
AcDbEntity
  8
_U+30EC_U+30A4_U+30E4_U+30FC 1
 62
   179
420
  2234388
370
     9
100
AcDbVertex
100
AcDb2dVertex
 10
81.1009984864967
 20
-116.2102916376141
 30
0.0
  0
VERTEX
  5
D4
330
D2
100
AcDbEntity
  8
_U+30EC_U+30A4_U+30E4_U+30FC 1
 62
   179
420
  2234388
370
     9
100
AcDbVertex
100
AcDb2dVertex
 10
81.79071430223392
 20
-117.2803371929021
 30
0.0
  0
SEQEND
  5
D5
330
D2
100
AcDbEntity
  8
_U+30EC_U+30A4_U+30E4_U+30FC 1
 62
   179
420
  2234388
370
     9
  0
POLYLINE
  5
D6
330
1F
100
AcDbEntity
  8
_U+30EC_U+30A4_U+30E4_U+30FC 1
 62
   179
420
  2234388
370
     9
100
AcDb2dPolyline
 66
     1
 10
0.0
 20
0.0
 30
0.0
  0
VERTEX
  5
D7
330
D6
100
AcDbEntity
  8
_U+30EC_U+30A4_U+30E4_U+30FC 1
 62
   179
420
  2234388
370
     9
100
AcDbVertex
100
AcDb2dVertex
 10
81.1009984864967
 20
-116.2102916376141
 30
0.0
  0
VERTEX
  5
D8
330
D6
100
AcDbEntity
  8
_U+30EC_U+30A4_U+30E4_U+30FC 1
 62
   179
420
  2234388
370
     9
100
AcDbVertex
100
AcDb2dVertex
 10
102.9077471964954
 20
-137.0045660768598
 30
0.0
  0
SEQEND
  5
D9
330
D6
100
AcDbEntity
  8
_U+30EC_U+30A4_U+30E4_U+30FC 1
 62
   179
420
  2234388
370
     9
  0
POLYLINE
  5
DA
330
1F
100
AcDbEntity
  8
_U+30EC_U+30A4_U+30E4_U+30FC 1
 62
   179
420
  2234388
370
     9
100
AcDb2dPolyline
 66
     1
 10
0.0
 20
0.0
 30
0.0
  0
VERTEX
  5
DB
330
DA
100
AcDbEntity
  8
_U+30EC_U+30A4_U+30E4_U+30FC 1
 62
   179
420
  2234388
370
     9
100
AcDbVertex
100
AcDb2dVertex
 10
81.1009984864967
 20
-116.2102916376141
 30
0.0
  0
VERTEX
  5
DC
330
DA
100
AcDbEntity
  8
_U+30EC_U+30A4_U+30E4_U+30FC 1
 62
   179
420
  2234388
370
     9
100
AcDbVertex
100
AcDb2dVertex
 10
82.17171429251381
 20
-116.8993371929974
 30
0.0
  0
SEQEND
  5
DD
330
DA
100
AcDbEntity
  8
_U+30EC_U+30A4_U+30E4_U+30FC 1
 62
   179
420
  2234388
370
     9
  0
INSERT
  5
DF
330
1F
100
AcDbEntity
  8
_U+30EC_U+30A4_U+30E4_U+30FC 1
100
AcDbBlockReference
  2
block 8
 10
0.0
 20
0.0
 30
0.0
  0
SPLINE
  5
EA
330
1F
100
AcDbEntity
  8
_U+30EC_U+30A4_U+30E4_U+30FC 1
 62
   179
420
  2234388
370
    25
100
AcDbSpline
210
0.0
220
0.0
230
1.0
 70
    11
 71
     3
 72
    83
 73
    79
 74
     0
 42
0.0000000001
 43
0.0000000001
 12
1.0
 22
0.0
 32
0.0
 13
1.0
 23
0.0
 33
0.0
 40
0.0
 40
0.0
 40
0.0
 40
0.0
 40
1.0
 40
1.0
 40
1.0
 40
2.0
 40
2.0
 40
2.0
 40
3.0
 40
3.0
 40
3.0
 40
4.0
 40
4.0
 40
4.0
 40
5.0
 40
5.0
 40
5.0
 40
6.0
 40
6.0
 40
6.0
 40
7.0
 40
7.0
 40
7.0
 40
8.0
 40
8.0
 40
8.0
 40
9.0
 40
9.0
 40
9.0
 40
10.0
 40
10.0
 40
10.0
 40
11.0
 40
11.0
 40
11.0
 40
12.0
 40
12.0
 40
12.0
 40
13.0
 40
13.0
 40
13.0
 40
14.0
 40
14.0
 40
14.0
 40
15.0
 40
15.0
 40
15.0
 40
16.0
 40
16.0
 40
16.0
 40
17.0
 40
17.0
 40
17.0
 40
18.0
 40
18.0
 40
18.0
 40
19.0
 40
19.0
 40
19.0
 40
20.0
 40
20.0
 40
20.0
 40
21.0
 40
21.0
 40
21.0
 40
22.0
 40
22.0
 40
22.0
 40
23.0
 40
23.0
 40
23.0
 40
24.0
 40
24.0
 40
24.0
 40
25.0
 40
25.0
 40
25.0
 40
26.0
 40
26.0
 40
26.0
 40
26.0
 10
71.82714122309253
 20
-135.5097407994561
 30
0.0
 10
72.44104509631941
 20
-119.234055803525
 30
0.0
 10
85.52447892919987
 20
-106.1480463623519
 30
0.0
 10
101.8001635139726
 20
-105.5296621958397
 30
0.0
 10
101.8001635139726
 20
-105.5296621958397
 30
0.0
 10
101.7949776807715
 20
-105.5186202513981
 30
0.0
 10
101.7949776807715
 20
-105.5186202513981
 30
0.0
 10
101.7949776807715
 20
-105.5186202513981
 30
0.0
 10
101.7949776807715
 20
-104.7186613627092
 30
0.0
 10
101.7949776807715
 20
-104.7186613627092
 30
0.0
 10
101.7949776807715
 20
-104.7186613627092
 30
0.0
 10
100.5950746558281
 20
-104.7186613627092
 30
0.0
 10
100.5950746558281
 20
-104.7186613627092
 30
0.0
 10
100.5950746558281
 20
-104.7186613627092
 30
0.0
 10
100.5950746558281
 20
-103.5187583074538
 30
0.0
 10
100.5950746558281
 20
-103.5187583074538
 30
0.0
 10
100.5950746558281
 20
-103.5187583074538
 30
0.0
 10
101.7949776807715
 20
-103.5187583074538
 30
0.0
 10
101.7949776807715
 20
-103.5187583074538
 30
0.0
 10
101.7949776807715
 20
-103.5187583074538
 30
0.0
 10
101.7949776807715
 20
-103.5189346963426
 30
0.0
 10
101.7949776807715
 20
-103.5189346963426
 30
0.0
 10
101.7949776807715
 20
-103.5189346963426
 30
0.0
 10
101.7949776807715
 20
-98.51887414203689
 30
0.0
 10
101.7949776807715
 20
-98.51887414203689
 30
0.0
 10
101.7949776807715
 20
-98.51887414203689
 30
0.0
 10
116.9947606263261
 20
-98.51887414203689
 30
0.0
 10
116.9947606263261
 20
-98.51887414203689
 30
0.0
 10
116.9947606263261
 20
-98.51887414203689
 30
0.0
 10
116.9947606263261
 20
-99.71898886395903
 30
0.0
 10
116.9947606263261
 20
-99.71898886395903
 30
0.0
 10
116.9947606263261
 20
-99.71898886395903
 30
0.0
 10
102.9949159834919
 20
-99.71898886395903
 30
0.0
 10
102.9949159834919
 20
-99.71898886395903
 30
0.0
 10
102.9949159834919
 20
-99.71898886395903
 30
0.0
 10
102.9949159834919
 20
-106.7190524733202
 30
0.0
 10
102.9949159834919
 20
-106.7190524733202
 30
0.0
 10
102.9949159834919
 20
-106.7190524733202
 30
0.0
 10
103.0048995943483
 20
-106.7068463622121
 30
0.0
 10
103.0048995943483
 20
-106.7068463622121
 30
0.0
 10
86.43676223925893
 20
-106.7068463622121
 30
0.0
 10
73.00503091526427
 20
-120.138401636632
 30
0.0
 10
73.00503091526427
 20
-136.706539410268
 30
0.0
 10
73.00503091526427
 20
-136.706539410268
 30
0.0
 10
73.00503091526427
 20
-136.7124307991554
 30
0.0
 10
73.00503091526427
 20
-136.7124307991554
 30
0.0
 10
73.00503091526427
 20
-136.7124307991554
 30
0.0
 10
66.00493220496278
 20
-136.7124307991554
 30
0.0
 10
66.00493220496278
 20
-136.7124307991554
 30
0.0
 10
66.00493220496278
 20
-136.7124307991554
 30
0.0
 10
66.00493220496278
 20
-150.7122405178775
 30
0.0
 10
66.00493220496278
 20
-150.7122405178775
 30
0.0
 10
66.00493220496278
 20
-150.7122405178775
 30
0.0
 10
64.80499390224242
 20
-150.7122405178775
 30
0.0
 10
64.80499390224242
 20
-150.7122405178775
 30
0.0
 10
64.80499390224242
 20
-150.7122405178775
 30
0.0
 10
64.80499390224242
 20
-135.5124924661218
 30
0.0
 10
64.80499390224242
 20
-135.5124924661218
 30
0.0
 10
64.80499390224242
 20
-135.5124924661218
 30
0.0
 10
69.80487794135142
 20
-135.5124924661218
 30
0.0
 10
69.80487794135142
 20
-135.5124924661218
 30
0.0
 10
69.80487794135142
 20
-135.5124924661218
 30
0.0
 10
69.80452516358264
 20
-135.5124924661218
 30
0.0
 10
69.80452516358264
 20
-135.5124924661218
 30
0.0
 10
69.80452516358264
 20
-135.5124924661218
 30
0.0
 10
69.80452516358264
 20
-134.3125541330883
 30
0.0
 10
69.80452516358264
 20
-134.3125541330883
 30
0.0
 10
69.80452516358264
 20
-134.3125541330883
 30
0.0
 10
71.0047809662949
 20
-134.3125541330883
 30
0.0
 10
71.0047809662949
 20
-134.3125541330883
 30
0.0
 10
71.0047809662949
 20
-134.3125541330883
 30
0.0
 10
71.0047809662949
 20
-135.5124924661218
 30
0.0
 10
71.0047809662949
 20
-135.5124924661218
 30
0.0
 10
71.0047809662949
 20
-135.5124924661218
 30
0.0
 10
71.80474164871555
 20
-135.5124924661218
 30
0.0
 10
71.80474164871555
 20
-135.5124924661218
 30
0.0
 10
71.80474164871555
 20
-135.5124924661218
 30
0.0
 10
71.82714122309253
 20
-135.5097407994561
 30
0.0
 10
71.82714122309253
 20
-135.5097407994561
 30
0.0
  0
ENDSEC
  0
SECTION
  2
OBJECTS
  0
DICTIONARY
  5
C
330
0
100
AcDbDictionary
281
     1
  3
ACAD_GROUP
350
D
  3
ACAD_LAYOUT
350
1A
  3
ACAD_MATERIAL
350
3B
  3
ACAD_MLEADERSTYLE
350
EC
  3
ACAD_MLINESTYLE
350
17
  3
ACAD_PLOTSETTINGS
350
19
  3
ACAD_PLOTSTYLENAME
350
E
  3
ACAD_TABLESTYLE
350
EB
  3
ACAD_VISUALSTYLE
350
2A
  0
SUN
  5
3F
330
29
100
AcDbSun
 90
        1
290
     0
 63
     7
421
 16777215
 40
1.0
291
     1
 91
  2455826
 92
 54000000
292
     0
 70
     2
 71
   256
280
     1
  0
DICTIONARY
  5
D
102
{ACAD_REACTORS
330
C
102
}
330
C
100
AcDbDictionary
281
     1
  0
DICTIONARY
  5
1A
102
{ACAD_REACTORS
330
C
102
}
330
C
100
AcDbDictionary
281
     1
  3
Layout1
350
1E
  3
Layout2
350
26
  3
Model
350
22
  0
DICTIONARY
  5
3B
102
{ACAD_REACTORS
330
C
102
}
330
C
100
AcDbDictionary
281
     1
  3
ByBlock
350
3D
  3
ByLayer
350
3C
  3
Global
350
3E
  0
DICTIONARY
  5
EC
102
{ACAD_REACTORS
330
C
102
}
330
C
100
AcDbDictionary
281
     1
  0
DICTIONARY
  5
17
102
{ACAD_REACTORS
330
C
102
}
330
C
100
AcDbDictionary
281
     1
  3
Standard
350
18
  0
DICTIONARY
  5
19
102
{ACAD_REACTORS
330
C
102
}
330
C
100
AcDbDictionary
281
     1
  0
ACDBDICTIONARYWDFLT
  5
E
102
{ACAD_REACTORS
330
C
102
}
330
C
100
AcDbDictionary
281
     1
  3
Normal
350
F
100
AcDbDictionaryWithDefault
340
F
  0
DICTIONARY
  5
EB
102
{ACAD_REACTORS
330
C
102
}
330
C
100
AcDbDictionary
281
     1
  0
DICTIONARY
  5
2A
102
{ACAD_REACTORS
330
C
102
}
330
C
100
AcDbDictionary
281
     1
  3
2dWireframe
350
2F
  3
3D Hidden
350
31
  3
3dWireframe
350
30
  3
Basic
350
32
  3
Brighten
350
36
  3
ColorChange
350
3A
  3
Conceptual
350
34
  3
Dim
350
35
  3
Facepattern
350
39
  3
Flat
350
2B
  3
FlatWithEdges
350
2C
  3
Gouraud
350
2D
  3
GouraudWithEdges
350
2E
  3
Linepattern
350
38
  3
Realistic
350
33
  3
Thicken
350
37
  0
LAYOUT
  5
1E
102
{ACAD_REACTORS
330
1A
102
}
330
1A
100
AcDbPlotSettings
  1

  2
none_device
  4

  6

 40
0.0
 41
0.0
 42
0.0
 43
0.0
 44
0.0
 45
0.0
 46
0.0
 47
0.0
 48
0.0
 49
0.0
140
0.0
141
0.0
142
1.0
143
1.0
 70
   688
 72
     0
 73
     0
 74
     5
  7

 75
    16
 76
     0
 77
     2
 78
   300
147
1.0
148
0.0
149
0.0
100
AcDbLayout
  1
Layout1
 70
     1
 71
     1
 10
0.0
 20
0.0
 11
12.0
 21
9.0
 12
0.0
 22
0.0
 32
0.0
 14
1.000000000000000E+20
 24
1.000000000000000E+20
 34
1.000000000000000E+20
 15
-1.000000000000000E+20
 25
-1.000000000000000E+20
 35
-1.000000000000000E+20
146
0.0
 13
0.0
 23
0.0
 33
0.0
 16
1.0
 26
0.0
 36
0.0
 17
0.0
 27
1.0
 37
0.0
 76
     0
330
1B
  0
LAYOUT
  5
26
102
{ACAD_REACTORS
330
1A
102
}
330
1A
100
AcDbPlotSettings
  1

  2
none_device
  4

  6

 40
0.0
 41
0.0
 42
0.0
 43
0.0
 44
0.0
 45
0.0
 46
0.0
 47
0.0
 48
0.0
 49
0.0
140
0.0
141
0.0
142
1.0
143
1.0
 70
   688
 72
     0
 73
     0
 74
     5
  7

 75
    16
 76
     0
 77
     2
 78
   300
147
1.0
148
0.0
149
0.0
100
AcDbLayout
  1
Layout2
 70
     1
 71
     2
 10
0.0
 20
0.0
 11
0.0
 21
0.0
 12
0.0
 22
0.0
 32
0.0
 14
0.0
 24
0.0
 34
0.0
 15
0.0
 25
0.0
 35
0.0
146
0.0
 13
0.0
 23
0.0
 33
0.0
 16
1.0
 26
0.0
 36
0.0
 17
0.0
 27
1.0
 37
0.0
 76
     0
330
23
  0
LAYOUT
  5
22
102
{ACAD_REACTORS
330
1A
102
}
330
1A
100
AcDbPlotSettings
  1

  2
none_device
  4

  6

 40
0.0
 41
0.0
 42
0.0
 43
0.0
 44
0.0
 45
0.0
 46
0.0
 47
0.0
 48
0.0
 49
0.0
140
0.0
141
0.0
142
1.0
143
1.0
 70
  1712
 72
     0
 73
     0
 74
     0
  7

 75
     0
 76
     0
 77
     2
 78
   300
147
1.0
148
0.0
149
0.0
100
AcDbLayout
  1
Model
 70
     1
 71
     0
 10
0.0
 20
0.0
 11
12.0
 21
9.0
 12
0.0
 22
0.0
 32
0.0
 14
1.000000000000000E+20
 24
1.000000000000000E+20
 34
1.000000000000000E+20
 15
-1.000000000000000E+20
 25
-1.000000000000000E+20
 35
-1.000000000000000E+20
146
0.0
 13
0.0
 23
0.0
 33
0.0
 16
1.0
 26
0.0
 36
0.0
 17
0.0
 27
1.0
 37
0.0
 76
     0
330
1F
331
29
  0
MATERIAL
  5
3D
102
{ACAD_REACTORS
330
3B
102
}
330
3B
100
AcDbMaterial
  1
ByBlock
 72
     1
 94
      127
  0
MATERIAL
  5
3C
102
{ACAD_REACTORS
330
3B
102
}
330
3B
100
AcDbMaterial
  1
ByLayer
 72
     1
 94
      127
  0
MATERIAL
  5
3E
102
{ACAD_REACTORS
330
3B
102
}
330
3B
100
AcDbMaterial
  1
Global
 72
     1
 94
      127
  0
MLINESTYLE
  5
18
102
{ACAD_REACTORS
330
17
102
}
330
17
100
AcDbMlineStyle
  2
Standard
 70
     0
  3

 62
   256
 51
90.0
 52
90.0
 71
     2
 49
0.5
 62
   256
  6
BYLAYER
 49
-0.5
 62
   256
  6
BYLAYER
  0
ACDBPLACEHOLDER
  5
F
102
{ACAD_REACTORS
330
E
102
}
330
E
  0
VISUALSTYLE
  5
2F
102
{ACAD_REACTORS
330
2A
102
}
330
2A
100
AcDbVisualStyle
  2
2dWireframe
 70
     4
177
     2
291
     0
 71
     0
176
     1
 72
     2
176
     1
 73
     0
176
     1
 90
        0
176
     1
 40
-0.6
176
     1
 41
-30.0
176
     1
 62
     5
 63
     7
421
 16777215
176
     1
 74
     1
176
     1
 91
        4
176
     1
 64
     7
176
     1
 65
   257
176
     1
 75
     1
176
     1
175
     1
176
     1
 42
1.0
176
     1
 92
        0
176
     1
 66
   257
176
     1
 43
1.0
176
     1
 76
     1
176
     1
 77
     6
176
     1
 78
     2
176
     1
 67
     7
176
     1
 79
     5
176
     1
170
     0
176
     1
171
     0
176
     1
290
     0
176
     1
 93
        1
176
     1
 44
0.0
176
     1
173
     0
176
     1
  0
VISUALSTYLE
  5
31
102
{ACAD_REACTORS
330
2A
102
}
330
2A
100
AcDbVisualStyle
  2
3D Hidden
 70
     6
177
     2
291
     0
 71
     1
176
     1
 72
     2
176
     1
 73
     2
176
     1
 90
        0
176
     1
 40
-0.6
176
     1
 41
-30.0
176
     1
 62
     5
 63
     7
421
 16777215
176
     1
 74
     2
176
     1
 91
        2
176
     1
 64
     7
176
     1
 65
   257
176
     1
 75
     2
176
     1
175
     1
176
     1
 42
40.0
176
     1
 92
        0
176
     1
 66
   257
176
     1
 43
1.0
176
     1
 76
     1
176
     1
 77
     6
176
     1
 78
     2
176
     1
 67
     7
176
     1
 79
     3
176
     1
170
     0
176
     1
171
     0
176
     1
290
     0
176
     1
 93
        1
176
     1
 44
0.0
176
     1
173
     0
176
     1
  0
VISUALSTYLE
  5
30
102
{ACAD_REACTORS
330
2A
102
}
330
2A
100
AcDbVisualStyle
  2
3dWireframe
 70
     5
177
     2
291
     0
 71
     0
176
     1
 72
     2
176
     1
 73
     0
176
     1
 90
        0
176
     1
 40
-0.6
176
     1
 41
-30.0
176
     1
 62
     5
 63
     7
421
 16777215
176
     1
 74
     1
176
     1
 91
        4
176
     1
 64
     7
176
     1
 65
   257
176
     1
 75
     1
176
     1
175
     1
176
     1
 42
1.0
176
     1
 92
        0
176
     1
 66
   257
176
     1
 43
1.0
176
     1
 76
     1
176
     1
 77
     6
176
     1
 78
     2
176
     1
 67
     7
176
     1
 79
     5
176
     1
170
     0
176
     1
171
     0
176
     1
290
     0
176
     1
 93
        1
176
     1
 44
0.0
176
     1
173
     0
176
     1
  0
VISUALSTYLE
  5
32
102
{ACAD_REACTORS
330
2A
102
}
330
2A
100
AcDbVisualStyle
  2
Basic
 70
     7
177
     2
291
     1
 71
     1
176
     1
 72
     0
176
     1
 73
     1
176
     1
 90
        0
176
     1
 40
-0.6
176
     1
 41
-30.0
176
     1
 62
     5
 63
     7
421
 16777215
176
     1
 74
     0
176
     1
 91
        4
176
     1
 64
     7
176
     1
 65
   257
176
     1
 75
     1
176
     1
175
     1
176
     1
 42
1.0
176
     1
 92
        8
176
     1
 66
     7
176
     1
 43
1.0
176
     1
 76
     1
176
     1
 77
     6
176
     1
 78
     2
176
     1
 67
     7
176
     1
 79
     5
176
     1
170
     0
176
     1
171
     0
176
     1
290
     0
176
     1
 93
        1
176
     1
 44
0.0
176
     1
173
     0
176
     1
  0
VISUALSTYLE
  5
36
102
{ACAD_REACTORS
330
2A
102
}
330
2A
100
AcDbVisualStyle
  2
Brighten
 70
    12
177
     2
291
     1
 71
     2
176
     1
 72
     2
176
     1
 73
     0
176
     1
 90
        0
176
     1
 40
-0.6
176
     1
 41
-30.0
176
     1
 62
     5
 63
     7
421
 16777215
176
     1
 74
     1
176
     1
 91
        4
176
     1
 64
     7
176
     1
 65
   257
176
     1
 75
     1
176
     1
175
     1
176
     1
 42
1.0
176
     1
 92
        8
176
     1
 66
     7
176
     1
 43
1.0
176
     1
 76
     1
176
     1
 77
     6
176
     1
 78
     2
176
     1
 67
     7
176
     1
 79
     5
176
     1
170
     0
176
     1
171
     0
176
     1
290
     0
176
     1
 93
        1
176
     1
 44
50.0
176
     1
173
     0
176
     1
  0
VISUALSTYLE
  5
3A
102
{ACAD_REACTORS
330
2A
102
}
330
2A
100
AcDbVisualStyle
  2
ColorChange
 70
    16
177
     2
291
     1
 71
     2
176
     1
 72
     2
176
     1
 73
     3
176
     1
 90
        0
176
     1
 40
-0.6
176
     1
 41
-30.0
176
     1
 62
     5
 63
     8
421
  8421504
176
     1
 74
     1
176
     1
 91
        4
176
     1
 64
     7
176
     1
 65
   257
176
     1
 75
     1
176
     1
175
     1
176
     1
 42
1.0
176
     1
 92
        8
176
     1
 66
     8
424
  8421504
176
     1
 43
1.0
176
     1
 76
     1
176
     1
 77
     6
176
     1
 78
     2
176
     1
 67
     7
176
     1
 79
     5
176
     1
170
     0
176
     1
171
     0
176
     1
290
     0
176
     1
 93
        1
176
     1
 44
0.0
176
     1
173
     0
176
     1
  0
VISUALSTYLE
  5
34
102
{ACAD_REACTORS
330
2A
102
}
330
2A
100
AcDbVisualStyle
  2
Conceptual
 70
     9
177
     2
291
     0
 71
     3
176
     1
 72
     2
176
     1
 73
     0
176
     1
 90
        0
176
     1
 40
-0.6
176
     1
 41
-30.0
176
     1
 62
     5
 63
     7
421
 16777215
176
     1
 74
     2
176
     1
 91
        2
176
     1
 64
     7
176
     1
 65
   257
176
     1
 75
     1
176
     1
175
     1
176
     1
 42
40.0
176
     1
 92
        8
176
     1
 66
     7
176
     1
 43
1.0
176
     1
 76
     1
176
     1
 77
     6
176
     1
 78
     2
176
     1
 67
     7
176
     1
 79
     3
176
     1
170
     0
176
     1
171
     0
176
     1
290
     0
176
     1
 93
        1
176
     1
 44
0.0
176
     1
173
     0
176
     1
  0
VISUALSTYLE
  5
35
102
{ACAD_REACTORS
330
2A
102
}
330
2A
100
AcDbVisualStyle
  2
Dim
 70
    11
177
     2
291
     1
 71
     2
176
     1
 72
     2
176
     1
 73
     0
176
     1
 90
        0
176
     1
 40
-0.6
176
     1
 41
-30.0
176
     1
 62
     5
 63
     7
421
 16777215
176
     1
 74
     1
176
     1
 91
        4
176
     1
 64
     7
176
     1
 65
   257
176
     1
 75
     1
176
     1
175
     1
176
     1
 42
1.0
176
     1
 92
        8
176
     1
 66
     7
176
     1
 43
1.0
176
     1
 76
     1
176
     1
 77
     6
176
     1
 78
     2
176
     1
 67
     7
176
     1
 79
     5
176
     1
170
     0
176
     1
171
     0
176
     1
290
     0
176
     1
 93
        1
176
     1
 44
-50.0
176
     1
173
     0
176
     1
  0
VISUALSTYLE
  5
39
102
{ACAD_REACTORS
330
2A
102
}
330
2A
100
AcDbVisualStyle
  2
Facepattern
 70
    15
177
     2
291
     1
 71
     2
176
     1
 72
     2
176
     1
 73
     0
176
     1
 90
        0
176
     1
 40
-0.6
176
     1
 41
-30.0
176
     1
 62
     5
 63
     7
421
 16777215
176
     1
 74
     1
176
     1
 91
        4
176
     1
 64
     7
176
     1
 65
   257
176
     1
 75
     1
176
     1
175
     1
176
     1
 42
1.0
176
     1
 92
        8
176
     1
 66
     7
176
     1
 43
1.0
176
     1
 76
     1
176
     1
 77
     6
176
     1
 78
     2
176
     1
 67
     7
176
     1
 79
     5
176
     1
170
     0
176
     1
171
     0
176
     1
290
     0
176
     1
 93
        1
176
     1
 44
0.0
176
     1
173
     0
176
     1
  0
VISUALSTYLE
  5
2B
102
{ACAD_REACTORS
330
2A
102
}
330
2A
100
AcDbVisualStyle
  2
Flat
 70
     0
177
     2
291
     1
 71
     2
176
     1
 72
     1
176
     1
 73
     1
176
     1
 90
        2
176
     1
 40
-0.6
176
     1
 41
30.0
176
     1
 62
     5
 63
     7
421
 16777215
176
     1
 74
     0
176
     1
 91
        4
176
     1
 64
     7
176
     1
 65
   257
176
     1
 75
     1
176
     1
175
     1
176
     1
 42
1.0
176
     1
 92
        8
176
     1
 66
     7
176
     1
 43
1.0
176
     1
 76
     1
176
     1
 77
     6
176
     1
 78
     2
176
     1
 67
     7
176
     1
 79
     5
176
     1
170
     0
176
     1
171
     0
176
     1
290
     0
176
     1
 93
       13
176
     1
 44
0.0
176
     1
173
     0
176
     1
  0
VISUALSTYLE
  5
2C
102
{ACAD_REACTORS
330
2A
102
}
330
2A
100
AcDbVisualStyle
  2
FlatWithEdges
 70
     1
177
     2
291
     1
 71
     2
176
     1
 72
     1
176
     1
 73
     1
176
     1
 90
        2
176
     1
 40
-0.6
176
     1
 41
30.0
176
     1
 62
     5
 63
     7
421
 16777215
176
     1
 74
     1
176
     1
 91
        4
176
     1
 64
     7
176
     1
 65
   257
176
     1
 75
     1
176
     1
175
     1
176
     1
 42
1.0
176
     1
 92
        0
176
     1
 66
   257
176
     1
 43
1.0
176
     1
 76
     1
176
     1
 77
     6
176
     1
 78
     2
176
     1
 67
     7
176
     1
 79
     5
176
     1
170
     0
176
     1
171
     0
176
     1
290
     0
176
     1
 93
       13
176
     1
 44
0.0
176
     1
173
     0
176
     1
  0
VISUALSTYLE
  5
2D
102
{ACAD_REACTORS
330
2A
102
}
330
2A
100
AcDbVisualStyle
  2
Gouraud
 70
     2
177
     2
291
     1
 71
     2
176
     1
 72
     2
176
     1
 73
     1
176
     1
 90
        2
176
     1
 40
-0.6
176
     1
 41
30.0
176
     1
 62
     5
 63
     7
421
 16777215
176
     1
 74
     0
176
     1
 91
        4
176
     1
 64
     7
176
     1
 65
   257
176
     1
 75
     1
176
     1
175
     1
176
     1
 42
1.0
176
     1
 92
        0
176
     1
 66
     7
176
     1
 43
1.0
176
     1
 76
     1
176
     1
 77
     6
176
     1
 78
     2
176
     1
 67
     7
176
     1
 79
     5
176
     1
170
     0
176
     1
171
     0
176
     1
290
     0
176
     1
 93
       13
176
     1
 44
0.0
176
     1
173
     0
176
     1
  0
VISUALSTYLE
  5
2E
102
{ACAD_REACTORS
330
2A
102
}
330
2A
100
AcDbVisualStyle
  2
GouraudWithEdges
 70
     3
177
     2
291
     1
 71
     2
176
     1
 72
     2
176
     1
 73
     1
176
     1
 90
        2
176
     1
 40
-0.6
176
     1
 41
30.0
176
     1
 62
     5
 63
     7
421
 16777215
176
     1
 74
     1
176
     1
 91
        4
176
     1
 64
     7
176
     1
 65
   257
176
     1
 75
     1
176
     1
175
     1
176
     1
 42
1.0
176
     1
 92
        0
176
     1
 66
   257
176
     1
 43
1.0
176
     1
 76
     1
176
     1
 77
     6
176
     1
 78
     2
176
     1
 67
     7
176
     1
 79
     5
176
     1
170
     0
176
     1
171
     0
176
     1
290
     0
176
     1
 93
       13
176
     1
 44
0.0
176
     1
173
     0
176
     1
  0
VISUALSTYLE
  5
38
102
{ACAD_REACTORS
330
2A
102
}
330
2A
100
AcDbVisualStyle
  2
Linepattern
 70
    14
177
     2
291
     1
 71
     2
176
     1
 72
     2
176
     1
 73
     0
176
     1
 90
        0
176
     1
 40
-0.6
176
     1
 41
-30.0
176
     1
 62
     5
 63
     7
421
 16777215
176
     1
 74
     1
176
     1
 91
        4
176
     1
 64
     7
176
     1
 65
   257
176
     1
 75
     7
176
     1
175
     7
176
     1
 42
1.0
176
     1
 92
        8
176
     1
 66
     7
176
     1
 43
1.0
176
     1
 76
     1
176
     1
 77
     6
176
     1
 78
     2
176
     1
 67
     7
176
     1
 79
     5
176
     1
170
     0
176
     1
171
     0
176
     1
290
     0
176
     1
 93
        1
176
     1
 44
0.0
176
     1
173
     0
176
     1
  0
VISUALSTYLE
  5
33
102
{ACAD_REACTORS
330
2A
102
}
330
2A
100
AcDbVisualStyle
  2
Realistic
 70
     8
177
     2
291
     0
 71
     2
176
     1
 72
     2
176
     1
 73
     0
176
     1
 90
        0
176
     1
 40
-0.6
176
     1
 41
-30.0
176
     1
 62
     5
 63
     7
421
 16777215
176
     1
 74
     1
176
     1
 91
        0
176
     1
 64
     7
176
     1
 65
   257
176
     1
 75
     1
176
     1
175
     1
176
     1
 42
1.0
176
     1
 92
        8
176
     1
 66
     8
424
  7895160
176
     1
 43
1.0
176
     1
 76
     1
176
     1
 77
     6
176
     1
 78
     2
176
     1
 67
     7
176
     1
 79
     5
176
     1
170
     0
176
     1
171
     0
176
     1
290
     0
176
     1
 93
       13
176
     1
 44
0.0
176
     1
173
     0
176
     1
  0
VISUALSTYLE
  5
37
102
{ACAD_REACTORS
330
2A
102
}
330
2A
100
AcDbVisualStyle
  2
Thicken
 70
    13
177
     2
291
     1
 71
     2
176
     1
 72
     2
176
     1
 73
     0
176
     1
 90
        0
176
     1
 40
-0.6
176
     1
 41
-30.0
176
     1
 62
     5
 63
     7
421
 16777215
176
     1
 74
     1
176
     1
 91
        4
176
     1
 64
     7
176
     1
 65
   257
176
     1
 75
     1
176
     1
175
     1
176
     1
 42
1.0
176
     1
 92
       12
176
     1
 66
     7
176
     1
 43
1.0
176
     1
 76
     1
176
     1
 77
     6
176
     1
 78
     2
176
     1
 67
     7
176
     1
 79
     5
176
     1
170
     0
176
     1
171
     0
176
     1
290
     0
176
     1
 93
        1
176
     1
 44
0.0
176
     1
173
     0
176
     1
  0
ENDSEC
  0
EOF
