  0
SECTION
  2
HEADER
  9
$ACADVER
  1
AC1024
  9
$ACADMAINTVER
 70
     6
  9
$DWGCODEPAGE
  3
UNDEFINED
  9
$INSBASE
 10
0.0
 20
0.0
 30
0.0
  9
$EXTMIN
 10
1.000000000000000E+20
 20
1.000000000000000E+20
 30
1.000000000000000E+20
  9
$EXTMAX
 10
-1.000000000000000E+20
 20
-1.000000000000000E+20
 30
-1.000000000000000E+20
  9
$LIMMIN
 10
0.0
 20
0.0
  9
$LIMMAX
 10
12.0
 20
9.0
  9
$ORTHOMODE
 70
     0
  9
$REGENMODE
 70
     1
  9
$FILLMODE
 70
     1
  9
$QTEXTMODE
 70
     0
  9
$MIRRTEXT
 70
     1
  9
$LTSCALE
 40
1.0
  9
$ATTMODE
 70
     1
  9
$TEXTSIZE
 40
0.2
  9
$TRACEWID
 40
0.05
  9
$TEXTSTYLE
  7
Standard
  9
$CLAYER
  8
0
  9
$CELTYPE
  6
ByLayer
  9
$CECOLOR
 62
   256
  9
$CELTSCALE
 40
1.0
  9
$DISPSILH
 70
     0
  9
$DIMSCALE
 40
1.0
  9
$DIMASZ
 40
0.18
  9
$DIMEXO
 40
0.0625
  9
$DIMDLI
 40
0.38
  9
$DIMRND
 40
0.0
  9
$DIMDLE
 40
0.0
  9
$DIMEXE
 40
0.18
  9
$DIMTP
 40
0.0
  9
$DIMTM
 40
0.0
  9
$DIMTXT
 40
0.18
  9
$DIMCEN
 40
0.09
  9
$DIMTSZ
 40
0.0
  9
$DIMTOL
 70
     0
  9
$DIMLIM
 70
     0
  9
$DIMTIH
 70
     1
  9
$DIMTOH
 70
     1
  9
$DIMSE1
 70
     0
  9
$DIMSE2
 70
     0
  9
$DIMTAD
 70
     0
  9
$DIMZIN
 70
     0
  9
$DIMBLK
  1

  9
$DIMASO
 70
     1
  9
$DIMSHO
 70
     1
  9
$DIMPOST
  1

  9
$DIMAPOST
  1

  9
$DIMALT
 70
     0
  9
$DIMALTD
 70
     2
  9
$DIMALTF
 40
25.4
  9
$DIMLFAC
 40
1.0
  9
$DIMTOFL
 70
     0
  9
$DIMTVP
 40
0.0
  9
$DIMTIX
 70
     0
  9
$DIMSOXD
 70
     0
  9
$DIMSAH
 70
     0
  9
$DIMBLK1
  1

  9
$DIMBLK2
  1

  9
$DIMSTYLE
  2
Standard
  9
$DIMCLRD
 70
     0
  9
$DIMCLRE
 70
     0
  9
$DIMCLRT
 70
     0
  9
$DIMTFAC
 40
1.0
  9
$DIMGAP
 40
0.09
  9
$DIMJUST
 70
     0
  9
$DIMSD1
 70
     0
  9
$DIMSD2
 70
     0
  9
$DIMTOLJ
 70
     1
  9
$DIMTZIN
 70
     0
  9
$DIMALTZ
 70
     0
  9
$DIMALTTZ
 70
     0
  9
$DIMUPT
 70
     0
  9
$DIMDEC
 70
     4
  9
$DIMTDEC
 70
     4
  9
$DIMALTU
 70
     2
  9
$DIMALTTD
 70
     2
  9
$DIMTXSTY
  7
Standard
  9
$DIMAUNIT
 70
     0
  9
$DIMADEC
 70
     0
  9
$DIMALTRND
 40
0.0
  9
$DIMAZIN
 70
     0
  9
$DIMDSEP
 70
    46
  9
$DIMATFIT
 70
     3
  9
$DIMFRAC
 70
     0
  9
$DIMLDRBLK
  1

  9
$DIMLUNIT
 70
     2
  9
$DIMLWD
 70
    -2
  9
$DIMLWE
 70
    -2
  9
$DIMTMOVE
 70
     0
  9
$DIMFXL
 40
1.0
  9
$DIMFXLON
 70
     0
  9
$DIMJOGANG
 40
0.7853981633974483
  9
$DIMTFILL
 70
     0
  9
$DIMTFILLCLR
 70
     0
  9
$DIMARCSYM
 70
     0
  9
$DIMLTYPE
  6

  9
$DIMLTEX1
  6

  9
$DIMLTEX2
  6

  9
$DIMTXTDIRECTION
 70
     0
  9
$LUNITS
 70
     2
  9
$LUPREC
 70
     4
  9
$SKETCHINC
 40
0.1
  9
$FILLETRAD
 40
0.5
  9
$AUNITS
 70
     0
  9
$AUPREC
 70
     0
  9
$MENU
  1
.
  9
$ELEVATION
 40
0.0
  9
$PELEVATION
 40
0.0
  9
$THICKNESS
 40
0.0
  9
$LIMCHECK
 70
     0
  9
$CHAMFERA
 40
0.5
  9
$CHAMFERB
 40
0.5
  9
$CHAMFERC
 40
1.0
  9
$CHAMFERD
 40
0.0
  9
$SKPOLY
 70
     0
  9
$TDCREATE
 40
2458263.582013877
  9
$TDUCREATE
 40
2458263.207013889
  9
$TDUPDATE
 40
2458263.582013877
  9
$TDUUPDATE
 40
2458263.207013889
  9
$TDINDWG
 40
0.0000000116
  9
$TDUSRTIMER
 40
0.0000000116
  9
$USRTIMER
 70
     1
  9
$ANGBASE
 50
0.0
  9
$ANGDIR
 70
     0
  9
$PDMODE
 70
     0
  9
$PDSIZE
 40
0.0
  9
$PLINEWID
 40
0.0
  9
$SPLFRAME
 70
     0
  9
$SPLINETYPE
 70
     6
  9
$SPLINESEGS
 70
     8
  9
$HANDSEED
  5
101
  9
$SURFTAB1
 70
     6
  9
$SURFTAB2
 70
     6
  9
$SURFTYPE
 70
     6
  9
$SURFU
 70
     6
  9
$SURFV
 70
     6
  9
$UCSBASE
  2

  9
$UCSNAME
  2

  9
$UCSORG
 10
0.0
 20
0.0
 30
0.0
  9
$UCSXDIR
 10
1.0
 20
0.0
 30
0.0
  9
$UCSYDIR
 10
0.0
 20
1.0
 30
0.0
  9
$UCSORTHOREF
  2

  9
$UCSORTHOVIEW
 70
     0
  9
$UCSORGTOP
 10
0.0
 20
0.0
 30
0.0
  9
$UCSORGBOTTOM
 10
0.0
 20
0.0
 30
0.0
  9
$UCSORGLEFT
 10
0.0
 20
0.0
 30
0.0
  9
$UCSORGRIGHT
 10
0.0
 20
0.0
 30
0.0
  9
$UCSORGFRONT
 10
0.0
 20
0.0
 30
0.0
  9
$UCSORGBACK
 10
0.0
 20
0.0
 30
0.0
  9
$PUCSBASE
  2

  9
$PUCSNAME
  2

  9
$PUCSORG
 10
0.0
 20
0.0
 30
0.0
  9
$PUCSXDIR
 10
1.0
 20
0.0
 30
0.0
  9
$PUCSYDIR
 10
0.0
 20
1.0
 30
0.0
  9
$PUCSORTHOREF
  2

  9
$PUCSORTHOVIEW
 70
     0
  9
$PUCSORGTOP
 10
0.0
 20
0.0
 30
0.0
  9
$PUCSORGBOTTOM
 10
0.0
 20
0.0
 30
0.0
  9
$PUCSORGLEFT
 10
0.0
 20
0.0
 30
0.0
  9
$PUCSORGRIGHT
 10
0.0
 20
0.0
 30
0.0
  9
$PUCSORGFRONT
 10
0.0
 20
0.0
 30
0.0
  9
$PUCSORGBACK
 10
0.0
 20
0.0
 30
0.0
  9
$USERI1
 70
     0
  9
$USERI2
 70
     0
  9
$USERI3
 70
     0
  9
$USERI4
 70
     0
  9
$USERI5
 70
     0
  9
$USERR1
 40
0.0
  9
$USERR2
 40
0.0
  9
$USERR3
 40
0.0
  9
$USERR4
 40
0.0
  9
$USERR5
 40
0.0
  9
$WORLDVIEW
 70
     1
  9
$SHADEDGE
 70
     3
  9
$SHADEDIF
 70
    70
  9
$TILEMODE
 70
     1
  9
$MAXACTVP
 70
    64
  9
$PINSBASE
 10
0.0
 20
0.0
 30
0.0
  9
$PLIMCHECK
 70
     0
  9
$PEXTMIN
 10
1.000000000000000E+20
 20
1.000000000000000E+20
 30
1.000000000000000E+20
  9
$PEXTMAX
 10
-1.000000000000000E+20
 20
-1.000000000000000E+20
 30
-1.000000000000000E+20
  9
$PLIMMIN
 10
0.0
 20
0.0
  9
$PLIMMAX
 10
12.0
 20
9.0
  9
$UNITMODE
 70
     0
  9
$VISRETAIN
 70
     1
  9
$PLINEGEN
 70
     0
  9
$PSLTSCALE
 70
     1
  9
$TREEDEPTH
 70
  3020
  9
$CMLSTYLE
  2
Standard
  9
$CMLJUST
 70
     0
  9
$CMLSCALE
 40
1.0
  9
$PROXYGRAPHICS
 70
     1
  9
$MEASUREMENT
 70
     0
  9
$CELWEIGHT
370
    -1
  9
$ENDCAPS
280
     0
  9
$JOINSTYLE
280
     0
  9
$LWDISPLAY
290
     1
  9
$INSUNITS
 70
     1
  9
$HYPERLINKBASE
  1

  9
$STYLESHEET
  1

  9
$XEDIT
290
     1
  9
$CEPSNTYPE
380
     0
  9
$PSTYLEMODE
290
     1
  9
$FINGERPRINTGUID
  2
{41C765C0-2E82-EF79-B1D7-EFC5881B72E2}
  9
$VERSIONGUID
  2
{FAEB1C32-E019-11D5-929B-00C0DF256EC4}
  9
$EXTNAMES
290
     1
  9
$PSVPSCALE
 40
0.0
  9
$OLESTARTUP
290
     0
  9
$SORTENTS
280
   127
  9
$INDEXCTL
280
     0
  9
$HIDETEXT
280
     1
  9
$XCLIPFRAME
280
     2
  9
$HALOGAP
280
     0
  9
$OBSCOLOR
 70
   257
  9
$OBSLTYPE
280
     0
  9
$INTERSECTIONDISPLAY
280
     0
  9
$INTERSECTIONCOLOR
 70
   257
  9
$DIMASSOC
280
     2
  9
$PROJECTNAME
  1

  9
$CAMERADISPLAY
290
     0
  9
$LENSLENGTH
 40
50.0
  9
$CAMERAHEIGHT
 40
0.0
  9
$STEPSPERSEC
 40
2.0
  9
$STEPSIZE
 40
6.0
  9
$3DDWFPREC
 40
2.0
  9
$PSOLWIDTH
 40
0.25
  9
$PSOLHEIGHT
 40
4.0
  9
$LOFTANG1
 40
1.570796326794897
  9
$LOFTANG2
 40
1.570796326794897
  9
$LOFTMAG1
 40
0.0
  9
$LOFTMAG2
 40
0.0
  9
$LOFTPARAM
 70
     7
  9
$LOFTNORMALS
280
     1
  9
$LATITUDE
 40
37.795
  9
$LONGITUDE
 40
-122.394
  9
$NORTHDIRECTION
 40
0.0
  9
$TIMEZONE
 70
 -8000
  9
$LIGHTGLYPHDISPLAY
280
     1
  9
$TILEMODELIGHTSYNCH
280
     1
  9
$CMATERIAL
347
3C
  9
$SOLIDHIST
280
     1
  9
$SHOWHIST
280
     1
  9
$DWFFRAME
280
     2
  9
$DGNFRAME
280
     2
  9
$REALWORLDSCALE
290
     1
  9
$INTERFERECOLOR
 62
   256
  9
$CSHADOW
280
     0
  9
$SHADOWPLANELOCATION
 40
0.0
  0
ENDSEC
  0
SECTION
  2
CLASSES
  0
CLASS
  1
ACDBDICTIONARYWDFLT
  2
AcDbDictionaryWithDefault
  3
ObjectDBX Classes
 90
        0
 91
        4
280
     0
281
     0
  0
CLASS
  1
VISUALSTYLE
  2
AcDbVisualStyle
  3
ObjectDBX Classes
 90
     4095
 91
        4
280
     0
281
     0
  0
CLASS
  1
MATERIAL
  2
AcDbMaterial
  3
ObjectDBX Classes
 90
     1153
 91
        4
280
     0
281
     0
  0
CLASS
  1
SUN
  2
AcDbSun
  3
SCENEOE
 90
     1024
 91
        4
280
     0
281
     0
  0
ENDSEC
  0
SECTION
  2
TABLES
  0
TABLE
  2
VPORT
  5
8
330
0
100
AcDbSymbolTable
 70
     1
  0
VPORT
  5
29
330
8
100
AcDbSymbolTableRecord
100
AcDbViewportTableRecord
  2
*Active
 70
     0
 10
0.0
 20
0.0
 11
1.0
 21
1.0
 12
0.0
 22
0.0
 13
0.0
 23
0.0
 14
0.5
 24
0.5
 15
0.5
 25
0.5
 16
0.0
 26
0.0
 36
1.0
 17
105.0007777515277
 27
-148.5000416295416
 37
0.0
 40
297.0000832590831
 41
0.7070757462376333
 42
50.0
 43
0.0
 44
0.0
 50
0.0
 51
0.0
 71
     0
 72
   100
 73
     1
 74
     3
 75
     0
 76
     0
 77
     0
 78
     0
281
     0
 65
     1
110
0.0
120
0.0
130
0.0
111
1.0
121
0.0
131
0.0
112
0.0
122
1.0
132
0.0
 79
     0
146
0.0
 60
     3
 61
     5
292
     1
282
     1
141
0.0
142
0.0
 63
   250
361
3F
  0
ENDTAB
  0
TABLE
  2
LTYPE
  5
5
330
0
100
AcDbSymbolTable
 70
     1
  0
LTYPE
  5
14
330
5
100
AcDbSymbolTableRecord
100
AcDbLinetypeTableRecord
  2
ByBlock
 70
     0
  3

 72
    65
 73
     0
 40
0.0
  0
LTYPE
  5
15
330
5
100
AcDbSymbolTableRecord
100
AcDbLinetypeTableRecord
  2
ByLayer
 70
     0
  3

 72
    65
 73
     0
 40
0.0
  0
LTYPE
  5
16
330
5
100
AcDbSymbolTableRecord
100
AcDbLinetypeTableRecord
  2
Continuous
 70
     0
  3
Solid line
 72
    65
 73
     0
 40
0.0
  0
ENDTAB
  0
TABLE
  2
LAYER
  5
2
330
0
100
AcDbSymbolTable
 70
     2
  0
LAYER
  5
10
330
2
100
AcDbSymbolTableRecord
100
AcDbLayerTableRecord
  2
0
 70
     0
 62
     7
  6
Continuous
370
    -3
390
F
347
3E
  0
LAYER
  5
40
330
2
100
AcDbSymbolTableRecord
100
AcDbLayerTableRecord
  2
_U+30EC_U+30A4_U+30E4_U+30FC 1
 70
     0
 62
     7
  6
Continuous
370
    -3
390
F
347
3E
  0
ENDTAB
  0
TABLE
  2
STYLE
  5
3
330
0
100
AcDbSymbolTable
 70
     1
  0
STYLE
  5
11
330
3
100
AcDbSymbolTableRecord
100
AcDbTextStyleTableRecord
  2
Standard
 70
     0
 40
0.0
 41
1.0
 50
0.0
 71
     0
 42
0.2
  3
txt
  4

  0
ENDTAB
  0
TABLE
  2
VIEW
  5
6
330
0
100
AcDbSymbolTable
 70
     0
  0
ENDTAB
  0
TABLE
  2
UCS
  5
7
330
0
100
AcDbSymbolTable
 70
     0
  0
ENDTAB
  0
TABLE
  2
APPID
  5
9
330
0
100
AcDbSymbolTable
 70
     1
  0
APPID
  5
12
330
9
100
AcDbSymbolTableRecord
100
AcDbRegAppTableRecord
  2
ACAD
 70
     0
  0
ENDTAB
  0
TABLE
  2
DIMSTYLE
  5
A
330
0
100
AcDbSymbolTable
 70
     1
100
AcDbDimStyleTable
  0
DIMSTYLE
105
27
330
A
100
AcDbSymbolTableRecord
100
AcDbDimStyleTableRecord
  2
Standard
 70
     0
178
     0
340
11
  0
ENDTAB
  0
TABLE
  2
BLOCK_RECORD
  5
1
330
0
100
AcDbSymbolTable
 70
     6
  0
BLOCK_RECORD
  5
1F
330
1
100
AcDbSymbolTableRecord
100
AcDbBlockTableRecord
  2
*Model_Space
340
22
 70
     0
280
     1
281
     0
  0
BLOCK_RECORD
  5
1B
330
1
100
AcDbSymbolTableRecord
100
AcDbBlockTableRecord
  2
*Paper_Space
340
1E
 70
     0
280
     1
281
     0
  0
BLOCK_RECORD
  5
23
330
1
100
AcDbSymbolTableRecord
100
AcDbBlockTableRecord
  2
*Paper_Space0
340
26
 70
     0
280
     1
281
     0
  0
BLOCK_RECORD
  5
8F
330
1
100
AcDbSymbolTableRecord
100
AcDbBlockTableRecord
  2
block 2
340
0
102
{BLKREFS
331
90
102
}
 70
     0
280
     1
281
     0
  0
BLOCK_RECORD
  5
A1
330
1
100
AcDbSymbolTableRecord
100
AcDbBlockTableRecord
  2
block 3
340
0
102
{BLKREFS
331
A2
102
}
 70
     0
280
     1
281
     0
  0
BLOCK_RECORD
  5
C9
330
1
100
AcDbSymbolTableRecord
100
AcDbBlockTableRecord
  2
block 4
340
0
102
{BLKREFS
331
CA
102
}
 70
     0
280
     1
281
     0
  0
BLOCK_RECORD
  5
DE
330
1
100
AcDbSymbolTableRecord
100
AcDbBlockTableRecord
  2
block 5
340
0
102
{BLKREFS
331
DF
102
}
 70
     0
280
     1
281
     0
  0
BLOCK_RECORD
  5
ED
330
1
100
AcDbSymbolTableRecord
100
AcDbBlockTableRecord
  2
block 6
340
0
102
{BLKREFS
331
EE
102
}
 70
     0
280
     1
281
     0
  0
ENDTAB
  0
ENDSEC
  0
SECTION
  2
BLOCKS
  0
BLOCK
  5
20
330
1F
100
AcDbEntity
  8
0
100
AcDbBlockBegin
  2
*Model_Space
 70
     0
 10
0.0
 20
0.0
 30
0.0
  3
*Model_Space
  1

  0
ENDBLK
  5
21
330
1F
100
AcDbEntity
  8
0
100
AcDbBlockEnd
  0
BLOCK
  5
1C
330
1B
100
AcDbEntity
 67
     1
  8
0
100
AcDbBlockBegin
  2
*Paper_Space
 70
     0
 10
0.0
 20
0.0
 30
0.0
  3
*Paper_Space
  1

  0
ENDBLK
  5
1D
330
1B
100
AcDbEntity
 67
     1
  8
0
100
AcDbBlockEnd
  0
BLOCK
  5
24
330
23
100
AcDbEntity
  8
0
100
AcDbBlockBegin
  2
*Paper_Space0
 70
     0
 10
0.0
 20
0.0
 30
0.0
  3
*Paper_Space0
  1

  0
ENDBLK
  5
25
330
23
100
AcDbEntity
  8
0
100
AcDbBlockEnd
  0
BLOCK
  5
91
330
8F
100
AcDbEntity
  8
0
100
AcDbBlockBegin
  2
block 2
 70
     0
 10
0.0
 20
0.0
 30
0.0
  3
block 2
  1

  0
SPLINE
  5
93
330
8F
100
AcDbEntity
  8
_U+30EC_U+30A4_U+30E4_U+30FC 1
370
     0
100
AcDbSpline
210
0.0
220
0.0
230
1.0
 70
    11
 71
     3
 72
    26
 73
    22
 74
     0
 42
0.0000000001
 43
0.0000000001
 12
1.0
 22
0.0
 32
0.0
 13
1.0
 23
0.0
 33
0.0
 40
0.0
 40
0.0
 40
0.0
 40
0.0
 40
1.0
 40
1.0
 40
1.0
 40
2.0
 40
2.0
 40
2.0
 40
3.0
 40
3.0
 40
3.0
 40
4.0
 40
4.0
 40
4.0
 40
5.0
 40
5.0
 40
5.0
 40
6.0
 40
6.0
 40
6.0
 40
7.0
 40
7.0
 40
7.0
 40
7.0
 10
125.6963758366315
 20
-143.0830837315903
 30
0.0
 10
125.6963758366315
 20
-143.0830837315903
 30
0.0
 10
124.5922227336089
 20
-143.0830837315903
 30
0.0
 10
124.5922227336089
 20
-143.0830837315903
 30
0.0
 10
124.5922227336089
 20
-143.0830837315903
 30
0.0
 10
124.5922227336089
 20
-143.4131238790773
 30
0.0
 10
124.5922227336089
 20
-143.4131238790773
 30
0.0
 10
124.5922227336089
 20
-143.4131238790773
 30
0.0
 10
124.4440836277432
 20
-143.4131238790773
 30
0.0
 10
124.4440836277432
 20
-143.4131238790773
 30
0.0
 10
124.4292697171566
 20
-143.0810166742992
 30
0.0
 10
124.2663167007043
 20
-143.0345078852483
 30
0.0
 10
124.151939530594
 20
-143.0048800640752
 30
0.0
 10
124.151939530594
 20
-143.0048800640752
 30
0.0
 10
124.151939530594
 20
-142.8588080155006
 30
0.0
 10
124.151939530594
 20
-142.8588080155006
 30
0.0
 10
124.151939530594
 20
-142.8588080155006
 30
0.0
 10
125.6963758366315
 20
-142.8588080155006
 30
0.0
 10
125.6963758366315
 20
-142.8588080155006
 30
0.0
 10
125.6963758366315
 20
-142.8588080155006
 30
0.0
 10
125.6963758366315
 20
-143.0830837315903
 30
0.0
 10
125.6963758366315
 20
-143.0830837315903
 30
0.0
  0
HATCH
  5
94
330
8F
100
AcDbEntity
  8
_U+30EC_U+30A4_U+30E4_U+30FC 1
 62
   179
420
  2234388
100
AcDbHatch
 10
0.0
 20
0.0
 30
0.0
210
0.0
220
0.0
230
1.0
  2
SOLID
 70
     1
 71
     0
 91
        1
 92
        1
 93
        1
 72
     4
 94
        3
 73
     0
 74
     1
 95
       26
 96
       22
 40
0.0
 40
0.0
 40
0.0
 40
0.0
 40
1.0
 40
1.0
 40
1.0
 40
2.0
 40
2.0
 40
2.0
 40
3.0
 40
3.0
 40
3.0
 40
4.0
 40
4.0
 40
4.0
 40
5.0
 40
5.0
 40
5.0
 40
6.0
 40
6.0
 40
6.0
 40
7.0
 40
7.0
 40
7.0
 40
7.0
 10
125.6963758366315
 20
-143.0830837315903
 10
125.6963758366315
 20
-143.0830837315903
 10
124.5922227336089
 20
-143.0830837315903
 10
124.5922227336089
 20
-143.0830837315903
 10
124.5922227336089
 20
-143.0830837315903
 10
124.5922227336089
 20
-143.4131238790773
 10
124.5922227336089
 20
-143.4131238790773
 10
124.5922227336089
 20
-143.4131238790773
 10
124.4440836277432
 20
-143.4131238790773
 10
124.4440836277432
 20
-143.4131238790773
 10
124.4292697171566
 20
-143.0810166742992
 10
124.2663167007043
 20
-143.0345078852483
 10
124.151939530594
 20
-143.0048800640752
 10
124.151939530594
 20
-143.0048800640752
 10
124.151939530594
 20
-142.8588080155006
 10
124.151939530594
 20
-142.8588080155006
 10
124.151939530594
 20
-142.8588080155006
 10
125.6963758366315
 20
-142.8588080155006
 10
125.6963758366315
 20
-142.8588080155006
 10
125.6963758366315
 20
-142.8588080155006
 10
125.6963758366315
 20
-143.0830837315903
 10
125.6963758366315
 20
-143.0830837315903
 97
        0
 97
        0
 75
     2
 76
     1
 98
        0
  0
ENDBLK
  5
92
330
8F
100
AcDbEntity
  8
0
100
AcDbBlockEnd
  0
BLOCK
  5
A3
330
A1
100
AcDbEntity
  8
0
100
AcDbBlockBegin
  2
block 3
 70
     0
 10
0.0
 20
0.0
 30
0.0
  3
block 3
  1

  0
POLYLINE
  5
A5
330
A1
100
AcDbEntity
  8
_U+30EC_U+30A4_U+30E4_U+30FC 1
370
     0
100
AcDb2dPolyline
 66
     1
 10
0.0
 20
0.0
 30
0.0
  0
VERTEX
  5
A6
330
A5
100
AcDbEntity
  8
_U+30EC_U+30A4_U+30E4_U+30FC 1
370
     0
100
AcDbVertex
100
AcDb2dVertex
 10
102.4061523181485
 20
-137.4339884096519
 30
0.0
  0
VERTEX
  5
A7
330
A5
100
AcDbEntity
  8
_U+30EC_U+30A4_U+30E4_U+30FC 1
370
     0
100
AcDbVertex
100
AcDb2dVertex
 10
102.4061523181485
 20
-137.7809095250166
 30
0.0
  0
VERTEX
  5
A8
330
A5
100
AcDbEntity
  8
_U+30EC_U+30A4_U+30E4_U+30FC 1
370
     0
100
AcDbVertex
100
AcDb2dVertex
 10
102.1884222834807
 20
-137.7809095250166
 30
0.0
  0
VERTEX
  5
A9
330
A5
100
AcDbEntity
  8
_U+30EC_U+30A4_U+30E4_U+30FC 1
370
     0
100
AcDbVertex
100
AcDb2dVertex
 10
102.1884222834807
 20
-137.4339884096519
 30
0.0
  0
VERTEX
  5
AA
330
A5
100
AcDbEntity
  8
_U+30EC_U+30A4_U+30E4_U+30FC 1
370
     0
100
AcDbVertex
100
AcDb2dVertex
 10
101.5324761030891
 20
-137.4339884096519
 30
0.0
  0
VERTEX
  5
AB
330
A5
100
AcDbEntity
  8
_U+30EC_U+30A4_U+30E4_U+30FC 1
370
     0
100
AcDbVertex
100
AcDb2dVertex
 10
101.5324761030891
 20
-137.2097126935622
 30
0.0
  0
VERTEX
  5
AC
330
A5
100
AcDbEntity
  8
_U+30EC_U+30A4_U+30E4_U+30FC 1
370
     0
100
AcDbVertex
100
AcDb2dVertex
 10
102.2115044232318
 20
-136.2364732189791
 30
0.0
  0
VERTEX
  5
AD
330
A5
100
AcDbEntity
  8
_U+30EC_U+30A4_U+30E4_U+30FC 1
370
     0
100
AcDbVertex
100
AcDb2dVertex
 10
102.4061523181485
 20
-136.2364732189791
 30
0.0
  0
VERTEX
  5
AE
330
A5
100
AcDbEntity
  8
_U+30EC_U+30A4_U+30E4_U+30FC 1
370
     0
100
AcDbVertex
100
AcDb2dVertex
 10
102.4061523181485
 20
-137.235206400153
 30
0.0
  0
VERTEX
  5
AF
330
A5
100
AcDbEntity
  8
_U+30EC_U+30A4_U+30E4_U+30FC 1
370
     0
100
AcDbVertex
100
AcDb2dVertex
 10
102.6135470663605
 20
-137.235206400153
 30
0.0
  0
VERTEX
  5
B0
330
A5
100
AcDbEntity
  8
_U+30EC_U+30A4_U+30E4_U+30FC 1
370
     0
100
AcDbVertex
100
AcDb2dVertex
 10
102.6135470663605
 20
-137.4339884096519
 30
0.0
  0
VERTEX
  5
B1
330
A5
100
AcDbEntity
  8
_U+30EC_U+30A4_U+30E4_U+30FC 1
370
     0
100
AcDbVertex
100
AcDb2dVertex
 10
102.4061523181485
 20
-137.4339884096519
 30
0.0
  0
SEQEND
  5
B2
330
A5
100
AcDbEntity
  8
_U+30EC_U+30A4_U+30E4_U+30FC 1
370
     0
  0
POLYLINE
  5
B3
330
A1
100
AcDbEntity
  8
_U+30EC_U+30A4_U+30E4_U+30FC 1
370
     0
100
AcDb2dPolyline
 66
     1
 10
0.0
 20
0.0
 30
0.0
  0
VERTEX
  5
B4
330
B3
100
AcDbEntity
  8
_U+30EC_U+30A4_U+30E4_U+30FC 1
370
     0
100
AcDbVertex
100
AcDb2dVertex
 10
102.1884222834807
 20
-136.5792602197614
 30
0.0
  0
VERTEX
  5
B5
330
B3
100
AcDbEntity
  8
_U+30EC_U+30A4_U+30E4_U+30FC 1
370
     0
100
AcDbVertex
100
AcDb2dVertex
 10
101.731258112588
 20
-137.235206400153
 30
0.0
  0
VERTEX
  5
B6
330
B3
100
AcDbEntity
  8
_U+30EC_U+30A4_U+30E4_U+30FC 1
370
     0
100
AcDbVertex
100
AcDb2dVertex
 10
102.1884222834807
 20
-137.235206400153
 30
0.0
  0
VERTEX
  5
B7
330
B3
100
AcDbEntity
  8
_U+30EC_U+30A4_U+30E4_U+30FC 1
370
     0
100
AcDbVertex
100
AcDb2dVertex
 10
102.1884222834807
 20
-136.5792602197614
 30
0.0
  0
SEQEND
  5
B8
330
B3
100
AcDbEntity
  8
_U+30EC_U+30A4_U+30E4_U+30FC 1
370
     0
  0
HATCH
  5
B9
330
A1
100
AcDbEntity
  8
_U+30EC_U+30A4_U+30E4_U+30FC 1
 62
   179
420
  2234388
100
AcDbHatch
 10
0.0
 20
0.0
 30
0.0
210
0.0
220
0.0
230
1.0
  2
SOLID
 70
     1
 71
     0
 91
        2
 92
        1
 93
       11
 72
     1
 10
102.4061523181485
 20
-137.4339884096519
 11
102.4061523181485
 21
-137.7809095250166
 72
     1
 10
102.4061523181485
 20
-137.7809095250166
 11
102.1884222834807
 21
-137.7809095250166
 72
     1
 10
102.1884222834807
 20
-137.7809095250166
 11
102.1884222834807
 21
-137.4339884096519
 72
     1
 10
102.1884222834807
 20
-137.4339884096519
 11
101.5324761030891
 21
-137.4339884096519
 72
     1
 10
101.5324761030891
 20
-137.4339884096519
 11
101.5324761030891
 21
-137.2097126935622
 72
     1
 10
101.5324761030891
 20
-137.2097126935622
 11
102.2115044232318
 21
-136.2364732189791
 72
     1
 10
102.2115044232318
 20
-136.2364732189791
 11
102.4061523181485
 21
-136.2364732189791
 72
     1
 10
102.4061523181485
 20
-136.2364732189791
 11
102.4061523181485
 21
-137.235206400153
 72
     1
 10
102.4061523181485
 20
-137.235206400153
 11
102.6135470663605
 21
-137.235206400153
 72
     1
 10
102.6135470663605
 20
-137.235206400153
 11
102.6135470663605
 21
-137.4339884096519
 72
     1
 10
102.6135470663605
 20
-137.4339884096519
 11
102.4061523181485
 21
-137.4339884096519
 97
        0
 92
        1
 93
        3
 72
     1
 10
102.1884222834807
 20
-136.5792602197614
 11
101.731258112588
 21
-137.235206400153
 72
     1
 10
101.731258112588
 20
-137.235206400153
 11
102.1884222834807
 21
-137.235206400153
 72
     1
 10
102.1884222834807
 20
-137.235206400153
 11
102.1884222834807
 21
-136.5792602197614
 97
        0
 75
     2
 76
     1
 98
        0
  0
SPLINE
  5
BA
330
A1
100
AcDbEntity
  8
_U+30EC_U+30A4_U+30E4_U+30FC 1
370
     0
100
AcDbSpline
210
0.0
220
0.0
230
1.0
 70
    11
 71
     3
 72
    29
 73
    25
 74
     0
 42
0.0000000001
 43
0.0000000001
 12
1.0
 22
0.0
 32
0.0
 13
1.0
 23
0.0
 33
0.0
 40
0.0
 40
0.0
 40
0.0
 40
0.0
 40
1.0
 40
1.0
 40
1.0
 40
2.0
 40
2.0
 40
2.0
 40
3.0
 40
3.0
 40
3.0
 40
4.0
 40
4.0
 40
4.0
 40
5.0
 40
5.0
 40
5.0
 40
6.0
 40
6.0
 40
6.0
 40
7.0
 40
7.0
 40
7.0
 40
8.0
 40
8.0
 40
8.0
 40
8.0
 10
103.6487982596781
 20
-137.6031425979777
 30
0.0
 10
103.5406222614412
 20
-137.8126044034809
 30
0.0
 10
103.3673339585332
 20
-137.8315524286498
 30
0.0
 10
103.2508897311317
 20
-137.8315524286498
 30
0.0
 10
103.0900037719706
 20
-137.8315524286498
 30
0.0
 10
102.9484103475268
 20
-137.7850436395989
 30
0.0
 10
102.8533257121339
 20
-137.6031425979777
 30
0.0
 10
102.7496283380279
 20
-137.4084947030611
 30
0.0
 10
102.730680312859
 20
-137.1714721336759
 30
0.0
 10
102.730680312859
 20
-137.0088636267721
 30
0.0
 10
102.730680312859
 20
-136.8648586354886
 30
0.0
 10
102.7475612807367
 20
-136.6130221555169
 30
0.0
 10
102.8533257121339
 20
-136.414240146018
 30
0.0
 10
102.9611572008222
 20
-136.2113240219367
 30
0.0
 10
103.1220431599834
 20
-136.1878973726371
 30
0.0
 10
103.2508897311317
 20
-136.1878973726371
 30
0.0
 10
103.4097086330017
 20
-136.1878973726371
 30
0.0
 10
103.5533691147367
 20
-136.2323391043968
 30
0.0
 10
103.6487982596781
 20
-136.414240146018
 30
0.0
 10
103.7480170096533
 20
-136.6068209836434
 30
0.0
 10
103.771443658953
 20
-136.8352308143155
 30
0.0
 10
103.771443658953
 20
-137.0088636267721
 30
0.0
 10
103.771443658953
 20
-137.180084872389
 30
0.0
 10
103.7500840669444
 20
-137.4105617603522
 30
0.0
 10
103.6487982596781
 20
-137.6031425979777
 30
0.0
  0
SPLINE
  5
BB
330
A1
100
AcDbEntity
  8
_U+30EC_U+30A4_U+30E4_U+30FC 1
370
     0
100
AcDbSpline
210
0.0
220
0.0
230
1.0
 70
    11
 71
     3
 72
    17
 73
    13
 74
     0
 42
0.0000000001
 43
0.0000000001
 12
1.0
 22
0.0
 32
0.0
 13
1.0
 23
0.0
 33
0.0
 40
0.0
 40
0.0
 40
0.0
 40
0.0
 40
1.0
 40
1.0
 40
1.0
 40
2.0
 40
2.0
 40
2.0
 40
3.0
 40
3.0
 40
3.0
 40
4.0
 40
4.0
 40
4.0
 40
4.0
 10
103.2508897311317
 20
-136.3804782102625
 30
0.0
 10
103.0014648179996
 20
-136.3804782102625
 30
0.0
 10
102.9546115194002
 20
-136.6640095686986
 30
0.0
 10
102.9546115194002
 20
-137.0088636267721
 30
0.0
 10
102.9546115194002
 20
-137.3282239782548
 30
0.0
 10
102.9907850219954
 20
-137.6369045337331
 30
0.0
 10
103.2508897311317
 20
-137.6369045337331
 30
0.0
 10
103.4985920965212
 20
-137.6369045337331
 30
0.0
 10
103.5471679428632
 20
-137.3557847421368
 30
0.0
 10
103.5471679428632
 20
-137.0088636267721
 30
0.0
 10
103.5471679428632
 20
-136.6891587657409
 30
0.0
 10
103.5089273829769
 20
-136.3804782102625
 30
0.0
 10
103.2508897311317
 20
-136.3804782102625
 30
0.0
  0
HATCH
  5
BC
330
A1
100
AcDbEntity
  8
_U+30EC_U+30A4_U+30E4_U+30FC 1
 62
   179
420
  2234388
100
AcDbHatch
 10
0.0
 20
0.0
 30
0.0
210
0.0
220
0.0
230
1.0
  2
SOLID
 70
     1
 71
     0
 91
        2
 92
        1
 93
        1
 72
     4
 94
        3
 73
     0
 74
     1
 95
       29
 96
       25
 40
0.0
 40
0.0
 40
0.0
 40
0.0
 40
1.0
 40
1.0
 40
1.0
 40
2.0
 40
2.0
 40
2.0
 40
3.0
 40
3.0
 40
3.0
 40
4.0
 40
4.0
 40
4.0
 40
5.0
 40
5.0
 40
5.0
 40
6.0
 40
6.0
 40
6.0
 40
7.0
 40
7.0
 40
7.0
 40
8.0
 40
8.0
 40
8.0
 40
8.0
 10
103.6487982596781
 20
-137.6031425979777
 10
103.5406222614412
 20
-137.8126044034809
 10
103.3673339585332
 20
-137.8315524286498
 10
103.2508897311317
 20
-137.8315524286498
 10
103.0900037719706
 20
-137.8315524286498
 10
102.9484103475268
 20
-137.7850436395989
 10
102.8533257121339
 20
-137.6031425979777
 10
102.7496283380279
 20
-137.4084947030611
 10
102.730680312859
 20
-137.1714721336759
 10
102.730680312859
 20
-137.0088636267721
 10
102.730680312859
 20
-136.8648586354886
 10
102.7475612807367
 20
-136.6130221555169
 10
102.8533257121339
 20
-136.414240146018
 10
102.9611572008222
 20
-136.2113240219367
 10
103.1220431599834
 20
-136.1878973726371
 10
103.2508897311317
 20
-136.1878973726371
 10
103.4097086330017
 20
-136.1878973726371
 10
103.5533691147367
 20
-136.2323391043968
 10
103.6487982596781
 20
-136.414240146018
 10
103.7480170096533
 20
-136.6068209836434
 10
103.771443658953
 20
-136.8352308143155
 10
103.771443658953
 20
-137.0088636267721
 10
103.771443658953
 20
-137.180084872389
 10
103.7500840669444
 20
-137.4105617603522
 10
103.6487982596781
 20
-137.6031425979777
 97
        0
 97
        0
 92
        1
 93
        1
 72
     4
 94
        3
 73
     0
 74
     1
 95
       17
 96
       13
 40
0.0
 40
0.0
 40
0.0
 40
0.0
 40
1.0
 40
1.0
 40
1.0
 40
2.0
 40
2.0
 40
2.0
 40
3.0
 40
3.0
 40
3.0
 40
4.0
 40
4.0
 40
4.0
 40
4.0
 10
103.2508897311317
 20
-136.3804782102625
 10
103.0014648179996
 20
-136.3804782102625
 10
102.9546115194002
 20
-136.6640095686986
 10
102.9546115194002
 20
-137.0088636267721
 10
102.9546115194002
 20
-137.3282239782548
 10
102.9907850219954
 20
-137.6369045337331
 10
103.2508897311317
 20
-137.6369045337331
 10
103.4985920965212
 20
-137.6369045337331
 10
103.5471679428632
 20
-137.3557847421368
 10
103.5471679428632
 20
-137.0088636267721
 10
103.5471679428632
 20
-136.6891587657409
 10
103.5089273829769
 20
-136.3804782102625
 10
103.2508897311317
 20
-136.3804782102625
 97
        0
 97
        0
 75
     2
 76
     1
 98
        0
  0
ENDBLK
  5
A4
330
A1
100
AcDbEntity
  8
0
100
AcDbBlockEnd
  0
BLOCK
  5
CB
330
C9
100
AcDbEntity
  8
0
100
AcDbBlockBegin
  2
block 4
 70
     0
 10
0.0
 20
0.0
 30
0.0
  3
block 4
  1

  0
SPLINE
  5
CD
330
C9
100
AcDbEntity
  8
_U+30EC_U+30A4_U+30E4_U+30FC 1
370
     0
100
AcDbSpline
210
0.0
220
0.0
230
1.0
 70
    11
 71
     3
 72
    44
 73
    40
 74
     0
 42
0.0000000001
 43
0.0000000001
 12
1.0
 22
0.0
 32
0.0
 13
1.0
 23
0.0
 33
0.0
 40
0.0
 40
0.0
 40
0.0
 40
0.0
 40
1.0
 40
1.0
 40
1.0
 40
2.0
 40
2.0
 40
2.0
 40
3.0
 40
3.0
 40
3.0
 40
4.0
 40
4.0
 40
4.0
 40
5.0
 40
5.0
 40
5.0
 40
6.0
 40
6.0
 40
6.0
 40
7.0
 40
7.0
 40
7.0
 40
8.0
 40
8.0
 40
8.0
 40
9.0
 40
9.0
 40
9.0
 40
10.0
 40
10.0
 40
10.0
 40
11.0
 40
11.0
 40
11.0
 40
12.0
 40
12.0
 40
12.0
 40
13.0
 40
13.0
 40
13.0
 40
13.0
 10
92.1997124335473
 20
-159.8989393046433
 30
0.0
 10
91.98198239887951
 20
-160.0577582065133
 30
0.0
 10
91.88896482077776
 20
-160.1318277594462
 30
0.0
 10
91.84004446488721
 20
-160.2754882411811
 30
0.0
 10
91.84004446488721
 20
-160.2754882411811
 30
0.0
 10
92.61863604455368
 20
-160.2754882411811
 30
0.0
 10
92.61863604455368
 20
-160.2754882411811
 30
0.0
 10
92.61863604455368
 20
-160.2754882411811
 30
0.0
 10
92.61863604455368
 20
-160.480815932102
 30
0.0
 10
92.61863604455368
 20
-160.480815932102
 30
0.0
 10
92.61863604455368
 20
-160.480815932102
 30
0.0
 10
91.59061955175513
 20
-160.480815932102
 30
0.0
 10
91.59061955175513
 20
-160.480815932102
 30
0.0
 10
91.62231443021942
 20
-160.1232150207331
 30
0.0
 10
91.68777124443918
 20
-160.0450113532179
 30
0.0
 10
92.0729329196901
 20
-159.7466660841953
 30
0.0
 10
92.32890351424416
 20
-159.5478840746964
 30
0.0
 10
92.39436032846392
 20
-159.4800156936369
 30
0.0
 10
92.39436032846392
 20
-159.3425563837755
 30
0.0
 10
92.39436032846392
 20
-159.2240450990829
 30
0.0
 10
92.32235783282219
 20
-159.0931314706434
 30
0.0
 10
92.12564288061442
 20
-159.0931314706434
 30
0.0
 10
91.86553817147806
 20
-159.0931314706434
 30
0.0
 10
91.85726994231347
 20
-159.3236083586066
 30
0.0
 10
91.85279131818264
 20
-159.4400525860081
 30
0.0
 10
91.85279131818264
 20
-159.4400525860081
 30
0.0
 10
91.62851560209288
 20
-159.4400525860081
 30
0.0
 10
91.62851560209288
 20
-159.4400525860081
 30
0.0
 10
91.637128340806
 20
-159.3129285626023
 30
0.0
 10
91.64780813681027
 20
-159.2009629593317
 30
0.0
 10
91.7280788616166
 20
-159.0824516746391
 30
0.0
 10
91.83797740759607
 20
-158.921565715478
 30
0.0
 10
92.02435707334809
 20
-158.8878037797225
 30
0.0
 10
92.140456791201
 20
-158.8878037797225
 30
0.0
 10
92.41778697776361
 20
-158.8878037797225
 30
0.0
 10
92.62518172597565
 20
-159.0717718786348
 30
0.0
 10
92.62518172597565
 20
-159.3446234410666
 30
0.0
 10
92.62518172597565
 20
-159.5733777812872
 30
0.0
 10
92.5087374985742
 20
-159.6725965312624
 30
0.0
 10
92.1997124335473
 20
-159.8989393046433
 30
0.0
  0
HATCH
  5
CE
330
C9
100
AcDbEntity
  8
_U+30EC_U+30A4_U+30E4_U+30FC 1
 62
   179
420
  2234388
100
AcDbHatch
 10
0.0
 20
0.0
 30
0.0
210
0.0
220
0.0
230
1.0
  2
SOLID
 70
     1
 71
     0
 91
        1
 92
        1
 93
        1
 72
     4
 94
        3
 73
     0
 74
     1
 95
       44
 96
       40
 40
0.0
 40
0.0
 40
0.0
 40
0.0
 40
1.0
 40
1.0
 40
1.0
 40
2.0
 40
2.0
 40
2.0
 40
3.0
 40
3.0
 40
3.0
 40
4.0
 40
4.0
 40
4.0
 40
5.0
 40
5.0
 40
5.0
 40
6.0
 40
6.0
 40
6.0
 40
7.0
 40
7.0
 40
7.0
 40
8.0
 40
8.0
 40
8.0
 40
9.0
 40
9.0
 40
9.0
 40
10.0
 40
10.0
 40
10.0
 40
11.0
 40
11.0
 40
11.0
 40
12.0
 40
12.0
 40
12.0
 40
13.0
 40
13.0
 40
13.0
 40
13.0
 10
92.1997124335473
 20
-159.8989393046433
 10
91.98198239887951
 20
-160.0577582065133
 10
91.88896482077776
 20
-160.1318277594462
 10
91.84004446488721
 20
-160.2754882411811
 10
91.84004446488721
 20
-160.2754882411811
 10
92.61863604455368
 20
-160.2754882411811
 10
92.61863604455368
 20
-160.2754882411811
 10
92.61863604455368
 20
-160.2754882411811
 10
92.61863604455368
 20
-160.480815932102
 10
92.61863604455368
 20
-160.480815932102
 10
92.61863604455368
 20
-160.480815932102
 10
91.59061955175513
 20
-160.480815932102
 10
91.59061955175513
 20
-160.480815932102
 10
91.62231443021942
 20
-160.1232150207331
 10
91.68777124443918
 20
-160.0450113532179
 10
92.0729329196901
 20
-159.7466660841953
 10
92.32890351424416
 20
-159.5478840746964
 10
92.39436032846392
 20
-159.4800156936369
 10
92.39436032846392
 20
-159.3425563837755
 10
92.39436032846392
 20
-159.2240450990829
 10
92.32235783282219
 20
-159.0931314706434
 10
92.12564288061442
 20
-159.0931314706434
 10
91.86553817147806
 20
-159.0931314706434
 10
91.85726994231347
 20
-159.3236083586066
 10
91.85279131818264
 20
-159.4400525860081
 10
91.85279131818264
 20
-159.4400525860081
 10
91.62851560209288
 20
-159.4400525860081
 10
91.62851560209288
 20
-159.4400525860081
 10
91.637128340806
 20
-159.3129285626023
 10
91.64780813681027
 20
-159.2009629593317
 10
91.7280788616166
 20
-159.0824516746391
 10
91.83797740759607
 20
-158.921565715478
 10
92.02435707334809
 20
-158.8878037797225
 10
92.140456791201
 20
-158.8878037797225
 10
92.41778697776361
 20
-158.8878037797225
 10
92.62518172597565
 20
-159.0717718786348
 10
92.62518172597565
 20
-159.3446234410666
 10
92.62518172597565
 20
-159.5733777812872
 10
92.5087374985742
 20
-159.6725965312624
 10
92.1997124335473
 20
-159.8989393046433
 97
        0
 97
        0
 75
     2
 76
     1
 98
        0
  0
SPLINE
  5
CF
330
C9
100
AcDbEntity
  8
_U+30EC_U+30A4_U+30E4_U+30FC 1
370
     0
100
AcDbSpline
210
0.0
220
0.0
230
1.0
 70
    11
 71
     3
 72
    29
 73
    25
 74
     0
 42
0.0000000001
 43
0.0000000001
 12
1.0
 22
0.0
 32
0.0
 13
1.0
 23
0.0
 33
0.0
 40
0.0
 40
0.0
 40
0.0
 40
0.0
 40
1.0
 40
1.0
 40
1.0
 40
2.0
 40
2.0
 40
2.0
 40
3.0
 40
3.0
 40
3.0
 40
4.0
 40
4.0
 40
4.0
 40
5.0
 40
5.0
 40
5.0
 40
6.0
 40
6.0
 40
6.0
 40
7.0
 40
7.0
 40
7.0
 40
8.0
 40
8.0
 40
8.0
 40
8.0
 10
93.68144800175325
 20
-160.3030490050631
 30
0.0
 10
93.57327200351641
 20
-160.5125108105663
 30
0.0
 10
93.39998370060835
 20
-160.5314588357352
 30
0.0
 10
93.2835394732069
 20
-160.5314588357352
 30
0.0
 10
93.12265351404572
 20
-160.5314588357352
 30
0.0
 10
92.98106008960197
 20
-160.4849500466843
 30
0.0
 10
92.88597545420906
 20
-160.3030490050631
 30
0.0
 10
92.78227808010304
 20
-160.1084011101465
 30
0.0
 10
92.76333005493417
 20
-159.8717230503099
 30
0.0
 10
92.76333005493417
 20
-159.7087700338575
 30
0.0
 10
92.76333005493417
 20
-159.5647650425741
 30
0.0
 10
92.7802110228119
 20
-159.3129285626023
 30
0.0
 10
92.88597545420906
 20
-159.1141465531034
 30
0.0
 10
92.99380694289738
 20
-158.9112304290222
 30
0.0
 10
93.15469290205856
 20
-158.8878037797225
 30
0.0
 10
93.2835394732069
 20
-158.8878037797225
 30
0.0
 10
93.44235837507692
 20
-158.8878037797225
 30
0.0
 10
93.58601885681183
 20
-158.9322455114822
 30
0.0
 10
93.68144800175325
 20
-159.1141465531034
 30
0.0
 10
93.78066675172845
 20
-159.3067273907289
 30
0.0
 10
93.80409340102815
 20
-159.535137221401
 30
0.0
 10
93.80409340102815
 20
-159.7087700338575
 30
0.0
 10
93.80409340102815
 20
-159.8799912794745
 30
0.0
 10
93.7827338090196
 20
-160.1104681674377
 30
0.0
 10
93.68144800175325
 20
-160.3030490050631
 30
0.0
  0
SPLINE
  5
D0
330
C9
100
AcDbEntity
  8
_U+30EC_U+30A4_U+30E4_U+30FC 1
370
     0
100
AcDbSpline
210
0.0
220
0.0
230
1.0
 70
    11
 71
     3
 72
    17
 73
    13
 74
     0
 42
0.0000000001
 43
0.0000000001
 12
1.0
 22
0.0
 32
0.0
 13
1.0
 23
0.0
 33
0.0
 40
0.0
 40
0.0
 40
0.0
 40
0.0
 40
1.0
 40
1.0
 40
1.0
 40
2.0
 40
2.0
 40
2.0
 40
3.0
 40
3.0
 40
3.0
 40
4.0
 40
4.0
 40
4.0
 40
4.0
 10
93.2835394732069
 20
-159.080384617348
 30
0.0
 10
93.03411456007481
 20
-159.080384617348
 30
0.0
 10
92.98726126147541
 20
-159.363915975784
 30
0.0
 10
92.98726126147541
 20
-159.7087700338575
 30
0.0
 10
92.98726126147541
 20
-160.0281303853402
 30
0.0
 10
93.02343476407053
 20
-160.3368109408186
 30
0.0
 10
93.2835394732069
 20
-160.3368109408186
 30
0.0
 10
93.53124183859636
 20
-160.3368109408186
 30
0.0
 10
93.57981768493838
 20
-160.0556911492222
 30
0.0
 10
93.57981768493838
 20
-159.7087700338575
 30
0.0
 10
93.57981768493838
 20
-159.3890651728263
 30
0.0
 10
93.54157712505211
 20
-159.080384617348
 30
0.0
 10
93.2835394732069
 20
-159.080384617348
 30
0.0
  0
HATCH
  5
D1
330
C9
100
AcDbEntity
  8
_U+30EC_U+30A4_U+30E4_U+30FC 1
 62
   179
420
  2234388
100
AcDbHatch
 10
0.0
 20
0.0
 30
0.0
210
0.0
220
0.0
230
1.0
  2
SOLID
 70
     1
 71
     0
 91
        2
 92
        1
 93
        1
 72
     4
 94
        3
 73
     0
 74
     1
 95
       29
 96
       25
 40
0.0
 40
0.0
 40
0.0
 40
0.0
 40
1.0
 40
1.0
 40
1.0
 40
2.0
 40
2.0
 40
2.0
 40
3.0
 40
3.0
 40
3.0
 40
4.0
 40
4.0
 40
4.0
 40
5.0
 40
5.0
 40
5.0
 40
6.0
 40
6.0
 40
6.0
 40
7.0
 40
7.0
 40
7.0
 40
8.0
 40
8.0
 40
8.0
 40
8.0
 10
93.68144800175325
 20
-160.3030490050631
 10
93.57327200351641
 20
-160.5125108105663
 10
93.39998370060835
 20
-160.5314588357352
 10
93.2835394732069
 20
-160.5314588357352
 10
93.12265351404572
 20
-160.5314588357352
 10
92.98106008960197
 20
-160.4849500466843
 10
92.88597545420906
 20
-160.3030490050631
 10
92.78227808010304
 20
-160.1084011101465
 10
92.76333005493417
 20
-159.8717230503099
 10
92.76333005493417
 20
-159.7087700338575
 10
92.76333005493417
 20
-159.5647650425741
 10
92.7802110228119
 20
-159.3129285626023
 10
92.88597545420906
 20
-159.1141465531034
 10
92.99380694289738
 20
-158.9112304290222
 10
93.15469290205856
 20
-158.8878037797225
 10
93.2835394732069
 20
-158.8878037797225
 10
93.44235837507692
 20
-158.8878037797225
 10
93.58601885681183
 20
-158.9322455114822
 10
93.68144800175325
 20
-159.1141465531034
 10
93.78066675172845
 20
-159.3067273907289
 10
93.80409340102815
 20
-159.535137221401
 10
93.80409340102815
 20
-159.7087700338575
 10
93.80409340102815
 20
-159.8799912794745
 10
93.7827338090196
 20
-160.1104681674377
 10
93.68144800175325
 20
-160.3030490050631
 97
        0
 97
        0
 92
        1
 93
        1
 72
     4
 94
        3
 73
     0
 74
     1
 95
       17
 96
       13
 40
0.0
 40
0.0
 40
0.0
 40
0.0
 40
1.0
 40
1.0
 40
1.0
 40
2.0
 40
2.0
 40
2.0
 40
3.0
 40
3.0
 40
3.0
 40
4.0
 40
4.0
 40
4.0
 40
4.0
 10
93.2835394732069
 20
-159.080384617348
 10
93.03411456007481
 20
-159.080384617348
 10
92.98726126147541
 20
-159.363915975784
 10
92.98726126147541
 20
-159.7087700338575
 10
92.98726126147541
 20
-160.0281303853402
 10
93.02343476407053
 20
-160.3368109408186
 10
93.2835394732069
 20
-160.3368109408186
 10
93.53124183859636
 20
-160.3368109408186
 10
93.57981768493838
 20
-160.0556911492222
 10
93.57981768493838
 20
-159.7087700338575
 10
93.57981768493838
 20
-159.3890651728263
 10
93.54157712505211
 20
-159.080384617348
 10
93.2835394732069
 20
-159.080384617348
 97
        0
 97
        0
 75
     2
 76
     1
 98
        0
  0
ENDBLK
  5
CC
330
C9
100
AcDbEntity
  8
0
100
AcDbBlockEnd
  0
BLOCK
  5
E0
330
DE
100
AcDbEntity
  8
0
100
AcDbBlockBegin
  2
block 5
 70
     0
 10
0.0
 20
0.0
 30
0.0
  3
block 5
  1

  0
SPLINE
  5
E2
330
DE
100
AcDbEntity
  8
_U+30EC_U+30A4_U+30E4_U+30FC 1
370
     0
100
AcDbSpline
210
0.0
220
0.0
230
1.0
 70
    11
 71
     3
 72
    32
 73
    28
 74
     0
 42
0.0000000001
 43
0.0000000001
 12
1.0
 22
0.0
 32
0.0
 13
1.0
 23
0.0
 33
0.0
 40
0.0
 40
0.0
 40
0.0
 40
0.0
 40
1.0
 40
1.0
 40
1.0
 40
2.0
 40
2.0
 40
2.0
 40
3.0
 40
3.0
 40
3.0
 40
4.0
 40
4.0
 40
4.0
 40
5.0
 40
5.0
 40
5.0
 40
6.0
 40
6.0
 40
6.0
 40
7.0
 40
7.0
 40
7.0
 40
8.0
 40
8.0
 40
8.0
 40
9.0
 40
9.0
 40
9.0
 40
9.0
 10
105.6989745829503
 20
-160.5314588357352
 30
0.0
 10
105.1828992792598
 20
-160.5314588357352
 30
0.0
 10
105.1746310500952
 20
-159.977487481707
 30
0.0
 10
105.1746310500952
 20
-159.763547052073
 30
0.0
 10
105.1746310500952
 20
-159.5330701641098
 30
0.0
 10
105.1935790752641
 20
-158.8857367224313
 30
0.0
 10
105.7372151428365
 20
-158.8857367224313
 30
0.0
 10
105.9105034457446
 20
-158.8857367224313
 30
0.0
 10
106.1561387538429
 20
-158.9556721607819
 30
0.0
 10
106.1940348041807
 20
-159.28777936556
 30
0.0
 10
106.1940348041807
 20
-159.28777936556
 30
0.0
 10
105.9804388840952
 20
-159.28777936556
 30
0.0
 10
105.9804388840952
 20
-159.28777936556
 30
0.0
 10
105.9697590880909
 20
-159.2305907805049
 30
0.0
 10
105.9380642096266
 20
-159.0824516746391
 30
0.0
 10
105.7351480855454
 20
-159.0824516746391
 30
0.0
 10
105.4430039883962
 20
-159.0824516746391
 30
0.0
 10
105.4030408807673
 20
-159.4104247648349
 30
0.0
 10
105.3902940274719
 20
-159.6154079462073
 30
0.0
 10
105.4833116055736
 20
-159.5372042786921
 30
0.0
 10
105.551179986633
 20
-159.4779486363458
 30
0.0
 10
105.7330810282542
 20
-159.4779486363458
 30
0.0
 10
105.9129150125843
 20
-159.4779486363458
 30
0.0
 10
106.2153943961892
 20
-159.5861246345826
 30
0.0
 10
106.2153943961892
 20
-159.9923013922936
 30
0.0
 10
106.2153943961892
 20
-160.3116617437763
 30
0.0
 10
106.0162678771418
 20
-160.5314588357352
 30
0.0
 10
105.6989745829503
 20
-160.5314588357352
 30
0.0
  0
SPLINE
  5
E3
330
DE
100
AcDbEntity
  8
_U+30EC_U+30A4_U+30E4_U+30FC 1
370
     0
100
AcDbSpline
210
0.0
220
0.0
230
1.0
 70
    11
 71
     3
 72
    17
 73
    13
 74
     0
 42
0.0000000001
 43
0.0000000001
 12
1.0
 22
0.0
 32
0.0
 13
1.0
 23
0.0
 33
0.0
 40
0.0
 40
0.0
 40
0.0
 40
0.0
 40
1.0
 40
1.0
 40
1.0
 40
2.0
 40
2.0
 40
2.0
 40
3.0
 40
3.0
 40
3.0
 40
4.0
 40
4.0
 40
4.0
 40
4.0
 10
105.7162000603765
 20
-159.6725965312624
 30
0.0
 10
105.4536837844005
 20
-159.6725965312624
 30
0.0
 10
105.4157877340627
 20
-159.8841253940568
 30
0.0
 10
105.4157877340627
 20
-160.0005696214582
 30
0.0
 10
105.4157877340627
 20
-160.1762694912059
 30
0.0
 10
105.5108723694556
 20
-160.3392225076583
 30
0.0
 10
105.694840468368
 20
-160.3392225076583
 30
0.0
 10
105.8154188103517
 20
-160.3392225076583
 30
0.0
 10
105.9911186800994
 20
-160.279966865312
 30
0.0
 10
105.9911186800994
 20
-159.9943684495848
 30
0.0
 10
105.9911186800994
 20
-159.770092733495
 30
0.0
 10
105.8512478033983
 20
-159.6725965312624
 30
0.0
 10
105.7162000603765
 20
-159.6725965312624
 30
0.0
  0
HATCH
  5
E4
330
DE
100
AcDbEntity
  8
_U+30EC_U+30A4_U+30E4_U+30FC 1
 62
   179
420
  2234388
100
AcDbHatch
 10
0.0
 20
0.0
 30
0.0
210
0.0
220
0.0
230
1.0
  2
SOLID
 70
     1
 71
     0
 91
        2
 92
        1
 93
        1
 72
     4
 94
        3
 73
     0
 74
     1
 95
       32
 96
       28
 40
0.0
 40
0.0
 40
0.0
 40
0.0
 40
1.0
 40
1.0
 40
1.0
 40
2.0
 40
2.0
 40
2.0
 40
3.0
 40
3.0
 40
3.0
 40
4.0
 40
4.0
 40
4.0
 40
5.0
 40
5.0
 40
5.0
 40
6.0
 40
6.0
 40
6.0
 40
7.0
 40
7.0
 40
7.0
 40
8.0
 40
8.0
 40
8.0
 40
9.0
 40
9.0
 40
9.0
 40
9.0
 10
105.6989745829503
 20
-160.5314588357352
 10
105.1828992792598
 20
-160.5314588357352
 10
105.1746310500952
 20
-159.977487481707
 10
105.1746310500952
 20
-159.763547052073
 10
105.1746310500952
 20
-159.5330701641098
 10
105.1935790752641
 20
-158.8857367224313
 10
105.7372151428365
 20
-158.8857367224313
 10
105.9105034457446
 20
-158.8857367224313
 10
106.1561387538429
 20
-158.9556721607819
 10
106.1940348041807
 20
-159.28777936556
 10
106.1940348041807
 20
-159.28777936556
 10
105.9804388840952
 20
-159.28777936556
 10
105.9804388840952
 20
-159.28777936556
 10
105.9697590880909
 20
-159.2305907805049
 10
105.9380642096266
 20
-159.0824516746391
 10
105.7351480855454
 20
-159.0824516746391
 10
105.4430039883962
 20
-159.0824516746391
 10
105.4030408807673
 20
-159.4104247648349
 10
105.3902940274719
 20
-159.6154079462073
 10
105.4833116055736
 20
-159.5372042786921
 10
105.551179986633
 20
-159.4779486363458
 10
105.7330810282542
 20
-159.4779486363458
 10
105.9129150125843
 20
-159.4779486363458
 10
106.2153943961892
 20
-159.5861246345826
 10
106.2153943961892
 20
-159.9923013922936
 10
106.2153943961892
 20
-160.3116617437763
 10
106.0162678771418
 20
-160.5314588357352
 10
105.6989745829503
 20
-160.5314588357352
 97
        0
 97
        0
 92
        1
 93
        1
 72
     4
 94
        3
 73
     0
 74
     1
 95
       17
 96
       13
 40
0.0
 40
0.0
 40
0.0
 40
0.0
 40
1.0
 40
1.0
 40
1.0
 40
2.0
 40
2.0
 40
2.0
 40
3.0
 40
3.0
 40
3.0
 40
4.0
 40
4.0
 40
4.0
 40
4.0
 10
105.7162000603765
 20
-159.6725965312624
 10
105.4536837844005
 20
-159.6725965312624
 10
105.4157877340627
 20
-159.8841253940568
 10
105.4157877340627
 20
-160.0005696214582
 10
105.4157877340627
 20
-160.1762694912059
 10
105.5108723694556
 20
-160.3392225076583
 10
105.694840468368
 20
-160.3392225076583
 10
105.8154188103517
 20
-160.3392225076583
 10
105.9911186800994
 20
-160.279966865312
 10
105.9911186800994
 20
-159.9943684495848
 10
105.9911186800994
 20
-159.770092733495
 10
105.8512478033983
 20
-159.6725965312624
 10
105.7162000603765
 20
-159.6725965312624
 97
        0
 97
        0
 75
     2
 76
     1
 98
        0
  0
ENDBLK
  5
E1
330
DE
100
AcDbEntity
  8
0
100
AcDbBlockEnd
  0
BLOCK
  5
EF
330
ED
100
AcDbEntity
  8
0
100
AcDbBlockBegin
  2
block 6
 70
     0
 10
0.0
 20
0.0
 30
0.0
  3
block 6
  1

  0
SPLINE
  5
F1
330
ED
100
AcDbEntity
  8
_U+30EC_U+30A4_U+30E4_U+30FC 1
370
     0
100
AcDbSpline
210
0.0
220
0.0
230
1.0
 70
    11
 71
     3
 72
    26
 73
    22
 74
     0
 42
0.0000000001
 43
0.0000000001
 12
1.0
 22
0.0
 32
0.0
 13
1.0
 23
0.0
 33
0.0
 40
0.0
 40
0.0
 40
0.0
 40
0.0
 40
1.0
 40
1.0
 40
1.0
 40
2.0
 40
2.0
 40
2.0
 40
3.0
 40
3.0
 40
3.0
 40
4.0
 40
4.0
 40
4.0
 40
5.0
 40
5.0
 40
5.0
 40
6.0
 40
6.0
 40
6.0
 40
7.0
 40
7.0
 40
7.0
 40
7.0
 10
126.0494981238696
 20
-151.2741427573204
 30
0.0
 10
126.0494981238696
 20
-151.2741427573204
 30
0.0
 10
124.945345020847
 20
-151.2741427573204
 30
0.0
 10
124.945345020847
 20
-151.2741427573204
 30
0.0
 10
124.945345020847
 20
-151.2741427573204
 30
0.0
 10
124.945345020847
 20
-151.6041829048073
 30
0.0
 10
124.945345020847
 20
-151.6041829048073
 30
0.0
 10
124.945345020847
 20
-151.6041829048073
 30
0.0
 10
124.7972059149813
 20
-151.6041829048073
 30
0.0
 10
124.7972059149813
 20
-151.6041829048073
 30
0.0
 10
124.7823920043947
 20
-151.2720757000292
 30
0.0
 10
124.6194389879424
 20
-151.2255669109783
 30
0.0
 10
124.5050618178321
 20
-151.1959390898052
 30
0.0
 10
124.5050618178321
 20
-151.1959390898052
 30
0.0
 10
124.5050618178321
 20
-151.0498670412306
 30
0.0
 10
124.5050618178321
 20
-151.0498670412306
 30
0.0
 10
124.5050618178321
 20
-151.0498670412306
 30
0.0
 10
126.0494981238696
 20
-151.0498670412306
 30
0.0
 10
126.0494981238696
 20
-151.0498670412306
 30
0.0
 10
126.0494981238696
 20
-151.0498670412306
 30
0.0
 10
126.0494981238696
 20
-151.2741427573204
 30
0.0
 10
126.0494981238696
 20
-151.2741427573204
 30
0.0
  0
HATCH
  5
F2
330
ED
100
AcDbEntity
  8
_U+30EC_U+30A4_U+30E4_U+30FC 1
 62
   179
420
  2234388
100
AcDbHatch
 10
0.0
 20
0.0
 30
0.0
210
0.0
220
0.0
230
1.0
  2
SOLID
 70
     1
 71
     0
 91
        1
 92
        1
 93
        1
 72
     4
 94
        3
 73
     0
 74
     1
 95
       26
 96
       22
 40
0.0
 40
0.0
 40
0.0
 40
0.0
 40
1.0
 40
1.0
 40
1.0
 40
2.0
 40
2.0
 40
2.0
 40
3.0
 40
3.0
 40
3.0
 40
4.0
 40
4.0
 40
4.0
 40
5.0
 40
5.0
 40
5.0
 40
6.0
 40
6.0
 40
6.0
 40
7.0
 40
7.0
 40
7.0
 40
7.0
 10
126.0494981238696
 20
-151.2741427573204
 10
126.0494981238696
 20
-151.2741427573204
 10
124.945345020847
 20
-151.2741427573204
 10
124.945345020847
 20
-151.2741427573204
 10
124.945345020847
 20
-151.2741427573204
 10
124.945345020847
 20
-151.6041829048073
 10
124.945345020847
 20
-151.6041829048073
 10
124.945345020847
 20
-151.6041829048073
 10
124.7972059149813
 20
-151.6041829048073
 10
124.7972059149813
 20
-151.6041829048073
 10
124.7823920043947
 20
-151.2720757000292
 10
124.6194389879424
 20
-151.2255669109783
 10
124.5050618178321
 20
-151.1959390898052
 10
124.5050618178321
 20
-151.1959390898052
 10
124.5050618178321
 20
-151.0498670412306
 10
124.5050618178321
 20
-151.0498670412306
 10
124.5050618178321
 20
-151.0498670412306
 10
126.0494981238696
 20
-151.0498670412306
 10
126.0494981238696
 20
-151.0498670412306
 10
126.0494981238696
 20
-151.0498670412306
 10
126.0494981238696
 20
-151.2741427573204
 10
126.0494981238696
 20
-151.2741427573204
 97
        0
 97
        0
 75
     2
 76
     1
 98
        0
  0
SPLINE
  5
F3
330
ED
100
AcDbEntity
  8
_U+30EC_U+30A4_U+30E4_U+30FC 1
370
     0
100
AcDbSpline
210
0.0
220
0.0
230
1.0
 70
    11
 71
     3
 72
    44
 73
    40
 74
     0
 42
0.0000000001
 43
0.0000000001
 12
1.0
 22
0.0
 32
0.0
 13
1.0
 23
0.0
 33
0.0
 40
0.0
 40
0.0
 40
0.0
 40
0.0
 40
1.0
 40
1.0
 40
1.0
 40
2.0
 40
2.0
 40
2.0
 40
3.0
 40
3.0
 40
3.0
 40
4.0
 40
4.0
 40
4.0
 40
5.0
 40
5.0
 40
5.0
 40
6.0
 40
6.0
 40
6.0
 40
7.0
 40
7.0
 40
7.0
 40
8.0
 40
8.0
 40
8.0
 40
9.0
 40
9.0
 40
9.0
 40
10.0
 40
10.0
 40
10.0
 40
11.0
 40
11.0
 40
11.0
 40
12.0
 40
12.0
 40
12.0
 40
13.0
 40
13.0
 40
13.0
 40
13.0
 10
125.4676214964109
 20
-149.9557047151152
 30
0.0
 10
125.6264403982809
 20
-150.173434749783
 30
0.0
 10
125.7005099512138
 20
-150.2664523278848
 30
0.0
 10
125.8441704329487
 20
-150.3153726837753
 30
0.0
 10
125.8441704329487
 20
-150.3153726837753
 30
0.0
 10
125.8441704329487
 20
-149.5367811041089
 30
0.0
 10
125.8441704329487
 20
-149.5367811041089
 30
0.0
 10
125.8441704329487
 20
-149.5367811041089
 30
0.0
 10
126.0494981238696
 20
-149.5367811041089
 30
0.0
 10
126.0494981238696
 20
-149.5367811041089
 30
0.0
 10
126.0494981238696
 20
-149.5367811041089
 30
0.0
 10
126.0494981238696
 20
-150.5647975969074
 30
0.0
 10
126.0494981238696
 20
-150.5647975969074
 30
0.0
 10
125.6918972125006
 20
-150.5331027184431
 30
0.0
 10
125.6136935449855
 20
-150.4676459042234
 30
0.0
 10
125.3153482759628
 20
-150.0824842289724
 30
0.0
 10
125.1165662664639
 20
-149.8265136344184
 30
0.0
 10
125.0486978854045
 20
-149.7610568201986
 30
0.0
 10
124.911238575543
 20
-149.7610568201986
 30
0.0
 10
124.7927272908504
 20
-149.7610568201986
 30
0.0
 10
124.6618136624109
 20
-149.8330593158404
 30
0.0
 10
124.6618136624109
 20
-150.0297742680481
 30
0.0
 10
124.6618136624109
 20
-150.2898789771845
 30
0.0
 10
124.8922905503742
 20
-150.2984917158976
 30
0.0
 10
125.0087347777756
 20
-150.3026258304799
 30
0.0
 10
125.0087347777756
 20
-150.3026258304799
 30
0.0
 10
125.0087347777756
 20
-150.5269015465697
 30
0.0
 10
125.0087347777756
 20
-150.5269015465697
 30
0.0
 10
124.8816107543699
 20
-150.5182888078565
 30
0.0
 10
124.7696451510993
 20
-150.5076090118523
 30
0.0
 10
124.6511338664067
 20
-150.427338287046
 30
0.0
 10
124.4902479072455
 20
-150.3174397410665
 30
0.0
 10
124.4564859714901
 20
-150.1310600753145
 30
0.0
 10
124.4564859714901
 20
-150.0149603574615
 30
0.0
 10
124.4564859714901
 20
-149.7376301708989
 30
0.0
 10
124.6404540704024
 20
-149.5302354226869
 30
0.0
 10
124.9133056328342
 20
-149.5302354226869
 30
0.0
 10
125.1420599730548
 20
-149.5302354226869
 30
0.0
 10
125.24127872303
 20
-149.6466796500883
 30
0.0
 10
125.4676214964109
 20
-149.9557047151152
 30
0.0
  0
HATCH
  5
F4
330
ED
100
AcDbEntity
  8
_U+30EC_U+30A4_U+30E4_U+30FC 1
 62
   179
420
  2234388
100
AcDbHatch
 10
0.0
 20
0.0
 30
0.0
210
0.0
220
0.0
230
1.0
  2
SOLID
 70
     1
 71
     0
 91
        1
 92
        1
 93
        1
 72
     4
 94
        3
 73
     0
 74
     1
 95
       44
 96
       40
 40
0.0
 40
0.0
 40
0.0
 40
0.0
 40
1.0
 40
1.0
 40
1.0
 40
2.0
 40
2.0
 40
2.0
 40
3.0
 40
3.0
 40
3.0
 40
4.0
 40
4.0
 40
4.0
 40
5.0
 40
5.0
 40
5.0
 40
6.0
 40
6.0
 40
6.0
 40
7.0
 40
7.0
 40
7.0
 40
8.0
 40
8.0
 40
8.0
 40
9.0
 40
9.0
 40
9.0
 40
10.0
 40
10.0
 40
10.0
 40
11.0
 40
11.0
 40
11.0
 40
12.0
 40
12.0
 40
12.0
 40
13.0
 40
13.0
 40
13.0
 40
13.0
 10
125.4676214964109
 20
-149.9557047151152
 10
125.6264403982809
 20
-150.173434749783
 10
125.7005099512138
 20
-150.2664523278848
 10
125.8441704329487
 20
-150.3153726837753
 10
125.8441704329487
 20
-150.3153726837753
 10
125.8441704329487
 20
-149.5367811041089
 10
125.8441704329487
 20
-149.5367811041089
 10
125.8441704329487
 20
-149.5367811041089
 10
126.0494981238696
 20
-149.5367811041089
 10
126.0494981238696
 20
-149.5367811041089
 10
126.0494981238696
 20
-149.5367811041089
 10
126.0494981238696
 20
-150.5647975969074
 10
126.0494981238696
 20
-150.5647975969074
 10
125.6918972125006
 20
-150.5331027184431
 10
125.6136935449855
 20
-150.4676459042234
 10
125.3153482759628
 20
-150.0824842289724
 10
125.1165662664639
 20
-149.8265136344184
 10
125.0486978854045
 20
-149.7610568201986
 10
124.911238575543
 20
-149.7610568201986
 10
124.7927272908504
 20
-149.7610568201986
 10
124.6618136624109
 20
-149.8330593158404
 10
124.6618136624109
 20
-150.0297742680481
 10
124.6618136624109
 20
-150.2898789771845
 10
124.8922905503742
 20
-150.2984917158976
 10
125.0087347777756
 20
-150.3026258304799
 10
125.0087347777756
 20
-150.3026258304799
 10
125.0087347777756
 20
-150.5269015465697
 10
125.0087347777756
 20
-150.5269015465697
 10
124.8816107543699
 20
-150.5182888078565
 10
124.7696451510993
 20
-150.5076090118523
 10
124.6511338664067
 20
-150.427338287046
 10
124.4902479072455
 20
-150.3174397410665
 10
124.4564859714901
 20
-150.1310600753145
 10
124.4564859714901
 20
-150.0149603574615
 10
124.4564859714901
 20
-149.7376301708989
 10
124.6404540704024
 20
-149.5302354226869
 10
124.9133056328342
 20
-149.5302354226869
 10
125.1420599730548
 20
-149.5302354226869
 10
125.24127872303
 20
-149.6466796500883
 10
125.4676214964109
 20
-149.9557047151152
 97
        0
 97
        0
 75
     2
 76
     1
 98
        0
  0
POLYLINE
  5
F5
330
ED
100
AcDbEntity
  8
_U+30EC_U+30A4_U+30E4_U+30FC 1
370
     0
100
AcDb2dPolyline
 66
     1
 10
0.0
 20
0.0
 30
0.0
  0
VERTEX
  5
F6
330
F5
100
AcDbEntity
  8
_U+30EC_U+30A4_U+30E4_U+30FC 1
370
     0
100
AcDbVertex
100
AcDb2dVertex
 10
126.0494981238696
 20
-149.3118163689221
 30
0.0
  0
VERTEX
  5
F7
330
F5
100
AcDbEntity
  8
_U+30EC_U+30A4_U+30E4_U+30FC 1
370
     0
100
AcDbVertex
100
AcDb2dVertex
 10
125.7976616438978
 20
-149.3118163689221
 30
0.0
  0
VERTEX
  5
F8
330
F5
100
AcDbEntity
  8
_U+30EC_U+30A4_U+30E4_U+30FC 1
370
     0
100
AcDbVertex
100
AcDb2dVertex
 10
125.7976616438978
 20
-149.0599798889503
 30
0.0
  0
VERTEX
  5
F9
330
F5
100
AcDbEntity
  8
_U+30EC_U+30A4_U+30E4_U+30FC 1
370
     0
100
AcDbVertex
100
AcDb2dVertex
 10
126.0494981238696
 20
-149.0599798889503
 30
0.0
  0
VERTEX
  5
FA
330
F5
100
AcDbEntity
  8
_U+30EC_U+30A4_U+30E4_U+30FC 1
370
     0
100
AcDbVertex
100
AcDb2dVertex
 10
126.0494981238696
 20
-149.3118163689221
 30
0.0
  0
SEQEND
  5
FB
330
F5
100
AcDbEntity
  8
_U+30EC_U+30A4_U+30E4_U+30FC 1
370
     0
  0
HATCH
  5
FC
330
ED
100
AcDbEntity
  8
_U+30EC_U+30A4_U+30E4_U+30FC 1
 62
   179
420
  2234388
100
AcDbHatch
 10
0.0
 20
0.0
 30
0.0
210
0.0
220
0.0
230
1.0
  2
SOLID
 70
     1
 71
     0
 91
        1
 92
        1
 93
        4
 72
     1
 10
126.0494981238696
 20
-149.3118163689221
 11
125.7976616438978
 21
-149.3118163689221
 72
     1
 10
125.7976616438978
 20
-149.3118163689221
 11
125.7976616438978
 21
-149.0599798889503
 72
     1
 10
125.7976616438978
 20
-149.0599798889503
 11
126.0494981238696
 21
-149.0599798889503
 72
     1
 10
126.0494981238696
 20
-149.0599798889503
 11
126.0494981238696
 21
-149.3118163689221
 97
        0
 75
     2
 76
     1
 98
        0
  0
SPLINE
  5
FD
330
ED
100
AcDbEntity
  8
_U+30EC_U+30A4_U+30E4_U+30FC 1
370
     0
100
AcDbSpline
210
0.0
220
0.0
230
1.0
 70
    11
 71
     3
 72
    26
 73
    22
 74
     0
 42
0.0000000001
 43
0.0000000001
 12
1.0
 22
0.0
 32
0.0
 13
1.0
 23
0.0
 33
0.0
 40
0.0
 40
0.0
 40
0.0
 40
0.0
 40
1.0
 40
1.0
 40
1.0
 40
2.0
 40
2.0
 40
2.0
 40
3.0
 40
3.0
 40
3.0
 40
4.0
 40
4.0
 40
4.0
 40
5.0
 40
5.0
 40
5.0
 40
6.0
 40
6.0
 40
6.0
 40
7.0
 40
7.0
 40
7.0
 40
7.0
 10
126.0494981238696
 20
-148.4126464472718
 30
0.0
 10
126.0494981238696
 20
-148.4126464472718
 30
0.0
 10
126.0494981238696
 20
-148.649669016657
 30
0.0
 10
126.0494981238696
 20
-148.649669016657
 30
0.0
 10
125.7404730588427
 20
-148.6241753100662
 30
0.0
 10
125.2223306978611
 20
-148.4315944724407
 30
0.0
 10
124.7165906806264
 20
-148.0254177147298
 30
0.0
 10
124.7165906806264
 20
-148.0254177147298
 30
0.0
 10
124.7165906806264
 20
-148.8632649367425
 30
0.0
 10
124.7165906806264
 20
-148.8632649367425
 30
0.0
 10
124.7165906806264
 20
-148.8632649367425
 30
0.0
 10
124.5050618178321
 20
-148.8632649367425
 30
0.0
 10
124.5050618178321
 20
-148.8632649367425
 30
0.0
 10
124.5050618178321
 20
-148.8632649367425
 30
0.0
 10
124.5050618178321
 20
-147.7883951453446
 30
0.0
 10
124.5050618178321
 20
-147.7883951453446
 30
0.0
 10
124.5050618178321
 20
-147.7883951453446
 30
0.0
 10
124.7165906806264
 20
-147.7883951453446
 30
0.0
 10
124.7165906806264
 20
-147.7883951453446
 30
0.0
 10
125.0066677204844
 20
-148.112234120958
 30
0.0
 10
125.5988796343989
 20
-148.3788845115164
 30
0.0
 10
126.0494981238696
 20
-148.4126464472718
 30
0.0
  0
HATCH
  5
FE
330
ED
100
AcDbEntity
  8
_U+30EC_U+30A4_U+30E4_U+30FC 1
 62
   179
420
  2234388
100
AcDbHatch
 10
0.0
 20
0.0
 30
0.0
210
0.0
220
0.0
230
1.0
  2
SOLID
 70
     1
 71
     0
 91
        1
 92
        1
 93
        1
 72
     4
 94
        3
 73
     0
 74
     1
 95
       26
 96
       22
 40
0.0
 40
0.0
 40
0.0
 40
0.0
 40
1.0
 40
1.0
 40
1.0
 40
2.0
 40
2.0
 40
2.0
 40
3.0
 40
3.0
 40
3.0
 40
4.0
 40
4.0
 40
4.0
 40
5.0
 40
5.0
 40
5.0
 40
6.0
 40
6.0
 40
6.0
 40
7.0
 40
7.0
 40
7.0
 40
7.0
 10
126.0494981238696
 20
-148.4126464472718
 10
126.0494981238696
 20
-148.4126464472718
 10
126.0494981238696
 20
-148.649669016657
 10
126.0494981238696
 20
-148.649669016657
 10
125.7404730588427
 20
-148.6241753100662
 10
125.2223306978611
 20
-148.4315944724407
 10
124.7165906806264
 20
-148.0254177147298
 10
124.7165906806264
 20
-148.0254177147298
 10
124.7165906806264
 20
-148.8632649367425
 10
124.7165906806264
 20
-148.8632649367425
 10
124.7165906806264
 20
-148.8632649367425
 10
124.5050618178321
 20
-148.8632649367425
 10
124.5050618178321
 20
-148.8632649367425
 10
124.5050618178321
 20
-148.8632649367425
 10
124.5050618178321
 20
-147.7883951453446
 10
124.5050618178321
 20
-147.7883951453446
 10
124.5050618178321
 20
-147.7883951453446
 10
124.7165906806264
 20
-147.7883951453446
 10
124.7165906806264
 20
-147.7883951453446
 10
125.0066677204844
 20
-148.112234120958
 10
125.5988796343989
 20
-148.3788845115164
 10
126.0494981238696
 20
-148.4126464472718
 97
        0
 97
        0
 75
     2
 76
     1
 98
        0
  0
ENDBLK
  5
F0
330
ED
100
AcDbEntity
  8
0
100
AcDbBlockEnd
  0
ENDSEC
  0
SECTION
  2
ENTITIES
  0
POLYLINE
  5
41
330
1F
100
AcDbEntity
  8
_U+30EC_U+30A4_U+30E4_U+30FC 1
370
     0
100
AcDb2dPolyline
 66
     1
 10
0.0
 20
0.0
 30
0.0
  0
VERTEX
  5
42
330
41
100
AcDbEntity
  8
_U+30EC_U+30A4_U+30E4_U+30FC 1
370
     0
100
AcDbVertex
100
AcDb2dVertex
 10
82.62937713252734
 20
-143.4256231161347
 30
0.0
  0
VERTEX
  5
43
330
41
100
AcDbEntity
  8
_U+30EC_U+30A4_U+30E4_U+30FC 1
370
     0
100
AcDbVertex
100
AcDb2dVertex
 10
102.6929026876786
 20
-143.4256231161347
 30
0.0
  0
VERTEX
  5
44
330
41
100
AcDbEntity
  8
_U+30EC_U+30A4_U+30E4_U+30FC 1
370
     0
100
AcDbVertex
100
AcDb2dVertex
 10
102.6929026876786
 20
-157.126100373723
 30
0.0
  0
VERTEX
  5
45
330
41
100
AcDbEntity
  8
_U+30EC_U+30A4_U+30E4_U+30FC 1
370
     0
100
AcDbVertex
100
AcDb2dVertex
 10
108.6936561312739
 20
-157.126100373723
 30
0.0
  0
VERTEX
  5
46
330
41
100
AcDbEntity
  8
_U+30EC_U+30A4_U+30E4_U+30FC 1
370
     0
100
AcDbVertex
100
AcDb2dVertex
 10
108.6936561312739
 20
-156.1256231129597
 30
0.0
  0
VERTEX
  5
47
330
41
100
AcDbEntity
  8
_U+30EC_U+30A4_U+30E4_U+30FC 1
370
     0
100
AcDbVertex
100
AcDb2dVertex
 10
103.5935475408337
 20
-156.1256231129597
 30
0.0
  0
VERTEX
  5
48
330
41
100
AcDbEntity
  8
_U+30EC_U+30A4_U+30E4_U+30FC 1
370
     0
100
AcDbVertex
100
AcDb2dVertex
 10
103.5935475408337
 20
-143.4256231161347
 30
0.0
  0
VERTEX
  5
49
330
41
100
AcDbEntity
  8
_U+30EC_U+30A4_U+30E4_U+30FC 1
370
     0
100
AcDbVertex
100
AcDb2dVertex
 10
122.6929200607439
 20
-143.4256231161347
 30
0.0
  0
VERTEX
  5
4A
330
41
100
AcDbEntity
  8
_U+30EC_U+30A4_U+30E4_U+30FC 1
370
     0
100
AcDbVertex
100
AcDb2dVertex
 10
122.6929200607439
 20
-142.4258564063152
 30
0.0
  0
VERTEX
  5
4B
330
41
100
AcDbEntity
  8
_U+30EC_U+30A4_U+30E4_U+30FC 1
370
     0
100
AcDbVertex
100
AcDb2dVertex
 10
82.62937713252734
 20
-142.4258564063152
 30
0.0
  0
VERTEX
  5
4C
330
41
100
AcDbEntity
  8
_U+30EC_U+30A4_U+30E4_U+30FC 1
370
     0
100
AcDbVertex
100
AcDb2dVertex
 10
82.62937713252734
 20
-143.4256231161347
 30
0.0
  0
SEQEND
  5
4E
330
41
100
AcDbEntity
  8
_U+30EC_U+30A4_U+30E4_U+30FC 1
370
     0
  0
HATCH
  5
4D
330
1F
100
AcDbEntity
  8
_U+30EC_U+30A4_U+30E4_U+30FC 1
 62
     9
420
 13224394
100
AcDbHatch
 10
0.0
 20
0.0
 30
0.0
210
0.0
220
0.0
230
1.0
  2
SOLID
 70
     1
 71
     0
 91
        1
 92
        1
 93
       10
 72
     1
 10
82.62937713252734
 20
-143.4256231161347
 11
102.6929026876786
 21
-143.4256231161347
 72
     1
 10
102.6929026876786
 20
-143.4256231161347
 11
102.6929026876786
 21
-157.126100373723
 72
     1
 10
102.6929026876786
 20
-157.126100373723
 11
108.6936561312739
 21
-157.126100373723
 72
     1
 10
108.6936561312739
 20
-157.126100373723
 11
108.6936561312739
 21
-156.1256231129597
 72
     1
 10
108.6936561312739
 20
-156.1256231129597
 11
103.5935475408337
 21
-156.1256231129597
 72
     1
 10
103.5935475408337
 20
-156.1256231129597
 11
103.5935475408337
 21
-143.4256231161347
 72
     1
 10
103.5935475408337
 20
-143.4256231161347
 11
122.6929200607439
 21
-143.4256231161347
 72
     1
 10
122.6929200607439
 20
-143.4256231161347
 11
122.6929200607439
 21
-142.4258564063152
 72
     1
 10
122.6929200607439
 20
-142.4258564063152
 11
82.62937713252734
 21
-142.4258564063152
 72
     1
 10
82.62937713252734
 20
-142.4258564063152
 11
82.62937713252734
 21
-143.4256231161347
 97
        0
 75
     2
 76
     1
 98
        0
  0
POLYLINE
  5
4F
330
1F
100
AcDbEntity
  8
_U+30EC_U+30A4_U+30E4_U+30FC 1
 62
   179
420
  2234388
370
    25
100
AcDb2dPolyline
 66
     1
 10
0.0
 20
0.0
 30
0.0
  0
VERTEX
  5
50
330
4F
100
AcDbEntity
  8
_U+30EC_U+30A4_U+30E4_U+30FC 1
 62
   179
420
  2234388
370
    25
100
AcDbVertex
100
AcDb2dVertex
 10
82.69276688945594
 20
-142.4258564063152
 30
0.0
  0
VERTEX
  5
51
330
4F
100
AcDbEntity
  8
_U+30EC_U+30A4_U+30E4_U+30FC 1
 62
   179
420
  2234388
370
    25
100
AcDbVertex
100
AcDb2dVertex
 10
122.6931784429053
 20
-142.4258564063152
 30
0.0
  0
SEQEND
  5
52
330
4F
100
AcDbEntity
  8
_U+30EC_U+30A4_U+30E4_U+30FC 1
 62
   179
420
  2234388
370
    25
  0
POLYLINE
  5
53
330
1F
100
AcDbEntity
  8
_U+30EC_U+30A4_U+30E4_U+30FC 1
 62
   179
420
  2234388
370
    25
100
AcDb2dPolyline
 66
     1
 10
0.0
 20
0.0
 30
0.0
  0
VERTEX
  5
54
330
53
100
AcDbEntity
  8
_U+30EC_U+30A4_U+30E4_U+30FC 1
 62
   179
420
  2234388
370
    25
100
AcDbVertex
100
AcDb2dVertex
 10
82.69343437670621
 20
-143.4256231161347
 30
0.0
  0
VERTEX
  5
55
330
53
100
AcDbEntity
  8
_U+30EC_U+30A4_U+30E4_U+30FC 1
 62
   179
420
  2234388
370
    25
100
AcDbVertex
100
AcDb2dVertex
 10
102.6927519647511
 20
-143.4256231161347
 30
0.0
  0
SEQEND
  5
56
330
53
100
AcDbEntity
  8
_U+30EC_U+30A4_U+30E4_U+30FC 1
 62
   179
420
  2234388
370
    25
  0
POLYLINE
  5
57
330
1F
100
AcDbEntity
  8
_U+30EC_U+30A4_U+30E4_U+30FC 1
 62
   179
420
  2234388
370
    25
100
AcDb2dPolyline
 66
     1
 10
0.0
 20
0.0
 30
0.0
  0
VERTEX
  5
58
330
57
100
AcDbEntity
  8
_U+30EC_U+30A4_U+30E4_U+30FC 1
 62
   179
420
  2234388
370
    25
100
AcDbVertex
100
AcDb2dVertex
 10
102.6929026876786
 20
-143.4256231161347
 30
0.0
  0
VERTEX
  5
59
330
57
100
AcDbEntity
  8
_U+30EC_U+30A4_U+30E4_U+30FC 1
 62
   179
420
  2234388
370
    25
100
AcDbVertex
100
AcDb2dVertex
 10
102.6929026876786
 20
-157.126100373723
 30
0.0
  0
SEQEND
  5
5A
330
57
100
AcDbEntity
  8
_U+30EC_U+30A4_U+30E4_U+30FC 1
 62
   179
420
  2234388
370
    25
  0
POLYLINE
  5
5B
330
1F
100
AcDbEntity
  8
_U+30EC_U+30A4_U+30E4_U+30FC 1
 62
   179
420
  2234388
370
    25
100
AcDb2dPolyline
 66
     1
 10
0.0
 20
0.0
 30
0.0
  0
VERTEX
  5
5C
330
5B
100
AcDbEntity
  8
_U+30EC_U+30A4_U+30E4_U+30FC 1
 62
   179
420
  2234388
370
    25
100
AcDbVertex
100
AcDb2dVertex
 10
103.5934721793697
 20
-143.4256231161347
 30
0.0
  0
VERTEX
  5
5D
330
5B
100
AcDbEntity
  8
_U+30EC_U+30A4_U+30E4_U+30FC 1
 62
   179
420
  2234388
370
    25
100
AcDbVertex
100
AcDb2dVertex
 10
122.693199974752
 20
-143.4256231161347
 30
0.0
  0
SEQEND
  5
5E
330
5B
100
AcDbEntity
  8
_U+30EC_U+30A4_U+30E4_U+30FC 1
 62
   179
420
  2234388
370
    25
  0
POLYLINE
  5
5F
330
1F
100
AcDbEntity
  8
_U+30EC_U+30A4_U+30E4_U+30FC 1
 62
   179
420
  2234388
370
    25
100
AcDb2dPolyline
 66
     1
 10
0.0
 20
0.0
 30
0.0
  0
VERTEX
  5
60
330
5F
100
AcDbEntity
  8
_U+30EC_U+30A4_U+30E4_U+30FC 1
 62
   179
420
  2234388
370
    25
100
AcDbVertex
100
AcDb2dVertex
 10
103.5934721793697
 20
-156.1256231129597
 30
0.0
  0
VERTEX
  5
61
330
5F
100
AcDbEntity
  8
_U+30EC_U+30A4_U+30E4_U+30FC 1
 62
   179
420
  2234388
370
    25
100
AcDbVertex
100
AcDb2dVertex
 10
108.6935700038867
 20
-156.1256231129597
 30
0.0
  0
SEQEND
  5
62
330
5F
100
AcDbEntity
  8
_U+30EC_U+30A4_U+30E4_U+30FC 1
 62
   179
420
  2234388
370
    25
  0
POLYLINE
  5
63
330
1F
100
AcDbEntity
  8
_U+30EC_U+30A4_U+30E4_U+30FC 1
 62
   179
420
  2234388
370
    25
100
AcDb2dPolyline
 66
     1
 10
0.0
 20
0.0
 30
0.0
  0
VERTEX
  5
64
330
63
100
AcDbEntity
  8
_U+30EC_U+30A4_U+30E4_U+30FC 1
 62
   179
420
  2234388
370
    25
100
AcDbVertex
100
AcDb2dVertex
 10
102.6929026876786
 20
-157.1260680759529
 30
0.0
  0
VERTEX
  5
65
330
63
100
AcDbEntity
  8
_U+30EC_U+30A4_U+30E4_U+30FC 1
 62
   179
420
  2234388
370
    25
100
AcDbVertex
100
AcDb2dVertex
 10
108.6936453653505
 20
-157.1260680759529
 30
0.0
  0
SEQEND
  5
66
330
63
100
AcDbEntity
  8
_U+30EC_U+30A4_U+30E4_U+30FC 1
 62
   179
420
  2234388
370
    25
  0
POLYLINE
  5
67
330
1F
100
AcDbEntity
  8
_U+30EC_U+30A4_U+30E4_U+30FC 1
 62
   179
420
  2234388
370
    25
100
AcDb2dPolyline
 66
     1
 10
0.0
 20
0.0
 30
0.0
  0
VERTEX
  5
68
330
67
100
AcDbEntity
  8
_U+30EC_U+30A4_U+30E4_U+30FC 1
 62
   179
420
  2234388
370
    25
100
AcDbVertex
100
AcDb2dVertex
 10
108.6935807698101
 20
-156.1256231129597
 30
0.0
  0
VERTEX
  5
69
330
67
100
AcDbEntity
  8
_U+30EC_U+30A4_U+30E4_U+30FC 1
 62
   179
420
  2234388
370
    25
100
AcDbVertex
100
AcDb2dVertex
 10
108.6935807698101
 20
-157.1261111396464
 30
0.0
  0
SEQEND
  5
6A
330
67
100
AcDbEntity
  8
_U+30EC_U+30A4_U+30E4_U+30FC 1
 62
   179
420
  2234388
370
    25
  0
POLYLINE
  5
6B
330
1F
100
AcDbEntity
  8
_U+30EC_U+30A4_U+30E4_U+30FC 1
 62
   179
420
  2234388
370
    25
100
AcDb2dPolyline
 66
     1
 10
0.0
 20
0.0
 30
0.0
  0
VERTEX
  5
6C
330
6B
100
AcDbEntity
  8
_U+30EC_U+30A4_U+30E4_U+30FC 1
 62
   179
420
  2234388
370
    25
100
AcDbVertex
100
AcDb2dVertex
 10
82.63283299393598
 20
-142.4258564063152
 30
0.0
  0
VERTEX
  5
6D
330
6B
100
AcDbEntity
  8
_U+30EC_U+30A4_U+30E4_U+30FC 1
 62
   179
420
  2234388
370
    25
100
AcDbVertex
100
AcDb2dVertex
 10
82.63283299393598
 20
-143.4256338820581
 30
0.0
  0
SEQEND
  5
6E
330
6B
100
AcDbEntity
  8
_U+30EC_U+30A4_U+30E4_U+30FC 1
 62
   179
420
  2234388
370
    25
  0
POLYLINE
  5
6F
330
1F
100
AcDbEntity
  8
_U+30EC_U+30A4_U+30E4_U+30FC 1
 62
   179
420
  2234388
370
    25
100
AcDb2dPolyline
 66
     1
 10
0.0
 20
0.0
 30
0.0
  0
VERTEX
  5
70
330
6F
100
AcDbEntity
  8
_U+30EC_U+30A4_U+30E4_U+30FC 1
 62
   179
420
  2234388
370
    25
100
AcDbVertex
100
AcDb2dVertex
 10
122.6930707836714
 20
-142.4258564063152
 30
0.0
  0
VERTEX
  5
71
330
6F
100
AcDbEntity
  8
_U+30EC_U+30A4_U+30E4_U+30FC 1
 62
   179
420
  2234388
370
    25
100
AcDbVertex
100
AcDb2dVertex
 10
122.6930707836714
 20
-143.4256338820581
 30
0.0
  0
SEQEND
  5
72
330
6F
100
AcDbEntity
  8
_U+30EC_U+30A4_U+30E4_U+30FC 1
 62
   179
420
  2234388
370
    25
  0
POLYLINE
  5
73
330
1F
100
AcDbEntity
  8
_U+30EC_U+30A4_U+30E4_U+30FC 1
 62
   179
420
  2234388
370
    25
100
AcDb2dPolyline
 66
     1
 10
0.0
 20
0.0
 30
0.0
  0
VERTEX
  5
74
330
73
100
AcDbEntity
  8
_U+30EC_U+30A4_U+30E4_U+30FC 1
 62
   179
420
  2234388
370
    25
100
AcDbVertex
100
AcDb2dVertex
 10
103.5934721793697
 20
-143.4256231161347
 30
0.0
  0
VERTEX
  5
75
330
73
100
AcDbEntity
  8
_U+30EC_U+30A4_U+30E4_U+30FC 1
 62
   179
420
  2234388
370
    25
100
AcDbVertex
100
AcDb2dVertex
 10
103.5934721793697
 20
-156.1256231129597
 30
0.0
  0
SEQEND
  5
76
330
73
100
AcDbEntity
  8
_U+30EC_U+30A4_U+30E4_U+30FC 1
 62
   179
420
  2234388
370
    25
  0
SPLINE
  5
77
330
1F
100
AcDbEntity
  8
_U+30EC_U+30A4_U+30E4_U+30FC 1
 62
   179
420
  2234388
370
     9
100
AcDbSpline
210
0.0
220
0.0
230
1.0
 70
    11
 71
     3
 72
    17
 73
    13
 74
     0
 42
0.0000000001
 43
0.0000000001
 12
1.0
 22
0.0
 32
0.0
 13
1.0
 23
0.0
 33
0.0
 40
0.0
 40
0.0
 40
0.0
 40
0.0
 40
1.0
 40
1.0
 40
1.0
 40
2.0
 40
2.0
 40
2.0
 40
3.0
 40
3.0
 40
3.0
 40
4.0
 40
4.0
 40
4.0
 40
4.0
 10
82.71069215190262
 20
-138.4254222947665
 30
0.0
 10
82.71069215190262
 20
-138.370397660313
 30
0.0
 10
82.66588437874792
 20
-138.325589887158
 30
0.0
 10
82.61084897837105
 20
-138.325589887158
 30
0.0
 10
82.55581357799419
 20
-138.325589887158
 30
0.0
 10
82.51101657076222
 20
-138.370397660313
 30
0.0
 10
82.51101657076222
 20
-138.4254222947665
 30
0.0
 10
82.51101657076222
 20
-138.4804576951433
 30
0.0
 10
82.55581357799419
 20
-138.5252654682987
 30
0.0
 10
82.61084897837105
 20
-138.5252654682987
 30
0.0
 10
82.66588437874792
 20
-138.5252654682987
 30
0.0
 10
82.71069215190262
 20
-138.4804576951433
 30
0.0
 10
82.71069215190262
 20
-138.4254222947665
 30
0.0
  0
SPLINE
  5
78
330
1F
100
AcDbEntity
  8
_U+30EC_U+30A4_U+30E4_U+30FC 1
 62
   179
420
  2234388
370
     9
100
AcDbSpline
210
0.0
220
0.0
230
1.0
 70
    11
 71
     3
 72
    17
 73
    13
 74
     0
 42
0.0000000001
 43
0.0000000001
 12
1.0
 22
0.0
 32
0.0
 13
1.0
 23
0.0
 33
0.0
 40
0.0
 40
0.0
 40
0.0
 40
0.0
 40
1.0
 40
1.0
 40
1.0
 40
2.0
 40
2.0
 40
2.0
 40
3.0
 40
3.0
 40
3.0
 40
4.0
 40
4.0
 40
4.0
 40
4.0
 10
122.7929785527436
 20
-138.4254222947665
 30
0.0
 10
122.7929785527436
 20
-138.370397660313
 30
0.0
 10
122.7488813305324
 20
-138.325589887158
 30
0.0
 10
122.6931353792117
 20
-138.325589887158
 30
0.0
 10
122.6380999788348
 20
-138.325589887158
 30
0.0
 10
122.5932922056798
 20
-138.370397660313
 30
0.0
 10
122.5932922056798
 20
-138.4254222947665
 30
0.0
 10
122.5932922056798
 20
-138.4804576951433
 30
0.0
 10
122.6380999788348
 20
-138.5252654682987
 30
0.0
 10
122.6931353792117
 20
-138.5252654682987
 30
0.0
 10
122.7488813305324
 20
-138.5252654682987
 30
0.0
 10
122.7929785527436
 20
-138.4804576951433
 30
0.0
 10
122.7929785527436
 20
-138.4254222947665
 30
0.0
  0
SPLINE
  5
79
330
1F
100
AcDbEntity
  8
_U+30EC_U+30A4_U+30E4_U+30FC 1
 62
   179
420
  2234388
370
     9
100
AcDbSpline
210
0.0
220
0.0
230
1.0
 70
    11
 71
     3
 72
    17
 73
    13
 74
     0
 42
0.0000000001
 43
0.0000000001
 12
1.0
 22
0.0
 32
0.0
 13
1.0
 23
0.0
 33
0.0
 40
0.0
 40
0.0
 40
0.0
 40
0.0
 40
1.0
 40
1.0
 40
1.0
 40
2.0
 40
2.0
 40
2.0
 40
3.0
 40
3.0
 40
3.0
 40
4.0
 40
4.0
 40
4.0
 40
4.0
 10
126.7934234302157
 20
-143.4256231161347
 30
0.0
 10
126.7934234302157
 20
-143.3705984816812
 30
0.0
 10
126.7486156570607
 20
-143.3257907085262
 30
0.0
 10
126.6935802566838
 20
-143.3257907085262
 30
0.0
 10
126.638544856307
 20
-143.3257907085262
 30
0.0
 10
126.5937370831519
 20
-143.3705984816812
 30
0.0
 10
126.5937370831519
 20
-143.4256231161347
 30
0.0
 10
126.5937370831519
 20
-143.4806585165116
 30
0.0
 10
126.638544856307
 20
-143.5254662896666
 30
0.0
 10
126.6935802566838
 20
-143.5254662896666
 30
0.0
 10
126.7486156570607
 20
-143.5254662896666
 30
0.0
 10
126.7934234302157
 20
-143.4806585165116
 30
0.0
 10
126.7934234302157
 20
-143.4256231161347
 30
0.0
  0
SPLINE
  5
7A
330
1F
100
AcDbEntity
  8
_U+30EC_U+30A4_U+30E4_U+30FC 1
 62
   179
420
  2234388
370
     9
100
AcDbSpline
210
0.0
220
0.0
230
1.0
 70
    11
 71
     3
 72
    17
 73
    13
 74
     0
 42
0.0000000001
 43
0.0000000001
 12
1.0
 22
0.0
 32
0.0
 13
1.0
 23
0.0
 33
0.0
 40
0.0
 40
0.0
 40
0.0
 40
0.0
 40
1.0
 40
1.0
 40
1.0
 40
2.0
 40
2.0
 40
2.0
 40
3.0
 40
3.0
 40
3.0
 40
4.0
 40
4.0
 40
4.0
 40
4.0
 10
126.7934234302157
 20
-142.4258564063152
 30
0.0
 10
126.7934234302157
 20
-142.3701212209179
 30
0.0
 10
126.7486156570607
 20
-142.3253242136863
 30
0.0
 10
126.6935802566838
 20
-142.3253242136863
 30
0.0
 10
126.638544856307
 20
-142.3253242136863
 30
0.0
 10
126.5937370831519
 20
-142.3701212209179
 30
0.0
 10
126.5937370831519
 20
-142.4258564063152
 30
0.0
 10
126.5937370831519
 20
-142.4808918066921
 30
0.0
 10
126.638544856307
 20
-142.5256995798471
 30
0.0
 10
126.6935802566838
 20
-142.5256995798471
 30
0.0
 10
126.7486156570607
 20
-142.5256995798471
 30
0.0
 10
126.7934234302157
 20
-142.4808918066921
 30
0.0
 10
126.7934234302157
 20
-142.4258564063152
 30
0.0
  0
SPLINE
  5
7B
330
1F
100
AcDbEntity
  8
_U+30EC_U+30A4_U+30E4_U+30FC 1
 62
   179
420
  2234388
370
     9
100
AcDbSpline
210
0.0
220
0.0
230
1.0
 70
    11
 71
     3
 72
    17
 73
    13
 74
     0
 42
0.0000000001
 43
0.0000000001
 12
1.0
 22
0.0
 32
0.0
 13
1.0
 23
0.0
 33
0.0
 40
0.0
 40
0.0
 40
0.0
 40
0.0
 40
1.0
 40
1.0
 40
1.0
 40
2.0
 40
2.0
 40
2.0
 40
3.0
 40
3.0
 40
3.0
 40
4.0
 40
4.0
 40
4.0
 40
4.0
 10
126.7934234302157
 20
-156.1256231129597
 30
0.0
 10
126.7934234302157
 20
-156.0705984785062
 30
0.0
 10
126.7486156570607
 20
-156.0257907053512
 30
0.0
 10
126.6935802566838
 20
-156.0257907053512
 30
0.0
 10
126.638544856307
 20
-156.0257907053512
 30
0.0
 10
126.5937370831519
 20
-156.0705984785062
 30
0.0
 10
126.5937370831519
 20
-156.1256231129597
 30
0.0
 10
126.5937370831519
 20
-156.1806585133366
 30
0.0
 10
126.638544856307
 20
-156.2254662864916
 30
0.0
 10
126.6935802566838
 20
-156.2254662864916
 30
0.0
 10
126.7486156570607
 20
-156.2254662864916
 30
0.0
 10
126.7934234302157
 20
-156.1806585133366
 30
0.0
 10
126.7934234302157
 20
-156.1256231129597
 30
0.0
  0
SPLINE
  5
7C
330
1F
100
AcDbEntity
  8
_U+30EC_U+30A4_U+30E4_U+30FC 1
 62
   179
420
  2234388
370
     9
100
AcDbSpline
210
0.0
220
0.0
230
1.0
 70
    11
 71
     3
 72
    17
 73
    13
 74
     0
 42
0.0000000001
 43
0.0000000001
 12
1.0
 22
0.0
 32
0.0
 13
1.0
 23
0.0
 33
0.0
 40
0.0
 40
0.0
 40
0.0
 40
0.0
 40
1.0
 40
1.0
 40
1.0
 40
2.0
 40
2.0
 40
2.0
 40
3.0
 40
3.0
 40
3.0
 40
4.0
 40
4.0
 40
4.0
 40
4.0
 10
102.7935210076946
 20
-161.1258239343279
 30
0.0
 10
102.7935210076946
 20
-161.0707992998745
 30
0.0
 10
102.7487132345396
 20
-161.0259915267194
 30
0.0
 10
102.6929780491423
 20
-161.0259915267194
 30
0.0
 10
102.6379426487654
 20
-161.0259915267194
 30
0.0
 10
102.5931348756104
 20
-161.0707992998745
 30
0.0
 10
102.5931348756104
 20
-161.1258239343279
 30
0.0
 10
102.5931348756104
 20
-161.1808593347048
 30
0.0
 10
102.6379426487654
 20
-161.2256671078598
 30
0.0
 10
102.6929780491423
 20
-161.2256671078598
 30
0.0
 10
102.7487132345396
 20
-161.2256671078598
 30
0.0
 10
102.7935210076946
 20
-161.1808593347048
 30
0.0
 10
102.7935210076946
 20
-161.1258239343279
 30
0.0
  0
SPLINE
  5
7D
330
1F
100
AcDbEntity
  8
_U+30EC_U+30A4_U+30E4_U+30FC 1
 62
   179
420
  2234388
370
     9
100
AcDbSpline
210
0.0
220
0.0
230
1.0
 70
    11
 71
     3
 72
    17
 73
    13
 74
     0
 42
0.0000000001
 43
0.0000000001
 12
1.0
 22
0.0
 32
0.0
 13
1.0
 23
0.0
 33
0.0
 40
0.0
 40
0.0
 40
0.0
 40
0.0
 40
1.0
 40
1.0
 40
1.0
 40
2.0
 40
2.0
 40
2.0
 40
3.0
 40
3.0
 40
3.0
 40
4.0
 40
4.0
 40
4.0
 40
4.0
 10
108.7934885388824
 20
-161.1258239343279
 30
0.0
 10
108.7934885388824
 20
-161.0707992998745
 30
0.0
 10
108.7486807657273
 20
-161.0259915267194
 30
0.0
 10
108.6936453653505
 20
-161.0259915267194
 30
0.0
 10
108.6386099649736
 20
-161.0259915267194
 30
0.0
 10
108.593812957742
 20
-161.0707992998745
 30
0.0
 10
108.593812957742
 20
-161.1258239343279
 30
0.0
 10
108.593812957742
 20
-161.1808593347048
 30
0.0
 10
108.6386099649736
 20
-161.2256671078598
 30
0.0
 10
108.6936453653505
 20
-161.2256671078598
 30
0.0
 10
108.7486807657273
 20
-161.2256671078598
 30
0.0
 10
108.7934885388824
 20
-161.1808593347048
 30
0.0
 10
108.7934885388824
 20
-161.1258239343279
 30
0.0
  0
SPLINE
  5
7E
330
1F
100
AcDbEntity
  8
_U+30EC_U+30A4_U+30E4_U+30FC 1
 62
   179
420
  2234388
370
     9
100
AcDbSpline
210
0.0
220
0.0
230
1.0
 70
    11
 71
     3
 72
    17
 73
    13
 74
     0
 42
0.0000000001
 43
0.0000000001
 12
1.0
 22
0.0
 32
0.0
 13
1.0
 23
0.0
 33
0.0
 40
0.0
 40
0.0
 40
0.0
 40
0.0
 40
1.0
 40
1.0
 40
1.0
 40
2.0
 40
2.0
 40
2.0
 40
3.0
 40
3.0
 40
3.0
 40
4.0
 40
4.0
 40
4.0
 40
4.0
 10
82.79888659632502
 20
-161.1258239343279
 30
0.0
 10
82.79888659632502
 20
-161.0707992998745
 30
0.0
 10
82.75407882317032
 20
-161.0259915267194
 30
0.0
 10
82.69904342279345
 20
-161.0259915267194
 30
0.0
 10
82.64400802241659
 20
-161.0259915267194
 30
0.0
 10
82.59921101518462
 20
-161.0707992998745
 30
0.0
 10
82.59921101518462
 20
-161.1258239343279
 30
0.0
 10
82.59921101518462
 20
-161.1808593347048
 30
0.0
 10
82.64400802241659
 20
-161.2256671078598
 30
0.0
 10
82.69904342279345
 20
-161.2256671078598
 30
0.0
 10
82.75407882317032
 20
-161.2256671078598
 30
0.0
 10
82.79888659632502
 20
-161.1808593347048
 30
0.0
 10
82.79888659632502
 20
-161.1258239343279
 30
0.0
  0
POLYLINE
  5
7F
330
1F
100
AcDbEntity
  8
_U+30EC_U+30A4_U+30E4_U+30FC 1
 62
   179
420
  2234388
370
     9
100
AcDb2dPolyline
 66
     1
 10
0.0
 20
0.0
 30
0.0
  0
VERTEX
  5
80
330
7F
100
AcDbEntity
  8
_U+30EC_U+30A4_U+30E4_U+30FC 1
 62
   179
420
  2234388
370
     9
100
AcDbVertex
100
AcDb2dVertex
 10
126.6935156611435
 20
-142.4258564063152
 30
0.0
  0
VERTEX
  5
81
330
7F
100
AcDbEntity
  8
_U+30EC_U+30A4_U+30E4_U+30FC 1
 62
   179
420
  2234388
370
     9
100
AcDbVertex
100
AcDb2dVertex
 10
126.6935156611435
 20
-138.6553716524835
 30
0.0
  0
SEQEND
  5
82
330
7F
100
AcDbEntity
  8
_U+30EC_U+30A4_U+30E4_U+30FC 1
 62
   179
420
  2234388
370
     9
  0
POLYLINE
  5
83
330
1F
100
AcDbEntity
  8
_U+30EC_U+30A4_U+30E4_U+30FC 1
 62
   179
420
  2234388
370
     9
100
AcDb2dPolyline
 66
     1
 10
0.0
 20
0.0
 30
0.0
  0
VERTEX
  5
84
330
83
100
AcDbEntity
  8
_U+30EC_U+30A4_U+30E4_U+30FC 1
 62
   179
420
  2234388
370
     9
100
AcDbVertex
100
AcDb2dVertex
 10
126.6935156611435
 20
-143.4256231161347
 30
0.0
  0
VERTEX
  5
85
330
83
100
AcDbEntity
  8
_U+30EC_U+30A4_U+30E4_U+30FC 1
 62
   179
420
  2234388
370
     9
100
AcDbVertex
100
AcDb2dVertex
 10
126.6935156611435
 20
-142.4258564063152
 30
0.0
  0
SEQEND
  5
86
330
83
100
AcDbEntity
  8
_U+30EC_U+30A4_U+30E4_U+30FC 1
 62
   179
420
  2234388
370
     9
  0
POLYLINE
  5
87
330
1F
100
AcDbEntity
  8
_U+30EC_U+30A4_U+30E4_U+30FC 1
 62
   179
420
  2234388
370
     9
100
AcDb2dPolyline
 66
     1
 10
0.0
 20
0.0
 30
0.0
  0
VERTEX
  5
88
330
87
100
AcDbEntity
  8
_U+30EC_U+30A4_U+30E4_U+30FC 1
 62
   179
420
  2234388
370
     9
100
AcDbVertex
100
AcDb2dVertex
 10
125.2335057263414
 20
-143.4256231161347
 30
0.0
  0
VERTEX
  5
89
330
87
100
AcDbEntity
  8
_U+30EC_U+30A4_U+30E4_U+30FC 1
 62
   179
420
  2234388
370
     9
100
AcDbVertex
100
AcDb2dVertex
 10
127.6934115620437
 20
-143.4256231161347
 30
0.0
  0
SEQEND
  5
8A
330
87
100
AcDbEntity
  8
_U+30EC_U+30A4_U+30E4_U+30FC 1
 62
   179
420
  2234388
370
     9
  0
POLYLINE
  5
8B
330
1F
100
AcDbEntity
  8
_U+30EC_U+30A4_U+30E4_U+30FC 1
 62
   179
420
  2234388
370
     9
100
AcDb2dPolyline
 66
     1
 10
0.0
 20
0.0
 30
0.0
  0
VERTEX
  5
8C
330
8B
100
AcDbEntity
  8
_U+30EC_U+30A4_U+30E4_U+30FC 1
 62
   179
420
  2234388
370
     9
100
AcDbVertex
100
AcDb2dVertex
 10
125.2335057263414
 20
-142.4258564063152
 30
0.0
  0
VERTEX
  5
8D
330
8B
100
AcDbEntity
  8
_U+30EC_U+30A4_U+30E4_U+30FC 1
 62
   179
420
  2234388
370
     9
100
AcDbVertex
100
AcDb2dVertex
 10
127.6934115620437
 20
-142.4258564063152
 30
0.0
  0
SEQEND
  5
8E
330
8B
100
AcDbEntity
  8
_U+30EC_U+30A4_U+30E4_U+30FC 1
 62
   179
420
  2234388
370
     9
  0
INSERT
  5
90
330
1F
100
AcDbEntity
  8
_U+30EC_U+30A4_U+30E4_U+30FC 1
100
AcDbBlockReference
  2
block 2
 10
0.0
 20
0.0
 30
0.0
  0
POLYLINE
  5
95
330
1F
100
AcDbEntity
  8
_U+30EC_U+30A4_U+30E4_U+30FC 1
 62
   179
420
  2234388
370
     9
100
AcDb2dPolyline
 66
     1
 10
0.0
 20
0.0
 30
0.0
  0
VERTEX
  5
96
330
95
100
AcDbEntity
  8
_U+30EC_U+30A4_U+30E4_U+30FC 1
 62
   179
420
  2234388
370
     9
100
AcDbVertex
100
AcDb2dVertex
 10
82.69276688945594
 20
-138.4254222947665
 30
0.0
  0
VERTEX
  5
97
330
95
100
AcDbEntity
  8
_U+30EC_U+30A4_U+30E4_U+30FC 1
 62
   179
420
  2234388
370
     9
100
AcDbVertex
100
AcDb2dVertex
 10
122.6931784429053
 20
-138.4254222947665
 30
0.0
  0
SEQEND
  5
98
330
95
100
AcDbEntity
  8
_U+30EC_U+30A4_U+30E4_U+30FC 1
 62
   179
420
  2234388
370
     9
  0
POLYLINE
  5
99
330
1F
100
AcDbEntity
  8
_U+30EC_U+30A4_U+30E4_U+30FC 1
 62
   179
420
  2234388
370
     9
100
AcDb2dPolyline
 66
     1
 10
0.0
 20
0.0
 30
0.0
  0
VERTEX
  5
9A
330
99
100
AcDbEntity
  8
_U+30EC_U+30A4_U+30E4_U+30FC 1
 62
   179
420
  2234388
370
     9
100
AcDbVertex
100
AcDb2dVertex
 10
82.61078438283037
 20
-139.8854322295686
 30
0.0
  0
VERTEX
  5
9B
330
99
100
AcDbEntity
  8
_U+30EC_U+30A4_U+30E4_U+30FC 1
 62
   179
420
  2234388
370
     9
100
AcDbVertex
100
AcDb2dVertex
 10
82.61078438283037
 20
-137.4255156279429
 30
0.0
  0
SEQEND
  5
9C
330
99
100
AcDbEntity
  8
_U+30EC_U+30A4_U+30E4_U+30FC 1
 62
   179
420
  2234388
370
     9
  0
POLYLINE
  5
9D
330
1F
100
AcDbEntity
  8
_U+30EC_U+30A4_U+30E4_U+30FC 1
 62
   179
420
  2234388
370
     9
100
AcDb2dPolyline
 66
     1
 10
0.0
 20
0.0
 30
0.0
  0
VERTEX
  5
9E
330
9D
100
AcDbEntity
  8
_U+30EC_U+30A4_U+30E4_U+30FC 1
 62
   179
420
  2234388
370
     9
100
AcDbVertex
100
AcDb2dVertex
 10
122.6930707836714
 20
-139.8854322295686
 30
0.0
  0
VERTEX
  5
9F
330
9D
100
AcDbEntity
  8
_U+30EC_U+30A4_U+30E4_U+30FC 1
 62
   179
420
  2234388
370
     9
100
AcDbVertex
100
AcDb2dVertex
 10
122.6930707836714
 20
-137.4255156279429
 30
0.0
  0
SEQEND
  5
A0
330
9D
100
AcDbEntity
  8
_U+30EC_U+30A4_U+30E4_U+30FC 1
 62
   179
420
  2234388
370
     9
  0
INSERT
  5
A2
330
1F
100
AcDbEntity
  8
_U+30EC_U+30A4_U+30E4_U+30FC 1
100
AcDbBlockReference
  2
block 3
 10
0.0
 20
0.0
 30
0.0
  0
POLYLINE
  5
BD
330
1F
100
AcDbEntity
  8
_U+30EC_U+30A4_U+30E4_U+30FC 1
 62
   179
420
  2234388
370
     9
100
AcDb2dPolyline
 66
     1
 10
0.0
 20
0.0
 30
0.0
  0
VERTEX
  5
BE
330
BD
100
AcDbEntity
  8
_U+30EC_U+30A4_U+30E4_U+30FC 1
 62
   179
420
  2234388
370
     9
100
AcDbVertex
100
AcDb2dVertex
 10
102.6929026876786
 20
-161.1258239343279
 30
0.0
  0
VERTEX
  5
BF
330
BD
100
AcDbEntity
  8
_U+30EC_U+30A4_U+30E4_U+30FC 1
 62
   179
420
  2234388
370
     9
100
AcDbVertex
100
AcDb2dVertex
 10
82.69357433371029
 20
-161.1258239343279
 30
0.0
  0
SEQEND
  5
C0
330
BD
100
AcDbEntity
  8
_U+30EC_U+30A4_U+30E4_U+30FC 1
 62
   179
420
  2234388
370
     9
  0
POLYLINE
  5
C1
330
1F
100
AcDbEntity
  8
_U+30EC_U+30A4_U+30E4_U+30FC 1
 62
   179
420
  2234388
370
     9
100
AcDb2dPolyline
 66
     1
 10
0.0
 20
0.0
 30
0.0
  0
VERTEX
  5
C2
330
C1
100
AcDbEntity
  8
_U+30EC_U+30A4_U+30E4_U+30FC 1
 62
   179
420
  2234388
370
     9
100
AcDbVertex
100
AcDb2dVertex
 10
102.6929026876786
 20
-159.6658139995258
 30
0.0
  0
VERTEX
  5
C3
330
C1
100
AcDbEntity
  8
_U+30EC_U+30A4_U+30E4_U+30FC 1
 62
   179
420
  2234388
370
     9
100
AcDbVertex
100
AcDb2dVertex
 10
102.6929026876786
 20
-162.1257413670749
 30
0.0
  0
SEQEND
  5
C4
330
C1
100
AcDbEntity
  8
_U+30EC_U+30A4_U+30E4_U+30FC 1
 62
   179
420
  2234388
370
     9
  0
POLYLINE
  5
C5
330
1F
100
AcDbEntity
  8
_U+30EC_U+30A4_U+30E4_U+30FC 1
 62
   179
420
  2234388
370
     9
100
AcDb2dPolyline
 66
     1
 10
0.0
 20
0.0
 30
0.0
  0
VERTEX
  5
C6
330
C5
100
AcDbEntity
  8
_U+30EC_U+30A4_U+30E4_U+30FC 1
 62
   179
420
  2234388
370
     9
100
AcDbVertex
100
AcDb2dVertex
 10
82.69897882725277
 20
-145.9660472928813
 30
0.0
  0
VERTEX
  5
C7
330
C5
100
AcDbEntity
  8
_U+30EC_U+30A4_U+30E4_U+30FC 1
 62
   179
420
  2234388
370
     9
100
AcDbVertex
100
AcDb2dVertex
 10
82.69897882725277
 20
-162.1257413670749
 30
0.0
  0
SEQEND
  5
C8
330
C5
100
AcDbEntity
  8
_U+30EC_U+30A4_U+30E4_U+30FC 1
 62
   179
420
  2234388
370
     9
  0
INSERT
  5
CA
330
1F
100
AcDbEntity
  8
_U+30EC_U+30A4_U+30E4_U+30FC 1
100
AcDbBlockReference
  2
block 4
 10
0.0
 20
0.0
 30
0.0
  0
POLYLINE
  5
D2
330
1F
100
AcDbEntity
  8
_U+30EC_U+30A4_U+30E4_U+30FC 1
 62
   179
420
  2234388
370
     9
100
AcDb2dPolyline
 66
     1
 10
0.0
 20
0.0
 30
0.0
  0
VERTEX
  5
D3
330
D2
100
AcDbEntity
  8
_U+30EC_U+30A4_U+30E4_U+30FC 1
 62
   179
420
  2234388
370
     9
100
AcDbVertex
100
AcDb2dVertex
 10
102.6929026876786
 20
-161.1258239343279
 30
0.0
  0
VERTEX
  5
D4
330
D2
100
AcDbEntity
  8
_U+30EC_U+30A4_U+30E4_U+30FC 1
 62
   179
420
  2234388
370
     9
100
AcDbVertex
100
AcDb2dVertex
 10
108.6936453653505
 20
-161.1258239343279
 30
0.0
  0
SEQEND
  5
D5
330
D2
100
AcDbEntity
  8
_U+30EC_U+30A4_U+30E4_U+30FC 1
 62
   179
420
  2234388
370
     9
  0
POLYLINE
  5
D6
330
1F
100
AcDbEntity
  8
_U+30EC_U+30A4_U+30E4_U+30FC 1
 62
   179
420
  2234388
370
     9
100
AcDb2dPolyline
 66
     1
 10
0.0
 20
0.0
 30
0.0
  0
VERTEX
  5
D7
330
D6
100
AcDbEntity
  8
_U+30EC_U+30A4_U+30E4_U+30FC 1
 62
   179
420
  2234388
370
     9
100
AcDbVertex
100
AcDb2dVertex
 10
102.6929026876786
 20
-159.6658139995258
 30
0.0
  0
VERTEX
  5
D8
330
D6
100
AcDbEntity
  8
_U+30EC_U+30A4_U+30E4_U+30FC 1
 62
   179
420
  2234388
370
     9
100
AcDbVertex
100
AcDb2dVertex
 10
102.6929026876786
 20
-162.1257413670749
 30
0.0
  0
SEQEND
  5
D9
330
D6
100
AcDbEntity
  8
_U+30EC_U+30A4_U+30E4_U+30FC 1
 62
   179
420
  2234388
370
     9
  0
POLYLINE
  5
DA
330
1F
100
AcDbEntity
  8
_U+30EC_U+30A4_U+30E4_U+30FC 1
 62
   179
420
  2234388
370
     9
100
AcDb2dPolyline
 66
     1
 10
0.0
 20
0.0
 30
0.0
  0
VERTEX
  5
DB
330
DA
100
AcDbEntity
  8
_U+30EC_U+30A4_U+30E4_U+30FC 1
 62
   179
420
  2234388
370
     9
100
AcDbVertex
100
AcDb2dVertex
 10
108.6935807698101
 20
-159.6658139995258
 30
0.0
  0
VERTEX
  5
DC
330
DA
100
AcDbEntity
  8
_U+30EC_U+30A4_U+30E4_U+30FC 1
 62
   179
420
  2234388
370
     9
100
AcDbVertex
100
AcDb2dVertex
 10
108.6935807698101
 20
-162.1257413670749
 30
0.0
  0
SEQEND
  5
DD
330
DA
100
AcDbEntity
  8
_U+30EC_U+30A4_U+30E4_U+30FC 1
 62
   179
420
  2234388
370
     9
  0
INSERT
  5
DF
330
1F
100
AcDbEntity
  8
_U+30EC_U+30A4_U+30E4_U+30FC 1
100
AcDbBlockReference
  2
block 5
 10
0.0
 20
0.0
 30
0.0
  0
POLYLINE
  5
E5
330
1F
100
AcDbEntity
  8
_U+30EC_U+30A4_U+30E4_U+30FC 1
 62
   179
420
  2234388
370
     9
100
AcDb2dPolyline
 66
     1
 10
0.0
 20
0.0
 30
0.0
  0
VERTEX
  5
E6
330
E5
100
AcDbEntity
  8
_U+30EC_U+30A4_U+30E4_U+30FC 1
 62
   179
420
  2234388
370
     9
100
AcDbVertex
100
AcDb2dVertex
 10
126.6935156611435
 20
-156.1256231129597
 30
0.0
  0
VERTEX
  5
E7
330
E5
100
AcDbEntity
  8
_U+30EC_U+30A4_U+30E4_U+30FC 1
 62
   179
420
  2234388
370
     9
100
AcDbVertex
100
AcDb2dVertex
 10
126.6935156611435
 20
-143.4256231161347
 30
0.0
  0
SEQEND
  5
E8
330
E5
100
AcDbEntity
  8
_U+30EC_U+30A4_U+30E4_U+30FC 1
 62
   179
420
  2234388
370
     9
  0
POLYLINE
  5
E9
330
1F
100
AcDbEntity
  8
_U+30EC_U+30A4_U+30E4_U+30FC 1
 62
   179
420
  2234388
370
     9
100
AcDb2dPolyline
 66
     1
 10
0.0
 20
0.0
 30
0.0
  0
VERTEX
  5
EA
330
E9
100
AcDbEntity
  8
_U+30EC_U+30A4_U+30E4_U+30FC 1
 62
   179
420
  2234388
370
     9
100
AcDbVertex
100
AcDb2dVertex
 10
111.2333051615363
 20
-156.1256231129597
 30
0.0
  0
VERTEX
  5
EB
330
E9
100
AcDbEntity
  8
_U+30EC_U+30A4_U+30E4_U+30FC 1
 62
   179
420
  2234388
370
     9
100
AcDbVertex
100
AcDb2dVertex
 10
127.6931962435758
 20
-156.1256231129597
 30
0.0
  0
SEQEND
  5
EC
330
E9
100
AcDbEntity
  8
_U+30EC_U+30A4_U+30E4_U+30FC 1
 62
   179
420
  2234388
370
     9
  0
INSERT
  5
EE
330
1F
100
AcDbEntity
  8
_U+30EC_U+30A4_U+30E4_U+30FC 1
100
AcDbBlockReference
  2
block 6
 10
0.0
 20
0.0
 30
0.0
  0
ENDSEC
  0
SECTION
  2
OBJECTS
  0
DICTIONARY
  5
C
330
0
100
AcDbDictionary
281
     1
  3
ACAD_GROUP
350
D
  3
ACAD_LAYOUT
350
1A
  3
ACAD_MATERIAL
350
3B
  3
ACAD_MLEADERSTYLE
350
100
  3
ACAD_MLINESTYLE
350
17
  3
ACAD_PLOTSETTINGS
350
19
  3
ACAD_PLOTSTYLENAME
350
E
  3
ACAD_TABLESTYLE
350
FF
  3
ACAD_VISUALSTYLE
350
2A
  0
SUN
  5
3F
330
29
100
AcDbSun
 90
        1
290
     0
 63
     7
421
 16777215
 40
1.0
291
     1
 91
  2455826
 92
 54000000
292
     0
 70
     2
 71
   256
280
     1
  0
DICTIONARY
  5
D
102
{ACAD_REACTORS
330
C
102
}
330
C
100
AcDbDictionary
281
     1
  0
DICTIONARY
  5
1A
102
{ACAD_REACTORS
330
C
102
}
330
C
100
AcDbDictionary
281
     1
  3
Layout1
350
1E
  3
Layout2
350
26
  3
Model
350
22
  0
DICTIONARY
  5
3B
102
{ACAD_REACTORS
330
C
102
}
330
C
100
AcDbDictionary
281
     1
  3
ByBlock
350
3D
  3
ByLayer
350
3C
  3
Global
350
3E
  0
DICTIONARY
  5
100
102
{ACAD_REACTORS
330
C
102
}
330
C
100
AcDbDictionary
281
     1
  0
DICTIONARY
  5
17
102
{ACAD_REACTORS
330
C
102
}
330
C
100
AcDbDictionary
281
     1
  3
Standard
350
18
  0
DICTIONARY
  5
19
102
{ACAD_REACTORS
330
C
102
}
330
C
100
AcDbDictionary
281
     1
  0
ACDBDICTIONARYWDFLT
  5
E
102
{ACAD_REACTORS
330
C
102
}
330
C
100
AcDbDictionary
281
     1
  3
Normal
350
F
100
AcDbDictionaryWithDefault
340
F
  0
DICTIONARY
  5
FF
102
{ACAD_REACTORS
330
C
102
}
330
C
100
AcDbDictionary
281
     1
  0
DICTIONARY
  5
2A
102
{ACAD_REACTORS
330
C
102
}
330
C
100
AcDbDictionary
281
     1
  3
2dWireframe
350
2F
  3
3D Hidden
350
31
  3
3dWireframe
350
30
  3
Basic
350
32
  3
Brighten
350
36
  3
ColorChange
350
3A
  3
Conceptual
350
34
  3
Dim
350
35
  3
Facepattern
350
39
  3
Flat
350
2B
  3
FlatWithEdges
350
2C
  3
Gouraud
350
2D
  3
GouraudWithEdges
350
2E
  3
Linepattern
350
38
  3
Realistic
350
33
  3
Thicken
350
37
  0
LAYOUT
  5
1E
102
{ACAD_REACTORS
330
1A
102
}
330
1A
100
AcDbPlotSettings
  1

  2
none_device
  4

  6

 40
0.0
 41
0.0
 42
0.0
 43
0.0
 44
0.0
 45
0.0
 46
0.0
 47
0.0
 48
0.0
 49
0.0
140
0.0
141
0.0
142
1.0
143
1.0
 70
   688
 72
     0
 73
     0
 74
     5
  7

 75
    16
 76
     0
 77
     2
 78
   300
147
1.0
148
0.0
149
0.0
100
AcDbLayout
  1
Layout1
 70
     1
 71
     1
 10
0.0
 20
0.0
 11
12.0
 21
9.0
 12
0.0
 22
0.0
 32
0.0
 14
1.000000000000000E+20
 24
1.000000000000000E+20
 34
1.000000000000000E+20
 15
-1.000000000000000E+20
 25
-1.000000000000000E+20
 35
-1.000000000000000E+20
146
0.0
 13
0.0
 23
0.0
 33
0.0
 16
1.0
 26
0.0
 36
0.0
 17
0.0
 27
1.0
 37
0.0
 76
     0
330
1B
  0
LAYOUT
  5
26
102
{ACAD_REACTORS
330
1A
102
}
330
1A
100
AcDbPlotSettings
  1

  2
none_device
  4

  6

 40
0.0
 41
0.0
 42
0.0
 43
0.0
 44
0.0
 45
0.0
 46
0.0
 47
0.0
 48
0.0
 49
0.0
140
0.0
141
0.0
142
1.0
143
1.0
 70
   688
 72
     0
 73
     0
 74
     5
  7

 75
    16
 76
     0
 77
     2
 78
   300
147
1.0
148
0.0
149
0.0
100
AcDbLayout
  1
Layout2
 70
     1
 71
     2
 10
0.0
 20
0.0
 11
0.0
 21
0.0
 12
0.0
 22
0.0
 32
0.0
 14
0.0
 24
0.0
 34
0.0
 15
0.0
 25
0.0
 35
0.0
146
0.0
 13
0.0
 23
0.0
 33
0.0
 16
1.0
 26
0.0
 36
0.0
 17
0.0
 27
1.0
 37
0.0
 76
     0
330
23
  0
LAYOUT
  5
22
102
{ACAD_REACTORS
330
1A
102
}
330
1A
100
AcDbPlotSettings
  1

  2
none_device
  4

  6

 40
0.0
 41
0.0
 42
0.0
 43
0.0
 44
0.0
 45
0.0
 46
0.0
 47
0.0
 48
0.0
 49
0.0
140
0.0
141
0.0
142
1.0
143
1.0
 70
  1712
 72
     0
 73
     0
 74
     0
  7

 75
     0
 76
     0
 77
     2
 78
   300
147
1.0
148
0.0
149
0.0
100
AcDbLayout
  1
Model
 70
     1
 71
     0
 10
0.0
 20
0.0
 11
12.0
 21
9.0
 12
0.0
 22
0.0
 32
0.0
 14
1.000000000000000E+20
 24
1.000000000000000E+20
 34
1.000000000000000E+20
 15
-1.000000000000000E+20
 25
-1.000000000000000E+20
 35
-1.000000000000000E+20
146
0.0
 13
0.0
 23
0.0
 33
0.0
 16
1.0
 26
0.0
 36
0.0
 17
0.0
 27
1.0
 37
0.0
 76
     0
330
1F
331
29
  0
MATERIAL
  5
3D
102
{ACAD_REACTORS
330
3B
102
}
330
3B
100
AcDbMaterial
  1
ByBlock
 72
     1
 94
      127
  0
MATERIAL
  5
3C
102
{ACAD_REACTORS
330
3B
102
}
330
3B
100
AcDbMaterial
  1
ByLayer
 72
     1
 94
      127
  0
MATERIAL
  5
3E
102
{ACAD_REACTORS
330
3B
102
}
330
3B
100
AcDbMaterial
  1
Global
 72
     1
 94
      127
  0
MLINESTYLE
  5
18
102
{ACAD_REACTORS
330
17
102
}
330
17
100
AcDbMlineStyle
  2
Standard
 70
     0
  3

 62
   256
 51
90.0
 52
90.0
 71
     2
 49
0.5
 62
   256
  6
BYLAYER
 49
-0.5
 62
   256
  6
BYLAYER
  0
ACDBPLACEHOLDER
  5
F
102
{ACAD_REACTORS
330
E
102
}
330
E
  0
VISUALSTYLE
  5
2F
102
{ACAD_REACTORS
330
2A
102
}
330
2A
100
AcDbVisualStyle
  2
2dWireframe
 70
     4
177
     2
291
     0
 71
     0
176
     1
 72
     2
176
     1
 73
     0
176
     1
 90
        0
176
     1
 40
-0.6
176
     1
 41
-30.0
176
     1
 62
     5
 63
     7
421
 16777215
176
     1
 74
     1
176
     1
 91
        4
176
     1
 64
     7
176
     1
 65
   257
176
     1
 75
     1
176
     1
175
     1
176
     1
 42
1.0
176
     1
 92
        0
176
     1
 66
   257
176
     1
 43
1.0
176
     1
 76
     1
176
     1
 77
     6
176
     1
 78
     2
176
     1
 67
     7
176
     1
 79
     5
176
     1
170
     0
176
     1
171
     0
176
     1
290
     0
176
     1
 93
        1
176
     1
 44
0.0
176
     1
173
     0
176
     1
  0
VISUALSTYLE
  5
31
102
{ACAD_REACTORS
330
2A
102
}
330
2A
100
AcDbVisualStyle
  2
3D Hidden
 70
     6
177
     2
291
     0
 71
     1
176
     1
 72
     2
176
     1
 73
     2
176
     1
 90
        0
176
     1
 40
-0.6
176
     1
 41
-30.0
176
     1
 62
     5
 63
     7
421
 16777215
176
     1
 74
     2
176
     1
 91
        2
176
     1
 64
     7
176
     1
 65
   257
176
     1
 75
     2
176
     1
175
     1
176
     1
 42
40.0
176
     1
 92
        0
176
     1
 66
   257
176
     1
 43
1.0
176
     1
 76
     1
176
     1
 77
     6
176
     1
 78
     2
176
     1
 67
     7
176
     1
 79
     3
176
     1
170
     0
176
     1
171
     0
176
     1
290
     0
176
     1
 93
        1
176
     1
 44
0.0
176
     1
173
     0
176
     1
  0
VISUALSTYLE
  5
30
102
{ACAD_REACTORS
330
2A
102
}
330
2A
100
AcDbVisualStyle
  2
3dWireframe
 70
     5
177
     2
291
     0
 71
     0
176
     1
 72
     2
176
     1
 73
     0
176
     1
 90
        0
176
     1
 40
-0.6
176
     1
 41
-30.0
176
     1
 62
     5
 63
     7
421
 16777215
176
     1
 74
     1
176
     1
 91
        4
176
     1
 64
     7
176
     1
 65
   257
176
     1
 75
     1
176
     1
175
     1
176
     1
 42
1.0
176
     1
 92
        0
176
     1
 66
   257
176
     1
 43
1.0
176
     1
 76
     1
176
     1
 77
     6
176
     1
 78
     2
176
     1
 67
     7
176
     1
 79
     5
176
     1
170
     0
176
     1
171
     0
176
     1
290
     0
176
     1
 93
        1
176
     1
 44
0.0
176
     1
173
     0
176
     1
  0
VISUALSTYLE
  5
32
102
{ACAD_REACTORS
330
2A
102
}
330
2A
100
AcDbVisualStyle
  2
Basic
 70
     7
177
     2
291
     1
 71
     1
176
     1
 72
     0
176
     1
 73
     1
176
     1
 90
        0
176
     1
 40
-0.6
176
     1
 41
-30.0
176
     1
 62
     5
 63
     7
421
 16777215
176
     1
 74
     0
176
     1
 91
        4
176
     1
 64
     7
176
     1
 65
   257
176
     1
 75
     1
176
     1
175
     1
176
     1
 42
1.0
176
     1
 92
        8
176
     1
 66
     7
176
     1
 43
1.0
176
     1
 76
     1
176
     1
 77
     6
176
     1
 78
     2
176
     1
 67
     7
176
     1
 79
     5
176
     1
170
     0
176
     1
171
     0
176
     1
290
     0
176
     1
 93
        1
176
     1
 44
0.0
176
     1
173
     0
176
     1
  0
VISUALSTYLE
  5
36
102
{ACAD_REACTORS
330
2A
102
}
330
2A
100
AcDbVisualStyle
  2
Brighten
 70
    12
177
     2
291
     1
 71
     2
176
     1
 72
     2
176
     1
 73
     0
176
     1
 90
        0
176
     1
 40
-0.6
176
     1
 41
-30.0
176
     1
 62
     5
 63
     7
421
 16777215
176
     1
 74
     1
176
     1
 91
        4
176
     1
 64
     7
176
     1
 65
   257
176
     1
 75
     1
176
     1
175
     1
176
     1
 42
1.0
176
     1
 92
        8
176
     1
 66
     7
176
     1
 43
1.0
176
     1
 76
     1
176
     1
 77
     6
176
     1
 78
     2
176
     1
 67
     7
176
     1
 79
     5
176
     1
170
     0
176
     1
171
     0
176
     1
290
     0
176
     1
 93
        1
176
     1
 44
50.0
176
     1
173
     0
176
     1
  0
VISUALSTYLE
  5
3A
102
{ACAD_REACTORS
330
2A
102
}
330
2A
100
AcDbVisualStyle
  2
ColorChange
 70
    16
177
     2
291
     1
 71
     2
176
     1
 72
     2
176
     1
 73
     3
176
     1
 90
        0
176
     1
 40
-0.6
176
     1
 41
-30.0
176
     1
 62
     5
 63
     8
421
  8421504
176
     1
 74
     1
176
     1
 91
        4
176
     1
 64
     7
176
     1
 65
   257
176
     1
 75
     1
176
     1
175
     1
176
     1
 42
1.0
176
     1
 92
        8
176
     1
 66
     8
424
  8421504
176
     1
 43
1.0
176
     1
 76
     1
176
     1
 77
     6
176
     1
 78
     2
176
     1
 67
     7
176
     1
 79
     5
176
     1
170
     0
176
     1
171
     0
176
     1
290
     0
176
     1
 93
        1
176
     1
 44
0.0
176
     1
173
     0
176
     1
  0
VISUALSTYLE
  5
34
102
{ACAD_REACTORS
330
2A
102
}
330
2A
100
AcDbVisualStyle
  2
Conceptual
 70
     9
177
     2
291
     0
 71
     3
176
     1
 72
     2
176
     1
 73
     0
176
     1
 90
        0
176
     1
 40
-0.6
176
     1
 41
-30.0
176
     1
 62
     5
 63
     7
421
 16777215
176
     1
 74
     2
176
     1
 91
        2
176
     1
 64
     7
176
     1
 65
   257
176
     1
 75
     1
176
     1
175
     1
176
     1
 42
40.0
176
     1
 92
        8
176
     1
 66
     7
176
     1
 43
1.0
176
     1
 76
     1
176
     1
 77
     6
176
     1
 78
     2
176
     1
 67
     7
176
     1
 79
     3
176
     1
170
     0
176
     1
171
     0
176
     1
290
     0
176
     1
 93
        1
176
     1
 44
0.0
176
     1
173
     0
176
     1
  0
VISUALSTYLE
  5
35
102
{ACAD_REACTORS
330
2A
102
}
330
2A
100
AcDbVisualStyle
  2
Dim
 70
    11
177
     2
291
     1
 71
     2
176
     1
 72
     2
176
     1
 73
     0
176
     1
 90
        0
176
     1
 40
-0.6
176
     1
 41
-30.0
176
     1
 62
     5
 63
     7
421
 16777215
176
     1
 74
     1
176
     1
 91
        4
176
     1
 64
     7
176
     1
 65
   257
176
     1
 75
     1
176
     1
175
     1
176
     1
 42
1.0
176
     1
 92
        8
176
     1
 66
     7
176
     1
 43
1.0
176
     1
 76
     1
176
     1
 77
     6
176
     1
 78
     2
176
     1
 67
     7
176
     1
 79
     5
176
     1
170
     0
176
     1
171
     0
176
     1
290
     0
176
     1
 93
        1
176
     1
 44
-50.0
176
     1
173
     0
176
     1
  0
VISUALSTYLE
  5
39
102
{ACAD_REACTORS
330
2A
102
}
330
2A
100
AcDbVisualStyle
  2
Facepattern
 70
    15
177
     2
291
     1
 71
     2
176
     1
 72
     2
176
     1
 73
     0
176
     1
 90
        0
176
     1
 40
-0.6
176
     1
 41
-30.0
176
     1
 62
     5
 63
     7
421
 16777215
176
     1
 74
     1
176
     1
 91
        4
176
     1
 64
     7
176
     1
 65
   257
176
     1
 75
     1
176
     1
175
     1
176
     1
 42
1.0
176
     1
 92
        8
176
     1
 66
     7
176
     1
 43
1.0
176
     1
 76
     1
176
     1
 77
     6
176
     1
 78
     2
176
     1
 67
     7
176
     1
 79
     5
176
     1
170
     0
176
     1
171
     0
176
     1
290
     0
176
     1
 93
        1
176
     1
 44
0.0
176
     1
173
     0
176
     1
  0
VISUALSTYLE
  5
2B
102
{ACAD_REACTORS
330
2A
102
}
330
2A
100
AcDbVisualStyle
  2
Flat
 70
     0
177
     2
291
     1
 71
     2
176
     1
 72
     1
176
     1
 73
     1
176
     1
 90
        2
176
     1
 40
-0.6
176
     1
 41
30.0
176
     1
 62
     5
 63
     7
421
 16777215
176
     1
 74
     0
176
     1
 91
        4
176
     1
 64
     7
176
     1
 65
   257
176
     1
 75
     1
176
     1
175
     1
176
     1
 42
1.0
176
     1
 92
        8
176
     1
 66
     7
176
     1
 43
1.0
176
     1
 76
     1
176
     1
 77
     6
176
     1
 78
     2
176
     1
 67
     7
176
     1
 79
     5
176
     1
170
     0
176
     1
171
     0
176
     1
290
     0
176
     1
 93
       13
176
     1
 44
0.0
176
     1
173
     0
176
     1
  0
VISUALSTYLE
  5
2C
102
{ACAD_REACTORS
330
2A
102
}
330
2A
100
AcDbVisualStyle
  2
FlatWithEdges
 70
     1
177
     2
291
     1
 71
     2
176
     1
 72
     1
176
     1
 73
     1
176
     1
 90
        2
176
     1
 40
-0.6
176
     1
 41
30.0
176
     1
 62
     5
 63
     7
421
 16777215
176
     1
 74
     1
176
     1
 91
        4
176
     1
 64
     7
176
     1
 65
   257
176
     1
 75
     1
176
     1
175
     1
176
     1
 42
1.0
176
     1
 92
        0
176
     1
 66
   257
176
     1
 43
1.0
176
     1
 76
     1
176
     1
 77
     6
176
     1
 78
     2
176
     1
 67
     7
176
     1
 79
     5
176
     1
170
     0
176
     1
171
     0
176
     1
290
     0
176
     1
 93
       13
176
     1
 44
0.0
176
     1
173
     0
176
     1
  0
VISUALSTYLE
  5
2D
102
{ACAD_REACTORS
330
2A
102
}
330
2A
100
AcDbVisualStyle
  2
Gouraud
 70
     2
177
     2
291
     1
 71
     2
176
     1
 72
     2
176
     1
 73
     1
176
     1
 90
        2
176
     1
 40
-0.6
176
     1
 41
30.0
176
     1
 62
     5
 63
     7
421
 16777215
176
     1
 74
     0
176
     1
 91
        4
176
     1
 64
     7
176
     1
 65
   257
176
     1
 75
     1
176
     1
175
     1
176
     1
 42
1.0
176
     1
 92
        0
176
     1
 66
     7
176
     1
 43
1.0
176
     1
 76
     1
176
     1
 77
     6
176
     1
 78
     2
176
     1
 67
     7
176
     1
 79
     5
176
     1
170
     0
176
     1
171
     0
176
     1
290
     0
176
     1
 93
       13
176
     1
 44
0.0
176
     1
173
     0
176
     1
  0
VISUALSTYLE
  5
2E
102
{ACAD_REACTORS
330
2A
102
}
330
2A
100
AcDbVisualStyle
  2
GouraudWithEdges
 70
     3
177
     2
291
     1
 71
     2
176
     1
 72
     2
176
     1
 73
     1
176
     1
 90
        2
176
     1
 40
-0.6
176
     1
 41
30.0
176
     1
 62
     5
 63
     7
421
 16777215
176
     1
 74
     1
176
     1
 91
        4
176
     1
 64
     7
176
     1
 65
   257
176
     1
 75
     1
176
     1
175
     1
176
     1
 42
1.0
176
     1
 92
        0
176
     1
 66
   257
176
     1
 43
1.0
176
     1
 76
     1
176
     1
 77
     6
176
     1
 78
     2
176
     1
 67
     7
176
     1
 79
     5
176
     1
170
     0
176
     1
171
     0
176
     1
290
     0
176
     1
 93
       13
176
     1
 44
0.0
176
     1
173
     0
176
     1
  0
VISUALSTYLE
  5
38
102
{ACAD_REACTORS
330
2A
102
}
330
2A
100
AcDbVisualStyle
  2
Linepattern
 70
    14
177
     2
291
     1
 71
     2
176
     1
 72
     2
176
     1
 73
     0
176
     1
 90
        0
176
     1
 40
-0.6
176
     1
 41
-30.0
176
     1
 62
     5
 63
     7
421
 16777215
176
     1
 74
     1
176
     1
 91
        4
176
     1
 64
     7
176
     1
 65
   257
176
     1
 75
     7
176
     1
175
     7
176
     1
 42
1.0
176
     1
 92
        8
176
     1
 66
     7
176
     1
 43
1.0
176
     1
 76
     1
176
     1
 77
     6
176
     1
 78
     2
176
     1
 67
     7
176
     1
 79
     5
176
     1
170
     0
176
     1
171
     0
176
     1
290
     0
176
     1
 93
        1
176
     1
 44
0.0
176
     1
173
     0
176
     1
  0
VISUALSTYLE
  5
33
102
{ACAD_REACTORS
330
2A
102
}
330
2A
100
AcDbVisualStyle
  2
Realistic
 70
     8
177
     2
291
     0
 71
     2
176
     1
 72
     2
176
     1
 73
     0
176
     1
 90
        0
176
     1
 40
-0.6
176
     1
 41
-30.0
176
     1
 62
     5
 63
     7
421
 16777215
176
     1
 74
     1
176
     1
 91
        0
176
     1
 64
     7
176
     1
 65
   257
176
     1
 75
     1
176
     1
175
     1
176
     1
 42
1.0
176
     1
 92
        8
176
     1
 66
     8
424
  7895160
176
     1
 43
1.0
176
     1
 76
     1
176
     1
 77
     6
176
     1
 78
     2
176
     1
 67
     7
176
     1
 79
     5
176
     1
170
     0
176
     1
171
     0
176
     1
290
     0
176
     1
 93
       13
176
     1
 44
0.0
176
     1
173
     0
176
     1
  0
VISUALSTYLE
  5
37
102
{ACAD_REACTORS
330
2A
102
}
330
2A
100
AcDbVisualStyle
  2
Thicken
 70
    13
177
     2
291
     1
 71
     2
176
     1
 72
     2
176
     1
 73
     0
176
     1
 90
        0
176
     1
 40
-0.6
176
     1
 41
-30.0
176
     1
 62
     5
 63
     7
421
 16777215
176
     1
 74
     1
176
     1
 91
        4
176
     1
 64
     7
176
     1
 65
   257
176
     1
 75
     1
176
     1
175
     1
176
     1
 42
1.0
176
     1
 92
       12
176
     1
 66
     7
176
     1
 43
1.0
176
     1
 76
     1
176
     1
 77
     6
176
     1
 78
     2
176
     1
 67
     7
176
     1
 79
     5
176
     1
170
     0
176
     1
171
     0
176
     1
290
     0
176
     1
 93
        1
176
     1
 44
0.0
176
     1
173
     0
176
     1
  0
ENDSEC
  0
EOF
