  0
SECTION
  2
HEADER
  9
$ACADVER
  1
AC1024
  9
$ACADMAINTVER
 70
     6
  9
$DWGCODEPAGE
  3
UNDEFINED
  9
$INSBASE
 10
0.0
 20
0.0
 30
0.0
  9
$EXTMIN
 10
1.000000000000000E+20
 20
1.000000000000000E+20
 30
1.000000000000000E+20
  9
$EXTMAX
 10
-1.000000000000000E+20
 20
-1.000000000000000E+20
 30
-1.000000000000000E+20
  9
$LIMMIN
 10
0.0
 20
0.0
  9
$LIMMAX
 10
12.0
 20
9.0
  9
$ORTHOMODE
 70
     0
  9
$REGENMODE
 70
     1
  9
$FILLMODE
 70
     1
  9
$QTEXTMODE
 70
     0
  9
$MIRRTEXT
 70
     1
  9
$LTSCALE
 40
1.0
  9
$ATTMODE
 70
     1
  9
$TEXTSIZE
 40
0.2
  9
$TRACEWID
 40
0.05
  9
$TEXTSTYLE
  7
Standard
  9
$CLAYER
  8
0
  9
$CELTYPE
  6
ByLayer
  9
$CECOLOR
 62
   256
  9
$CELTSCALE
 40
1.0
  9
$DISPSILH
 70
     0
  9
$DIMSCALE
 40
1.0
  9
$DIMASZ
 40
0.18
  9
$DIMEXO
 40
0.0625
  9
$DIMDLI
 40
0.38
  9
$DIMRND
 40
0.0
  9
$DIMDLE
 40
0.0
  9
$DIMEXE
 40
0.18
  9
$DIMTP
 40
0.0
  9
$DIMTM
 40
0.0
  9
$DIMTXT
 40
0.18
  9
$DIMCEN
 40
0.09
  9
$DIMTSZ
 40
0.0
  9
$DIMTOL
 70
     0
  9
$DIMLIM
 70
     0
  9
$DIMTIH
 70
     1
  9
$DIMTOH
 70
     1
  9
$DIMSE1
 70
     0
  9
$DIMSE2
 70
     0
  9
$DIMTAD
 70
     0
  9
$DIMZIN
 70
     0
  9
$DIMBLK
  1

  9
$DIMASO
 70
     1
  9
$DIMSHO
 70
     1
  9
$DIMPOST
  1

  9
$DIMAPOST
  1

  9
$DIMALT
 70
     0
  9
$DIMALTD
 70
     2
  9
$DIMALTF
 40
25.4
  9
$DIMLFAC
 40
1.0
  9
$DIMTOFL
 70
     0
  9
$DIMTVP
 40
0.0
  9
$DIMTIX
 70
     0
  9
$DIMSOXD
 70
     0
  9
$DIMSAH
 70
     0
  9
$DIMBLK1
  1

  9
$DIMBLK2
  1

  9
$DIMSTYLE
  2
Standard
  9
$DIMCLRD
 70
     0
  9
$DIMCLRE
 70
     0
  9
$DIMCLRT
 70
     0
  9
$DIMTFAC
 40
1.0
  9
$DIMGAP
 40
0.09
  9
$DIMJUST
 70
     0
  9
$DIMSD1
 70
     0
  9
$DIMSD2
 70
     0
  9
$DIMTOLJ
 70
     1
  9
$DIMTZIN
 70
     0
  9
$DIMALTZ
 70
     0
  9
$DIMALTTZ
 70
     0
  9
$DIMUPT
 70
     0
  9
$DIMDEC
 70
     4
  9
$DIMTDEC
 70
     4
  9
$DIMALTU
 70
     2
  9
$DIMALTTD
 70
     2
  9
$DIMTXSTY
  7
Standard
  9
$DIMAUNIT
 70
     0
  9
$DIMADEC
 70
     0
  9
$DIMALTRND
 40
0.0
  9
$DIMAZIN
 70
     0
  9
$DIMDSEP
 70
    46
  9
$DIMATFIT
 70
     3
  9
$DIMFRAC
 70
     0
  9
$DIMLDRBLK
  1

  9
$DIMLUNIT
 70
     2
  9
$DIMLWD
 70
    -2
  9
$DIMLWE
 70
    -2
  9
$DIMTMOVE
 70
     0
  9
$DIMFXL
 40
1.0
  9
$DIMFXLON
 70
     0
  9
$DIMJOGANG
 40
0.7853981633974483
  9
$DIMTFILL
 70
     0
  9
$DIMTFILLCLR
 70
     0
  9
$DIMARCSYM
 70
     0
  9
$DIMLTYPE
  6

  9
$DIMLTEX1
  6

  9
$DIMLTEX2
  6

  9
$DIMTXTDIRECTION
 70
     0
  9
$LUNITS
 70
     2
  9
$LUPREC
 70
     4
  9
$SKETCHINC
 40
0.1
  9
$FILLETRAD
 40
0.5
  9
$AUNITS
 70
     0
  9
$AUPREC
 70
     0
  9
$MENU
  1
.
  9
$ELEVATION
 40
0.0
  9
$PELEVATION
 40
0.0
  9
$THICKNESS
 40
0.0
  9
$LIMCHECK
 70
     0
  9
$CHAMFERA
 40
0.5
  9
$CHAMFERB
 40
0.5
  9
$CHAMFERC
 40
1.0
  9
$CHAMFERD
 40
0.0
  9
$SKPOLY
 70
     0
  9
$TDCREATE
 40
2458263.581273148
  9
$TDUCREATE
 40
2458263.206273148
  9
$TDUPDATE
 40
2458263.581273148
  9
$TDUUPDATE
 40
2458263.206273148
  9
$TDINDWG
 40
0.0000000116
  9
$TDUSRTIMER
 40
0.0000000116
  9
$USRTIMER
 70
     1
  9
$ANGBASE
 50
0.0
  9
$ANGDIR
 70
     0
  9
$PDMODE
 70
     0
  9
$PDSIZE
 40
0.0
  9
$PLINEWID
 40
0.0
  9
$SPLFRAME
 70
     0
  9
$SPLINETYPE
 70
     6
  9
$SPLINESEGS
 70
     8
  9
$HANDSEED
  5
12B
  9
$SURFTAB1
 70
     6
  9
$SURFTAB2
 70
     6
  9
$SURFTYPE
 70
     6
  9
$SURFU
 70
     6
  9
$SURFV
 70
     6
  9
$UCSBASE
  2

  9
$UCSNAME
  2

  9
$UCSORG
 10
0.0
 20
0.0
 30
0.0
  9
$UCSXDIR
 10
1.0
 20
0.0
 30
0.0
  9
$UCSYDIR
 10
0.0
 20
1.0
 30
0.0
  9
$UCSORTHOREF
  2

  9
$UCSORTHOVIEW
 70
     0
  9
$UCSORGTOP
 10
0.0
 20
0.0
 30
0.0
  9
$UCSORGBOTTOM
 10
0.0
 20
0.0
 30
0.0
  9
$UCSORGLEFT
 10
0.0
 20
0.0
 30
0.0
  9
$UCSORGRIGHT
 10
0.0
 20
0.0
 30
0.0
  9
$UCSORGFRONT
 10
0.0
 20
0.0
 30
0.0
  9
$UCSORGBACK
 10
0.0
 20
0.0
 30
0.0
  9
$PUCSBASE
  2

  9
$PUCSNAME
  2

  9
$PUCSORG
 10
0.0
 20
0.0
 30
0.0
  9
$PUCSXDIR
 10
1.0
 20
0.0
 30
0.0
  9
$PUCSYDIR
 10
0.0
 20
1.0
 30
0.0
  9
$PUCSORTHOREF
  2

  9
$PUCSORTHOVIEW
 70
     0
  9
$PUCSORGTOP
 10
0.0
 20
0.0
 30
0.0
  9
$PUCSORGBOTTOM
 10
0.0
 20
0.0
 30
0.0
  9
$PUCSORGLEFT
 10
0.0
 20
0.0
 30
0.0
  9
$PUCSORGRIGHT
 10
0.0
 20
0.0
 30
0.0
  9
$PUCSORGFRONT
 10
0.0
 20
0.0
 30
0.0
  9
$PUCSORGBACK
 10
0.0
 20
0.0
 30
0.0
  9
$USERI1
 70
     0
  9
$USERI2
 70
     0
  9
$USERI3
 70
     0
  9
$USERI4
 70
     0
  9
$USERI5
 70
     0
  9
$USERR1
 40
0.0
  9
$USERR2
 40
0.0
  9
$USERR3
 40
0.0
  9
$USERR4
 40
0.0
  9
$USERR5
 40
0.0
  9
$WORLDVIEW
 70
     1
  9
$SHADEDGE
 70
     3
  9
$SHADEDIF
 70
    70
  9
$TILEMODE
 70
     1
  9
$MAXACTVP
 70
    64
  9
$PINSBASE
 10
0.0
 20
0.0
 30
0.0
  9
$PLIMCHECK
 70
     0
  9
$PEXTMIN
 10
1.000000000000000E+20
 20
1.000000000000000E+20
 30
1.000000000000000E+20
  9
$PEXTMAX
 10
-1.000000000000000E+20
 20
-1.000000000000000E+20
 30
-1.000000000000000E+20
  9
$PLIMMIN
 10
0.0
 20
0.0
  9
$PLIMMAX
 10
12.0
 20
9.0
  9
$UNITMODE
 70
     0
  9
$VISRETAIN
 70
     1
  9
$PLINEGEN
 70
     0
  9
$PSLTSCALE
 70
     1
  9
$TREEDEPTH
 70
  3020
  9
$CMLSTYLE
  2
Standard
  9
$CMLJUST
 70
     0
  9
$CMLSCALE
 40
1.0
  9
$PROXYGRAPHICS
 70
     1
  9
$MEASUREMENT
 70
     0
  9
$CELWEIGHT
370
    -1
  9
$ENDCAPS
280
     0
  9
$JOINSTYLE
280
     0
  9
$LWDISPLAY
290
     1
  9
$INSUNITS
 70
     1
  9
$HYPERLINKBASE
  1

  9
$STYLESHEET
  1

  9
$XEDIT
290
     1
  9
$CEPSNTYPE
380
     0
  9
$PSTYLEMODE
290
     1
  9
$FINGERPRINTGUID
  2
{5D84CC5A-7387-B67A-4049-FDE1D02338D7}
  9
$VERSIONGUID
  2
{FAEB1C32-E019-11D5-929B-00C0DF256EC4}
  9
$EXTNAMES
290
     1
  9
$PSVPSCALE
 40
0.0
  9
$OLESTARTUP
290
     0
  9
$SORTENTS
280
   127
  9
$INDEXCTL
280
     0
  9
$HIDETEXT
280
     1
  9
$XCLIPFRAME
280
     2
  9
$HALOGAP
280
     0
  9
$OBSCOLOR
 70
   257
  9
$OBSLTYPE
280
     0
  9
$INTERSECTIONDISPLAY
280
     0
  9
$INTERSECTIONCOLOR
 70
   257
  9
$DIMASSOC
280
     2
  9
$PROJECTNAME
  1

  9
$CAMERADISPLAY
290
     0
  9
$LENSLENGTH
 40
50.0
  9
$CAMERAHEIGHT
 40
0.0
  9
$STEPSPERSEC
 40
2.0
  9
$STEPSIZE
 40
6.0
  9
$3DDWFPREC
 40
2.0
  9
$PSOLWIDTH
 40
0.25
  9
$PSOLHEIGHT
 40
4.0
  9
$LOFTANG1
 40
1.570796326794897
  9
$LOFTANG2
 40
1.570796326794897
  9
$LOFTMAG1
 40
0.0
  9
$LOFTMAG2
 40
0.0
  9
$LOFTPARAM
 70
     7
  9
$LOFTNORMALS
280
     1
  9
$LATITUDE
 40
37.795
  9
$LONGITUDE
 40
-122.394
  9
$NORTHDIRECTION
 40
0.0
  9
$TIMEZONE
 70
 -8000
  9
$LIGHTGLYPHDISPLAY
280
     1
  9
$TILEMODELIGHTSYNCH
280
     1
  9
$CMATERIAL
347
3C
  9
$SOLIDHIST
280
     1
  9
$SHOWHIST
280
     1
  9
$DWFFRAME
280
     2
  9
$DGNFRAME
280
     2
  9
$REALWORLDSCALE
290
     1
  9
$INTERFERECOLOR
 62
   256
  9
$CSHADOW
280
     0
  9
$SHADOWPLANELOCATION
 40
0.0
  0
ENDSEC
  0
SECTION
  2
CLASSES
  0
CLASS
  1
ACDBDICTIONARYWDFLT
  2
AcDbDictionaryWithDefault
  3
ObjectDBX Classes
 90
        0
 91
        4
280
     0
281
     0
  0
CLASS
  1
VISUALSTYLE
  2
AcDbVisualStyle
  3
ObjectDBX Classes
 90
     4095
 91
        4
280
     0
281
     0
  0
CLASS
  1
MATERIAL
  2
AcDbMaterial
  3
ObjectDBX Classes
 90
     1153
 91
        4
280
     0
281
     0
  0
CLASS
  1
SUN
  2
AcDbSun
  3
SCENEOE
 90
     1024
 91
        4
280
     0
281
     0
  0
ENDSEC
  0
SECTION
  2
TABLES
  0
TABLE
  2
VPORT
  5
8
330
0
100
AcDbSymbolTable
 70
     1
  0
VPORT
  5
29
330
8
100
AcDbSymbolTableRecord
100
AcDbViewportTableRecord
  2
*Active
 70
     0
 10
0.0
 20
0.0
 11
1.0
 21
1.0
 12
0.0
 22
0.0
 13
0.0
 23
0.0
 14
0.5
 24
0.5
 15
0.5
 25
0.5
 16
0.0
 26
0.0
 36
1.0
 17
105.0007777515277
 27
-148.5000416295416
 37
0.0
 40
297.0000832590831
 41
0.7070757462376333
 42
50.0
 43
0.0
 44
0.0
 50
0.0
 51
0.0
 71
     0
 72
   100
 73
     1
 74
     3
 75
     0
 76
     0
 77
     0
 78
     0
281
     0
 65
     1
110
0.0
120
0.0
130
0.0
111
1.0
121
0.0
131
0.0
112
0.0
122
1.0
132
0.0
 79
     0
146
0.0
 60
     3
 61
     5
292
     1
282
     1
141
0.0
142
0.0
 63
   250
361
3F
  0
ENDTAB
  0
TABLE
  2
LTYPE
  5
5
330
0
100
AcDbSymbolTable
 70
     2
  0
LTYPE
  5
14
330
5
100
AcDbSymbolTableRecord
100
AcDbLinetypeTableRecord
  2
ByBlock
 70
     0
  3

 72
    65
 73
     0
 40
0.0
  0
LTYPE
  5
15
330
5
100
AcDbSymbolTableRecord
100
AcDbLinetypeTableRecord
  2
ByLayer
 70
     0
  3

 72
    65
 73
     0
 40
0.0
  0
LTYPE
  5
16
330
5
100
AcDbSymbolTableRecord
100
AcDbLinetypeTableRecord
  2
Continuous
 70
     0
  3
Solid line
 72
    65
 73
     0
 40
0.0
  0
LTYPE
  5
48
330
5
100
AcDbSymbolTableRecord
100
AcDbLinetypeTableRecord
  2
AI-Linetype-1
 70
     0
  3
Adobe Illustrator Linetype No. 1
 72
    65
 73
     2
 40
1.411111110758333
 49
0.7055555553791667
 74
     0
 49
-0.7055555553791667
 74
     0
  0
ENDTAB
  0
TABLE
  2
LAYER
  5
2
330
0
100
AcDbSymbolTable
 70
     2
  0
LAYER
  5
10
330
2
100
AcDbSymbolTableRecord
100
AcDbLayerTableRecord
  2
0
 70
     0
 62
     7
  6
Continuous
370
    -3
390
F
347
3E
  0
LAYER
  5
40
330
2
100
AcDbSymbolTableRecord
100
AcDbLayerTableRecord
  2
_U+30EC_U+30A4_U+30E4_U+30FC 1
 70
     0
 62
     7
  6
Continuous
370
    -3
390
F
347
3E
  0
ENDTAB
  0
TABLE
  2
STYLE
  5
3
330
0
100
AcDbSymbolTable
 70
     1
  0
STYLE
  5
11
330
3
100
AcDbSymbolTableRecord
100
AcDbTextStyleTableRecord
  2
Standard
 70
     0
 40
0.0
 41
1.0
 50
0.0
 71
     0
 42
0.2
  3
txt
  4

  0
ENDTAB
  0
TABLE
  2
VIEW
  5
6
330
0
100
AcDbSymbolTable
 70
     0
  0
ENDTAB
  0
TABLE
  2
UCS
  5
7
330
0
100
AcDbSymbolTable
 70
     0
  0
ENDTAB
  0
TABLE
  2
APPID
  5
9
330
0
100
AcDbSymbolTable
 70
     1
  0
APPID
  5
12
330
9
100
AcDbSymbolTableRecord
100
AcDbRegAppTableRecord
  2
ACAD
 70
     0
  0
ENDTAB
  0
TABLE
  2
DIMSTYLE
  5
A
330
0
100
AcDbSymbolTable
 70
     1
100
AcDbDimStyleTable
  0
DIMSTYLE
105
27
330
A
100
AcDbSymbolTableRecord
100
AcDbDimStyleTableRecord
  2
Standard
 70
     0
178
     0
340
11
  0
ENDTAB
  0
TABLE
  2
BLOCK_RECORD
  5
1
330
0
100
AcDbSymbolTable
 70
     7
  0
BLOCK_RECORD
  5
1F
330
1
100
AcDbSymbolTableRecord
100
AcDbBlockTableRecord
  2
*Model_Space
340
22
 70
     0
280
     1
281
     0
  0
BLOCK_RECORD
  5
1B
330
1
100
AcDbSymbolTableRecord
100
AcDbBlockTableRecord
  2
*Paper_Space
340
1E
 70
     0
280
     1
281
     0
  0
BLOCK_RECORD
  5
23
330
1
100
AcDbSymbolTableRecord
100
AcDbBlockTableRecord
  2
*Paper_Space0
340
26
 70
     0
280
     1
281
     0
  0
BLOCK_RECORD
  5
A8
330
1
100
AcDbSymbolTableRecord
100
AcDbBlockTableRecord
  2
block 2
340
0
102
{BLKREFS
331
A9
102
}
 70
     0
280
     1
281
     0
  0
BLOCK_RECORD
  5
C1
330
1
100
AcDbSymbolTableRecord
100
AcDbBlockTableRecord
  2
block 3
340
0
102
{BLKREFS
331
C2
102
}
 70
     0
280
     1
281
     0
  0
BLOCK_RECORD
  5
D3
330
1
100
AcDbSymbolTableRecord
100
AcDbBlockTableRecord
  2
block 4
340
0
102
{BLKREFS
331
D4
102
}
 70
     0
280
     1
281
     0
  0
BLOCK_RECORD
  5
E7
330
1
100
AcDbSymbolTableRecord
100
AcDbBlockTableRecord
  2
block 5
340
0
102
{BLKREFS
331
E8
102
}
 70
     0
280
     1
281
     0
  0
BLOCK_RECORD
  5
FD
330
1
100
AcDbSymbolTableRecord
100
AcDbBlockTableRecord
  2
block 6
340
0
102
{BLKREFS
331
FE
102
}
 70
     0
280
     1
281
     0
  0
BLOCK_RECORD
  5
107
330
1
100
AcDbSymbolTableRecord
100
AcDbBlockTableRecord
  2
block 7
340
0
102
{BLKREFS
331
108
102
}
 70
     0
280
     1
281
     0
  0
ENDTAB
  0
ENDSEC
  0
SECTION
  2
BLOCKS
  0
BLOCK
  5
20
330
1F
100
AcDbEntity
  8
0
100
AcDbBlockBegin
  2
*Model_Space
 70
     0
 10
0.0
 20
0.0
 30
0.0
  3
*Model_Space
  1

  0
ENDBLK
  5
21
330
1F
100
AcDbEntity
  8
0
100
AcDbBlockEnd
  0
BLOCK
  5
1C
330
1B
100
AcDbEntity
 67
     1
  8
0
100
AcDbBlockBegin
  2
*Paper_Space
 70
     0
 10
0.0
 20
0.0
 30
0.0
  3
*Paper_Space
  1

  0
ENDBLK
  5
1D
330
1B
100
AcDbEntity
 67
     1
  8
0
100
AcDbBlockEnd
  0
BLOCK
  5
24
330
23
100
AcDbEntity
  8
0
100
AcDbBlockBegin
  2
*Paper_Space0
 70
     0
 10
0.0
 20
0.0
 30
0.0
  3
*Paper_Space0
  1

  0
ENDBLK
  5
25
330
23
100
AcDbEntity
  8
0
100
AcDbBlockEnd
  0
BLOCK
  5
AA
330
A8
100
AcDbEntity
  8
0
100
AcDbBlockBegin
  2
block 2
 70
     0
 10
0.0
 20
0.0
 30
0.0
  3
block 2
  1

  0
SPLINE
  5
AC
330
A8
100
AcDbEntity
  8
_U+30EC_U+30A4_U+30E4_U+30FC 1
370
     0
100
AcDbSpline
210
0.0
220
0.0
230
1.0
 70
    11
 71
     3
 72
    26
 73
    22
 74
     0
 42
0.0000000001
 43
0.0000000001
 12
1.0
 22
0.0
 32
0.0
 13
1.0
 23
0.0
 33
0.0
 40
0.0
 40
0.0
 40
0.0
 40
0.0
 40
1.0
 40
1.0
 40
1.0
 40
2.0
 40
2.0
 40
2.0
 40
3.0
 40
3.0
 40
3.0
 40
4.0
 40
4.0
 40
4.0
 40
5.0
 40
5.0
 40
5.0
 40
6.0
 40
6.0
 40
6.0
 40
7.0
 40
7.0
 40
7.0
 40
7.0
 10
102.1408799657842
 20
-161.5494845516265
 30
0.0
 10
102.1408799657842
 20
-161.5494845516265
 30
0.0
 10
102.1408799657842
 20
-160.445331448604
 30
0.0
 10
102.1408799657842
 20
-160.445331448604
 30
0.0
 10
102.1408799657842
 20
-160.445331448604
 30
0.0
 10
101.8108398182973
 20
-160.445331448604
 30
0.0
 10
101.8108398182973
 20
-160.445331448604
 30
0.0
 10
101.8108398182973
 20
-160.445331448604
 30
0.0
 10
101.8108398182973
 20
-160.2971923427382
 30
0.0
 10
101.8108398182973
 20
-160.2971923427382
 30
0.0
 10
102.1429470230754
 20
-160.2823784321516
 30
0.0
 10
102.1894558121263
 20
-160.1194254156993
 30
0.0
 10
102.2190836332994
 20
-160.0053927551375
 30
0.0
 10
102.2190836332994
 20
-160.0053927551375
 30
0.0
 10
102.365155681874
 20
-160.0053927551375
 30
0.0
 10
102.365155681874
 20
-160.0053927551375
 30
0.0
 10
102.365155681874
 20
-160.0053927551375
 30
0.0
 10
102.365155681874
 20
-161.5494845516265
 30
0.0
 10
102.365155681874
 20
-161.5494845516265
 30
0.0
 10
102.365155681874
 20
-161.5494845516265
 30
0.0
 10
102.1408799657842
 20
-161.5494845516265
 30
0.0
 10
102.1408799657842
 20
-161.5494845516265
 30
0.0
  0
HATCH
  5
AD
330
A8
100
AcDbEntity
  8
_U+30EC_U+30A4_U+30E4_U+30FC 1
 62
   179
420
  2234388
100
AcDbHatch
 10
0.0
 20
0.0
 30
0.0
210
0.0
220
0.0
230
1.0
  2
SOLID
 70
     1
 71
     0
 91
        1
 92
        1
 93
        1
 72
     4
 94
        3
 73
     0
 74
     1
 95
       26
 96
       22
 40
0.0
 40
0.0
 40
0.0
 40
0.0
 40
1.0
 40
1.0
 40
1.0
 40
2.0
 40
2.0
 40
2.0
 40
3.0
 40
3.0
 40
3.0
 40
4.0
 40
4.0
 40
4.0
 40
5.0
 40
5.0
 40
5.0
 40
6.0
 40
6.0
 40
6.0
 40
7.0
 40
7.0
 40
7.0
 40
7.0
 10
102.1408799657842
 20
-161.5494845516265
 10
102.1408799657842
 20
-161.5494845516265
 10
102.1408799657842
 20
-160.445331448604
 10
102.1408799657842
 20
-160.445331448604
 10
102.1408799657842
 20
-160.445331448604
 10
101.8108398182973
 20
-160.445331448604
 10
101.8108398182973
 20
-160.445331448604
 10
101.8108398182973
 20
-160.445331448604
 10
101.8108398182973
 20
-160.2971923427382
 10
101.8108398182973
 20
-160.2971923427382
 10
102.1429470230754
 20
-160.2823784321516
 10
102.1894558121263
 20
-160.1194254156993
 10
102.2190836332994
 20
-160.0053927551375
 10
102.2190836332994
 20
-160.0053927551375
 10
102.365155681874
 20
-160.0053927551375
 10
102.365155681874
 20
-160.0053927551375
 10
102.365155681874
 20
-160.0053927551375
 10
102.365155681874
 20
-161.5494845516265
 10
102.365155681874
 20
-161.5494845516265
 10
102.365155681874
 20
-161.5494845516265
 10
102.1408799657842
 20
-161.5494845516265
 10
102.1408799657842
 20
-161.5494845516265
 97
        0
 97
        0
 75
     2
 76
     1
 98
        0
  0
SPLINE
  5
AE
330
A8
100
AcDbEntity
  8
_U+30EC_U+30A4_U+30E4_U+30FC 1
370
     0
100
AcDbSpline
210
0.0
220
0.0
230
1.0
 70
    11
 71
     3
 72
    29
 73
    25
 74
     0
 42
0.0000000001
 43
0.0000000001
 12
1.0
 22
0.0
 32
0.0
 13
1.0
 23
0.0
 33
0.0
 40
0.0
 40
0.0
 40
0.0
 40
0.0
 40
1.0
 40
1.0
 40
1.0
 40
2.0
 40
2.0
 40
2.0
 40
3.0
 40
3.0
 40
3.0
 40
4.0
 40
4.0
 40
4.0
 40
5.0
 40
5.0
 40
5.0
 40
6.0
 40
6.0
 40
6.0
 40
7.0
 40
7.0
 40
7.0
 40
8.0
 40
8.0
 40
8.0
 40
8.0
 10
103.764208958434
 20
-161.3717176245876
 30
0.0
 10
103.6560329601971
 20
-161.5811794300908
 30
0.0
 10
103.482744657289
 20
-161.6004719648082
 30
0.0
 10
103.3663004298876
 20
-161.6004719648082
 30
0.0
 10
103.2054144707264
 20
-161.6004719648082
 30
0.0
 10
103.0638210462827
 20
-161.5539631757574
 30
0.0
 10
102.9687364108898
 20
-161.3717176245876
 30
0.0
 10
102.8650390367837
 20
-161.177069729671
 30
0.0
 10
102.8457465020663
 20
-160.9403916698344
 30
0.0
 10
102.8457465020663
 20
-160.777438653382
 30
0.0
 10
102.8457465020663
 20
-160.6334336620986
 30
0.0
 10
102.8629719794926
 20
-160.3819416916754
 30
0.0
 10
102.9687364108898
 20
-160.1828151726279
 30
0.0
 10
103.0765678995781
 20
-159.9798990485467
 30
0.0
 10
103.2374538587393
 20
-159.956472399247
 30
0.0
 10
103.3663004298876
 20
-159.956472399247
 30
0.0
 10
103.5251193317576
 20
-159.956472399247
 30
0.0
 10
103.6687798134925
 20
-160.0009141310067
 30
0.0
 10
103.764208958434
 20
-160.1828151726279
 30
0.0
 10
103.8634277084091
 20
-160.3753960102534
 30
0.0
 10
103.8868543577088
 20
-160.6038058409254
 30
0.0
 10
103.8868543577088
 20
-160.777438653382
 30
0.0
 10
103.8868543577088
 20
-160.948659898999
 30
0.0
 10
103.8654947657003
 20
-161.1794812965107
 30
0.0
 10
103.764208958434
 20
-161.3717176245876
 30
0.0
  0
SPLINE
  5
AF
330
A8
100
AcDbEntity
  8
_U+30EC_U+30A4_U+30E4_U+30FC 1
370
     0
100
AcDbSpline
210
0.0
220
0.0
230
1.0
 70
    11
 71
     3
 72
    17
 73
    13
 74
     0
 42
0.0000000001
 43
0.0000000001
 12
1.0
 22
0.0
 32
0.0
 13
1.0
 23
0.0
 33
0.0
 40
0.0
 40
0.0
 40
0.0
 40
0.0
 40
1.0
 40
1.0
 40
1.0
 40
2.0
 40
2.0
 40
2.0
 40
3.0
 40
3.0
 40
3.0
 40
4.0
 40
4.0
 40
4.0
 40
4.0
 10
103.3663004298876
 20
-160.1490532368725
 30
0.0
 10
103.116531007207
 20
-160.1490532368725
 30
0.0
 10
103.0700222181561
 20
-160.4325845953085
 30
0.0
 10
103.0700222181561
 20
-160.777438653382
 30
0.0
 10
103.0700222181561
 20
-161.0967990048647
 30
0.0
 10
103.1061957207512
 20
-161.4058240698916
 30
0.0
 10
103.3663004298876
 20
-161.4058240698916
 30
0.0
 10
103.6140027952771
 20
-161.4058240698916
 30
0.0
 10
103.6625786416191
 20
-161.1243597687467
 30
0.0
 10
103.6625786416191
 20
-160.777438653382
 30
0.0
 10
103.6625786416191
 20
-160.4580783018994
 30
0.0
 10
103.6243380817328
 20
-160.1490532368725
 30
0.0
 10
103.3663004298876
 20
-160.1490532368725
 30
0.0
  0
HATCH
  5
B0
330
A8
100
AcDbEntity
  8
_U+30EC_U+30A4_U+30E4_U+30FC 1
 62
   179
420
  2234388
100
AcDbHatch
 10
0.0
 20
0.0
 30
0.0
210
0.0
220
0.0
230
1.0
  2
SOLID
 70
     1
 71
     0
 91
        2
 92
        1
 93
        1
 72
     4
 94
        3
 73
     0
 74
     1
 95
       29
 96
       25
 40
0.0
 40
0.0
 40
0.0
 40
0.0
 40
1.0
 40
1.0
 40
1.0
 40
2.0
 40
2.0
 40
2.0
 40
3.0
 40
3.0
 40
3.0
 40
4.0
 40
4.0
 40
4.0
 40
5.0
 40
5.0
 40
5.0
 40
6.0
 40
6.0
 40
6.0
 40
7.0
 40
7.0
 40
7.0
 40
8.0
 40
8.0
 40
8.0
 40
8.0
 10
103.764208958434
 20
-161.3717176245876
 10
103.6560329601971
 20
-161.5811794300908
 10
103.482744657289
 20
-161.6004719648082
 10
103.3663004298876
 20
-161.6004719648082
 10
103.2054144707264
 20
-161.6004719648082
 10
103.0638210462827
 20
-161.5539631757574
 10
102.9687364108898
 20
-161.3717176245876
 10
102.8650390367837
 20
-161.177069729671
 10
102.8457465020663
 20
-160.9403916698344
 10
102.8457465020663
 20
-160.777438653382
 10
102.8457465020663
 20
-160.6334336620986
 10
102.8629719794926
 20
-160.3819416916754
 10
102.9687364108898
 20
-160.1828151726279
 10
103.0765678995781
 20
-159.9798990485467
 10
103.2374538587393
 20
-159.956472399247
 10
103.3663004298876
 20
-159.956472399247
 10
103.5251193317576
 20
-159.956472399247
 10
103.6687798134925
 20
-160.0009141310067
 10
103.764208958434
 20
-160.1828151726279
 10
103.8634277084091
 20
-160.3753960102534
 10
103.8868543577088
 20
-160.6038058409254
 10
103.8868543577088
 20
-160.777438653382
 10
103.8868543577088
 20
-160.948659898999
 10
103.8654947657003
 20
-161.1794812965107
 10
103.764208958434
 20
-161.3717176245876
 97
        0
 97
        0
 92
        1
 93
        1
 72
     4
 94
        3
 73
     0
 74
     1
 95
       17
 96
       13
 40
0.0
 40
0.0
 40
0.0
 40
0.0
 40
1.0
 40
1.0
 40
1.0
 40
2.0
 40
2.0
 40
2.0
 40
3.0
 40
3.0
 40
3.0
 40
4.0
 40
4.0
 40
4.0
 40
4.0
 10
103.3663004298876
 20
-160.1490532368725
 10
103.116531007207
 20
-160.1490532368725
 10
103.0700222181561
 20
-160.4325845953085
 10
103.0700222181561
 20
-160.777438653382
 10
103.0700222181561
 20
-161.0967990048647
 10
103.1061957207512
 20
-161.4058240698916
 10
103.3663004298876
 20
-161.4058240698916
 10
103.6140027952771
 20
-161.4058240698916
 10
103.6625786416191
 20
-161.1243597687467
 10
103.6625786416191
 20
-160.777438653382
 10
103.6625786416191
 20
-160.4580783018994
 10
103.6243380817328
 20
-160.1490532368725
 10
103.3663004298876
 20
-160.1490532368725
 97
        0
 97
        0
 75
     2
 76
     1
 98
        0
  0
ENDBLK
  5
AB
330
A8
100
AcDbEntity
  8
0
100
AcDbBlockEnd
  0
BLOCK
  5
C3
330
C1
100
AcDbEntity
  8
0
100
AcDbBlockBegin
  2
block 3
 70
     0
 10
0.0
 20
0.0
 30
0.0
  3
block 3
  1

  0
SPLINE
  5
C5
330
C1
100
AcDbEntity
  8
_U+30EC_U+30A4_U+30E4_U+30FC 1
370
     0
100
AcDbSpline
210
0.0
220
0.0
230
1.0
 70
    11
 71
     3
 72
    26
 73
    22
 74
     0
 42
0.0000000001
 43
0.0000000001
 12
1.0
 22
0.0
 32
0.0
 13
1.0
 23
0.0
 33
0.0
 40
0.0
 40
0.0
 40
0.0
 40
0.0
 40
1.0
 40
1.0
 40
1.0
 40
2.0
 40
2.0
 40
2.0
 40
3.0
 40
3.0
 40
3.0
 40
4.0
 40
4.0
 40
4.0
 40
5.0
 40
5.0
 40
5.0
 40
6.0
 40
6.0
 40
6.0
 40
7.0
 40
7.0
 40
7.0
 40
7.0
 10
123.4801459109703
 20
-141.9951225773484
 30
0.0
 10
123.4801459109703
 20
-141.9951225773484
 30
0.0
 10
122.3756482983992
 20
-141.9951225773484
 30
0.0
 10
122.3756482983992
 20
-141.9951225773484
 30
0.0
 10
122.3756482983992
 20
-141.9951225773484
 30
0.0
 10
122.3756482983992
 20
-142.3251627248354
 30
0.0
 10
122.3756482983992
 20
-142.3251627248354
 30
0.0
 10
122.3756482983992
 20
-142.3251627248354
 30
0.0
 10
122.2278537020819
 20
-142.3251627248354
 30
0.0
 10
122.2278537020819
 20
-142.3251627248354
 30
0.0
 10
122.2130397914954
 20
-141.9930555200573
 30
0.0
 10
122.050086775043
 20
-141.9465467310064
 30
0.0
 10
121.9357096049327
 20
-141.9169189098333
 30
0.0
 10
121.9357096049327
 20
-141.9169189098333
 30
0.0
 10
121.9357096049327
 20
-141.7708468612587
 30
0.0
 10
121.9357096049327
 20
-141.7708468612587
 30
0.0
 10
121.9357096049327
 20
-141.7708468612587
 30
0.0
 10
123.4801459109703
 20
-141.7708468612587
 30
0.0
 10
123.4801459109703
 20
-141.7708468612587
 30
0.0
 10
123.4801459109703
 20
-141.7708468612587
 30
0.0
 10
123.4801459109703
 20
-141.9951225773484
 30
0.0
 10
123.4801459109703
 20
-141.9951225773484
 30
0.0
  0
HATCH
  5
C6
330
C1
100
AcDbEntity
  8
_U+30EC_U+30A4_U+30E4_U+30FC 1
 62
   179
420
  2234388
100
AcDbHatch
 10
0.0
 20
0.0
 30
0.0
210
0.0
220
0.0
230
1.0
  2
SOLID
 70
     1
 71
     0
 91
        1
 92
        1
 93
        1
 72
     4
 94
        3
 73
     0
 74
     1
 95
       26
 96
       22
 40
0.0
 40
0.0
 40
0.0
 40
0.0
 40
1.0
 40
1.0
 40
1.0
 40
2.0
 40
2.0
 40
2.0
 40
3.0
 40
3.0
 40
3.0
 40
4.0
 40
4.0
 40
4.0
 40
5.0
 40
5.0
 40
5.0
 40
6.0
 40
6.0
 40
6.0
 40
7.0
 40
7.0
 40
7.0
 40
7.0
 10
123.4801459109703
 20
-141.9951225773484
 10
123.4801459109703
 20
-141.9951225773484
 10
122.3756482983992
 20
-141.9951225773484
 10
122.3756482983992
 20
-141.9951225773484
 10
122.3756482983992
 20
-141.9951225773484
 10
122.3756482983992
 20
-142.3251627248354
 10
122.3756482983992
 20
-142.3251627248354
 10
122.3756482983992
 20
-142.3251627248354
 10
122.2278537020819
 20
-142.3251627248354
 10
122.2278537020819
 20
-142.3251627248354
 10
122.2130397914954
 20
-141.9930555200573
 10
122.050086775043
 20
-141.9465467310064
 10
121.9357096049327
 20
-141.9169189098333
 10
121.9357096049327
 20
-141.9169189098333
 10
121.9357096049327
 20
-141.7708468612587
 10
121.9357096049327
 20
-141.7708468612587
 10
121.9357096049327
 20
-141.7708468612587
 10
123.4801459109703
 20
-141.7708468612587
 10
123.4801459109703
 20
-141.7708468612587
 10
123.4801459109703
 20
-141.7708468612587
 10
123.4801459109703
 20
-141.9951225773484
 10
123.4801459109703
 20
-141.9951225773484
 97
        0
 97
        0
 75
     2
 76
     1
 98
        0
  0
ENDBLK
  5
C4
330
C1
100
AcDbEntity
  8
0
100
AcDbBlockEnd
  0
BLOCK
  5
D5
330
D3
100
AcDbEntity
  8
0
100
AcDbBlockBegin
  2
block 4
 70
     0
 10
0.0
 20
0.0
 30
0.0
  3
block 4
  1

  0
SPLINE
  5
D7
330
D3
100
AcDbEntity
  8
_U+30EC_U+30A4_U+30E4_U+30FC 1
370
     0
100
AcDbSpline
210
0.0
220
0.0
230
1.0
 70
    11
 71
     3
 72
    62
 73
    58
 74
     0
 42
0.0000000001
 43
0.0000000001
 12
1.0
 22
0.0
 32
0.0
 13
1.0
 23
0.0
 33
0.0
 40
0.0
 40
0.0
 40
0.0
 40
0.0
 40
1.0
 40
1.0
 40
1.0
 40
2.0
 40
2.0
 40
2.0
 40
3.0
 40
3.0
 40
3.0
 40
4.0
 40
4.0
 40
4.0
 40
5.0
 40
5.0
 40
5.0
 40
6.0
 40
6.0
 40
6.0
 40
7.0
 40
7.0
 40
7.0
 40
8.0
 40
8.0
 40
8.0
 40
9.0
 40
9.0
 40
9.0
 40
10.0
 40
10.0
 40
10.0
 40
11.0
 40
11.0
 40
11.0
 40
12.0
 40
12.0
 40
12.0
 40
13.0
 40
13.0
 40
13.0
 40
14.0
 40
14.0
 40
14.0
 40
15.0
 40
15.0
 40
15.0
 40
16.0
 40
16.0
 40
16.0
 40
17.0
 40
17.0
 40
17.0
 40
18.0
 40
18.0
 40
18.0
 40
19.0
 40
19.0
 40
19.0
 40
19.0
 10
101.9961859554037
 20
-136.70690100749
 30
0.0
 10
101.9007568104623
 20
-136.70690100749
 30
0.0
 10
101.6830267757945
 20
-136.6857136702557
 30
0.0
 10
101.55796980968
 20
-136.4995062592779
 30
0.0
 10
101.4842447662956
 20
-136.387368401233
 30
0.0
 10
101.4797661421648
 20
-136.2879773964836
 30
0.0
 10
101.4756320275825
 20
-136.2034003023207
 30
0.0
 10
101.4756320275825
 20
-136.2034003023207
 30
0.0
 10
101.69577362909
 20
-136.2034003023207
 30
0.0
 10
101.69577362909
 20
-136.2034003023207
 30
0.0
 10
101.6978406863811
 20
-136.2774698552535
 30
0.0
 10
101.7081759728369
 20
-136.5122531125733
 30
0.0
 10
101.9917073312729
 20
-136.5122531125733
 30
0.0
 10
102.1291666411344
 20
-136.5122531125733
 30
0.0
 10
102.281784371131
 20
-136.442489928997
 30
0.0
 10
102.281784371131
 20
-136.2139078435507
 30
0.0
 10
102.281784371131
 20
-136.0976358709235
 30
0.0
 10
102.2435438112447
 20
-136.0488877698072
 30
0.0
 10
102.2118489327804
 20
-136.0171928913429
 30
0.0
 10
102.1377793798475
 20
-135.9431233384101
 30
0.0
 10
102.0213351524461
 20
-135.9305487398889
 30
0.0
 10
101.9665581342306
 20
-135.9305487398889
 30
0.0
 10
101.9472655995132
 20
-135.9305487398889
 30
0.0
 10
101.9114366064666
 20
-135.93261579718
 30
0.0
 10
101.8838758425846
 20
-135.9367499117623
 30
0.0
 10
101.8838758425846
 20
-135.9367499117623
 30
0.0
 10
101.8838758425846
 20
-135.7421020168457
 30
0.0
 10
101.8838758425846
 20
-135.7421020168457
 30
0.0
 10
101.9221164024709
 20
-135.7484754434934
 30
0.0
 10
101.9641465673909
 20
-135.7507147555588
 30
0.0
 10
101.9706922488129
 20
-135.7507147555588
 30
0.0
 10
102.0361490630326
 20
-135.7507147555588
 30
0.0
 10
102.2349310725316
 20
-135.7295274183246
 30
0.0
 10
102.2349310725316
 20
-135.4925048489394
 30
0.0
 10
102.2349310725316
 20
-135.3149101766747
 30
0.0
 10
102.1040174440921
 20
-135.2597886489108
 30
0.0
 10
101.9937743885641
 20
-135.2597886489108
 30
0.0
 10
101.7295355648454
 20
-135.2597886489108
 30
0.0
 10
101.7209228261323
 20
-135.4925048489394
 30
0.0
 10
101.71678871155
 20
-135.5645073445811
 30
0.0
 10
101.71678871155
 20
-135.5645073445811
 30
0.0
 10
101.5135280779202
 20
-135.5645073445811
 30
0.0
 10
101.5135280779202
 20
-135.5645073445811
 30
0.0
 10
101.5221408166334
 20
-135.4396226332408
 30
0.0
 10
101.5497015805154
 20
-135.063073696703
 30
0.0
 10
102.0065212418595
 20
-135.063073696703
 30
0.0
 10
102.2307969579493
 20
-135.063073696703
 30
0.0
 10
102.4719536419167
 20
-135.1900254653345
 30
0.0
 10
102.4719536419167
 20
-135.4861314222917
 30
0.0
 10
102.4719536419167
 20
-135.6723388332694
 30
0.0
 10
102.3768690065238
 20
-135.7548488701412
 30
0.0
 10
102.2773057470001
 20
-135.8161715697786
 30
0.0
 10
102.3386284466376
 20
-135.8437323336606
 30
0.0
 10
102.5205294882588
 20
-135.9241753132412
 30
0.0
 10
102.5205294882588
 20
-136.2013332450295
 30
0.0
 10
102.5205294882588
 20
-136.5398138764553
 30
0.0
 10
102.2731716324178
 20
-136.70690100749
 30
0.0
 10
101.9961859554037
 20
-136.70690100749
 30
0.0
  0
HATCH
  5
D8
330
D3
100
AcDbEntity
  8
_U+30EC_U+30A4_U+30E4_U+30FC 1
 62
   179
420
  2234388
100
AcDbHatch
 10
0.0
 20
0.0
 30
0.0
210
0.0
220
0.0
230
1.0
  2
SOLID
 70
     1
 71
     0
 91
        1
 92
        1
 93
        1
 72
     4
 94
        3
 73
     0
 74
     1
 95
       62
 96
       58
 40
0.0
 40
0.0
 40
0.0
 40
0.0
 40
1.0
 40
1.0
 40
1.0
 40
2.0
 40
2.0
 40
2.0
 40
3.0
 40
3.0
 40
3.0
 40
4.0
 40
4.0
 40
4.0
 40
5.0
 40
5.0
 40
5.0
 40
6.0
 40
6.0
 40
6.0
 40
7.0
 40
7.0
 40
7.0
 40
8.0
 40
8.0
 40
8.0
 40
9.0
 40
9.0
 40
9.0
 40
10.0
 40
10.0
 40
10.0
 40
11.0
 40
11.0
 40
11.0
 40
12.0
 40
12.0
 40
12.0
 40
13.0
 40
13.0
 40
13.0
 40
14.0
 40
14.0
 40
14.0
 40
15.0
 40
15.0
 40
15.0
 40
16.0
 40
16.0
 40
16.0
 40
17.0
 40
17.0
 40
17.0
 40
18.0
 40
18.0
 40
18.0
 40
19.0
 40
19.0
 40
19.0
 40
19.0
 10
101.9961859554037
 20
-136.70690100749
 10
101.9007568104623
 20
-136.70690100749
 10
101.6830267757945
 20
-136.6857136702557
 10
101.55796980968
 20
-136.4995062592779
 10
101.4842447662956
 20
-136.387368401233
 10
101.4797661421648
 20
-136.2879773964836
 10
101.4756320275825
 20
-136.2034003023207
 10
101.4756320275825
 20
-136.2034003023207
 10
101.69577362909
 20
-136.2034003023207
 10
101.69577362909
 20
-136.2034003023207
 10
101.6978406863811
 20
-136.2774698552535
 10
101.7081759728369
 20
-136.5122531125733
 10
101.9917073312729
 20
-136.5122531125733
 10
102.1291666411344
 20
-136.5122531125733
 10
102.281784371131
 20
-136.442489928997
 10
102.281784371131
 20
-136.2139078435507
 10
102.281784371131
 20
-136.0976358709235
 10
102.2435438112447
 20
-136.0488877698072
 10
102.2118489327804
 20
-136.0171928913429
 10
102.1377793798475
 20
-135.9431233384101
 10
102.0213351524461
 20
-135.9305487398889
 10
101.9665581342306
 20
-135.9305487398889
 10
101.9472655995132
 20
-135.9305487398889
 10
101.9114366064666
 20
-135.93261579718
 10
101.8838758425846
 20
-135.9367499117623
 10
101.8838758425846
 20
-135.9367499117623
 10
101.8838758425846
 20
-135.7421020168457
 10
101.8838758425846
 20
-135.7421020168457
 10
101.9221164024709
 20
-135.7484754434934
 10
101.9641465673909
 20
-135.7507147555588
 10
101.9706922488129
 20
-135.7507147555588
 10
102.0361490630326
 20
-135.7507147555588
 10
102.2349310725316
 20
-135.7295274183246
 10
102.2349310725316
 20
-135.4925048489394
 10
102.2349310725316
 20
-135.3149101766747
 10
102.1040174440921
 20
-135.2597886489108
 10
101.9937743885641
 20
-135.2597886489108
 10
101.7295355648454
 20
-135.2597886489108
 10
101.7209228261323
 20
-135.4925048489394
 10
101.71678871155
 20
-135.5645073445811
 10
101.71678871155
 20
-135.5645073445811
 10
101.5135280779202
 20
-135.5645073445811
 10
101.5135280779202
 20
-135.5645073445811
 10
101.5221408166334
 20
-135.4396226332408
 10
101.5497015805154
 20
-135.063073696703
 10
102.0065212418595
 20
-135.063073696703
 10
102.2307969579493
 20
-135.063073696703
 10
102.4719536419167
 20
-135.1900254653345
 10
102.4719536419167
 20
-135.4861314222917
 10
102.4719536419167
 20
-135.6723388332694
 10
102.3768690065238
 20
-135.7548488701412
 10
102.2773057470001
 20
-135.8161715697786
 10
102.3386284466376
 20
-135.8437323336606
 10
102.5205294882588
 20
-135.9241753132412
 10
102.5205294882588
 20
-136.2013332450295
 10
102.5205294882588
 20
-136.5398138764553
 10
102.2731716324178
 20
-136.70690100749
 10
101.9961859554037
 20
-136.70690100749
 97
        0
 97
        0
 75
     2
 76
     1
 98
        0
  0
SPLINE
  5
D9
330
D3
100
AcDbEntity
  8
_U+30EC_U+30A4_U+30E4_U+30FC 1
370
     0
100
AcDbSpline
210
0.0
220
0.0
230
1.0
 70
    11
 71
     3
 72
    53
 73
    49
 74
     0
 42
0.0000000001
 43
0.0000000001
 12
1.0
 22
0.0
 32
0.0
 13
1.0
 23
0.0
 33
0.0
 40
0.0
 40
0.0
 40
0.0
 40
0.0
 40
1.0
 40
1.0
 40
1.0
 40
2.0
 40
2.0
 40
2.0
 40
3.0
 40
3.0
 40
3.0
 40
4.0
 40
4.0
 40
4.0
 40
5.0
 40
5.0
 40
5.0
 40
6.0
 40
6.0
 40
6.0
 40
7.0
 40
7.0
 40
7.0
 40
8.0
 40
8.0
 40
8.0
 40
9.0
 40
9.0
 40
9.0
 40
10.0
 40
10.0
 40
10.0
 40
11.0
 40
11.0
 40
11.0
 40
12.0
 40
12.0
 40
12.0
 40
13.0
 40
13.0
 40
13.0
 40
14.0
 40
14.0
 40
14.0
 40
15.0
 40
15.0
 40
15.0
 40
16.0
 40
16.0
 40
16.0
 40
16.0
 10
103.1623507771608
 20
-136.70690100749
 30
0.0
 10
103.0841471096456
 20
-136.70690100749
 30
0.0
 10
102.9825167928308
 20
-136.689847784838
 30
0.0
 10
102.8808864760159
 20
-136.6264580279094
 30
0.0
 10
102.7075981731078
 20
-136.5163872271556
 30
0.0
 10
102.6862385810993
 20
-136.3853013439419
 30
0.0
 10
102.6672905559304
 20
-136.2774698552535
 30
0.0
 10
102.6672905559304
 20
-136.2774698552535
 30
0.0
 10
102.889499214729
 20
-136.2774698552535
 30
0.0
 10
102.889499214729
 20
-136.2774698552535
 30
0.0
 10
102.9442762329445
 20
-136.4762518647525
 30
0.0
 10
103.0714002563502
 20
-136.5058796859256
 30
0.0
 10
103.164417834452
 20
-136.5058796859256
 30
0.0
 10
103.3039442016046
 20
-136.5058796859256
 30
0.0
 10
103.4562174220526
 20
-136.4064886811762
 30
0.0
 10
103.4562174220526
 20
-136.1737724811475
 30
0.0
 10
103.4562174220526
 20
-135.9178018865935
 30
0.0
 10
103.2763834377226
 20
-135.8480387030172
 30
0.0
 10
103.1558050957388
 20
-135.8480387030172
 30
0.0
 10
103.1241102172745
 20
-135.8480387030172
 30
0.0
 10
102.9825167928308
 20
-135.8480387030172
 30
0.0
 10
102.8936333293113
 20
-135.9770575289398
 30
0.0
 10
102.8936333293113
 20
-135.9770575289398
 30
0.0
 10
102.7179334595636
 20
-135.9579372489966
 30
0.0
 10
102.7179334595636
 20
-135.9579372489966
 30
0.0
 10
102.7179334595636
 20
-135.9579372489966
 30
0.0
 10
102.8385118015473
 20
-135.1118217978193
 30
0.0
 10
102.8385118015473
 20
-135.1118217978193
 30
0.0
 10
102.8385118015473
 20
-135.1118217978193
 30
0.0
 10
103.6171033812138
 20
-135.1118217978193
 30
0.0
 10
103.6171033812138
 20
-135.1118217978193
 30
0.0
 10
103.6171033812138
 20
-135.1118217978193
 30
0.0
 10
103.6171033812138
 20
-135.3064696927359
 30
0.0
 10
103.6171033812138
 20
-135.3064696927359
 30
0.0
 10
103.6171033812138
 20
-135.3064696927359
 30
0.0
 10
103.0014648179996
 20
-135.3064696927359
 30
0.0
 10
103.0014648179996
 20
-135.3064696927359
 30
0.0
 10
103.0014648179996
 20
-135.3064696927359
 30
0.0
 10
102.9360080037799
 20
-135.7295274183246
 30
0.0
 10
102.9360080037799
 20
-135.7295274183246
 30
0.0
 10
102.9973307034173
 20
-135.6955932277949
 30
0.0
 10
103.0796684855148
 20
-135.6554578653917
 30
0.0
 10
103.1981797702074
 20
-135.6554578653917
 30
0.0
 10
103.4520833074703
 20
-135.6554578653917
 30
0.0
 10
103.6891058768555
 20
-135.8416652763694
 30
0.0
 10
103.6891058768555
 20
-136.1546522012044
 30
0.0
 10
103.6891058768555
 20
-136.4721177501702
 30
0.0
 10
103.4648301607657
 20
-136.70690100749
 30
0.0
 10
103.1623507771608
 20
-136.70690100749
 30
0.0
  0
HATCH
  5
DA
330
D3
100
AcDbEntity
  8
_U+30EC_U+30A4_U+30E4_U+30FC 1
 62
   179
420
  2234388
100
AcDbHatch
 10
0.0
 20
0.0
 30
0.0
210
0.0
220
0.0
230
1.0
  2
SOLID
 70
     1
 71
     0
 91
        1
 92
        1
 93
        1
 72
     4
 94
        3
 73
     0
 74
     1
 95
       53
 96
       49
 40
0.0
 40
0.0
 40
0.0
 40
0.0
 40
1.0
 40
1.0
 40
1.0
 40
2.0
 40
2.0
 40
2.0
 40
3.0
 40
3.0
 40
3.0
 40
4.0
 40
4.0
 40
4.0
 40
5.0
 40
5.0
 40
5.0
 40
6.0
 40
6.0
 40
6.0
 40
7.0
 40
7.0
 40
7.0
 40
8.0
 40
8.0
 40
8.0
 40
9.0
 40
9.0
 40
9.0
 40
10.0
 40
10.0
 40
10.0
 40
11.0
 40
11.0
 40
11.0
 40
12.0
 40
12.0
 40
12.0
 40
13.0
 40
13.0
 40
13.0
 40
14.0
 40
14.0
 40
14.0
 40
15.0
 40
15.0
 40
15.0
 40
16.0
 40
16.0
 40
16.0
 40
16.0
 10
103.1623507771608
 20
-136.70690100749
 10
103.0841471096456
 20
-136.70690100749
 10
102.9825167928308
 20
-136.689847784838
 10
102.8808864760159
 20
-136.6264580279094
 10
102.7075981731078
 20
-136.5163872271556
 10
102.6862385810993
 20
-136.3853013439419
 10
102.6672905559304
 20
-136.2774698552535
 10
102.6672905559304
 20
-136.2774698552535
 10
102.889499214729
 20
-136.2774698552535
 10
102.889499214729
 20
-136.2774698552535
 10
102.9442762329445
 20
-136.4762518647525
 10
103.0714002563502
 20
-136.5058796859256
 10
103.164417834452
 20
-136.5058796859256
 10
103.3039442016046
 20
-136.5058796859256
 10
103.4562174220526
 20
-136.4064886811762
 10
103.4562174220526
 20
-136.1737724811475
 10
103.4562174220526
 20
-135.9178018865935
 10
103.2763834377226
 20
-135.8480387030172
 10
103.1558050957388
 20
-135.8480387030172
 10
103.1241102172745
 20
-135.8480387030172
 10
102.9825167928308
 20
-135.8480387030172
 10
102.8936333293113
 20
-135.9770575289398
 10
102.8936333293113
 20
-135.9770575289398
 10
102.7179334595636
 20
-135.9579372489966
 10
102.7179334595636
 20
-135.9579372489966
 10
102.7179334595636
 20
-135.9579372489966
 10
102.8385118015473
 20
-135.1118217978193
 10
102.8385118015473
 20
-135.1118217978193
 10
102.8385118015473
 20
-135.1118217978193
 10
103.6171033812138
 20
-135.1118217978193
 10
103.6171033812138
 20
-135.1118217978193
 10
103.6171033812138
 20
-135.1118217978193
 10
103.6171033812138
 20
-135.3064696927359
 10
103.6171033812138
 20
-135.3064696927359
 10
103.6171033812138
 20
-135.3064696927359
 10
103.0014648179996
 20
-135.3064696927359
 10
103.0014648179996
 20
-135.3064696927359
 10
103.0014648179996
 20
-135.3064696927359
 10
102.9360080037799
 20
-135.7295274183246
 10
102.9360080037799
 20
-135.7295274183246
 10
102.9973307034173
 20
-135.6955932277949
 10
103.0796684855148
 20
-135.6554578653917
 10
103.1981797702074
 20
-135.6554578653917
 10
103.4520833074703
 20
-135.6554578653917
 10
103.6891058768555
 20
-135.8416652763694
 10
103.6891058768555
 20
-136.1546522012044
 10
103.6891058768555
 20
-136.4721177501702
 10
103.4648301607657
 20
-136.70690100749
 10
103.1623507771608
 20
-136.70690100749
 97
        0
 97
        0
 75
     2
 76
     1
 98
        0
  0
ENDBLK
  5
D6
330
D3
100
AcDbEntity
  8
0
100
AcDbBlockEnd
  0
BLOCK
  5
E9
330
E7
100
AcDbEntity
  8
0
100
AcDbBlockBegin
  2
block 5
 70
     0
 10
0.0
 20
0.0
 30
0.0
  3
block 5
  1

  0
SPLINE
  5
EB
330
E7
100
AcDbEntity
  8
_U+30EC_U+30A4_U+30E4_U+30FC 1
370
     0
100
AcDbSpline
210
0.0
220
0.0
230
1.0
 70
    11
 71
     3
 72
    26
 73
    22
 74
     0
 42
0.0000000001
 43
0.0000000001
 12
1.0
 22
0.0
 32
0.0
 13
1.0
 23
0.0
 33
0.0
 40
0.0
 40
0.0
 40
0.0
 40
0.0
 40
1.0
 40
1.0
 40
1.0
 40
2.0
 40
2.0
 40
2.0
 40
3.0
 40
3.0
 40
3.0
 40
4.0
 40
4.0
 40
4.0
 40
5.0
 40
5.0
 40
5.0
 40
6.0
 40
6.0
 40
6.0
 40
7.0
 40
7.0
 40
7.0
 40
7.0
 10
90.80169268563291
 20
-161.5494845516265
 30
0.0
 10
90.80169268563291
 20
-161.5494845516265
 30
0.0
 10
90.80169268563291
 20
-160.445331448604
 30
0.0
 10
90.80169268563291
 20
-160.445331448604
 30
0.0
 10
90.80169268563291
 20
-160.445331448604
 30
0.0
 10
90.47165253814597
 20
-160.445331448604
 30
0.0
 10
90.47165253814597
 20
-160.445331448604
 30
0.0
 10
90.47165253814597
 20
-160.445331448604
 30
0.0
 10
90.47165253814597
 20
-160.2971923427382
 30
0.0
 10
90.47165253814597
 20
-160.2971923427382
 30
0.0
 10
90.80375974292406
 20
-160.2823784321516
 30
0.0
 10
90.85026853197493
 20
-160.1194254156993
 30
0.0
 10
90.87989635314808
 20
-160.0053927551375
 30
0.0
 10
90.87989635314808
 20
-160.0053927551375
 30
0.0
 10
91.02596840172268
 20
-160.0053927551375
 30
0.0
 10
91.02596840172268
 20
-160.0053927551375
 30
0.0
 10
91.02596840172268
 20
-160.0053927551375
 30
0.0
 10
91.02596840172268
 20
-161.5494845516265
 30
0.0
 10
91.02596840172268
 20
-161.5494845516265
 30
0.0
 10
91.02596840172268
 20
-161.5494845516265
 30
0.0
 10
90.80169268563291
 20
-161.5494845516265
 30
0.0
 10
90.80169268563291
 20
-161.5494845516265
 30
0.0
  0
HATCH
  5
EC
330
E7
100
AcDbEntity
  8
_U+30EC_U+30A4_U+30E4_U+30FC 1
 62
   179
420
  2234388
100
AcDbHatch
 10
0.0
 20
0.0
 30
0.0
210
0.0
220
0.0
230
1.0
  2
SOLID
 70
     1
 71
     0
 91
        1
 92
        1
 93
        1
 72
     4
 94
        3
 73
     0
 74
     1
 95
       26
 96
       22
 40
0.0
 40
0.0
 40
0.0
 40
0.0
 40
1.0
 40
1.0
 40
1.0
 40
2.0
 40
2.0
 40
2.0
 40
3.0
 40
3.0
 40
3.0
 40
4.0
 40
4.0
 40
4.0
 40
5.0
 40
5.0
 40
5.0
 40
6.0
 40
6.0
 40
6.0
 40
7.0
 40
7.0
 40
7.0
 40
7.0
 10
90.80169268563291
 20
-161.5494845516265
 10
90.80169268563291
 20
-161.5494845516265
 10
90.80169268563291
 20
-160.445331448604
 10
90.80169268563291
 20
-160.445331448604
 10
90.80169268563291
 20
-160.445331448604
 10
90.47165253814597
 20
-160.445331448604
 10
90.47165253814597
 20
-160.445331448604
 10
90.47165253814597
 20
-160.445331448604
 10
90.47165253814597
 20
-160.2971923427382
 10
90.47165253814597
 20
-160.2971923427382
 10
90.80375974292406
 20
-160.2823784321516
 10
90.85026853197493
 20
-160.1194254156993
 10
90.87989635314808
 20
-160.0053927551375
 10
90.87989635314808
 20
-160.0053927551375
 10
91.02596840172268
 20
-160.0053927551375
 10
91.02596840172268
 20
-160.0053927551375
 10
91.02596840172268
 20
-160.0053927551375
 10
91.02596840172268
 20
-161.5494845516265
 10
91.02596840172268
 20
-161.5494845516265
 10
91.02596840172268
 20
-161.5494845516265
 10
90.80169268563291
 20
-161.5494845516265
 10
90.80169268563291
 20
-161.5494845516265
 97
        0
 97
        0
 75
     2
 76
     1
 98
        0
  0
SPLINE
  5
ED
330
E7
100
AcDbEntity
  8
_U+30EC_U+30A4_U+30E4_U+30FC 1
370
     0
100
AcDbSpline
210
0.0
220
0.0
230
1.0
 70
    11
 71
     3
 72
    44
 73
    40
 74
     0
 42
0.0000000001
 43
0.0000000001
 12
1.0
 22
0.0
 32
0.0
 13
1.0
 23
0.0
 33
0.0
 40
0.0
 40
0.0
 40
0.0
 40
0.0
 40
1.0
 40
1.0
 40
1.0
 40
2.0
 40
2.0
 40
2.0
 40
3.0
 40
3.0
 40
3.0
 40
4.0
 40
4.0
 40
4.0
 40
5.0
 40
5.0
 40
5.0
 40
6.0
 40
6.0
 40
6.0
 40
7.0
 40
7.0
 40
7.0
 40
8.0
 40
8.0
 40
8.0
 40
9.0
 40
9.0
 40
9.0
 40
10.0
 40
10.0
 40
10.0
 40
11.0
 40
11.0
 40
11.0
 40
12.0
 40
12.0
 40
12.0
 40
13.0
 40
13.0
 40
13.0
 40
13.0
 10
92.12013072783803
 20
-160.9679524337164
 30
0.0
 10
91.90240069317024
 20
-161.1264268260379
 30
0.0
 10
91.80938311506848
 20
-161.2004963789707
 30
0.0
 10
91.76046275917794
 20
-161.3445013702542
 30
0.0
 10
91.76046275917794
 20
-161.3445013702542
 30
0.0
 10
92.53905433884441
 20
-161.3445013702542
 30
0.0
 10
92.53905433884441
 20
-161.3445013702542
 30
0.0
 10
92.53905433884441
 20
-161.3445013702542
 30
0.0
 10
92.53905433884441
 20
-161.5494845516265
 30
0.0
 10
92.53905433884441
 20
-161.5494845516265
 30
0.0
 10
92.53905433884441
 20
-161.5494845516265
 30
0.0
 10
91.51103784604585
 20
-161.5494845516265
 30
0.0
 10
91.51103784604585
 20
-161.5494845516265
 30
0.0
 10
91.54273272451016
 20
-161.1918836402576
 30
0.0
 10
91.6081895387299
 20
-161.1136799727424
 30
0.0
 10
91.99335121398083
 20
-160.8153347037198
 30
0.0
 10
92.2493218085349
 20
-160.6165526942209
 30
0.0
 10
92.31477862275464
 20
-160.54902882271
 30
0.0
 10
92.31477862275464
 20
-160.4115695128485
 30
0.0
 10
92.31477862275464
 20
-160.2930582281559
 30
0.0
 10
92.24277612711292
 20
-160.1618000901679
 30
0.0
 10
92.04606117490516
 20
-160.1618000901679
 30
0.0
 10
91.78595646576879
 20
-160.1618000901679
 30
0.0
 10
91.77734372705567
 20
-160.3922769781311
 30
0.0
 10
91.77320961247337
 20
-160.5087212055325
 30
0.0
 10
91.77320961247337
 20
-160.5087212055325
 30
0.0
 10
91.5489338963836
 20
-160.5087212055325
 30
0.0
 10
91.5489338963836
 20
-160.5087212055325
 30
0.0
 10
91.55754663509673
 20
-160.3819416916754
 30
0.0
 10
91.56822643110101
 20
-160.2696315788562
 30
0.0
 10
91.64849715590732
 20
-160.1511202941636
 30
0.0
 10
91.7583957018868
 20
-159.990578844551
 30
0.0
 10
91.94477536763881
 20
-159.956472399247
 30
0.0
 10
92.06087508549173
 20
-159.956472399247
 30
0.0
 10
92.33820527205434
 20
-159.956472399247
 30
0.0
 10
92.54560002026638
 20
-160.1407850077079
 30
0.0
 10
92.54560002026638
 20
-160.4136365701397
 30
0.0
 10
92.54560002026638
 20
-160.6420464008117
 30
0.0
 10
92.42915579286493
 20
-160.7416096603354
 30
0.0
 10
92.12013072783803
 20
-160.9679524337164
 30
0.0
  0
HATCH
  5
EE
330
E7
100
AcDbEntity
  8
_U+30EC_U+30A4_U+30E4_U+30FC 1
 62
   179
420
  2234388
100
AcDbHatch
 10
0.0
 20
0.0
 30
0.0
210
0.0
220
0.0
230
1.0
  2
SOLID
 70
     1
 71
     0
 91
        1
 92
        1
 93
        1
 72
     4
 94
        3
 73
     0
 74
     1
 95
       44
 96
       40
 40
0.0
 40
0.0
 40
0.0
 40
0.0
 40
1.0
 40
1.0
 40
1.0
 40
2.0
 40
2.0
 40
2.0
 40
3.0
 40
3.0
 40
3.0
 40
4.0
 40
4.0
 40
4.0
 40
5.0
 40
5.0
 40
5.0
 40
6.0
 40
6.0
 40
6.0
 40
7.0
 40
7.0
 40
7.0
 40
8.0
 40
8.0
 40
8.0
 40
9.0
 40
9.0
 40
9.0
 40
10.0
 40
10.0
 40
10.0
 40
11.0
 40
11.0
 40
11.0
 40
12.0
 40
12.0
 40
12.0
 40
13.0
 40
13.0
 40
13.0
 40
13.0
 10
92.12013072783803
 20
-160.9679524337164
 10
91.90240069317024
 20
-161.1264268260379
 10
91.80938311506848
 20
-161.2004963789707
 10
91.76046275917794
 20
-161.3445013702542
 10
91.76046275917794
 20
-161.3445013702542
 10
92.53905433884441
 20
-161.3445013702542
 10
92.53905433884441
 20
-161.3445013702542
 10
92.53905433884441
 20
-161.3445013702542
 10
92.53905433884441
 20
-161.5494845516265
 10
92.53905433884441
 20
-161.5494845516265
 10
92.53905433884441
 20
-161.5494845516265
 10
91.51103784604585
 20
-161.5494845516265
 10
91.51103784604585
 20
-161.5494845516265
 10
91.54273272451016
 20
-161.1918836402576
 10
91.6081895387299
 20
-161.1136799727424
 10
91.99335121398083
 20
-160.8153347037198
 10
92.2493218085349
 20
-160.6165526942209
 10
92.31477862275464
 20
-160.54902882271
 10
92.31477862275464
 20
-160.4115695128485
 10
92.31477862275464
 20
-160.2930582281559
 10
92.24277612711292
 20
-160.1618000901679
 10
92.04606117490516
 20
-160.1618000901679
 10
91.78595646576879
 20
-160.1618000901679
 10
91.77734372705567
 20
-160.3922769781311
 10
91.77320961247337
 20
-160.5087212055325
 10
91.77320961247337
 20
-160.5087212055325
 10
91.5489338963836
 20
-160.5087212055325
 10
91.5489338963836
 20
-160.5087212055325
 10
91.55754663509673
 20
-160.3819416916754
 10
91.56822643110101
 20
-160.2696315788562
 10
91.64849715590732
 20
-160.1511202941636
 10
91.7583957018868
 20
-159.990578844551
 10
91.94477536763881
 20
-159.956472399247
 10
92.06087508549173
 20
-159.956472399247
 10
92.33820527205434
 20
-159.956472399247
 10
92.54560002026638
 20
-160.1407850077079
 10
92.54560002026638
 20
-160.4136365701397
 10
92.54560002026638
 20
-160.6420464008117
 10
92.42915579286493
 20
-160.7416096603354
 10
92.12013072783803
 20
-160.9679524337164
 97
        0
 97
        0
 75
     2
 76
     1
 98
        0
  0
ENDBLK
  5
EA
330
E7
100
AcDbEntity
  8
0
100
AcDbBlockEnd
  0
BLOCK
  5
FF
330
FD
100
AcDbEntity
  8
0
100
AcDbBlockBegin
  2
block 6
 70
     0
 10
0.0
 20
0.0
 30
0.0
  3
block 6
  1

  0
SPLINE
  5
101
330
FD
100
AcDbEntity
  8
_U+30EC_U+30A4_U+30E4_U+30FC 1
370
     0
100
AcDbSpline
210
0.0
220
0.0
230
1.0
 70
    11
 71
     3
 72
    62
 73
    58
 74
     0
 42
0.0000000001
 43
0.0000000001
 12
1.0
 22
0.0
 32
0.0
 13
1.0
 23
0.0
 33
0.0
 40
0.0
 40
0.0
 40
0.0
 40
0.0
 40
1.0
 40
1.0
 40
1.0
 40
2.0
 40
2.0
 40
2.0
 40
3.0
 40
3.0
 40
3.0
 40
4.0
 40
4.0
 40
4.0
 40
5.0
 40
5.0
 40
5.0
 40
6.0
 40
6.0
 40
6.0
 40
7.0
 40
7.0
 40
7.0
 40
8.0
 40
8.0
 40
8.0
 40
9.0
 40
9.0
 40
9.0
 40
10.0
 40
10.0
 40
10.0
 40
11.0
 40
11.0
 40
11.0
 40
12.0
 40
12.0
 40
12.0
 40
13.0
 40
13.0
 40
13.0
 40
14.0
 40
14.0
 40
14.0
 40
15.0
 40
15.0
 40
15.0
 40
16.0
 40
16.0
 40
16.0
 40
17.0
 40
17.0
 40
17.0
 40
18.0
 40
18.0
 40
18.0
 40
19.0
 40
19.0
 40
19.0
 40
19.0
 10
123.5307888146034
 20
-156.3491129166419
 30
0.0
 10
123.5307888146034
 20
-156.4445420615833
 30
0.0
 10
123.5094292225949
 20
-156.6622720962511
 30
0.0
 10
123.3233940663914
 20
-156.7873290623657
 30
0.0
 10
123.2110839535722
 20
-156.8613986152986
 30
0.0
 10
123.111865203597
 20
-156.8655327298808
 30
0.0
 10
123.0271158546599
 20
-156.8696668444632
 30
0.0
 10
123.0271158546599
 20
-156.8696668444632
 30
0.0
 10
123.0271158546599
 20
-156.6495252429557
 30
0.0
 10
123.0271158546599
 20
-156.6495252429557
 30
0.0
 10
123.1015299171413
 20
-156.6474581856645
 30
0.0
 10
123.3361409196868
 20
-156.6371228992088
 30
0.0
 10
123.3361409196868
 20
-156.3535915407727
 30
0.0
 10
123.3361409196868
 20
-156.2161322309113
 30
0.0
 10
123.2662054813362
 20
-156.0635145009147
 30
0.0
 10
123.0377956506642
 20
-156.0635145009147
 30
0.0
 10
122.9216959328112
 20
-156.0635145009147
 30
0.0
 10
122.8727755769207
 20
-156.101755060801
 30
0.0
 10
122.8410806984564
 20
-156.1334499392653
 30
0.0
 10
122.7670111455235
 20
-156.2075194921981
 30
0.0
 10
122.7542642922281
 20
-156.3239637195996
 30
0.0
 10
122.7542642922281
 20
-156.378740737815
 30
0.0
 10
122.7542642922281
 20
-156.3980332725324
 30
0.0
 10
122.7563313495193
 20
-156.4338622655791
 30
0.0
 10
122.7604654641016
 20
-156.461423029461
 30
0.0
 10
122.7604654641016
 20
-156.461423029461
 30
0.0
 10
122.5661620787335
 20
-156.461423029461
 30
0.0
 10
122.5661620787335
 20
-156.461423029461
 30
0.0
 10
122.5723632506069
 20
-156.4231824695748
 30
0.0
 10
122.5744303078981
 20
-156.3811523046547
 30
0.0
 10
122.5744303078981
 20
-156.3746066232328
 30
0.0
 10
122.5744303078981
 20
-156.309149809013
 30
0.0
 10
122.553415225438
 20
-156.1103677995141
 30
0.0
 10
122.3163926560529
 20
-156.1103677995141
 30
0.0
 10
122.1389702385625
 20
-156.1103677995141
 30
0.0
 10
122.0838487107985
 20
-156.2412814279536
 30
0.0
 10
122.0838487107985
 20
-156.3515244834816
 30
0.0
 10
122.0838487107985
 20
-156.6157633072002
 30
0.0
 10
122.3163926560529
 20
-156.6243760459134
 30
0.0
 10
122.3883951516946
 20
-156.6285101604957
 30
0.0
 10
122.3883951516946
 20
-156.6285101604957
 30
0.0
 10
122.3883951516946
 20
-156.8317707941254
 30
0.0
 10
122.3883951516946
 20
-156.8317707941254
 30
0.0
 10
122.2636826951285
 20
-156.8231580554123
 30
0.0
 10
121.8867892490422
 20
-156.7955972915303
 30
0.0
 10
121.8867892490422
 20
-156.3387776301861
 30
0.0
 10
121.8867892490422
 20
-156.1145019140964
 30
0.0
 10
122.0139132724479
 20
-155.8733452301289
 30
0.0
 10
122.3098469746309
 20
-155.8733452301289
 30
0.0
 10
122.4962266403829
 20
-155.8733452301289
 30
0.0
 10
122.5785644224804
 20
-155.9684298655218
 30
0.0
 10
122.6398871221178
 20
-156.0679931250455
 30
0.0
 10
122.6674478859998
 20
-156.0066704254081
 30
0.0
 10
122.7480631203547
 20
-155.8247693837869
 30
0.0
 10
123.0250487973687
 20
-155.8247693837869
 30
0.0
 10
123.3637016835688
 20
-155.8247693837869
 30
0.0
 10
123.5307888146034
 20
-156.0721272396278
 30
0.0
 10
123.5307888146034
 20
-156.3491129166419
 30
0.0
  0
HATCH
  5
102
330
FD
100
AcDbEntity
  8
_U+30EC_U+30A4_U+30E4_U+30FC 1
 62
   179
420
  2234388
100
AcDbHatch
 10
0.0
 20
0.0
 30
0.0
210
0.0
220
0.0
230
1.0
  2
SOLID
 70
     1
 71
     0
 91
        1
 92
        1
 93
        1
 72
     4
 94
        3
 73
     0
 74
     1
 95
       62
 96
       58
 40
0.0
 40
0.0
 40
0.0
 40
0.0
 40
1.0
 40
1.0
 40
1.0
 40
2.0
 40
2.0
 40
2.0
 40
3.0
 40
3.0
 40
3.0
 40
4.0
 40
4.0
 40
4.0
 40
5.0
 40
5.0
 40
5.0
 40
6.0
 40
6.0
 40
6.0
 40
7.0
 40
7.0
 40
7.0
 40
8.0
 40
8.0
 40
8.0
 40
9.0
 40
9.0
 40
9.0
 40
10.0
 40
10.0
 40
10.0
 40
11.0
 40
11.0
 40
11.0
 40
12.0
 40
12.0
 40
12.0
 40
13.0
 40
13.0
 40
13.0
 40
14.0
 40
14.0
 40
14.0
 40
15.0
 40
15.0
 40
15.0
 40
16.0
 40
16.0
 40
16.0
 40
17.0
 40
17.0
 40
17.0
 40
18.0
 40
18.0
 40
18.0
 40
19.0
 40
19.0
 40
19.0
 40
19.0
 10
123.5307888146034
 20
-156.3491129166419
 10
123.5307888146034
 20
-156.4445420615833
 10
123.5094292225949
 20
-156.6622720962511
 10
123.3233940663914
 20
-156.7873290623657
 10
123.2110839535722
 20
-156.8613986152986
 10
123.111865203597
 20
-156.8655327298808
 10
123.0271158546599
 20
-156.8696668444632
 10
123.0271158546599
 20
-156.8696668444632
 10
123.0271158546599
 20
-156.6495252429557
 10
123.0271158546599
 20
-156.6495252429557
 10
123.1015299171413
 20
-156.6474581856645
 10
123.3361409196868
 20
-156.6371228992088
 10
123.3361409196868
 20
-156.3535915407727
 10
123.3361409196868
 20
-156.2161322309113
 10
123.2662054813362
 20
-156.0635145009147
 10
123.0377956506642
 20
-156.0635145009147
 10
122.9216959328112
 20
-156.0635145009147
 10
122.8727755769207
 20
-156.101755060801
 10
122.8410806984564
 20
-156.1334499392653
 10
122.7670111455235
 20
-156.2075194921981
 10
122.7542642922281
 20
-156.3239637195996
 10
122.7542642922281
 20
-156.378740737815
 10
122.7542642922281
 20
-156.3980332725324
 10
122.7563313495193
 20
-156.4338622655791
 10
122.7604654641016
 20
-156.461423029461
 10
122.7604654641016
 20
-156.461423029461
 10
122.5661620787335
 20
-156.461423029461
 10
122.5661620787335
 20
-156.461423029461
 10
122.5723632506069
 20
-156.4231824695748
 10
122.5744303078981
 20
-156.3811523046547
 10
122.5744303078981
 20
-156.3746066232328
 10
122.5744303078981
 20
-156.309149809013
 10
122.553415225438
 20
-156.1103677995141
 10
122.3163926560529
 20
-156.1103677995141
 10
122.1389702385625
 20
-156.1103677995141
 10
122.0838487107985
 20
-156.2412814279536
 10
122.0838487107985
 20
-156.3515244834816
 10
122.0838487107985
 20
-156.6157633072002
 10
122.3163926560529
 20
-156.6243760459134
 10
122.3883951516946
 20
-156.6285101604957
 10
122.3883951516946
 20
-156.6285101604957
 10
122.3883951516946
 20
-156.8317707941254
 10
122.3883951516946
 20
-156.8317707941254
 10
122.2636826951285
 20
-156.8231580554123
 10
121.8867892490422
 20
-156.7955972915303
 10
121.8867892490422
 20
-156.3387776301861
 10
121.8867892490422
 20
-156.1145019140964
 10
122.0139132724479
 20
-155.8733452301289
 10
122.3098469746309
 20
-155.8733452301289
 10
122.4962266403829
 20
-155.8733452301289
 10
122.5785644224804
 20
-155.9684298655218
 10
122.6398871221178
 20
-156.0679931250455
 10
122.6674478859998
 20
-156.0066704254081
 10
122.7480631203547
 20
-155.8247693837869
 10
123.0250487973687
 20
-155.8247693837869
 10
123.3637016835688
 20
-155.8247693837869
 10
123.5307888146034
 20
-156.0721272396278
 10
123.5307888146034
 20
-156.3491129166419
 97
        0
 97
        0
 75
     2
 76
     1
 98
        0
  0
ENDBLK
  5
100
330
FD
100
AcDbEntity
  8
0
100
AcDbBlockEnd
  0
BLOCK
  5
109
330
107
100
AcDbEntity
  8
0
100
AcDbBlockBegin
  2
block 7
 70
     0
 10
0.0
 20
0.0
 30
0.0
  3
block 7
  1

  0
SPLINE
  5
10B
330
107
100
AcDbEntity
  8
_U+30EC_U+30A4_U+30E4_U+30FC 1
370
     0
100
AcDbSpline
210
0.0
220
0.0
230
1.0
 70
    11
 71
     3
 72
    26
 73
    22
 74
     0
 42
0.0000000001
 43
0.0000000001
 12
1.0
 22
0.0
 32
0.0
 13
1.0
 23
0.0
 33
0.0
 40
0.0
 40
0.0
 40
0.0
 40
0.0
 40
1.0
 40
1.0
 40
1.0
 40
2.0
 40
2.0
 40
2.0
 40
3.0
 40
3.0
 40
3.0
 40
4.0
 40
4.0
 40
4.0
 40
5.0
 40
5.0
 40
5.0
 40
6.0
 40
6.0
 40
6.0
 40
7.0
 40
7.0
 40
7.0
 40
7.0
 10
123.4798014014217
 20
-151.1218695368723
 30
0.0
 10
123.4798014014217
 20
-151.1218695368723
 30
0.0
 10
122.3756482983992
 20
-151.1218695368723
 30
0.0
 10
122.3756482983992
 20
-151.1218695368723
 30
0.0
 10
122.3756482983992
 20
-151.1218695368723
 30
0.0
 10
122.3756482983992
 20
-151.4519096843593
 30
0.0
 10
122.3756482983992
 20
-151.4519096843593
 30
0.0
 10
122.3756482983992
 20
-151.4519096843593
 30
0.0
 10
122.2278537020819
 20
-151.4519096843593
 30
0.0
 10
122.2278537020819
 20
-151.4519096843593
 30
0.0
 10
122.2126952819468
 20
-151.1198024795812
 30
0.0
 10
122.050086775043
 20
-151.0732936905303
 30
0.0
 10
121.9357096049327
 20
-151.0436658693571
 30
0.0
 10
121.9357096049327
 20
-151.0436658693571
 30
0.0
 10
121.9357096049327
 20
-150.8975938207826
 30
0.0
 10
121.9357096049327
 20
-150.8975938207826
 30
0.0
 10
121.9357096049327
 20
-150.8975938207826
 30
0.0
 10
123.4798014014217
 20
-150.8975938207826
 30
0.0
 10
123.4798014014217
 20
-150.8975938207826
 30
0.0
 10
123.4798014014217
 20
-150.8975938207826
 30
0.0
 10
123.4798014014217
 20
-151.1218695368723
 30
0.0
 10
123.4798014014217
 20
-151.1218695368723
 30
0.0
  0
HATCH
  5
10C
330
107
100
AcDbEntity
  8
_U+30EC_U+30A4_U+30E4_U+30FC 1
 62
   179
420
  2234388
100
AcDbHatch
 10
0.0
 20
0.0
 30
0.0
210
0.0
220
0.0
230
1.0
  2
SOLID
 70
     1
 71
     0
 91
        1
 92
        1
 93
        1
 72
     4
 94
        3
 73
     0
 74
     1
 95
       26
 96
       22
 40
0.0
 40
0.0
 40
0.0
 40
0.0
 40
1.0
 40
1.0
 40
1.0
 40
2.0
 40
2.0
 40
2.0
 40
3.0
 40
3.0
 40
3.0
 40
4.0
 40
4.0
 40
4.0
 40
5.0
 40
5.0
 40
5.0
 40
6.0
 40
6.0
 40
6.0
 40
7.0
 40
7.0
 40
7.0
 40
7.0
 10
123.4798014014217
 20
-151.1218695368723
 10
123.4798014014217
 20
-151.1218695368723
 10
122.3756482983992
 20
-151.1218695368723
 10
122.3756482983992
 20
-151.1218695368723
 10
122.3756482983992
 20
-151.1218695368723
 10
122.3756482983992
 20
-151.4519096843593
 10
122.3756482983992
 20
-151.4519096843593
 10
122.3756482983992
 20
-151.4519096843593
 10
122.2278537020819
 20
-151.4519096843593
 10
122.2278537020819
 20
-151.4519096843593
 10
122.2126952819468
 20
-151.1198024795812
 10
122.050086775043
 20
-151.0732936905303
 10
121.9357096049327
 20
-151.0436658693571
 10
121.9357096049327
 20
-151.0436658693571
 10
121.9357096049327
 20
-150.8975938207826
 10
121.9357096049327
 20
-150.8975938207826
 10
121.9357096049327
 20
-150.8975938207826
 10
123.4798014014217
 20
-150.8975938207826
 10
123.4798014014217
 20
-150.8975938207826
 10
123.4798014014217
 20
-150.8975938207826
 10
123.4798014014217
 20
-151.1218695368723
 10
123.4798014014217
 20
-151.1218695368723
 97
        0
 97
        0
 75
     2
 76
     1
 98
        0
  0
SPLINE
  5
10D
330
107
100
AcDbEntity
  8
_U+30EC_U+30A4_U+30E4_U+30FC 1
370
     0
100
AcDbSpline
210
0.0
220
0.0
230
1.0
 70
    11
 71
     3
 72
    44
 73
    40
 74
     0
 42
0.0000000001
 43
0.0000000001
 12
1.0
 22
0.0
 32
0.0
 13
1.0
 23
0.0
 33
0.0
 40
0.0
 40
0.0
 40
0.0
 40
0.0
 40
1.0
 40
1.0
 40
1.0
 40
2.0
 40
2.0
 40
2.0
 40
3.0
 40
3.0
 40
3.0
 40
4.0
 40
4.0
 40
4.0
 40
5.0
 40
5.0
 40
5.0
 40
6.0
 40
6.0
 40
6.0
 40
7.0
 40
7.0
 40
7.0
 40
8.0
 40
8.0
 40
8.0
 40
9.0
 40
9.0
 40
9.0
 40
10.0
 40
10.0
 40
10.0
 40
11.0
 40
11.0
 40
11.0
 40
12.0
 40
12.0
 40
12.0
 40
13.0
 40
13.0
 40
13.0
 40
13.0
 10
122.8982692835116
 20
-149.8034314946672
 30
0.0
 10
123.056743675833
 20
-150.021161529335
 30
0.0
 10
123.1311577383144
 20
-150.1141791074367
 30
0.0
 10
123.2748182200494
 20
-150.1630994633273
 30
0.0
 10
123.2748182200494
 20
-150.1630994633273
 30
0.0
 10
123.2748182200494
 20
-149.3845078836608
 30
0.0
 10
123.2748182200494
 20
-149.3845078836608
 30
0.0
 10
123.2748182200494
 20
-149.3845078836608
 30
0.0
 10
123.4798014014217
 20
-149.3845078836608
 30
0.0
 10
123.4798014014217
 20
-149.3845078836608
 30
0.0
 10
123.4798014014217
 20
-149.3845078836608
 30
0.0
 10
123.4798014014217
 20
-150.4125243764594
 30
0.0
 10
123.4798014014217
 20
-150.4125243764594
 30
0.0
 10
123.1222004900528
 20
-150.3808294979951
 30
0.0
 10
123.0443413320861
 20
-150.3153726837753
 30
0.0
 10
122.7459960630635
 20
-149.9302110085244
 30
0.0
 10
122.5468695440161
 20
-149.6742404139703
 30
0.0
 10
122.4793456725052
 20
-149.6087835997506
 30
0.0
 10
122.3418863626437
 20
-149.6087835997506
 30
0.0
 10
122.2233750779511
 20
-149.6087835997506
 30
0.0
 10
122.0921169399631
 20
-149.6807860953923
 30
0.0
 10
122.0921169399631
 20
-149.8775010476001
 30
0.0
 10
122.0921169399631
 20
-150.1376057567364
 30
0.0
 10
122.3229383374748
 20
-150.1462184954496
 30
0.0
 10
122.4393825648763
 20
-150.1503526100319
 30
0.0
 10
122.4393825648763
 20
-150.1503526100319
 30
0.0
 10
122.4393825648763
 20
-150.3746283261216
 30
0.0
 10
122.4393825648763
 20
-150.3746283261216
 30
0.0
 10
122.3122585414706
 20
-150.3660155874085
 30
0.0
 10
122.2002929381999
 20
-150.3553357914042
 30
0.0
 10
122.0817816535073
 20
-150.2750650665979
 30
0.0
 10
121.9208956943462
 20
-150.1651665206184
 30
0.0
 10
121.8867892490422
 20
-149.9787868548664
 30
0.0
 10
121.8867892490422
 20
-149.8626871370135
 30
0.0
 10
121.8867892490422
 20
-149.5853569504509
 30
0.0
 10
122.0711018575031
 20
-149.3779622022388
 30
0.0
 10
122.3439534199348
 20
-149.3779622022388
 30
0.0
 10
122.5723632506069
 20
-149.3779622022388
 30
0.0
 10
122.6719265101306
 20
-149.4944064296403
 30
0.0
 10
122.8982692835116
 20
-149.8034314946672
 30
0.0
  0
HATCH
  5
10E
330
107
100
AcDbEntity
  8
_U+30EC_U+30A4_U+30E4_U+30FC 1
 62
   179
420
  2234388
100
AcDbHatch
 10
0.0
 20
0.0
 30
0.0
210
0.0
220
0.0
230
1.0
  2
SOLID
 70
     1
 71
     0
 91
        1
 92
        1
 93
        1
 72
     4
 94
        3
 73
     0
 74
     1
 95
       44
 96
       40
 40
0.0
 40
0.0
 40
0.0
 40
0.0
 40
1.0
 40
1.0
 40
1.0
 40
2.0
 40
2.0
 40
2.0
 40
3.0
 40
3.0
 40
3.0
 40
4.0
 40
4.0
 40
4.0
 40
5.0
 40
5.0
 40
5.0
 40
6.0
 40
6.0
 40
6.0
 40
7.0
 40
7.0
 40
7.0
 40
8.0
 40
8.0
 40
8.0
 40
9.0
 40
9.0
 40
9.0
 40
10.0
 40
10.0
 40
10.0
 40
11.0
 40
11.0
 40
11.0
 40
12.0
 40
12.0
 40
12.0
 40
13.0
 40
13.0
 40
13.0
 40
13.0
 10
122.8982692835116
 20
-149.8034314946672
 10
123.056743675833
 20
-150.021161529335
 10
123.1311577383144
 20
-150.1141791074367
 10
123.2748182200494
 20
-150.1630994633273
 10
123.2748182200494
 20
-150.1630994633273
 10
123.2748182200494
 20
-149.3845078836608
 10
123.2748182200494
 20
-149.3845078836608
 10
123.2748182200494
 20
-149.3845078836608
 10
123.4798014014217
 20
-149.3845078836608
 10
123.4798014014217
 20
-149.3845078836608
 10
123.4798014014217
 20
-149.3845078836608
 10
123.4798014014217
 20
-150.4125243764594
 10
123.4798014014217
 20
-150.4125243764594
 10
123.1222004900528
 20
-150.3808294979951
 10
123.0443413320861
 20
-150.3153726837753
 10
122.7459960630635
 20
-149.9302110085244
 10
122.5468695440161
 20
-149.6742404139703
 10
122.4793456725052
 20
-149.6087835997506
 10
122.3418863626437
 20
-149.6087835997506
 10
122.2233750779511
 20
-149.6087835997506
 10
122.0921169399631
 20
-149.6807860953923
 10
122.0921169399631
 20
-149.8775010476001
 10
122.0921169399631
 20
-150.1376057567364
 10
122.3229383374748
 20
-150.1462184954496
 10
122.4393825648763
 20
-150.1503526100319
 10
122.4393825648763
 20
-150.1503526100319
 10
122.4393825648763
 20
-150.3746283261216
 10
122.4393825648763
 20
-150.3746283261216
 10
122.3122585414706
 20
-150.3660155874085
 10
122.2002929381999
 20
-150.3553357914042
 10
122.0817816535073
 20
-150.2750650665979
 10
121.9208956943462
 20
-150.1651665206184
 10
121.8867892490422
 20
-149.9787868548664
 10
121.8867892490422
 20
-149.8626871370135
 10
121.8867892490422
 20
-149.5853569504509
 10
122.0711018575031
 20
-149.3779622022388
 10
122.3439534199348
 20
-149.3779622022388
 10
122.5723632506069
 20
-149.3779622022388
 10
122.6719265101306
 20
-149.4944064296403
 10
122.8982692835116
 20
-149.8034314946672
 97
        0
 97
        0
 75
     2
 76
     1
 98
        0
  0
POLYLINE
  5
10F
330
107
100
AcDbEntity
  8
_U+30EC_U+30A4_U+30E4_U+30FC 1
370
     0
100
AcDb2dPolyline
 66
     1
 10
0.0
 20
0.0
 30
0.0
  0
VERTEX
  5
110
330
10F
100
AcDbEntity
  8
_U+30EC_U+30A4_U+30E4_U+30FC 1
370
     0
100
AcDbVertex
100
AcDb2dVertex
 10
123.4798014014217
 20
-149.159543148474
 30
0.0
  0
VERTEX
  5
111
330
10F
100
AcDbEntity
  8
_U+30EC_U+30A4_U+30E4_U+30FC 1
370
     0
100
AcDbVertex
100
AcDb2dVertex
 10
123.2283094309985
 20
-149.159543148474
 30
0.0
  0
VERTEX
  5
112
330
10F
100
AcDbEntity
  8
_U+30EC_U+30A4_U+30E4_U+30FC 1
370
     0
100
AcDbVertex
100
AcDb2dVertex
 10
123.2283094309985
 20
-148.9077066685022
 30
0.0
  0
VERTEX
  5
113
330
10F
100
AcDbEntity
  8
_U+30EC_U+30A4_U+30E4_U+30FC 1
370
     0
100
AcDbVertex
100
AcDb2dVertex
 10
123.4798014014217
 20
-148.9077066685022
 30
0.0
  0
VERTEX
  5
114
330
10F
100
AcDbEntity
  8
_U+30EC_U+30A4_U+30E4_U+30FC 1
370
     0
100
AcDbVertex
100
AcDb2dVertex
 10
123.4798014014217
 20
-149.159543148474
 30
0.0
  0
SEQEND
  5
115
330
10F
100
AcDbEntity
  8
_U+30EC_U+30A4_U+30E4_U+30FC 1
370
     0
  0
HATCH
  5
116
330
107
100
AcDbEntity
  8
_U+30EC_U+30A4_U+30E4_U+30FC 1
 62
   179
420
  2234388
100
AcDbHatch
 10
0.0
 20
0.0
 30
0.0
210
0.0
220
0.0
230
1.0
  2
SOLID
 70
     1
 71
     0
 91
        1
 92
        1
 93
        4
 72
     1
 10
123.4798014014217
 20
-149.159543148474
 11
123.2283094309985
 21
-149.159543148474
 72
     1
 10
123.2283094309985
 20
-149.159543148474
 11
123.2283094309985
 21
-148.9077066685022
 72
     1
 10
123.2283094309985
 20
-148.9077066685022
 11
123.4798014014217
 21
-148.9077066685022
 72
     1
 10
123.4798014014217
 20
-148.9077066685022
 11
123.4798014014217
 21
-149.159543148474
 97
        0
 75
     2
 76
     1
 98
        0
  0
SPLINE
  5
117
330
107
100
AcDbEntity
  8
_U+30EC_U+30A4_U+30E4_U+30FC 1
370
     0
100
AcDbSpline
210
0.0
220
0.0
230
1.0
 70
    11
 71
     3
 72
    53
 73
    49
 74
     0
 42
0.0000000001
 43
0.0000000001
 12
1.0
 22
0.0
 32
0.0
 13
1.0
 23
0.0
 33
0.0
 40
0.0
 40
0.0
 40
0.0
 40
0.0
 40
1.0
 40
1.0
 40
1.0
 40
2.0
 40
2.0
 40
2.0
 40
3.0
 40
3.0
 40
3.0
 40
4.0
 40
4.0
 40
4.0
 40
5.0
 40
5.0
 40
5.0
 40
6.0
 40
6.0
 40
6.0
 40
7.0
 40
7.0
 40
7.0
 40
8.0
 40
8.0
 40
8.0
 40
9.0
 40
9.0
 40
9.0
 40
10.0
 40
10.0
 40
10.0
 40
11.0
 40
11.0
 40
11.0
 40
12.0
 40
12.0
 40
12.0
 40
13.0
 40
13.0
 40
13.0
 40
14.0
 40
14.0
 40
14.0
 40
15.0
 40
15.0
 40
15.0
 40
16.0
 40
16.0
 40
16.0
 40
16.0
 10
123.5307888146034
 20
-148.1904377884732
 30
0.0
 10
123.5307888146034
 20
-148.2686414559884
 30
0.0
 10
123.5135633371772
 20
-148.3702717728033
 30
0.0
 10
123.4501735802486
 20
-148.4719020896181
 30
0.0
 10
123.3402750342691
 20
-148.6451903925262
 30
0.0
 10
123.2090168962811
 20
-148.6665499845348
 30
0.0
 10
123.1015299171413
 20
-148.6854980097036
 30
0.0
 10
123.1015299171413
 20
-148.6854980097036
 30
0.0
 10
123.1015299171413
 20
-148.463289350905
 30
0.0
 10
123.1015299171413
 20
-148.463289350905
 30
0.0
 10
123.2999674170917
 20
-148.4085123326896
 30
0.0
 10
123.3295952382648
 20
-148.2813883092838
 30
0.0
 10
123.3295952382648
 20
-148.1883707311821
 30
0.0
 10
123.3295952382648
 20
-148.0488443640295
 30
0.0
 10
123.2303764882896
 20
-147.8965711435814
 30
0.0
 10
122.9974880334867
 20
-147.8965711435814
 30
0.0
 10
122.7418619484812
 20
-147.8965711435814
 30
0.0
 10
122.6719265101306
 20
-148.0764051279115
 30
0.0
 10
122.6719265101306
 20
-148.1969834698952
 30
0.0
 10
122.6719265101306
 20
-148.2286783483595
 30
0.0
 10
122.6719265101306
 20
-148.3702717728033
 30
0.0
 10
122.8011175908275
 20
-148.4591552363227
 30
0.0
 10
122.8011175908275
 20
-148.4591552363227
 30
0.0
 10
122.7818250561101
 20
-148.6348551060705
 30
0.0
 10
122.7818250561101
 20
-148.6348551060705
 30
0.0
 10
122.7818250561101
 20
-148.6348551060705
 30
0.0
 10
121.9357096049327
 20
-148.5142767640867
 30
0.0
 10
121.9357096049327
 20
-148.5142767640867
 30
0.0
 10
121.9357096049327
 20
-148.5142767640867
 30
0.0
 10
121.9357096049327
 20
-147.7356851844202
 30
0.0
 10
121.9357096049327
 20
-147.7356851844202
 30
0.0
 10
121.9357096049327
 20
-147.7356851844202
 30
0.0
 10
122.1303574998494
 20
-147.7356851844202
 30
0.0
 10
122.1303574998494
 20
-147.7356851844202
 30
0.0
 10
122.1303574998494
 20
-147.7356851844202
 30
0.0
 10
122.1303574998494
 20
-148.3513237476344
 30
0.0
 10
122.1303574998494
 20
-148.3513237476344
 30
0.0
 10
122.1303574998494
 20
-148.3513237476344
 30
0.0
 10
122.553415225438
 20
-148.4167805618542
 30
0.0
 10
122.553415225438
 20
-148.4167805618542
 30
0.0
 10
122.5193087801341
 20
-148.3554578622167
 30
0.0
 10
122.4793456725052
 20
-148.2731200801192
 30
0.0
 10
122.4793456725052
 20
-148.1546087954266
 30
0.0
 10
122.4793456725052
 20
-147.9007052581637
 30
0.0
 10
122.6653808287087
 20
-147.6636826887785
 30
0.0
 10
122.9785400083179
 20
-147.6636826887785
 30
0.0
 10
123.2958333025094
 20
-147.6636826887785
 30
0.0
 10
123.5307888146034
 20
-147.8879584048683
 30
0.0
 10
123.5307888146034
 20
-148.1904377884732
 30
0.0
  0
HATCH
  5
118
330
107
100
AcDbEntity
  8
_U+30EC_U+30A4_U+30E4_U+30FC 1
 62
   179
420
  2234388
100
AcDbHatch
 10
0.0
 20
0.0
 30
0.0
210
0.0
220
0.0
230
1.0
  2
SOLID
 70
     1
 71
     0
 91
        1
 92
        1
 93
        1
 72
     4
 94
        3
 73
     0
 74
     1
 95
       53
 96
       49
 40
0.0
 40
0.0
 40
0.0
 40
0.0
 40
1.0
 40
1.0
 40
1.0
 40
2.0
 40
2.0
 40
2.0
 40
3.0
 40
3.0
 40
3.0
 40
4.0
 40
4.0
 40
4.0
 40
5.0
 40
5.0
 40
5.0
 40
6.0
 40
6.0
 40
6.0
 40
7.0
 40
7.0
 40
7.0
 40
8.0
 40
8.0
 40
8.0
 40
9.0
 40
9.0
 40
9.0
 40
10.0
 40
10.0
 40
10.0
 40
11.0
 40
11.0
 40
11.0
 40
12.0
 40
12.0
 40
12.0
 40
13.0
 40
13.0
 40
13.0
 40
14.0
 40
14.0
 40
14.0
 40
15.0
 40
15.0
 40
15.0
 40
16.0
 40
16.0
 40
16.0
 40
16.0
 10
123.5307888146034
 20
-148.1904377884732
 10
123.5307888146034
 20
-148.2686414559884
 10
123.5135633371772
 20
-148.3702717728033
 10
123.4501735802486
 20
-148.4719020896181
 10
123.3402750342691
 20
-148.6451903925262
 10
123.2090168962811
 20
-148.6665499845348
 10
123.1015299171413
 20
-148.6854980097036
 10
123.1015299171413
 20
-148.6854980097036
 10
123.1015299171413
 20
-148.463289350905
 10
123.1015299171413
 20
-148.463289350905
 10
123.2999674170917
 20
-148.4085123326896
 10
123.3295952382648
 20
-148.2813883092838
 10
123.3295952382648
 20
-148.1883707311821
 10
123.3295952382648
 20
-148.0488443640295
 10
123.2303764882896
 20
-147.8965711435814
 10
122.9974880334867
 20
-147.8965711435814
 10
122.7418619484812
 20
-147.8965711435814
 10
122.6719265101306
 20
-148.0764051279115
 10
122.6719265101306
 20
-148.1969834698952
 10
122.6719265101306
 20
-148.2286783483595
 10
122.6719265101306
 20
-148.3702717728033
 10
122.8011175908275
 20
-148.4591552363227
 10
122.8011175908275
 20
-148.4591552363227
 10
122.7818250561101
 20
-148.6348551060705
 10
122.7818250561101
 20
-148.6348551060705
 10
122.7818250561101
 20
-148.6348551060705
 10
121.9357096049327
 20
-148.5142767640867
 10
121.9357096049327
 20
-148.5142767640867
 10
121.9357096049327
 20
-148.5142767640867
 10
121.9357096049327
 20
-147.7356851844202
 10
121.9357096049327
 20
-147.7356851844202
 10
121.9357096049327
 20
-147.7356851844202
 10
122.1303574998494
 20
-147.7356851844202
 10
122.1303574998494
 20
-147.7356851844202
 10
122.1303574998494
 20
-147.7356851844202
 10
122.1303574998494
 20
-148.3513237476344
 10
122.1303574998494
 20
-148.3513237476344
 10
122.1303574998494
 20
-148.3513237476344
 10
122.553415225438
 20
-148.4167805618542
 10
122.553415225438
 20
-148.4167805618542
 10
122.5193087801341
 20
-148.3554578622167
 10
122.4793456725052
 20
-148.2731200801192
 10
122.4793456725052
 20
-148.1546087954266
 10
122.4793456725052
 20
-147.9007052581637
 10
122.6653808287087
 20
-147.6636826887785
 10
122.9785400083179
 20
-147.6636826887785
 10
123.2958333025094
 20
-147.6636826887785
 10
123.5307888146034
 20
-147.8879584048683
 10
123.5307888146034
 20
-148.1904377884732
 97
        0
 97
        0
 75
     2
 76
     1
 98
        0
  0
ENDBLK
  5
10A
330
107
100
AcDbEntity
  8
0
100
AcDbBlockEnd
  0
ENDSEC
  0
SECTION
  2
ENTITIES
  0
POLYLINE
  5
41
330
1F
100
AcDbEntity
  8
_U+30EC_U+30A4_U+30E4_U+30FC 1
  6
AI-Linetype-1
 62
   154
420
    23468
370
    25
100
AcDb2dPolyline
 66
     1
 10
0.0
 20
0.0
 30
0.0
  0
VERTEX
  5
42
330
41
100
AcDbEntity
  8
_U+30EC_U+30A4_U+30E4_U+30FC 1
  6
AI-Linetype-1
 62
   154
420
    23468
370
    25
100
AcDbVertex
100
AcDb2dVertex
 10
84.92105464931554
 20
-141.2509173569941
 30
0.0
  0
VERTEX
  5
43
330
41
100
AcDbEntity
  8
_U+30EC_U+30A4_U+30E4_U+30FC 1
  6
AI-Linetype-1
 62
   154
420
    23468
370
    25
100
AcDbVertex
100
AcDb2dVertex
 10
84.92105464931554
 20
-143.0518625537556
 30
0.0
  0
VERTEX
  5
44
330
41
100
AcDbEntity
  8
_U+30EC_U+30A4_U+30E4_U+30FC 1
  6
AI-Linetype-1
 62
   154
420
    23468
370
    25
100
AcDbVertex
100
AcDb2dVertex
 10
96.92501616703937
 20
-143.0518625537556
 30
0.0
  0
VERTEX
  5
45
330
41
100
AcDbEntity
  8
_U+30EC_U+30A4_U+30E4_U+30FC 1
  6
AI-Linetype-1
 62
   154
420
    23468
370
    25
100
AcDbVertex
100
AcDb2dVertex
 10
96.92501616703937
 20
-158.6770931271059
 30
0.0
  0
VERTEX
  5
46
330
41
100
AcDbEntity
  8
_U+30EC_U+30A4_U+30E4_U+30FC 1
  6
AI-Linetype-1
 62
   154
420
    23468
370
    25
100
AcDbVertex
100
AcDb2dVertex
 10
108.2749370728119
 20
-158.6770931271059
 30
0.0
  0
VERTEX
  5
47
330
41
100
AcDbEntity
  8
_U+30EC_U+30A4_U+30E4_U+30FC 1
  6
AI-Linetype-1
 62
   154
420
    23468
370
    25
100
AcDbVertex
100
AcDb2dVertex
 10
108.2749370728119
 20
-155.0145475211964
 30
0.0
  0
SEQEND
  5
49
330
41
100
AcDbEntity
  8
_U+30EC_U+30A4_U+30E4_U+30FC 1
  6
AI-Linetype-1
 62
   154
420
    23468
370
    25
  0
POLYLINE
  5
4A
330
1F
100
AcDbEntity
  8
_U+30EC_U+30A4_U+30E4_U+30FC 1
370
     0
100
AcDb2dPolyline
 66
     1
 10
0.0
 20
0.0
 30
0.0
  0
VERTEX
  5
4B
330
4A
100
AcDbEntity
  8
_U+30EC_U+30A4_U+30E4_U+30FC 1
370
     0
100
AcDbVertex
100
AcDb2dVertex
 10
85.51738991188921
 20
-141.3328675658495
 30
0.0
  0
VERTEX
  5
4C
330
4A
100
AcDbEntity
  8
_U+30EC_U+30A4_U+30E4_U+30FC 1
370
     0
100
AcDbVertex
100
AcDb2dVertex
 10
85.51738991188921
 20
-142.2479925859658
 30
0.0
  0
VERTEX
  5
4D
330
4A
100
AcDbEntity
  8
_U+30EC_U+30A4_U+30E4_U+30FC 1
370
     0
100
AcDbVertex
100
AcDb2dVertex
 10
97.41234645527474
 20
-142.2479925859658
 30
0.0
  0
VERTEX
  5
4E
330
4A
100
AcDbEntity
  8
_U+30EC_U+30A4_U+30E4_U+30FC 1
370
     0
100
AcDbVertex
100
AcDb2dVertex
 10
97.41234645527474
 20
-157.8770988917373
 30
0.0
  0
VERTEX
  5
4F
330
4A
100
AcDbEntity
  8
_U+30EC_U+30A4_U+30E4_U+30FC 1
370
     0
100
AcDbVertex
100
AcDb2dVertex
 10
107.6238570897933
 20
-157.8770988917373
 30
0.0
  0
VERTEX
  5
50
330
4A
100
AcDbEntity
  8
_U+30EC_U+30A4_U+30E4_U+30FC 1
370
     0
100
AcDbVertex
100
AcDb2dVertex
 10
107.6238570897933
 20
-154.9123573763652
 30
0.0
  0
VERTEX
  5
51
330
4A
100
AcDbEntity
  8
_U+30EC_U+30A4_U+30E4_U+30FC 1
370
     0
100
AcDbVertex
100
AcDb2dVertex
 10
106.5990273103186
 20
-154.9123573763652
 30
0.0
  0
VERTEX
  5
52
330
4A
100
AcDbEntity
  8
_U+30EC_U+30A4_U+30E4_U+30FC 1
370
     0
100
AcDbVertex
100
AcDb2dVertex
 10
106.5990273103186
 20
-156.9256496460985
 30
0.0
  0
VERTEX
  5
53
330
4A
100
AcDbEntity
  8
_U+30EC_U+30A4_U+30E4_U+30FC 1
370
     0
100
AcDbVertex
100
AcDb2dVertex
 10
98.43716546882604
 20
-156.9256496460985
 30
0.0
  0
VERTEX
  5
54
330
4A
100
AcDbEntity
  8
_U+30EC_U+30A4_U+30E4_U+30FC 1
370
     0
100
AcDbVertex
100
AcDb2dVertex
 10
98.43716546882604
 20
-142.2850273624322
 30
0.0
  0
VERTEX
  5
55
330
4A
100
AcDbEntity
  8
_U+30EC_U+30A4_U+30E4_U+30FC 1
370
     0
100
AcDbVertex
100
AcDb2dVertex
 10
120.6170131805662
 20
-142.2850273624322
 30
0.0
  0
VERTEX
  5
56
330
4A
100
AcDbEntity
  8
_U+30EC_U+30A4_U+30E4_U+30FC 1
370
     0
100
AcDbVertex
100
AcDb2dVertex
 10
120.6170131805662
 20
-141.2961988307784
 30
0.0
  0
VERTEX
  5
57
330
4A
100
AcDbEntity
  8
_U+30EC_U+30A4_U+30E4_U+30FC 1
370
     0
100
AcDbVertex
100
AcDb2dVertex
 10
85.51738991188921
 20
-141.3328675658495
 30
0.0
  0
SEQEND
  5
59
330
4A
100
AcDbEntity
  8
_U+30EC_U+30A4_U+30E4_U+30FC 1
370
     0
  0
HATCH
  5
58
330
1F
100
AcDbEntity
  8
_U+30EC_U+30A4_U+30E4_U+30FC 1
 62
     9
420
 13224394
100
AcDbHatch
 10
0.0
 20
0.0
 30
0.0
210
0.0
220
0.0
230
1.0
  2
SOLID
 70
     1
 71
     0
 91
        1
 92
        1
 93
       12
 72
     1
 10
85.51738991188921
 20
-141.3328675658495
 11
85.51738991188921
 21
-142.2479925859658
 72
     1
 10
85.51738991188921
 20
-142.2479925859658
 11
97.41234645527474
 21
-142.2479925859658
 72
     1
 10
97.41234645527474
 20
-142.2479925859658
 11
97.41234645527474
 21
-157.8770988917373
 72
     1
 10
97.41234645527474
 20
-157.8770988917373
 11
107.6238570897933
 21
-157.8770988917373
 72
     1
 10
107.6238570897933
 20
-157.8770988917373
 11
107.6238570897933
 21
-154.9123573763652
 72
     1
 10
107.6238570897933
 20
-154.9123573763652
 11
106.5990273103186
 21
-154.9123573763652
 72
     1
 10
106.5990273103186
 20
-154.9123573763652
 11
106.5990273103186
 21
-156.9256496460985
 72
     1
 10
106.5990273103186
 20
-156.9256496460985
 11
98.43716546882604
 21
-156.9256496460985
 72
     1
 10
98.43716546882604
 20
-156.9256496460985
 11
98.43716546882604
 21
-142.2850273624322
 72
     1
 10
98.43716546882604
 20
-142.2850273624322
 11
120.6170131805662
 21
-142.2850273624322
 72
     1
 10
120.6170131805662
 20
-142.2850273624322
 11
120.6170131805662
 21
-141.2961988307784
 72
     1
 10
120.6170131805662
 20
-141.2961988307784
 11
85.51738991188921
 21
-141.3328675658495
 97
        0
 75
     2
 76
     1
 98
        0
  0
POLYLINE
  5
5A
330
1F
100
AcDbEntity
  8
_U+30EC_U+30A4_U+30E4_U+30FC 1
 62
     9
420
 13224394
370
     9
100
AcDb2dPolyline
 66
     1
 10
0.0
 20
0.0
 30
0.0
  0
VERTEX
  5
5B
330
5A
100
AcDbEntity
  8
_U+30EC_U+30A4_U+30E4_U+30FC 1
 62
     9
420
 13224394
370
     9
100
AcDbVertex
100
AcDb2dVertex
 10
85.51738991188921
 20
-141.3328675658495
 30
0.0
  0
VERTEX
  5
5C
330
5A
100
AcDbEntity
  8
_U+30EC_U+30A4_U+30E4_U+30FC 1
 62
     9
420
 13224394
370
     9
100
AcDbVertex
100
AcDb2dVertex
 10
85.51738991188921
 20
-142.2479925859658
 30
0.0
  0
VERTEX
  5
5D
330
5A
100
AcDbEntity
  8
_U+30EC_U+30A4_U+30E4_U+30FC 1
 62
     9
420
 13224394
370
     9
100
AcDbVertex
100
AcDb2dVertex
 10
97.41234645527474
 20
-142.2479925859658
 30
0.0
  0
VERTEX
  5
5E
330
5A
100
AcDbEntity
  8
_U+30EC_U+30A4_U+30E4_U+30FC 1
 62
     9
420
 13224394
370
     9
100
AcDbVertex
100
AcDb2dVertex
 10
97.41234645527474
 20
-157.8770988917373
 30
0.0
  0
VERTEX
  5
5F
330
5A
100
AcDbEntity
  8
_U+30EC_U+30A4_U+30E4_U+30FC 1
 62
     9
420
 13224394
370
     9
100
AcDbVertex
100
AcDb2dVertex
 10
107.6238570897933
 20
-157.8770988917373
 30
0.0
  0
VERTEX
  5
60
330
5A
100
AcDbEntity
  8
_U+30EC_U+30A4_U+30E4_U+30FC 1
 62
     9
420
 13224394
370
     9
100
AcDbVertex
100
AcDb2dVertex
 10
107.6238570897933
 20
-154.9123573763652
 30
0.0
  0
VERTEX
  5
61
330
5A
100
AcDbEntity
  8
_U+30EC_U+30A4_U+30E4_U+30FC 1
 62
     9
420
 13224394
370
     9
100
AcDbVertex
100
AcDb2dVertex
 10
106.5990273103186
 20
-154.9123573763652
 30
0.0
  0
VERTEX
  5
62
330
5A
100
AcDbEntity
  8
_U+30EC_U+30A4_U+30E4_U+30FC 1
 62
     9
420
 13224394
370
     9
100
AcDbVertex
100
AcDb2dVertex
 10
106.5990273103186
 20
-156.9256496460985
 30
0.0
  0
VERTEX
  5
63
330
5A
100
AcDbEntity
  8
_U+30EC_U+30A4_U+30E4_U+30FC 1
 62
     9
420
 13224394
370
     9
100
AcDbVertex
100
AcDb2dVertex
 10
98.43716546882604
 20
-156.9256496460985
 30
0.0
  0
VERTEX
  5
64
330
5A
100
AcDbEntity
  8
_U+30EC_U+30A4_U+30E4_U+30FC 1
 62
     9
420
 13224394
370
     9
100
AcDbVertex
100
AcDb2dVertex
 10
98.43716546882604
 20
-142.2850273624322
 30
0.0
  0
VERTEX
  5
65
330
5A
100
AcDbEntity
  8
_U+30EC_U+30A4_U+30E4_U+30FC 1
 62
     9
420
 13224394
370
     9
100
AcDbVertex
100
AcDb2dVertex
 10
120.6170131805662
 20
-142.2850273624322
 30
0.0
  0
VERTEX
  5
66
330
5A
100
AcDbEntity
  8
_U+30EC_U+30A4_U+30E4_U+30FC 1
 62
     9
420
 13224394
370
     9
100
AcDbVertex
100
AcDb2dVertex
 10
120.6170131805662
 20
-141.2961988307784
 30
0.0
  0
VERTEX
  5
67
330
5A
100
AcDbEntity
  8
_U+30EC_U+30A4_U+30E4_U+30FC 1
 62
     9
420
 13224394
370
     9
100
AcDbVertex
100
AcDb2dVertex
 10
85.51738991188921
 20
-141.3328675658495
 30
0.0
  0
SEQEND
  5
68
330
5A
100
AcDbEntity
  8
_U+30EC_U+30A4_U+30E4_U+30FC 1
 62
     9
420
 13224394
370
     9
  0
POLYLINE
  5
69
330
1F
100
AcDbEntity
  8
_U+30EC_U+30A4_U+30E4_U+30FC 1
 62
   179
420
  2234388
370
    25
100
AcDb2dPolyline
 66
     1
 10
0.0
 20
0.0
 30
0.0
  0
VERTEX
  5
6A
330
69
100
AcDbEntity
  8
_U+30EC_U+30A4_U+30E4_U+30FC 1
 62
   179
420
  2234388
370
    25
100
AcDbVertex
100
AcDb2dVertex
 10
85.52945851201065
 20
-141.3018617064823
 30
0.0
  0
VERTEX
  5
6B
330
69
100
AcDbEntity
  8
_U+30EC_U+30A4_U+30E4_U+30FC 1
 62
   179
420
  2234388
370
    25
100
AcDbVertex
100
AcDb2dVertex
 10
120.529593882628
 20
-141.3018617064823
 30
0.0
  0
SEQEND
  5
6C
330
69
100
AcDbEntity
  8
_U+30EC_U+30A4_U+30E4_U+30FC 1
 62
   179
420
  2234388
370
    25
  0
POLYLINE
  5
6D
330
1F
100
AcDbEntity
  8
_U+30EC_U+30A4_U+30E4_U+30FC 1
 62
   179
420
  2234388
370
    25
100
AcDb2dPolyline
 66
     1
 10
0.0
 20
0.0
 30
0.0
  0
VERTEX
  5
6E
330
6D
100
AcDbEntity
  8
_U+30EC_U+30A4_U+30E4_U+30FC 1
 62
   179
420
  2234388
370
    25
100
AcDbVertex
100
AcDb2dVertex
 10
85.52945851201065
 20
-142.3016284163018
 30
0.0
  0
VERTEX
  5
6F
330
6D
100
AcDbEntity
  8
_U+30EC_U+30A4_U+30E4_U+30FC 1
 62
   179
420
  2234388
370
    25
100
AcDbVertex
100
AcDb2dVertex
 10
97.52954429731358
 20
-142.3016284163018
 30
0.0
  0
SEQEND
  5
70
330
6D
100
AcDbEntity
  8
_U+30EC_U+30A4_U+30E4_U+30FC 1
 62
   179
420
  2234388
370
    25
  0
POLYLINE
  5
71
330
1F
100
AcDbEntity
  8
_U+30EC_U+30A4_U+30E4_U+30FC 1
 62
   179
420
  2234388
370
    25
100
AcDb2dPolyline
 66
     1
 10
0.0
 20
0.0
 30
0.0
  0
VERTEX
  5
72
330
71
100
AcDbEntity
  8
_U+30EC_U+30A4_U+30E4_U+30FC 1
 62
   179
420
  2234388
370
    25
100
AcDbVertex
100
AcDb2dVertex
 10
120.5808827416647
 20
-142.3016284163018
 30
0.0
  0
VERTEX
  5
73
330
71
100
AcDbEntity
  8
_U+30EC_U+30A4_U+30E4_U+30FC 1
 62
   179
420
  2234388
370
    25
100
AcDbVertex
100
AcDb2dVertex
 10
120.5808827416647
 20
-141.3018617064823
 30
0.0
  0
SEQEND
  5
74
330
71
100
AcDbEntity
  8
_U+30EC_U+30A4_U+30E4_U+30FC 1
 62
   179
420
  2234388
370
    25
  0
POLYLINE
  5
75
330
1F
100
AcDbEntity
  8
_U+30EC_U+30A4_U+30E4_U+30FC 1
 62
   179
420
  2234388
370
    25
100
AcDb2dPolyline
 66
     1
 10
0.0
 20
0.0
 30
0.0
  0
VERTEX
  5
76
330
75
100
AcDbEntity
  8
_U+30EC_U+30A4_U+30E4_U+30FC 1
 62
   179
420
  2234388
370
    25
100
AcDbVertex
100
AcDb2dVertex
 10
98.42961855652867
 20
-142.3016284163018
 30
0.0
  0
VERTEX
  5
77
330
75
100
AcDbEntity
  8
_U+30EC_U+30A4_U+30E4_U+30FC 1
 62
   179
420
  2234388
370
    25
100
AcDbVertex
100
AcDb2dVertex
 10
120.5808827416647
 20
-142.3016284163018
 30
0.0
  0
SEQEND
  5
78
330
75
100
AcDbEntity
  8
_U+30EC_U+30A4_U+30E4_U+30FC 1
 62
   179
420
  2234388
370
    25
  0
POLYLINE
  5
79
330
1F
100
AcDbEntity
  8
_U+30EC_U+30A4_U+30E4_U+30FC 1
 62
   179
420
  2234388
370
    25
100
AcDb2dPolyline
 66
     1
 10
0.0
 20
0.0
 30
0.0
  0
VERTEX
  5
7A
330
79
100
AcDbEntity
  8
_U+30EC_U+30A4_U+30E4_U+30FC 1
 62
   179
420
  2234388
370
    25
100
AcDbVertex
100
AcDb2dVertex
 10
85.57009987281353
 20
-142.3016284163018
 30
0.0
  0
VERTEX
  5
7B
330
79
100
AcDbEntity
  8
_U+30EC_U+30A4_U+30E4_U+30FC 1
 62
   179
420
  2234388
370
    25
100
AcDbVertex
100
AcDb2dVertex
 10
85.57009987281353
 20
-141.3018617064823
 30
0.0
  0
SEQEND
  5
7C
330
79
100
AcDbEntity
  8
_U+30EC_U+30A4_U+30E4_U+30FC 1
 62
   179
420
  2234388
370
    25
  0
POLYLINE
  5
7D
330
1F
100
AcDbEntity
  8
_U+30EC_U+30A4_U+30E4_U+30FC 1
 62
   179
420
  2234388
370
    25
100
AcDb2dPolyline
 66
     1
 10
0.0
 20
0.0
 30
0.0
  0
VERTEX
  5
7E
330
7D
100
AcDbEntity
  8
_U+30EC_U+30A4_U+30E4_U+30FC 1
 62
   179
420
  2234388
370
    25
100
AcDbVertex
100
AcDb2dVertex
 10
97.52940434030981
 20
-157.9696212373631
 30
0.0
  0
VERTEX
  5
7F
330
7D
100
AcDbEntity
  8
_U+30EC_U+30A4_U+30E4_U+30FC 1
 62
   179
420
  2234388
370
    25
100
AcDbVertex
100
AcDb2dVertex
 10
97.52940434030981
 20
-142.3017145436889
 30
0.0
  0
SEQEND
  5
80
330
7D
100
AcDbEntity
  8
_U+30EC_U+30A4_U+30E4_U+30FC 1
 62
   179
420
  2234388
370
    25
  0
POLYLINE
  5
81
330
1F
100
AcDbEntity
  8
_U+30EC_U+30A4_U+30E4_U+30FC 1
 62
   179
420
  2234388
370
    25
100
AcDb2dPolyline
 66
     1
 10
0.0
 20
0.0
 30
0.0
  0
VERTEX
  5
82
330
81
100
AcDbEntity
  8
_U+30EC_U+30A4_U+30E4_U+30FC 1
 62
   179
420
  2234388
370
    25
100
AcDbVertex
100
AcDb2dVertex
 10
97.52940434030981
 20
-157.9696212373631
 30
0.0
  0
VERTEX
  5
83
330
81
100
AcDbEntity
  8
_U+30EC_U+30A4_U+30E4_U+30FC 1
 62
   179
420
  2234388
370
    25
100
AcDbVertex
100
AcDb2dVertex
 10
107.5295906645781
 20
-157.9696212373631
 30
0.0
  0
SEQEND
  5
84
330
81
100
AcDbEntity
  8
_U+30EC_U+30A4_U+30E4_U+30FC 1
 62
   179
420
  2234388
370
    25
  0
POLYLINE
  5
85
330
1F
100
AcDbEntity
  8
_U+30EC_U+30A4_U+30E4_U+30FC 1
 62
   179
420
  2234388
370
    25
100
AcDb2dPolyline
 66
     1
 10
0.0
 20
0.0
 30
0.0
  0
VERTEX
  5
86
330
85
100
AcDbEntity
  8
_U+30EC_U+30A4_U+30E4_U+30FC 1
 62
   179
420
  2234388
370
    25
100
AcDbVertex
100
AcDb2dVertex
 10
98.42961855652867
 20
-156.9696392090758
 30
0.0
  0
VERTEX
  5
87
330
85
100
AcDbEntity
  8
_U+30EC_U+30A4_U+30E4_U+30FC 1
 62
   179
420
  2234388
370
    25
100
AcDbVertex
100
AcDb2dVertex
 10
106.6196978832301
 20
-156.9696392090758
 30
0.0
  0
SEQEND
  5
88
330
85
100
AcDbEntity
  8
_U+30EC_U+30A4_U+30E4_U+30FC 1
 62
   179
420
  2234388
370
    25
  0
POLYLINE
  5
89
330
1F
100
AcDbEntity
  8
_U+30EC_U+30A4_U+30E4_U+30FC 1
 62
   179
420
  2234388
370
    25
100
AcDb2dPolyline
 66
     1
 10
0.0
 20
0.0
 30
0.0
  0
VERTEX
  5
8A
330
89
100
AcDbEntity
  8
_U+30EC_U+30A4_U+30E4_U+30FC 1
 62
   179
420
  2234388
370
    25
100
AcDbVertex
100
AcDb2dVertex
 10
106.5948501320427
 20
-154.9694598340332
 30
0.0
  0
VERTEX
  5
8B
330
89
100
AcDbEntity
  8
_U+30EC_U+30A4_U+30E4_U+30FC 1
 62
   179
420
  2234388
370
    25
100
AcDbVertex
100
AcDb2dVertex
 10
107.595327392806
 20
-154.9694598340332
 30
0.0
  0
SEQEND
  5
8C
330
89
100
AcDbEntity
  8
_U+30EC_U+30A4_U+30E4_U+30FC 1
 62
   179
420
  2234388
370
    25
  0
POLYLINE
  5
8D
330
1F
100
AcDbEntity
  8
_U+30EC_U+30A4_U+30E4_U+30FC 1
 62
   179
420
  2234388
370
    25
100
AcDb2dPolyline
 66
     1
 10
0.0
 20
0.0
 30
0.0
  0
VERTEX
  5
8E
330
8D
100
AcDbEntity
  8
_U+30EC_U+30A4_U+30E4_U+30FC 1
 62
   179
420
  2234388
370
    25
100
AcDbVertex
100
AcDb2dVertex
 10
107.5952843291125
 20
-157.9696212373631
 30
0.0
  0
VERTEX
  5
8F
330
8D
100
AcDbEntity
  8
_U+30EC_U+30A4_U+30E4_U+30FC 1
 62
   179
420
  2234388
370
    25
100
AcDbVertex
100
AcDb2dVertex
 10
107.5952843291125
 20
-154.9696105569607
 30
0.0
  0
SEQEND
  5
90
330
8D
100
AcDbEntity
  8
_U+30EC_U+30A4_U+30E4_U+30FC 1
 62
   179
420
  2234388
370
    25
  0
POLYLINE
  5
91
330
1F
100
AcDbEntity
  8
_U+30EC_U+30A4_U+30E4_U+30FC 1
 62
   179
420
  2234388
370
    25
100
AcDb2dPolyline
 66
     1
 10
0.0
 20
0.0
 30
0.0
  0
VERTEX
  5
92
330
91
100
AcDbEntity
  8
_U+30EC_U+30A4_U+30E4_U+30FC 1
 62
   179
420
  2234388
370
    25
100
AcDbVertex
100
AcDb2dVertex
 10
106.5948501320427
 20
-156.9696392090758
 30
0.0
  0
VERTEX
  5
93
330
91
100
AcDbEntity
  8
_U+30EC_U+30A4_U+30E4_U+30FC 1
 62
   179
420
  2234388
370
    25
100
AcDbVertex
100
AcDb2dVertex
 10
106.5948501320427
 20
-154.9693952384929
 30
0.0
  0
SEQEND
  5
94
330
91
100
AcDbEntity
  8
_U+30EC_U+30A4_U+30E4_U+30FC 1
 62
   179
420
  2234388
370
    25
  0
POLYLINE
  5
95
330
1F
100
AcDbEntity
  8
_U+30EC_U+30A4_U+30E4_U+30FC 1
 62
   179
420
  2234388
370
    25
100
AcDb2dPolyline
 66
     1
 10
0.0
 20
0.0
 30
0.0
  0
VERTEX
  5
96
330
95
100
AcDbEntity
  8
_U+30EC_U+30A4_U+30E4_U+30FC 1
 62
   179
420
  2234388
370
    25
100
AcDbVertex
100
AcDb2dVertex
 10
98.42961855652867
 20
-148.178659868283
 30
0.0
  0
VERTEX
  5
97
330
95
100
AcDbEntity
  8
_U+30EC_U+30A4_U+30E4_U+30FC 1
 62
   179
420
  2234388
370
    25
100
AcDbVertex
100
AcDb2dVertex
 10
98.42961855652867
 20
-142.3017360755357
 30
0.0
  0
SEQEND
  5
98
330
95
100
AcDbEntity
  8
_U+30EC_U+30A4_U+30E4_U+30FC 1
 62
   179
420
  2234388
370
    25
  0
SPLINE
  5
99
330
1F
100
AcDbEntity
  8
_U+30EC_U+30A4_U+30E4_U+30FC 1
 62
   179
420
  2234388
370
     9
100
AcDbSpline
210
0.0
220
0.0
230
1.0
 70
    11
 71
     3
 72
    17
 73
    13
 74
     0
 42
0.0000000001
 43
0.0000000001
 12
1.0
 22
0.0
 32
0.0
 13
1.0
 23
0.0
 33
0.0
 40
0.0
 40
0.0
 40
0.0
 40
0.0
 40
1.0
 40
1.0
 40
1.0
 40
2.0
 40
2.0
 40
2.0
 40
3.0
 40
3.0
 40
3.0
 40
4.0
 40
4.0
 40
4.0
 40
4.0
 10
85.597682168542
 20
-137.3013952971637
 30
0.0
 10
85.597682168542
 20
-137.2463814286333
 30
0.0
 10
85.55287439538728
 20
-137.2015736554786
 30
0.0
 10
85.49783899501041
 20
-137.2015736554786
 30
0.0
 10
85.44280359463355
 20
-137.2015736554786
 30
0.0
 10
85.39800658740158
 20
-137.2463814286333
 30
0.0
 10
85.39800658740158
 20
-137.3013952971637
 30
0.0
 10
85.39800658740158
 20
-137.3571412484841
 30
0.0
 10
85.44280359463355
 20
-137.4019490216391
 30
0.0
 10
85.49783899501041
 20
-137.4019490216391
 30
0.0
 10
85.55287439538728
 20
-137.4019490216391
 30
0.0
 10
85.597682168542
 20
-137.3571412484841
 30
0.0
 10
85.597682168542
 20
-137.3013952971637
 30
0.0
  0
SPLINE
  5
9A
330
1F
100
AcDbEntity
  8
_U+30EC_U+30A4_U+30E4_U+30FC 1
 62
   179
420
  2234388
370
     9
100
AcDbSpline
210
0.0
220
0.0
230
1.0
 70
    11
 71
     3
 72
    17
 73
    13
 74
     0
 42
0.0000000001
 43
0.0000000001
 12
1.0
 22
0.0
 32
0.0
 13
1.0
 23
0.0
 33
0.0
 40
0.0
 40
0.0
 40
0.0
 40
0.0
 40
1.0
 40
1.0
 40
1.0
 40
2.0
 40
2.0
 40
2.0
 40
3.0
 40
3.0
 40
3.0
 40
4.0
 40
4.0
 40
4.0
 40
4.0
 10
120.4978559404702
 20
-137.3013952971637
 30
0.0
 10
120.4978559404702
 20
-137.2463814286333
 30
0.0
 10
120.4530481673151
 20
-137.2015736554786
 30
0.0
 10
120.3980127669383
 20
-137.2015736554786
 30
0.0
 10
120.3429773665614
 20
-137.2015736554786
 30
0.0
 10
120.2981695934064
 20
-137.2463814286333
 30
0.0
 10
120.2981695934064
 20
-137.3013952971637
 30
0.0
 10
120.2981695934064
 20
-137.3571412484841
 30
0.0
 10
120.3429773665614
 20
-137.4019490216391
 30
0.0
 10
120.3980127669383
 20
-137.4019490216391
 30
0.0
 10
120.4530481673151
 20
-137.4019490216391
 30
0.0
 10
120.4978559404702
 20
-137.3571412484841
 30
0.0
 10
120.4978559404702
 20
-137.3013952971637
 30
0.0
  0
SPLINE
  5
9B
330
1F
100
AcDbEntity
  8
_U+30EC_U+30A4_U+30E4_U+30FC 1
 62
   179
420
  2234388
370
     9
100
AcDbSpline
210
0.0
220
0.0
230
1.0
 70
    11
 71
     3
 72
    17
 73
    13
 74
     0
 42
0.0000000001
 43
0.0000000001
 12
1.0
 22
0.0
 32
0.0
 13
1.0
 23
0.0
 33
0.0
 40
0.0
 40
0.0
 40
0.0
 40
0.0
 40
1.0
 40
1.0
 40
1.0
 40
2.0
 40
2.0
 40
2.0
 40
3.0
 40
3.0
 40
3.0
 40
4.0
 40
4.0
 40
4.0
 40
4.0
 10
124.6977718465382
 20
-141.3018617064823
 30
0.0
 10
124.6977718465382
 20
-141.2468478379522
 30
0.0
 10
124.6529640733832
 20
-141.2020400647972
 30
0.0
 10
124.5979286730063
 20
-141.2020400647972
 30
0.0
 10
124.5428932726295
 20
-141.2020400647972
 30
0.0
 10
124.4980854994744
 20
-141.2468478379522
 30
0.0
 10
124.4980854994744
 20
-141.3018617064823
 30
0.0
 10
124.4980854994744
 20
-141.3568971068591
 30
0.0
 10
124.5428932726295
 20
-141.4017048800142
 30
0.0
 10
124.5979286730063
 20
-141.4017048800142
 30
0.0
 10
124.6529640733832
 20
-141.4017048800142
 30
0.0
 10
124.6977718465382
 20
-141.3568971068591
 30
0.0
 10
124.6977718465382
 20
-141.3018617064823
 30
0.0
  0
SPLINE
  5
9C
330
1F
100
AcDbEntity
  8
_U+30EC_U+30A4_U+30E4_U+30FC 1
 62
   179
420
  2234388
370
     9
100
AcDbSpline
210
0.0
220
0.0
230
1.0
 70
    11
 71
     3
 72
    17
 73
    13
 74
     0
 42
0.0000000001
 43
0.0000000001
 12
1.0
 22
0.0
 32
0.0
 13
1.0
 23
0.0
 33
0.0
 40
0.0
 40
0.0
 40
0.0
 40
0.0
 40
1.0
 40
1.0
 40
1.0
 40
2.0
 40
2.0
 40
2.0
 40
3.0
 40
3.0
 40
3.0
 40
4.0
 40
4.0
 40
4.0
 40
4.0
 10
124.6977718465382
 20
-142.3016284163018
 30
0.0
 10
124.6977718465382
 20
-142.2466145477717
 30
0.0
 10
124.6529640733832
 20
-142.2018067746166
 30
0.0
 10
124.5979286730063
 20
-142.2018067746166
 30
0.0
 10
124.5428932726295
 20
-142.2018067746166
 30
0.0
 10
124.4980854994744
 20
-142.2466145477717
 30
0.0
 10
124.4980854994744
 20
-142.3016284163018
 30
0.0
 10
124.4980854994744
 20
-142.3566638166786
 30
0.0
 10
124.5428932726295
 20
-142.4014715898337
 30
0.0
 10
124.5979286730063
 20
-142.4014715898337
 30
0.0
 10
124.6529640733832
 20
-142.4014715898337
 30
0.0
 10
124.6977718465382
 20
-142.3566638166786
 30
0.0
 10
124.6977718465382
 20
-142.3016284163018
 30
0.0
  0
SPLINE
  5
9D
330
1F
100
AcDbEntity
  8
_U+30EC_U+30A4_U+30E4_U+30FC 1
 62
   179
420
  2234388
370
     9
100
AcDbSpline
210
0.0
220
0.0
230
1.0
 70
    11
 71
     3
 72
    17
 73
    13
 74
     0
 42
0.0000000001
 43
0.0000000001
 12
1.0
 22
0.0
 32
0.0
 13
1.0
 23
0.0
 33
0.0
 40
0.0
 40
0.0
 40
0.0
 40
0.0
 40
1.0
 40
1.0
 40
1.0
 40
2.0
 40
2.0
 40
2.0
 40
3.0
 40
3.0
 40
3.0
 40
4.0
 40
4.0
 40
4.0
 40
4.0
 10
97.62966738485366
 20
-162.195332295877
 30
0.0
 10
97.62966738485366
 20
-162.1403184273469
 30
0.0
 10
97.58485961169862
 20
-162.0955106541919
 30
0.0
 10
97.52946893584985
 20
-162.0955106541919
 30
0.0
 10
97.47444430139636
 20
-162.0955106541919
 30
0.0
 10
97.42963652824133
 20
-162.1403184273469
 30
0.0
 10
97.42963652824133
 20
-162.195332295877
 30
0.0
 10
97.42963652824133
 20
-162.2503676962538
 30
0.0
 10
97.47444430139636
 20
-162.2951754694089
 30
0.0
 10
97.52946893584985
 20
-162.2951754694089
 30
0.0
 10
97.58485961169862
 20
-162.2951754694089
 30
0.0
 10
97.62966738485366
 20
-162.2503676962538
 30
0.0
 10
97.62966738485366
 20
-162.195332295877
 30
0.0
  0
SPLINE
  5
9E
330
1F
100
AcDbEntity
  8
_U+30EC_U+30A4_U+30E4_U+30FC 1
 62
   179
420
  2234388
370
     9
100
AcDbSpline
210
0.0
220
0.0
230
1.0
 70
    11
 71
     3
 72
    17
 73
    13
 74
     0
 42
0.0000000001
 43
0.0000000001
 12
1.0
 22
0.0
 32
0.0
 13
1.0
 23
0.0
 33
0.0
 40
0.0
 40
0.0
 40
0.0
 40
0.0
 40
1.0
 40
1.0
 40
1.0
 40
2.0
 40
2.0
 40
2.0
 40
3.0
 40
3.0
 40
3.0
 40
4.0
 40
4.0
 40
4.0
 40
4.0
 10
107.7806304662189
 20
-162.195332295877
 30
0.0
 10
107.7806304662189
 20
-162.1403184273469
 30
0.0
 10
107.7358226930639
 20
-162.0955106541919
 30
0.0
 10
107.680787292687
 20
-162.0955106541919
 30
0.0
 10
107.6257518923101
 20
-162.0955106541919
 30
0.0
 10
107.5809441191551
 20
-162.1403184273469
 30
0.0
 10
107.5809441191551
 20
-162.195332295877
 30
0.0
 10
107.5809441191551
 20
-162.2503676962538
 30
0.0
 10
107.6257518923101
 20
-162.2951754694089
 30
0.0
 10
107.680787292687
 20
-162.2951754694089
 30
0.0
 10
107.7358226930639
 20
-162.2951754694089
 30
0.0
 10
107.7806304662189
 20
-162.2503676962538
 30
0.0
 10
107.7806304662189
 20
-162.195332295877
 30
0.0
  0
SPLINE
  5
9F
330
1F
100
AcDbEntity
  8
_U+30EC_U+30A4_U+30E4_U+30FC 1
 62
   179
420
  2234388
370
     9
100
AcDbSpline
210
0.0
220
0.0
230
1.0
 70
    11
 71
     3
 72
    17
 73
    13
 74
     0
 42
0.0000000001
 43
0.0000000001
 12
1.0
 22
0.0
 32
0.0
 13
1.0
 23
0.0
 33
0.0
 40
0.0
 40
0.0
 40
0.0
 40
0.0
 40
1.0
 40
1.0
 40
1.0
 40
2.0
 40
2.0
 40
2.0
 40
3.0
 40
3.0
 40
3.0
 40
4.0
 40
4.0
 40
4.0
 40
4.0
 10
85.74270992254762
 20
-162.195332295877
 30
0.0
 10
85.74270992254762
 20
-162.1403184273469
 30
0.0
 10
85.69790214939259
 20
-162.0955106541919
 30
0.0
 10
85.64286674901572
 20
-162.0955106541919
 30
0.0
 10
85.58748683909033
 20
-162.0955106541919
 30
0.0
 10
85.5426790659353
 20
-162.1403184273469
 30
0.0
 10
85.5426790659353
 20
-162.195332295877
 30
0.0
 10
85.5426790659353
 20
-162.2503676962538
 30
0.0
 10
85.58748683909033
 20
-162.2951754694089
 30
0.0
 10
85.64286674901572
 20
-162.2951754694089
 30
0.0
 10
85.69790214939259
 20
-162.2951754694089
 30
0.0
 10
85.74270992254762
 20
-162.2503676962538
 30
0.0
 10
85.74270992254762
 20
-162.195332295877
 30
0.0
  0
POLYLINE
  5
A0
330
1F
100
AcDbEntity
  8
_U+30EC_U+30A4_U+30E4_U+30FC 1
 62
   179
420
  2234388
370
     9
100
AcDb2dPolyline
 66
     1
 10
0.0
 20
0.0
 30
0.0
  0
VERTEX
  5
A1
330
A0
100
AcDbEntity
  8
_U+30EC_U+30A4_U+30E4_U+30FC 1
 62
   179
420
  2234388
370
     9
100
AcDbVertex
100
AcDb2dVertex
 10
97.52940434030981
 20
-162.195332295877
 30
0.0
  0
VERTEX
  5
A2
330
A0
100
AcDbEntity
  8
_U+30EC_U+30A4_U+30E4_U+30FC 1
 62
   179
420
  2234388
370
     9
100
AcDbVertex
100
AcDb2dVertex
 10
107.5295906645781
 20
-162.195332295877
 30
0.0
  0
SEQEND
  5
A3
330
A0
100
AcDbEntity
  8
_U+30EC_U+30A4_U+30E4_U+30FC 1
 62
   179
420
  2234388
370
     9
  0
POLYLINE
  5
A4
330
1F
100
AcDbEntity
  8
_U+30EC_U+30A4_U+30E4_U+30FC 1
 62
   179
420
  2234388
370
     9
100
AcDb2dPolyline
 66
     1
 10
0.0
 20
0.0
 30
0.0
  0
VERTEX
  5
A5
330
A4
100
AcDbEntity
  8
_U+30EC_U+30A4_U+30E4_U+30FC 1
 62
   179
420
  2234388
370
     9
100
AcDbVertex
100
AcDb2dVertex
 10
107.6807226971467
 20
-160.7353438929216
 30
0.0
  0
VERTEX
  5
A6
330
A4
100
AcDbEntity
  8
_U+30EC_U+30A4_U+30E4_U+30FC 1
 62
   179
420
  2234388
370
     9
100
AcDbVertex
100
AcDb2dVertex
 10
107.6807226971467
 20
-163.1952712604707
 30
0.0
  0
SEQEND
  5
A7
330
A4
100
AcDbEntity
  8
_U+30EC_U+30A4_U+30E4_U+30FC 1
 62
   179
420
  2234388
370
     9
  0
INSERT
  5
A9
330
1F
100
AcDbEntity
  8
_U+30EC_U+30A4_U+30E4_U+30FC 1
100
AcDbBlockReference
  2
block 2
 10
0.0
 20
0.0
 30
0.0
  0
POLYLINE
  5
B1
330
1F
100
AcDbEntity
  8
_U+30EC_U+30A4_U+30E4_U+30FC 1
 62
   179
420
  2234388
370
     9
100
AcDb2dPolyline
 66
     1
 10
0.0
 20
0.0
 30
0.0
  0
VERTEX
  5
B2
330
B1
100
AcDbEntity
  8
_U+30EC_U+30A4_U+30E4_U+30FC 1
 62
   179
420
  2234388
370
     9
100
AcDbVertex
100
AcDb2dVertex
 10
124.597864077466
 20
-141.3018617064823
 30
0.0
  0
VERTEX
  5
B3
330
B1
100
AcDbEntity
  8
_U+30EC_U+30A4_U+30E4_U+30FC 1
 62
   179
420
  2234388
370
     9
100
AcDbVertex
100
AcDb2dVertex
 10
124.597864077466
 20
-137.5313769526506
 30
0.0
  0
SEQEND
  5
B4
330
B1
100
AcDbEntity
  8
_U+30EC_U+30A4_U+30E4_U+30FC 1
 62
   179
420
  2234388
370
     9
  0
POLYLINE
  5
B5
330
1F
100
AcDbEntity
  8
_U+30EC_U+30A4_U+30E4_U+30FC 1
 62
   179
420
  2234388
370
     9
100
AcDb2dPolyline
 66
     1
 10
0.0
 20
0.0
 30
0.0
  0
VERTEX
  5
B6
330
B5
100
AcDbEntity
  8
_U+30EC_U+30A4_U+30E4_U+30FC 1
 62
   179
420
  2234388
370
     9
100
AcDbVertex
100
AcDb2dVertex
 10
124.597864077466
 20
-141.3018617064823
 30
0.0
  0
VERTEX
  5
B7
330
B5
100
AcDbEntity
  8
_U+30EC_U+30A4_U+30E4_U+30FC 1
 62
   179
420
  2234388
370
     9
100
AcDbVertex
100
AcDb2dVertex
 10
124.597864077466
 20
-142.3016499481486
 30
0.0
  0
SEQEND
  5
B8
330
B5
100
AcDbEntity
  8
_U+30EC_U+30A4_U+30E4_U+30FC 1
 62
   179
420
  2234388
370
     9
  0
POLYLINE
  5
B9
330
1F
100
AcDbEntity
  8
_U+30EC_U+30A4_U+30E4_U+30FC 1
 62
   179
420
  2234388
370
     9
100
AcDb2dPolyline
 66
     1
 10
0.0
 20
0.0
 30
0.0
  0
VERTEX
  5
BA
330
B9
100
AcDbEntity
  8
_U+30EC_U+30A4_U+30E4_U+30FC 1
 62
   179
420
  2234388
370
     9
100
AcDbVertex
100
AcDb2dVertex
 10
123.1378326108171
 20
-141.3018617064823
 30
0.0
  0
VERTEX
  5
BB
330
B9
100
AcDbEntity
  8
_U+30EC_U+30A4_U+30E4_U+30FC 1
 62
   179
420
  2234388
370
     9
100
AcDbVertex
100
AcDb2dVertex
 10
125.5977384465194
 20
-141.3018617064823
 30
0.0
  0
SEQEND
  5
BC
330
B9
100
AcDbEntity
  8
_U+30EC_U+30A4_U+30E4_U+30FC 1
 62
   179
420
  2234388
370
     9
  0
POLYLINE
  5
BD
330
1F
100
AcDbEntity
  8
_U+30EC_U+30A4_U+30E4_U+30FC 1
 62
   179
420
  2234388
370
     9
100
AcDb2dPolyline
 66
     1
 10
0.0
 20
0.0
 30
0.0
  0
VERTEX
  5
BE
330
BD
100
AcDbEntity
  8
_U+30EC_U+30A4_U+30E4_U+30FC 1
 62
   179
420
  2234388
370
     9
100
AcDbVertex
100
AcDb2dVertex
 10
123.1378326108171
 20
-142.3016284163018
 30
0.0
  0
VERTEX
  5
BF
330
BD
100
AcDbEntity
  8
_U+30EC_U+30A4_U+30E4_U+30FC 1
 62
   179
420
  2234388
370
     9
100
AcDbVertex
100
AcDb2dVertex
 10
125.5977384465194
 20
-142.3016284163018
 30
0.0
  0
SEQEND
  5
C0
330
BD
100
AcDbEntity
  8
_U+30EC_U+30A4_U+30E4_U+30FC 1
 62
   179
420
  2234388
370
     9
  0
INSERT
  5
C2
330
1F
100
AcDbEntity
  8
_U+30EC_U+30A4_U+30E4_U+30FC 1
100
AcDbBlockReference
  2
block 3
 10
0.0
 20
0.0
 30
0.0
  0
POLYLINE
  5
C7
330
1F
100
AcDbEntity
  8
_U+30EC_U+30A4_U+30E4_U+30FC 1
 62
   179
420
  2234388
370
     9
100
AcDb2dPolyline
 66
     1
 10
0.0
 20
0.0
 30
0.0
  0
VERTEX
  5
C8
330
C7
100
AcDbEntity
  8
_U+30EC_U+30A4_U+30E4_U+30FC 1
 62
   179
420
  2234388
370
     9
100
AcDbVertex
100
AcDb2dVertex
 10
85.49777439946975
 20
-137.3013952971637
 30
0.0
  0
VERTEX
  5
C9
330
C7
100
AcDbEntity
  8
_U+30EC_U+30A4_U+30E4_U+30FC 1
 62
   179
420
  2234388
370
     9
100
AcDbVertex
100
AcDb2dVertex
 10
120.4978990041637
 20
-137.3013952971637
 30
0.0
  0
SEQEND
  5
CA
330
C7
100
AcDbEntity
  8
_U+30EC_U+30A4_U+30E4_U+30FC 1
 62
   179
420
  2234388
370
     9
  0
POLYLINE
  5
CB
330
1F
100
AcDbEntity
  8
_U+30EC_U+30A4_U+30E4_U+30FC 1
 62
   179
420
  2234388
370
     9
100
AcDb2dPolyline
 66
     1
 10
0.0
 20
0.0
 30
0.0
  0
VERTEX
  5
CC
330
CB
100
AcDbEntity
  8
_U+30EC_U+30A4_U+30E4_U+30FC 1
 62
   179
420
  2234388
370
     9
100
AcDbVertex
100
AcDb2dVertex
 10
85.49777439946975
 20
-138.7614698275058
 30
0.0
  0
VERTEX
  5
CD
330
CB
100
AcDbEntity
  8
_U+30EC_U+30A4_U+30E4_U+30FC 1
 62
   179
420
  2234388
370
     9
100
AcDbVertex
100
AcDb2dVertex
 10
85.49777439946975
 20
-136.3015639918035
 30
0.0
  0
SEQEND
  5
CE
330
CB
100
AcDbEntity
  8
_U+30EC_U+30A4_U+30E4_U+30FC 1
 62
   179
420
  2234388
370
     9
  0
POLYLINE
  5
CF
330
1F
100
AcDbEntity
  8
_U+30EC_U+30A4_U+30E4_U+30FC 1
 62
   179
420
  2234388
370
     9
100
AcDb2dPolyline
 66
     1
 10
0.0
 20
0.0
 30
0.0
  0
VERTEX
  5
D0
330
CF
100
AcDbEntity
  8
_U+30EC_U+30A4_U+30E4_U+30FC 1
 62
   179
420
  2234388
370
     9
100
AcDbVertex
100
AcDb2dVertex
 10
120.3979481713979
 20
-138.7614698275058
 30
0.0
  0
VERTEX
  5
D1
330
CF
100
AcDbEntity
  8
_U+30EC_U+30A4_U+30E4_U+30FC 1
 62
   179
420
  2234388
370
     9
100
AcDbVertex
100
AcDb2dVertex
 10
120.3979481713979
 20
-136.3015639918035
 30
0.0
  0
SEQEND
  5
D2
330
CF
100
AcDbEntity
  8
_U+30EC_U+30A4_U+30E4_U+30FC 1
 62
   179
420
  2234388
370
     9
  0
INSERT
  5
D4
330
1F
100
AcDbEntity
  8
_U+30EC_U+30A4_U+30E4_U+30FC 1
100
AcDbBlockReference
  2
block 4
 10
0.0
 20
0.0
 30
0.0
  0
POLYLINE
  5
DB
330
1F
100
AcDbEntity
  8
_U+30EC_U+30A4_U+30E4_U+30FC 1
 62
   179
420
  2234388
370
     9
100
AcDb2dPolyline
 66
     1
 10
0.0
 20
0.0
 30
0.0
  0
VERTEX
  5
DC
330
DB
100
AcDbEntity
  8
_U+30EC_U+30A4_U+30E4_U+30FC 1
 62
   179
420
  2234388
370
     9
100
AcDbVertex
100
AcDb2dVertex
 10
85.52945851201065
 20
-162.195332295877
 30
0.0
  0
VERTEX
  5
DD
330
DB
100
AcDbEntity
  8
_U+30EC_U+30A4_U+30E4_U+30FC 1
 62
   179
420
  2234388
370
     9
100
AcDbVertex
100
AcDb2dVertex
 10
97.52954429731358
 20
-162.195332295877
 30
0.0
  0
SEQEND
  5
DE
330
DB
100
AcDbEntity
  8
_U+30EC_U+30A4_U+30E4_U+30FC 1
 62
   179
420
  2234388
370
     9
  0
POLYLINE
  5
DF
330
1F
100
AcDbEntity
  8
_U+30EC_U+30A4_U+30E4_U+30FC 1
 62
   179
420
  2234388
370
     9
100
AcDb2dPolyline
 66
     1
 10
0.0
 20
0.0
 30
0.0
  0
VERTEX
  5
E0
330
DF
100
AcDbEntity
  8
_U+30EC_U+30A4_U+30E4_U+30FC 1
 62
   179
420
  2234388
370
     9
100
AcDbVertex
100
AcDb2dVertex
 10
85.64280215347537
 20
-144.8420202952785
 30
0.0
  0
VERTEX
  5
E1
330
DF
100
AcDbEntity
  8
_U+30EC_U+30A4_U+30E4_U+30FC 1
 62
   179
420
  2234388
370
     9
100
AcDbVertex
100
AcDb2dVertex
 10
85.64280215347537
 20
-163.194948282769
 30
0.0
  0
SEQEND
  5
E2
330
DF
100
AcDbEntity
  8
_U+30EC_U+30A4_U+30E4_U+30FC 1
 62
   179
420
  2234388
370
     9
  0
POLYLINE
  5
E3
330
1F
100
AcDbEntity
  8
_U+30EC_U+30A4_U+30E4_U+30FC 1
 62
   179
420
  2234388
370
     9
100
AcDb2dPolyline
 66
     1
 10
0.0
 20
0.0
 30
0.0
  0
VERTEX
  5
E4
330
E3
100
AcDbEntity
  8
_U+30EC_U+30A4_U+30E4_U+30FC 1
 62
   179
420
  2234388
370
     9
100
AcDbVertex
100
AcDb2dVertex
 10
97.52940434030981
 20
-160.7353438929216
 30
0.0
  0
VERTEX
  5
E5
330
E3
100
AcDbEntity
  8
_U+30EC_U+30A4_U+30E4_U+30FC 1
 62
   179
420
  2234388
370
     9
100
AcDbVertex
100
AcDb2dVertex
 10
97.52940434030981
 20
-163.1952712604707
 30
0.0
  0
SEQEND
  5
E6
330
E3
100
AcDbEntity
  8
_U+30EC_U+30A4_U+30E4_U+30FC 1
 62
   179
420
  2234388
370
     9
  0
INSERT
  5
E8
330
1F
100
AcDbEntity
  8
_U+30EC_U+30A4_U+30E4_U+30FC 1
100
AcDbBlockReference
  2
block 5
 10
0.0
 20
0.0
 30
0.0
  0
POLYLINE
  5
EF
330
1F
100
AcDbEntity
  8
_U+30EC_U+30A4_U+30E4_U+30FC 1
 62
   179
420
  2234388
370
     9
100
AcDb2dPolyline
 66
     1
 10
0.0
 20
0.0
 30
0.0
  0
VERTEX
  5
F0
330
EF
100
AcDbEntity
  8
_U+30EC_U+30A4_U+30E4_U+30FC 1
 62
   179
420
  2234388
370
     9
100
AcDbVertex
100
AcDb2dVertex
 10
124.597864077466
 20
-154.801339174353
 30
0.0
  0
VERTEX
  5
F1
330
EF
100
AcDbEntity
  8
_U+30EC_U+30A4_U+30E4_U+30FC 1
 62
   179
420
  2234388
370
     9
100
AcDbVertex
100
AcDb2dVertex
 10
124.597864077466
 20
-142.3017360755357
 30
0.0
  0
SEQEND
  5
F2
330
EF
100
AcDbEntity
  8
_U+30EC_U+30A4_U+30E4_U+30FC 1
 62
   179
420
  2234388
370
     9
  0
SPLINE
  5
F3
330
1F
100
AcDbEntity
  8
_U+30EC_U+30A4_U+30E4_U+30FC 1
 62
   179
420
  2234388
370
     9
100
AcDbSpline
210
0.0
220
0.0
230
1.0
 70
    11
 71
     3
 72
    17
 73
    13
 74
     0
 42
0.0000000001
 43
0.0000000001
 12
1.0
 22
0.0
 32
0.0
 13
1.0
 23
0.0
 33
0.0
 40
0.0
 40
0.0
 40
0.0
 40
0.0
 40
1.0
 40
1.0
 40
1.0
 40
2.0
 40
2.0
 40
2.0
 40
3.0
 40
3.0
 40
3.0
 40
4.0
 40
4.0
 40
4.0
 40
4.0
 10
124.6977718465382
 20
-154.8412592182884
 30
0.0
 10
124.6977718465382
 20
-154.7855347988145
 30
0.0
 10
124.6529640733832
 20
-154.7407270256595
 30
0.0
 10
124.5979286730063
 20
-154.7407270256595
 30
0.0
 10
124.5428932726295
 20
-154.7407270256595
 30
0.0
 10
124.4980854994744
 20
-154.7855347988145
 30
0.0
 10
124.4980854994744
 20
-154.8412592182884
 30
0.0
 10
124.4980854994744
 20
-154.8962946186653
 30
0.0
 10
124.5428932726295
 20
-154.9411023918203
 30
0.0
 10
124.5979286730063
 20
-154.9411023918203
 30
0.0
 10
124.6529640733832
 20
-154.9411023918203
 30
0.0
 10
124.6977718465382
 20
-154.8962946186653
 30
0.0
 10
124.6977718465382
 20
-154.8412592182884
 30
0.0
  0
SPLINE
  5
F4
330
1F
100
AcDbEntity
  8
_U+30EC_U+30A4_U+30E4_U+30FC 1
 62
   179
420
  2234388
370
     9
100
AcDbSpline
210
0.0
220
0.0
230
1.0
 70
    11
 71
     3
 72
    17
 73
    13
 74
     0
 42
0.0000000001
 43
0.0000000001
 12
1.0
 22
0.0
 32
0.0
 13
1.0
 23
0.0
 33
0.0
 40
0.0
 40
0.0
 40
0.0
 40
0.0
 40
1.0
 40
1.0
 40
1.0
 40
2.0
 40
2.0
 40
2.0
 40
3.0
 40
3.0
 40
3.0
 40
4.0
 40
4.0
 40
4.0
 40
4.0
 10
124.6977718465382
 20
-157.841248366844
 30
0.0
 10
124.6977718465382
 20
-157.78552394737
 30
0.0
 10
124.6529640733832
 20
-157.740716174215
 30
0.0
 10
124.5979286730063
 20
-157.740716174215
 30
0.0
 10
124.5428932726295
 20
-157.740716174215
 30
0.0
 10
124.4980854994744
 20
-157.78552394737
 30
0.0
 10
124.4980854994744
 20
-157.841248366844
 30
0.0
 10
124.4980854994744
 20
-157.8962837672208
 30
0.0
 10
124.5428932726295
 20
-157.9414575817711
 30
0.0
 10
124.5979286730063
 20
-157.9414575817711
 30
0.0
 10
124.6529640733832
 20
-157.9414575817711
 30
0.0
 10
124.6977718465382
 20
-157.8962837672208
 30
0.0
 10
124.6977718465382
 20
-157.841248366844
 30
0.0
  0
POLYLINE
  5
F5
330
1F
100
AcDbEntity
  8
_U+30EC_U+30A4_U+30E4_U+30FC 1
 62
   179
420
  2234388
370
     9
100
AcDb2dPolyline
 66
     1
 10
0.0
 20
0.0
 30
0.0
  0
VERTEX
  5
F6
330
F5
100
AcDbEntity
  8
_U+30EC_U+30A4_U+30E4_U+30FC 1
 62
   179
420
  2234388
370
     9
100
AcDbVertex
100
AcDb2dVertex
 10
124.597864077466
 20
-157.841248366844
 30
0.0
  0
VERTEX
  5
F7
330
F5
100
AcDbEntity
  8
_U+30EC_U+30A4_U+30E4_U+30FC 1
 62
   179
420
  2234388
370
     9
100
AcDbVertex
100
AcDb2dVertex
 10
124.597864077466
 20
-154.8412376864416
 30
0.0
  0
SEQEND
  5
F8
330
F5
100
AcDbEntity
  8
_U+30EC_U+30A4_U+30E4_U+30FC 1
 62
   179
420
  2234388
370
     9
  0
POLYLINE
  5
F9
330
1F
100
AcDbEntity
  8
_U+30EC_U+30A4_U+30E4_U+30FC 1
 62
   179
420
  2234388
370
     9
100
AcDb2dPolyline
 66
     1
 10
0.0
 20
0.0
 30
0.0
  0
VERTEX
  5
FA
330
F9
100
AcDbEntity
  8
_U+30EC_U+30A4_U+30E4_U+30FC 1
 62
   179
420
  2234388
370
     9
100
AcDbVertex
100
AcDb2dVertex
 10
110.1591243892354
 20
-157.841248366844
 30
0.0
  0
VERTEX
  5
FB
330
F9
100
AcDbEntity
  8
_U+30EC_U+30A4_U+30E4_U+30FC 1
 62
   179
420
  2234388
370
     9
100
AcDbVertex
100
AcDb2dVertex
 10
125.5977384465194
 20
-157.841248366844
 30
0.0
  0
SEQEND
  5
FC
330
F9
100
AcDbEntity
  8
_U+30EC_U+30A4_U+30E4_U+30FC 1
 62
   179
420
  2234388
370
     9
  0
INSERT
  5
FE
330
1F
100
AcDbEntity
  8
_U+30EC_U+30A4_U+30E4_U+30FC 1
100
AcDbBlockReference
  2
block 6
 10
0.0
 20
0.0
 30
0.0
  0
POLYLINE
  5
103
330
1F
100
AcDbEntity
  8
_U+30EC_U+30A4_U+30E4_U+30FC 1
 62
   179
420
  2234388
370
     9
100
AcDb2dPolyline
 66
     1
 10
0.0
 20
0.0
 30
0.0
  0
VERTEX
  5
104
330
103
100
AcDbEntity
  8
_U+30EC_U+30A4_U+30E4_U+30FC 1
 62
   179
420
  2234388
370
     9
100
AcDbVertex
100
AcDb2dVertex
 10
110.1591243892354
 20
-154.8412592182884
 30
0.0
  0
VERTEX
  5
105
330
103
100
AcDbEntity
  8
_U+30EC_U+30A4_U+30E4_U+30FC 1
 62
   179
420
  2234388
370
     9
100
AcDbVertex
100
AcDb2dVertex
 10
125.5977384465194
 20
-154.8412592182884
 30
0.0
  0
SEQEND
  5
106
330
103
100
AcDbEntity
  8
_U+30EC_U+30A4_U+30E4_U+30FC 1
 62
   179
420
  2234388
370
     9
  0
INSERT
  5
108
330
1F
100
AcDbEntity
  8
_U+30EC_U+30A4_U+30E4_U+30FC 1
100
AcDbBlockReference
  2
block 7
 10
0.0
 20
0.0
 30
0.0
  0
POLYLINE
  5
119
330
1F
100
AcDbEntity
  8
_U+30EC_U+30A4_U+30E4_U+30FC 1
 62
   179
420
  2234388
370
    25
100
AcDb2dPolyline
 66
     1
 10
0.0
 20
0.0
 30
0.0
  0
VERTEX
  5
11A
330
119
100
AcDbEntity
  8
_U+30EC_U+30A4_U+30E4_U+30FC 1
 62
   179
420
  2234388
370
    25
100
AcDbVertex
100
AcDb2dVertex
 10
98.42961855652867
 20
-156.9696392090758
 30
0.0
  0
VERTEX
  5
11B
330
119
100
AcDbEntity
  8
_U+30EC_U+30A4_U+30E4_U+30FC 1
 62
   179
420
  2234388
370
    25
100
AcDbVertex
100
AcDb2dVertex
 10
98.42961855652867
 20
-148.9249106140817
 30
0.0
  0
SEQEND
  5
11C
330
119
100
AcDbEntity
  8
_U+30EC_U+30A4_U+30E4_U+30FC 1
 62
   179
420
  2234388
370
    25
  0
POLYLINE
  5
11D
330
1F
100
AcDbEntity
  8
_U+30EC_U+30A4_U+30E4_U+30FC 1
370
     0
100
AcDb2dPolyline
 66
     1
 10
0.0
 20
0.0
 30
0.0
  0
VERTEX
  5
11E
330
11D
100
AcDbEntity
  8
_U+30EC_U+30A4_U+30E4_U+30FC 1
370
     0
100
AcDbVertex
100
AcDb2dVertex
 10
98.42951089729475
 20
-148.9248029548478
 30
0.0
  0
VERTEX
  5
11F
330
11D
100
AcDbEntity
  8
_U+30EC_U+30A4_U+30E4_U+30FC 1
370
     0
100
AcDbVertex
100
AcDb2dVertex
 10
98.7297186710641
 20
-148.5519359641098
 30
0.0
  0
VERTEX
  5
120
330
11D
100
AcDbEntity
  8
_U+30EC_U+30A4_U+30E4_U+30FC 1
370
     0
100
AcDbVertex
100
AcDb2dVertex
 10
98.42951089729475
 20
-148.1786814001301
 30
0.0
  0
VERTEX
  5
121
330
11D
100
AcDbEntity
  8
_U+30EC_U+30A4_U+30E4_U+30FC 1
370
     0
100
AcDbVertex
100
AcDb2dVertex
 10
98.42951089729475
 20
-148.9248029548478
 30
0.0
  0
SEQEND
  5
123
330
11D
100
AcDbEntity
  8
_U+30EC_U+30A4_U+30E4_U+30FC 1
370
     0
  0
HATCH
  5
122
330
1F
100
AcDbEntity
  8
_U+30EC_U+30A4_U+30E4_U+30FC 1
 62
     9
420
 13224394
100
AcDbHatch
 10
0.0
 20
0.0
 30
0.0
210
0.0
220
0.0
230
1.0
  2
SOLID
 70
     1
 71
     0
 91
        1
 92
        1
 93
        3
 72
     1
 10
98.42951089729475
 20
-148.9248029548478
 11
98.7297186710641
 21
-148.5519359641098
 72
     1
 10
98.7297186710641
 20
-148.5519359641098
 11
98.42951089729475
 21
-148.1786814001301
 72
     1
 10
98.42951089729475
 20
-148.1786814001301
 11
98.42951089729475
 21
-148.9248029548478
 97
        0
 75
     2
 76
     1
 98
        0
  0
POLYLINE
  5
124
330
1F
100
AcDbEntity
  8
_U+30EC_U+30A4_U+30E4_U+30FC 1
 62
   179
420
  2234388
370
    25
100
AcDb2dPolyline
 66
     1
 10
0.0
 20
0.0
 30
0.0
  0
VERTEX
  5
125
330
124
100
AcDbEntity
  8
_U+30EC_U+30A4_U+30E4_U+30FC 1
 62
   179
420
  2234388
370
    25
100
AcDbVertex
100
AcDb2dVertex
 10
98.42961855652867
 20
-148.9248244866946
 30
0.0
  0
VERTEX
  5
126
330
124
100
AcDbEntity
  8
_U+30EC_U+30A4_U+30E4_U+30FC 1
 62
   179
420
  2234388
370
    25
100
AcDbVertex
100
AcDb2dVertex
 10
98.72982633029801
 20
-148.551957495957
 30
0.0
  0
VERTEX
  5
127
330
124
100
AcDbEntity
  8
_U+30EC_U+30A4_U+30E4_U+30FC 1
 62
   179
420
  2234388
370
    25
100
AcDbVertex
100
AcDb2dVertex
 10
98.42961855652867
 20
-148.1787029319766
 30
0.0
  0
SEQEND
  5
128
330
124
100
AcDbEntity
  8
_U+30EC_U+30A4_U+30E4_U+30FC 1
 62
   179
420
  2234388
370
    25
  0
ENDSEC
  0
SECTION
  2
OBJECTS
  0
DICTIONARY
  5
C
330
0
100
AcDbDictionary
281
     1
  3
ACAD_GROUP
350
D
  3
ACAD_LAYOUT
350
1A
  3
ACAD_MATERIAL
350
3B
  3
ACAD_MLEADERSTYLE
350
12A
  3
ACAD_MLINESTYLE
350
17
  3
ACAD_PLOTSETTINGS
350
19
  3
ACAD_PLOTSTYLENAME
350
E
  3
ACAD_TABLESTYLE
350
129
  3
ACAD_VISUALSTYLE
350
2A
  0
SUN
  5
3F
330
29
100
AcDbSun
 90
        1
290
     0
 63
     7
421
 16777215
 40
1.0
291
     1
 91
  2455826
 92
 54000000
292
     0
 70
     2
 71
   256
280
     1
  0
DICTIONARY
  5
D
102
{ACAD_REACTORS
330
C
102
}
330
C
100
AcDbDictionary
281
     1
  0
DICTIONARY
  5
1A
102
{ACAD_REACTORS
330
C
102
}
330
C
100
AcDbDictionary
281
     1
  3
Layout1
350
1E
  3
Layout2
350
26
  3
Model
350
22
  0
DICTIONARY
  5
3B
102
{ACAD_REACTORS
330
C
102
}
330
C
100
AcDbDictionary
281
     1
  3
ByBlock
350
3D
  3
ByLayer
350
3C
  3
Global
350
3E
  0
DICTIONARY
  5
12A
102
{ACAD_REACTORS
330
C
102
}
330
C
100
AcDbDictionary
281
     1
  0
DICTIONARY
  5
17
102
{ACAD_REACTORS
330
C
102
}
330
C
100
AcDbDictionary
281
     1
  3
Standard
350
18
  0
DICTIONARY
  5
19
102
{ACAD_REACTORS
330
C
102
}
330
C
100
AcDbDictionary
281
     1
  0
ACDBDICTIONARYWDFLT
  5
E
102
{ACAD_REACTORS
330
C
102
}
330
C
100
AcDbDictionary
281
     1
  3
Normal
350
F
100
AcDbDictionaryWithDefault
340
F
  0
DICTIONARY
  5
129
102
{ACAD_REACTORS
330
C
102
}
330
C
100
AcDbDictionary
281
     1
  0
DICTIONARY
  5
2A
102
{ACAD_REACTORS
330
C
102
}
330
C
100
AcDbDictionary
281
     1
  3
2dWireframe
350
2F
  3
3D Hidden
350
31
  3
3dWireframe
350
30
  3
Basic
350
32
  3
Brighten
350
36
  3
ColorChange
350
3A
  3
Conceptual
350
34
  3
Dim
350
35
  3
Facepattern
350
39
  3
Flat
350
2B
  3
FlatWithEdges
350
2C
  3
Gouraud
350
2D
  3
GouraudWithEdges
350
2E
  3
Linepattern
350
38
  3
Realistic
350
33
  3
Thicken
350
37
  0
LAYOUT
  5
1E
102
{ACAD_REACTORS
330
1A
102
}
330
1A
100
AcDbPlotSettings
  1

  2
none_device
  4

  6

 40
0.0
 41
0.0
 42
0.0
 43
0.0
 44
0.0
 45
0.0
 46
0.0
 47
0.0
 48
0.0
 49
0.0
140
0.0
141
0.0
142
1.0
143
1.0
 70
   688
 72
     0
 73
     0
 74
     5
  7

 75
    16
 76
     0
 77
     2
 78
   300
147
1.0
148
0.0
149
0.0
100
AcDbLayout
  1
Layout1
 70
     1
 71
     1
 10
0.0
 20
0.0
 11
12.0
 21
9.0
 12
0.0
 22
0.0
 32
0.0
 14
1.000000000000000E+20
 24
1.000000000000000E+20
 34
1.000000000000000E+20
 15
-1.000000000000000E+20
 25
-1.000000000000000E+20
 35
-1.000000000000000E+20
146
0.0
 13
0.0
 23
0.0
 33
0.0
 16
1.0
 26
0.0
 36
0.0
 17
0.0
 27
1.0
 37
0.0
 76
     0
330
1B
  0
LAYOUT
  5
26
102
{ACAD_REACTORS
330
1A
102
}
330
1A
100
AcDbPlotSettings
  1

  2
none_device
  4

  6

 40
0.0
 41
0.0
 42
0.0
 43
0.0
 44
0.0
 45
0.0
 46
0.0
 47
0.0
 48
0.0
 49
0.0
140
0.0
141
0.0
142
1.0
143
1.0
 70
   688
 72
     0
 73
     0
 74
     5
  7

 75
    16
 76
     0
 77
     2
 78
   300
147
1.0
148
0.0
149
0.0
100
AcDbLayout
  1
Layout2
 70
     1
 71
     2
 10
0.0
 20
0.0
 11
0.0
 21
0.0
 12
0.0
 22
0.0
 32
0.0
 14
0.0
 24
0.0
 34
0.0
 15
0.0
 25
0.0
 35
0.0
146
0.0
 13
0.0
 23
0.0
 33
0.0
 16
1.0
 26
0.0
 36
0.0
 17
0.0
 27
1.0
 37
0.0
 76
     0
330
23
  0
LAYOUT
  5
22
102
{ACAD_REACTORS
330
1A
102
}
330
1A
100
AcDbPlotSettings
  1

  2
none_device
  4

  6

 40
0.0
 41
0.0
 42
0.0
 43
0.0
 44
0.0
 45
0.0
 46
0.0
 47
0.0
 48
0.0
 49
0.0
140
0.0
141
0.0
142
1.0
143
1.0
 70
  1712
 72
     0
 73
     0
 74
     0
  7

 75
     0
 76
     0
 77
     2
 78
   300
147
1.0
148
0.0
149
0.0
100
AcDbLayout
  1
Model
 70
     1
 71
     0
 10
0.0
 20
0.0
 11
12.0
 21
9.0
 12
0.0
 22
0.0
 32
0.0
 14
1.000000000000000E+20
 24
1.000000000000000E+20
 34
1.000000000000000E+20
 15
-1.000000000000000E+20
 25
-1.000000000000000E+20
 35
-1.000000000000000E+20
146
0.0
 13
0.0
 23
0.0
 33
0.0
 16
1.0
 26
0.0
 36
0.0
 17
0.0
 27
1.0
 37
0.0
 76
     0
330
1F
331
29
  0
MATERIAL
  5
3D
102
{ACAD_REACTORS
330
3B
102
}
330
3B
100
AcDbMaterial
  1
ByBlock
 72
     1
 94
      127
  0
MATERIAL
  5
3C
102
{ACAD_REACTORS
330
3B
102
}
330
3B
100
AcDbMaterial
  1
ByLayer
 72
     1
 94
      127
  0
MATERIAL
  5
3E
102
{ACAD_REACTORS
330
3B
102
}
330
3B
100
AcDbMaterial
  1
Global
 72
     1
 94
      127
  0
MLINESTYLE
  5
18
102
{ACAD_REACTORS
330
17
102
}
330
17
100
AcDbMlineStyle
  2
Standard
 70
     0
  3

 62
   256
 51
90.0
 52
90.0
 71
     2
 49
0.5
 62
   256
  6
BYLAYER
 49
-0.5
 62
   256
  6
BYLAYER
  0
ACDBPLACEHOLDER
  5
F
102
{ACAD_REACTORS
330
E
102
}
330
E
  0
VISUALSTYLE
  5
2F
102
{ACAD_REACTORS
330
2A
102
}
330
2A
100
AcDbVisualStyle
  2
2dWireframe
 70
     4
177
     2
291
     0
 71
     0
176
     1
 72
     2
176
     1
 73
     0
176
     1
 90
        0
176
     1
 40
-0.6
176
     1
 41
-30.0
176
     1
 62
     5
 63
     7
421
 16777215
176
     1
 74
     1
176
     1
 91
        4
176
     1
 64
     7
176
     1
 65
   257
176
     1
 75
     1
176
     1
175
     1
176
     1
 42
1.0
176
     1
 92
        0
176
     1
 66
   257
176
     1
 43
1.0
176
     1
 76
     1
176
     1
 77
     6
176
     1
 78
     2
176
     1
 67
     7
176
     1
 79
     5
176
     1
170
     0
176
     1
171
     0
176
     1
290
     0
176
     1
 93
        1
176
     1
 44
0.0
176
     1
173
     0
176
     1
  0
VISUALSTYLE
  5
31
102
{ACAD_REACTORS
330
2A
102
}
330
2A
100
AcDbVisualStyle
  2
3D Hidden
 70
     6
177
     2
291
     0
 71
     1
176
     1
 72
     2
176
     1
 73
     2
176
     1
 90
        0
176
     1
 40
-0.6
176
     1
 41
-30.0
176
     1
 62
     5
 63
     7
421
 16777215
176
     1
 74
     2
176
     1
 91
        2
176
     1
 64
     7
176
     1
 65
   257
176
     1
 75
     2
176
     1
175
     1
176
     1
 42
40.0
176
     1
 92
        0
176
     1
 66
   257
176
     1
 43
1.0
176
     1
 76
     1
176
     1
 77
     6
176
     1
 78
     2
176
     1
 67
     7
176
     1
 79
     3
176
     1
170
     0
176
     1
171
     0
176
     1
290
     0
176
     1
 93
        1
176
     1
 44
0.0
176
     1
173
     0
176
     1
  0
VISUALSTYLE
  5
30
102
{ACAD_REACTORS
330
2A
102
}
330
2A
100
AcDbVisualStyle
  2
3dWireframe
 70
     5
177
     2
291
     0
 71
     0
176
     1
 72
     2
176
     1
 73
     0
176
     1
 90
        0
176
     1
 40
-0.6
176
     1
 41
-30.0
176
     1
 62
     5
 63
     7
421
 16777215
176
     1
 74
     1
176
     1
 91
        4
176
     1
 64
     7
176
     1
 65
   257
176
     1
 75
     1
176
     1
175
     1
176
     1
 42
1.0
176
     1
 92
        0
176
     1
 66
   257
176
     1
 43
1.0
176
     1
 76
     1
176
     1
 77
     6
176
     1
 78
     2
176
     1
 67
     7
176
     1
 79
     5
176
     1
170
     0
176
     1
171
     0
176
     1
290
     0
176
     1
 93
        1
176
     1
 44
0.0
176
     1
173
     0
176
     1
  0
VISUALSTYLE
  5
32
102
{ACAD_REACTORS
330
2A
102
}
330
2A
100
AcDbVisualStyle
  2
Basic
 70
     7
177
     2
291
     1
 71
     1
176
     1
 72
     0
176
     1
 73
     1
176
     1
 90
        0
176
     1
 40
-0.6
176
     1
 41
-30.0
176
     1
 62
     5
 63
     7
421
 16777215
176
     1
 74
     0
176
     1
 91
        4
176
     1
 64
     7
176
     1
 65
   257
176
     1
 75
     1
176
     1
175
     1
176
     1
 42
1.0
176
     1
 92
        8
176
     1
 66
     7
176
     1
 43
1.0
176
     1
 76
     1
176
     1
 77
     6
176
     1
 78
     2
176
     1
 67
     7
176
     1
 79
     5
176
     1
170
     0
176
     1
171
     0
176
     1
290
     0
176
     1
 93
        1
176
     1
 44
0.0
176
     1
173
     0
176
     1
  0
VISUALSTYLE
  5
36
102
{ACAD_REACTORS
330
2A
102
}
330
2A
100
AcDbVisualStyle
  2
Brighten
 70
    12
177
     2
291
     1
 71
     2
176
     1
 72
     2
176
     1
 73
     0
176
     1
 90
        0
176
     1
 40
-0.6
176
     1
 41
-30.0
176
     1
 62
     5
 63
     7
421
 16777215
176
     1
 74
     1
176
     1
 91
        4
176
     1
 64
     7
176
     1
 65
   257
176
     1
 75
     1
176
     1
175
     1
176
     1
 42
1.0
176
     1
 92
        8
176
     1
 66
     7
176
     1
 43
1.0
176
     1
 76
     1
176
     1
 77
     6
176
     1
 78
     2
176
     1
 67
     7
176
     1
 79
     5
176
     1
170
     0
176
     1
171
     0
176
     1
290
     0
176
     1
 93
        1
176
     1
 44
50.0
176
     1
173
     0
176
     1
  0
VISUALSTYLE
  5
3A
102
{ACAD_REACTORS
330
2A
102
}
330
2A
100
AcDbVisualStyle
  2
ColorChange
 70
    16
177
     2
291
     1
 71
     2
176
     1
 72
     2
176
     1
 73
     3
176
     1
 90
        0
176
     1
 40
-0.6
176
     1
 41
-30.0
176
     1
 62
     5
 63
     8
421
  8421504
176
     1
 74
     1
176
     1
 91
        4
176
     1
 64
     7
176
     1
 65
   257
176
     1
 75
     1
176
     1
175
     1
176
     1
 42
1.0
176
     1
 92
        8
176
     1
 66
     8
424
  8421504
176
     1
 43
1.0
176
     1
 76
     1
176
     1
 77
     6
176
     1
 78
     2
176
     1
 67
     7
176
     1
 79
     5
176
     1
170
     0
176
     1
171
     0
176
     1
290
     0
176
     1
 93
        1
176
     1
 44
0.0
176
     1
173
     0
176
     1
  0
VISUALSTYLE
  5
34
102
{ACAD_REACTORS
330
2A
102
}
330
2A
100
AcDbVisualStyle
  2
Conceptual
 70
     9
177
     2
291
     0
 71
     3
176
     1
 72
     2
176
     1
 73
     0
176
     1
 90
        0
176
     1
 40
-0.6
176
     1
 41
-30.0
176
     1
 62
     5
 63
     7
421
 16777215
176
     1
 74
     2
176
     1
 91
        2
176
     1
 64
     7
176
     1
 65
   257
176
     1
 75
     1
176
     1
175
     1
176
     1
 42
40.0
176
     1
 92
        8
176
     1
 66
     7
176
     1
 43
1.0
176
     1
 76
     1
176
     1
 77
     6
176
     1
 78
     2
176
     1
 67
     7
176
     1
 79
     3
176
     1
170
     0
176
     1
171
     0
176
     1
290
     0
176
     1
 93
        1
176
     1
 44
0.0
176
     1
173
     0
176
     1
  0
VISUALSTYLE
  5
35
102
{ACAD_REACTORS
330
2A
102
}
330
2A
100
AcDbVisualStyle
  2
Dim
 70
    11
177
     2
291
     1
 71
     2
176
     1
 72
     2
176
     1
 73
     0
176
     1
 90
        0
176
     1
 40
-0.6
176
     1
 41
-30.0
176
     1
 62
     5
 63
     7
421
 16777215
176
     1
 74
     1
176
     1
 91
        4
176
     1
 64
     7
176
     1
 65
   257
176
     1
 75
     1
176
     1
175
     1
176
     1
 42
1.0
176
     1
 92
        8
176
     1
 66
     7
176
     1
 43
1.0
176
     1
 76
     1
176
     1
 77
     6
176
     1
 78
     2
176
     1
 67
     7
176
     1
 79
     5
176
     1
170
     0
176
     1
171
     0
176
     1
290
     0
176
     1
 93
        1
176
     1
 44
-50.0
176
     1
173
     0
176
     1
  0
VISUALSTYLE
  5
39
102
{ACAD_REACTORS
330
2A
102
}
330
2A
100
AcDbVisualStyle
  2
Facepattern
 70
    15
177
     2
291
     1
 71
     2
176
     1
 72
     2
176
     1
 73
     0
176
     1
 90
        0
176
     1
 40
-0.6
176
     1
 41
-30.0
176
     1
 62
     5
 63
     7
421
 16777215
176
     1
 74
     1
176
     1
 91
        4
176
     1
 64
     7
176
     1
 65
   257
176
     1
 75
     1
176
     1
175
     1
176
     1
 42
1.0
176
     1
 92
        8
176
     1
 66
     7
176
     1
 43
1.0
176
     1
 76
     1
176
     1
 77
     6
176
     1
 78
     2
176
     1
 67
     7
176
     1
 79
     5
176
     1
170
     0
176
     1
171
     0
176
     1
290
     0
176
     1
 93
        1
176
     1
 44
0.0
176
     1
173
     0
176
     1
  0
VISUALSTYLE
  5
2B
102
{ACAD_REACTORS
330
2A
102
}
330
2A
100
AcDbVisualStyle
  2
Flat
 70
     0
177
     2
291
     1
 71
     2
176
     1
 72
     1
176
     1
 73
     1
176
     1
 90
        2
176
     1
 40
-0.6
176
     1
 41
30.0
176
     1
 62
     5
 63
     7
421
 16777215
176
     1
 74
     0
176
     1
 91
        4
176
     1
 64
     7
176
     1
 65
   257
176
     1
 75
     1
176
     1
175
     1
176
     1
 42
1.0
176
     1
 92
        8
176
     1
 66
     7
176
     1
 43
1.0
176
     1
 76
     1
176
     1
 77
     6
176
     1
 78
     2
176
     1
 67
     7
176
     1
 79
     5
176
     1
170
     0
176
     1
171
     0
176
     1
290
     0
176
     1
 93
       13
176
     1
 44
0.0
176
     1
173
     0
176
     1
  0
VISUALSTYLE
  5
2C
102
{ACAD_REACTORS
330
2A
102
}
330
2A
100
AcDbVisualStyle
  2
FlatWithEdges
 70
     1
177
     2
291
     1
 71
     2
176
     1
 72
     1
176
     1
 73
     1
176
     1
 90
        2
176
     1
 40
-0.6
176
     1
 41
30.0
176
     1
 62
     5
 63
     7
421
 16777215
176
     1
 74
     1
176
     1
 91
        4
176
     1
 64
     7
176
     1
 65
   257
176
     1
 75
     1
176
     1
175
     1
176
     1
 42
1.0
176
     1
 92
        0
176
     1
 66
   257
176
     1
 43
1.0
176
     1
 76
     1
176
     1
 77
     6
176
     1
 78
     2
176
     1
 67
     7
176
     1
 79
     5
176
     1
170
     0
176
     1
171
     0
176
     1
290
     0
176
     1
 93
       13
176
     1
 44
0.0
176
     1
173
     0
176
     1
  0
VISUALSTYLE
  5
2D
102
{ACAD_REACTORS
330
2A
102
}
330
2A
100
AcDbVisualStyle
  2
Gouraud
 70
     2
177
     2
291
     1
 71
     2
176
     1
 72
     2
176
     1
 73
     1
176
     1
 90
        2
176
     1
 40
-0.6
176
     1
 41
30.0
176
     1
 62
     5
 63
     7
421
 16777215
176
     1
 74
     0
176
     1
 91
        4
176
     1
 64
     7
176
     1
 65
   257
176
     1
 75
     1
176
     1
175
     1
176
     1
 42
1.0
176
     1
 92
        0
176
     1
 66
     7
176
     1
 43
1.0
176
     1
 76
     1
176
     1
 77
     6
176
     1
 78
     2
176
     1
 67
     7
176
     1
 79
     5
176
     1
170
     0
176
     1
171
     0
176
     1
290
     0
176
     1
 93
       13
176
     1
 44
0.0
176
     1
173
     0
176
     1
  0
VISUALSTYLE
  5
2E
102
{ACAD_REACTORS
330
2A
102
}
330
2A
100
AcDbVisualStyle
  2
GouraudWithEdges
 70
     3
177
     2
291
     1
 71
     2
176
     1
 72
     2
176
     1
 73
     1
176
     1
 90
        2
176
     1
 40
-0.6
176
     1
 41
30.0
176
     1
 62
     5
 63
     7
421
 16777215
176
     1
 74
     1
176
     1
 91
        4
176
     1
 64
     7
176
     1
 65
   257
176
     1
 75
     1
176
     1
175
     1
176
     1
 42
1.0
176
     1
 92
        0
176
     1
 66
   257
176
     1
 43
1.0
176
     1
 76
     1
176
     1
 77
     6
176
     1
 78
     2
176
     1
 67
     7
176
     1
 79
     5
176
     1
170
     0
176
     1
171
     0
176
     1
290
     0
176
     1
 93
       13
176
     1
 44
0.0
176
     1
173
     0
176
     1
  0
VISUALSTYLE
  5
38
102
{ACAD_REACTORS
330
2A
102
}
330
2A
100
AcDbVisualStyle
  2
Linepattern
 70
    14
177
     2
291
     1
 71
     2
176
     1
 72
     2
176
     1
 73
     0
176
     1
 90
        0
176
     1
 40
-0.6
176
     1
 41
-30.0
176
     1
 62
     5
 63
     7
421
 16777215
176
     1
 74
     1
176
     1
 91
        4
176
     1
 64
     7
176
     1
 65
   257
176
     1
 75
     7
176
     1
175
     7
176
     1
 42
1.0
176
     1
 92
        8
176
     1
 66
     7
176
     1
 43
1.0
176
     1
 76
     1
176
     1
 77
     6
176
     1
 78
     2
176
     1
 67
     7
176
     1
 79
     5
176
     1
170
     0
176
     1
171
     0
176
     1
290
     0
176
     1
 93
        1
176
     1
 44
0.0
176
     1
173
     0
176
     1
  0
VISUALSTYLE
  5
33
102
{ACAD_REACTORS
330
2A
102
}
330
2A
100
AcDbVisualStyle
  2
Realistic
 70
     8
177
     2
291
     0
 71
     2
176
     1
 72
     2
176
     1
 73
     0
176
     1
 90
        0
176
     1
 40
-0.6
176
     1
 41
-30.0
176
     1
 62
     5
 63
     7
421
 16777215
176
     1
 74
     1
176
     1
 91
        0
176
     1
 64
     7
176
     1
 65
   257
176
     1
 75
     1
176
     1
175
     1
176
     1
 42
1.0
176
     1
 92
        8
176
     1
 66
     8
424
  7895160
176
     1
 43
1.0
176
     1
 76
     1
176
     1
 77
     6
176
     1
 78
     2
176
     1
 67
     7
176
     1
 79
     5
176
     1
170
     0
176
     1
171
     0
176
     1
290
     0
176
     1
 93
       13
176
     1
 44
0.0
176
     1
173
     0
176
     1
  0
VISUALSTYLE
  5
37
102
{ACAD_REACTORS
330
2A
102
}
330
2A
100
AcDbVisualStyle
  2
Thicken
 70
    13
177
     2
291
     1
 71
     2
176
     1
 72
     2
176
     1
 73
     0
176
     1
 90
        0
176
     1
 40
-0.6
176
     1
 41
-30.0
176
     1
 62
     5
 63
     7
421
 16777215
176
     1
 74
     1
176
     1
 91
        4
176
     1
 64
     7
176
     1
 65
   257
176
     1
 75
     1
176
     1
175
     1
176
     1
 42
1.0
176
     1
 92
       12
176
     1
 66
     7
176
     1
 43
1.0
176
     1
 76
     1
176
     1
 77
     6
176
     1
 78
     2
176
     1
 67
     7
176
     1
 79
     5
176
     1
170
     0
176
     1
171
     0
176
     1
290
     0
176
     1
 93
        1
176
     1
 44
0.0
176
     1
173
     0
176
     1
  0
ENDSEC
  0
EOF
