  0
SECTION
  2
HEADER
  9
$ACADVER
  1
AC1024
  9
$ACADMAINTVER
 70
     6
  9
$DWGCODEPAGE
  3
UNDEFINED
  9
$INSBASE
 10
0.0
 20
0.0
 30
0.0
  9
$EXTMIN
 10
1.000000000000000E+20
 20
1.000000000000000E+20
 30
1.000000000000000E+20
  9
$EXTMAX
 10
-1.000000000000000E+20
 20
-1.000000000000000E+20
 30
-1.000000000000000E+20
  9
$LIMMIN
 10
0.0
 20
0.0
  9
$LIMMAX
 10
12.0
 20
9.0
  9
$ORTHOMODE
 70
     0
  9
$REGENMODE
 70
     1
  9
$FILLMODE
 70
     1
  9
$QTEXTMODE
 70
     0
  9
$MIRRTEXT
 70
     1
  9
$LTSCALE
 40
1.0
  9
$ATTMODE
 70
     1
  9
$TEXTSIZE
 40
0.2
  9
$TRACEWID
 40
0.05
  9
$TEXTSTYLE
  7
Standard
  9
$CLAYER
  8
0
  9
$CELTYPE
  6
ByLayer
  9
$CECOLOR
 62
   256
  9
$CELTSCALE
 40
1.0
  9
$DISPSILH
 70
     0
  9
$DIMSCALE
 40
1.0
  9
$DIMASZ
 40
0.18
  9
$DIMEXO
 40
0.0625
  9
$DIMDLI
 40
0.38
  9
$DIMRND
 40
0.0
  9
$DIMDLE
 40
0.0
  9
$DIMEXE
 40
0.18
  9
$DIMTP
 40
0.0
  9
$DIMTM
 40
0.0
  9
$DIMTXT
 40
0.18
  9
$DIMCEN
 40
0.09
  9
$DIMTSZ
 40
0.0
  9
$DIMTOL
 70
     0
  9
$DIMLIM
 70
     0
  9
$DIMTIH
 70
     1
  9
$DIMTOH
 70
     1
  9
$DIMSE1
 70
     0
  9
$DIMSE2
 70
     0
  9
$DIMTAD
 70
     0
  9
$DIMZIN
 70
     0
  9
$DIMBLK
  1

  9
$DIMASO
 70
     1
  9
$DIMSHO
 70
     1
  9
$DIMPOST
  1

  9
$DIMAPOST
  1

  9
$DIMALT
 70
     0
  9
$DIMALTD
 70
     2
  9
$DIMALTF
 40
25.4
  9
$DIMLFAC
 40
1.0
  9
$DIMTOFL
 70
     0
  9
$DIMTVP
 40
0.0
  9
$DIMTIX
 70
     0
  9
$DIMSOXD
 70
     0
  9
$DIMSAH
 70
     0
  9
$DIMBLK1
  1

  9
$DIMBLK2
  1

  9
$DIMSTYLE
  2
Standard
  9
$DIMCLRD
 70
     0
  9
$DIMCLRE
 70
     0
  9
$DIMCLRT
 70
     0
  9
$DIMTFAC
 40
1.0
  9
$DIMGAP
 40
0.09
  9
$DIMJUST
 70
     0
  9
$DIMSD1
 70
     0
  9
$DIMSD2
 70
     0
  9
$DIMTOLJ
 70
     1
  9
$DIMTZIN
 70
     0
  9
$DIMALTZ
 70
     0
  9
$DIMALTTZ
 70
     0
  9
$DIMUPT
 70
     0
  9
$DIMDEC
 70
     4
  9
$DIMTDEC
 70
     4
  9
$DIMALTU
 70
     2
  9
$DIMALTTD
 70
     2
  9
$DIMTXSTY
  7
Standard
  9
$DIMAUNIT
 70
     0
  9
$DIMADEC
 70
     0
  9
$DIMALTRND
 40
0.0
  9
$DIMAZIN
 70
     0
  9
$DIMDSEP
 70
    46
  9
$DIMATFIT
 70
     3
  9
$DIMFRAC
 70
     0
  9
$DIMLDRBLK
  1

  9
$DIMLUNIT
 70
     2
  9
$DIMLWD
 70
    -2
  9
$DIMLWE
 70
    -2
  9
$DIMTMOVE
 70
     0
  9
$DIMFXL
 40
1.0
  9
$DIMFXLON
 70
     0
  9
$DIMJOGANG
 40
0.7853981633974483
  9
$DIMTFILL
 70
     0
  9
$DIMTFILLCLR
 70
     0
  9
$DIMARCSYM
 70
     0
  9
$DIMLTYPE
  6

  9
$DIMLTEX1
  6

  9
$DIMLTEX2
  6

  9
$DIMTXTDIRECTION
 70
     0
  9
$LUNITS
 70
     2
  9
$LUPREC
 70
     4
  9
$SKETCHINC
 40
0.1
  9
$FILLETRAD
 40
0.5
  9
$AUNITS
 70
     0
  9
$AUPREC
 70
     0
  9
$MENU
  1
.
  9
$ELEVATION
 40
0.0
  9
$PELEVATION
 40
0.0
  9
$THICKNESS
 40
0.0
  9
$LIMCHECK
 70
     0
  9
$CHAMFERA
 40
0.5
  9
$CHAMFERB
 40
0.5
  9
$CHAMFERC
 40
1.0
  9
$CHAMFERD
 40
0.0
  9
$SKPOLY
 70
     0
  9
$TDCREATE
 40
2458270.588402778
  9
$TDUCREATE
 40
2458270.213402778
  9
$TDUPDATE
 40
2458270.588402778
  9
$TDUUPDATE
 40
2458270.213402778
  9
$TDINDWG
 40
0.0000000116
  9
$TDUSRTIMER
 40
0.0000000116
  9
$USRTIMER
 70
     1
  9
$ANGBASE
 50
0.0
  9
$ANGDIR
 70
     0
  9
$PDMODE
 70
     0
  9
$PDSIZE
 40
0.0
  9
$PLINEWID
 40
0.0
  9
$SPLFRAME
 70
     0
  9
$SPLINETYPE
 70
     6
  9
$SPLINESEGS
 70
     8
  9
$HANDSEED
  5
113
  9
$SURFTAB1
 70
     6
  9
$SURFTAB2
 70
     6
  9
$SURFTYPE
 70
     6
  9
$SURFU
 70
     6
  9
$SURFV
 70
     6
  9
$UCSBASE
  2

  9
$UCSNAME
  2

  9
$UCSORG
 10
0.0
 20
0.0
 30
0.0
  9
$UCSXDIR
 10
1.0
 20
0.0
 30
0.0
  9
$UCSYDIR
 10
0.0
 20
1.0
 30
0.0
  9
$UCSORTHOREF
  2

  9
$UCSORTHOVIEW
 70
     0
  9
$UCSORGTOP
 10
0.0
 20
0.0
 30
0.0
  9
$UCSORGBOTTOM
 10
0.0
 20
0.0
 30
0.0
  9
$UCSORGLEFT
 10
0.0
 20
0.0
 30
0.0
  9
$UCSORGRIGHT
 10
0.0
 20
0.0
 30
0.0
  9
$UCSORGFRONT
 10
0.0
 20
0.0
 30
0.0
  9
$UCSORGBACK
 10
0.0
 20
0.0
 30
0.0
  9
$PUCSBASE
  2

  9
$PUCSNAME
  2

  9
$PUCSORG
 10
0.0
 20
0.0
 30
0.0
  9
$PUCSXDIR
 10
1.0
 20
0.0
 30
0.0
  9
$PUCSYDIR
 10
0.0
 20
1.0
 30
0.0
  9
$PUCSORTHOREF
  2

  9
$PUCSORTHOVIEW
 70
     0
  9
$PUCSORGTOP
 10
0.0
 20
0.0
 30
0.0
  9
$PUCSORGBOTTOM
 10
0.0
 20
0.0
 30
0.0
  9
$PUCSORGLEFT
 10
0.0
 20
0.0
 30
0.0
  9
$PUCSORGRIGHT
 10
0.0
 20
0.0
 30
0.0
  9
$PUCSORGFRONT
 10
0.0
 20
0.0
 30
0.0
  9
$PUCSORGBACK
 10
0.0
 20
0.0
 30
0.0
  9
$USERI1
 70
     0
  9
$USERI2
 70
     0
  9
$USERI3
 70
     0
  9
$USERI4
 70
     0
  9
$USERI5
 70
     0
  9
$USERR1
 40
0.0
  9
$USERR2
 40
0.0
  9
$USERR3
 40
0.0
  9
$USERR4
 40
0.0
  9
$USERR5
 40
0.0
  9
$WORLDVIEW
 70
     1
  9
$SHADEDGE
 70
     3
  9
$SHADEDIF
 70
    70
  9
$TILEMODE
 70
     1
  9
$MAXACTVP
 70
    64
  9
$PINSBASE
 10
0.0
 20
0.0
 30
0.0
  9
$PLIMCHECK
 70
     0
  9
$PEXTMIN
 10
1.000000000000000E+20
 20
1.000000000000000E+20
 30
1.000000000000000E+20
  9
$PEXTMAX
 10
-1.000000000000000E+20
 20
-1.000000000000000E+20
 30
-1.000000000000000E+20
  9
$PLIMMIN
 10
0.0
 20
0.0
  9
$PLIMMAX
 10
12.0
 20
9.0
  9
$UNITMODE
 70
     0
  9
$VISRETAIN
 70
     1
  9
$PLINEGEN
 70
     0
  9
$PSLTSCALE
 70
     1
  9
$TREEDEPTH
 70
  3020
  9
$CMLSTYLE
  2
Standard
  9
$CMLJUST
 70
     0
  9
$CMLSCALE
 40
1.0
  9
$PROXYGRAPHICS
 70
     1
  9
$MEASUREMENT
 70
     0
  9
$CELWEIGHT
370
    -1
  9
$ENDCAPS
280
     0
  9
$JOINSTYLE
280
     0
  9
$LWDISPLAY
290
     1
  9
$INSUNITS
 70
     1
  9
$HYPERLINKBASE
  1

  9
$STYLESHEET
  1

  9
$XEDIT
290
     1
  9
$CEPSNTYPE
380
     0
  9
$PSTYLEMODE
290
     1
  9
$FINGERPRINTGUID
  2
{40DCA26A-99B9-FD62-8D2E-26F8C36C3D3E}
  9
$VERSIONGUID
  2
{FAEB1C32-E019-11D5-929B-00C0DF256EC4}
  9
$EXTNAMES
290
     1
  9
$PSVPSCALE
 40
0.0
  9
$OLESTARTUP
290
     0
  9
$SORTENTS
280
   127
  9
$INDEXCTL
280
     0
  9
$HIDETEXT
280
     1
  9
$XCLIPFRAME
280
     2
  9
$HALOGAP
280
     0
  9
$OBSCOLOR
 70
   257
  9
$OBSLTYPE
280
     0
  9
$INTERSECTIONDISPLAY
280
     0
  9
$INTERSECTIONCOLOR
 70
   257
  9
$DIMASSOC
280
     2
  9
$PROJECTNAME
  1

  9
$CAMERADISPLAY
290
     0
  9
$LENSLENGTH
 40
50.0
  9
$CAMERAHEIGHT
 40
0.0
  9
$STEPSPERSEC
 40
2.0
  9
$STEPSIZE
 40
6.0
  9
$3DDWFPREC
 40
2.0
  9
$PSOLWIDTH
 40
0.25
  9
$PSOLHEIGHT
 40
4.0
  9
$LOFTANG1
 40
1.570796326794897
  9
$LOFTANG2
 40
1.570796326794897
  9
$LOFTMAG1
 40
0.0
  9
$LOFTMAG2
 40
0.0
  9
$LOFTPARAM
 70
     7
  9
$LOFTNORMALS
280
     1
  9
$LATITUDE
 40
37.795
  9
$LONGITUDE
 40
-122.394
  9
$NORTHDIRECTION
 40
0.0
  9
$TIMEZONE
 70
 -8000
  9
$LIGHTGLYPHDISPLAY
280
     1
  9
$TILEMODELIGHTSYNCH
280
     1
  9
$CMATERIAL
347
3C
  9
$SOLIDHIST
280
     1
  9
$SHOWHIST
280
     1
  9
$DWFFRAME
280
     2
  9
$DGNFRAME
280
     2
  9
$REALWORLDSCALE
290
     1
  9
$INTERFERECOLOR
 62
   256
  9
$CSHADOW
280
     0
  9
$SHADOWPLANELOCATION
 40
0.0
  0
ENDSEC
  0
SECTION
  2
CLASSES
  0
CLASS
  1
ACDBDICTIONARYWDFLT
  2
AcDbDictionaryWithDefault
  3
ObjectDBX Classes
 90
        0
 91
        4
280
     0
281
     0
  0
CLASS
  1
VISUALSTYLE
  2
AcDbVisualStyle
  3
ObjectDBX Classes
 90
     4095
 91
        4
280
     0
281
     0
  0
CLASS
  1
MATERIAL
  2
AcDbMaterial
  3
ObjectDBX Classes
 90
     1153
 91
        4
280
     0
281
     0
  0
CLASS
  1
SUN
  2
AcDbSun
  3
SCENEOE
 90
     1024
 91
        4
280
     0
281
     0
  0
ENDSEC
  0
SECTION
  2
TABLES
  0
TABLE
  2
VPORT
  5
8
330
0
100
AcDbSymbolTable
 70
     1
  0
VPORT
  5
29
330
8
100
AcDbSymbolTableRecord
100
AcDbViewportTableRecord
  2
*Active
 70
     0
 10
0.0
 20
0.0
 11
1.0
 21
1.0
 12
0.0
 22
0.0
 13
0.0
 23
0.0
 14
0.5
 24
0.5
 15
0.5
 25
0.5
 16
0.0
 26
0.0
 36
1.0
 17
105.0007777515277
 27
-148.5000416295416
 37
0.0
 40
297.0000832590831
 41
0.7070757462376333
 42
50.0
 43
0.0
 44
0.0
 50
0.0
 51
0.0
 71
     0
 72
   100
 73
     1
 74
     3
 75
     0
 76
     0
 77
     0
 78
     0
281
     0
 65
     1
110
0.0
120
0.0
130
0.0
111
1.0
121
0.0
131
0.0
112
0.0
122
1.0
132
0.0
 79
     0
146
0.0
 60
     3
 61
     5
292
     1
282
     1
141
0.0
142
0.0
 63
   250
361
3F
  0
ENDTAB
  0
TABLE
  2
LTYPE
  5
5
330
0
100
AcDbSymbolTable
 70
     2
  0
LTYPE
  5
14
330
5
100
AcDbSymbolTableRecord
100
AcDbLinetypeTableRecord
  2
ByBlock
 70
     0
  3

 72
    65
 73
     0
 40
0.0
  0
LTYPE
  5
15
330
5
100
AcDbSymbolTableRecord
100
AcDbLinetypeTableRecord
  2
ByLayer
 70
     0
  3

 72
    65
 73
     0
 40
0.0
  0
LTYPE
  5
16
330
5
100
AcDbSymbolTableRecord
100
AcDbLinetypeTableRecord
  2
Continuous
 70
     0
  3
Solid line
 72
    65
 73
     0
 40
0.0
  0
LTYPE
  5
48
330
5
100
AcDbSymbolTableRecord
100
AcDbLinetypeTableRecord
  2
AI-Linetype-1
 70
     0
  3
Adobe Illustrator Linetype No. 1
 72
    65
 73
     2
 40
1.411111110758333
 49
0.7055555553791667
 74
     0
 49
-0.7055555553791667
 74
     0
  0
ENDTAB
  0
TABLE
  2
LAYER
  5
2
330
0
100
AcDbSymbolTable
 70
     2
  0
LAYER
  5
10
330
2
100
AcDbSymbolTableRecord
100
AcDbLayerTableRecord
  2
0
 70
     0
 62
     7
  6
Continuous
370
    -3
390
F
347
3E
  0
LAYER
  5
40
330
2
100
AcDbSymbolTableRecord
100
AcDbLayerTableRecord
  2
_U+30EC_U+30A4_U+30E4_U+30FC 1
 70
     0
 62
     7
  6
Continuous
370
    -3
390
F
347
3E
  0
ENDTAB
  0
TABLE
  2
STYLE
  5
3
330
0
100
AcDbSymbolTable
 70
     1
  0
STYLE
  5
11
330
3
100
AcDbSymbolTableRecord
100
AcDbTextStyleTableRecord
  2
Standard
 70
     0
 40
0.0
 41
1.0
 50
0.0
 71
     0
 42
0.2
  3
txt
  4

  0
ENDTAB
  0
TABLE
  2
VIEW
  5
6
330
0
100
AcDbSymbolTable
 70
     0
  0
ENDTAB
  0
TABLE
  2
UCS
  5
7
330
0
100
AcDbSymbolTable
 70
     0
  0
ENDTAB
  0
TABLE
  2
APPID
  5
9
330
0
100
AcDbSymbolTable
 70
     1
  0
APPID
  5
12
330
9
100
AcDbSymbolTableRecord
100
AcDbRegAppTableRecord
  2
ACAD
 70
     0
  0
ENDTAB
  0
TABLE
  2
DIMSTYLE
  5
A
330
0
100
AcDbSymbolTable
 70
     1
100
AcDbDimStyleTable
  0
DIMSTYLE
105
27
330
A
100
AcDbSymbolTableRecord
100
AcDbDimStyleTableRecord
  2
Standard
 70
     0
178
     0
340
11
  0
ENDTAB
  0
TABLE
  2
BLOCK_RECORD
  5
1
330
0
100
AcDbSymbolTable
 70
     7
  0
BLOCK_RECORD
  5
1F
330
1
100
AcDbSymbolTableRecord
100
AcDbBlockTableRecord
  2
*Model_Space
340
22
 70
     0
280
     1
281
     0
  0
BLOCK_RECORD
  5
1B
330
1
100
AcDbSymbolTableRecord
100
AcDbBlockTableRecord
  2
*Paper_Space
340
1E
 70
     0
280
     1
281
     0
  0
BLOCK_RECORD
  5
23
330
1
100
AcDbSymbolTableRecord
100
AcDbBlockTableRecord
  2
*Paper_Space0
340
26
 70
     0
280
     1
281
     0
  0
BLOCK_RECORD
  5
9F
330
1
100
AcDbSymbolTableRecord
100
AcDbBlockTableRecord
  2
block 2
340
0
102
{BLKREFS
331
A0
102
}
 70
     0
280
     1
281
     0
  0
BLOCK_RECORD
  5
AD
330
1
100
AcDbSymbolTableRecord
100
AcDbBlockTableRecord
  2
block 3
340
0
102
{BLKREFS
331
AE
102
}
 70
     0
280
     1
281
     0
  0
BLOCK_RECORD
  5
C2
330
1
100
AcDbSymbolTableRecord
100
AcDbBlockTableRecord
  2
block 4
340
0
102
{BLKREFS
331
C3
102
}
 70
     0
280
     1
281
     0
  0
BLOCK_RECORD
  5
EA
330
1
100
AcDbSymbolTableRecord
100
AcDbBlockTableRecord
  2
block 5
340
0
102
{BLKREFS
331
EB
102
}
 70
     0
280
     1
281
     0
  0
BLOCK_RECORD
  5
FA
330
1
100
AcDbSymbolTableRecord
100
AcDbBlockTableRecord
  2
block 6
340
0
102
{BLKREFS
331
FB
102
}
 70
     0
280
     1
281
     0
  0
BLOCK_RECORD
  5
10B
330
1
100
AcDbSymbolTableRecord
100
AcDbBlockTableRecord
  2
block 7
340
0
102
{BLKREFS
331
10C
102
}
 70
     0
280
     1
281
     0
  0
ENDTAB
  0
ENDSEC
  0
SECTION
  2
BLOCKS
  0
BLOCK
  5
20
330
1F
100
AcDbEntity
  8
0
100
AcDbBlockBegin
  2
*Model_Space
 70
     0
 10
0.0
 20
0.0
 30
0.0
  3
*Model_Space
  1

  0
ENDBLK
  5
21
330
1F
100
AcDbEntity
  8
0
100
AcDbBlockEnd
  0
BLOCK
  5
1C
330
1B
100
AcDbEntity
 67
     1
  8
0
100
AcDbBlockBegin
  2
*Paper_Space
 70
     0
 10
0.0
 20
0.0
 30
0.0
  3
*Paper_Space
  1

  0
ENDBLK
  5
1D
330
1B
100
AcDbEntity
 67
     1
  8
0
100
AcDbBlockEnd
  0
BLOCK
  5
24
330
23
100
AcDbEntity
  8
0
100
AcDbBlockBegin
  2
*Paper_Space0
 70
     0
 10
0.0
 20
0.0
 30
0.0
  3
*Paper_Space0
  1

  0
ENDBLK
  5
25
330
23
100
AcDbEntity
  8
0
100
AcDbBlockEnd
  0
BLOCK
  5
A1
330
9F
100
AcDbEntity
  8
0
100
AcDbBlockBegin
  2
block 2
 70
     0
 10
0.0
 20
0.0
 30
0.0
  3
block 2
  1

  0
SPLINE
  5
A3
330
9F
100
AcDbEntity
  8
_U+30EC_U+30A4_U+30E4_U+30FC 1
370
     0
100
AcDbSpline
210
0.0
220
0.0
230
1.0
 70
    11
 71
     3
 72
    26
 73
    22
 74
     0
 42
0.0000000001
 43
0.0000000001
 12
1.0
 22
0.0
 32
0.0
 13
1.0
 23
0.0
 33
0.0
 40
0.0
 40
0.0
 40
0.0
 40
0.0
 40
1.0
 40
1.0
 40
1.0
 40
2.0
 40
2.0
 40
2.0
 40
3.0
 40
3.0
 40
3.0
 40
4.0
 40
4.0
 40
4.0
 40
5.0
 40
5.0
 40
5.0
 40
6.0
 40
6.0
 40
6.0
 40
7.0
 40
7.0
 40
7.0
 40
7.0
 10
125.1875352334601
 20
-138.1395439650311
 30
0.0
 10
125.1875352334601
 20
-138.1395439650311
 30
0.0
 10
124.0833821304375
 20
-138.1395439650311
 30
0.0
 10
124.0833821304375
 20
-138.1395439650311
 30
0.0
 10
124.0833821304375
 20
-138.1395439650311
 30
0.0
 10
124.0833821304375
 20
-138.469584112518
 30
0.0
 10
124.0833821304375
 20
-138.469584112518
 30
0.0
 10
124.0833821304375
 20
-138.469584112518
 30
0.0
 10
123.9352430245717
 20
-138.469584112518
 30
0.0
 10
123.9352430245717
 20
-138.469584112518
 30
0.0
 10
123.9204291139852
 20
-138.1374769077399
 30
0.0
 10
123.7574760975329
 20
-138.0909681186891
 30
0.0
 10
123.6430989274226
 20
-138.0613402975159
 30
0.0
 10
123.6430989274226
 20
-138.0613402975159
 30
0.0
 10
123.6430989274226
 20
-137.9152682489413
 30
0.0
 10
123.6430989274226
 20
-137.9152682489413
 30
0.0
 10
123.6430989274226
 20
-137.9152682489413
 30
0.0
 10
125.1875352334601
 20
-137.9152682489413
 30
0.0
 10
125.1875352334601
 20
-137.9152682489413
 30
0.0
 10
125.1875352334601
 20
-137.9152682489413
 30
0.0
 10
125.1875352334601
 20
-138.1395439650311
 30
0.0
 10
125.1875352334601
 20
-138.1395439650311
 30
0.0
  0
HATCH
  5
A4
330
9F
100
AcDbEntity
  8
_U+30EC_U+30A4_U+30E4_U+30FC 1
 62
   179
420
  2234388
100
AcDbHatch
 10
0.0
 20
0.0
 30
0.0
210
0.0
220
0.0
230
1.0
  2
SOLID
 70
     1
 71
     0
 91
        1
 92
        1
 93
        1
 72
     4
 94
        3
 73
     0
 74
     1
 95
       26
 96
       22
 40
0.0
 40
0.0
 40
0.0
 40
0.0
 40
1.0
 40
1.0
 40
1.0
 40
2.0
 40
2.0
 40
2.0
 40
3.0
 40
3.0
 40
3.0
 40
4.0
 40
4.0
 40
4.0
 40
5.0
 40
5.0
 40
5.0
 40
6.0
 40
6.0
 40
6.0
 40
7.0
 40
7.0
 40
7.0
 40
7.0
 10
125.1875352334601
 20
-138.1395439650311
 10
125.1875352334601
 20
-138.1395439650311
 10
124.0833821304375
 20
-138.1395439650311
 10
124.0833821304375
 20
-138.1395439650311
 10
124.0833821304375
 20
-138.1395439650311
 10
124.0833821304375
 20
-138.469584112518
 10
124.0833821304375
 20
-138.469584112518
 10
124.0833821304375
 20
-138.469584112518
 10
123.9352430245717
 20
-138.469584112518
 10
123.9352430245717
 20
-138.469584112518
 10
123.9204291139852
 20
-138.1374769077399
 10
123.7574760975329
 20
-138.0909681186891
 10
123.6430989274226
 20
-138.0613402975159
 10
123.6430989274226
 20
-138.0613402975159
 10
123.6430989274226
 20
-137.9152682489413
 10
123.6430989274226
 20
-137.9152682489413
 10
123.6430989274226
 20
-137.9152682489413
 10
125.1875352334601
 20
-137.9152682489413
 10
125.1875352334601
 20
-137.9152682489413
 10
125.1875352334601
 20
-137.9152682489413
 10
125.1875352334601
 20
-138.1395439650311
 10
125.1875352334601
 20
-138.1395439650311
 97
        0
 97
        0
 75
     2
 76
     1
 98
        0
  0
ENDBLK
  5
A2
330
9F
100
AcDbEntity
  8
0
100
AcDbBlockEnd
  0
BLOCK
  5
AF
330
AD
100
AcDbEntity
  8
0
100
AcDbBlockBegin
  2
block 3
 70
     0
 10
0.0
 20
0.0
 30
0.0
  3
block 3
  1

  0
SPLINE
  5
B1
330
AD
100
AcDbEntity
  8
_U+30EC_U+30A4_U+30E4_U+30FC 1
370
     0
100
AcDbSpline
210
0.0
220
0.0
230
1.0
 70
    11
 71
     3
 72
    26
 73
    22
 74
     0
 42
0.0000000001
 43
0.0000000001
 12
1.0
 22
0.0
 32
0.0
 13
1.0
 23
0.0
 33
0.0
 40
0.0
 40
0.0
 40
0.0
 40
0.0
 40
1.0
 40
1.0
 40
1.0
 40
2.0
 40
2.0
 40
2.0
 40
3.0
 40
3.0
 40
3.0
 40
4.0
 40
4.0
 40
4.0
 40
5.0
 40
5.0
 40
5.0
 40
6.0
 40
6.0
 40
6.0
 40
7.0
 40
7.0
 40
7.0
 40
7.0
 10
99.13727346696916
 20
-154.9169867234235
 30
0.0
 10
99.13727346696916
 20
-154.9169867234235
 30
0.0
 10
99.13727346696916
 20
-153.812833620401
 30
0.0
 10
99.13727346696916
 20
-153.812833620401
 30
0.0
 10
99.13727346696916
 20
-153.812833620401
 30
0.0
 10
98.80723331948222
 20
-153.812833620401
 30
0.0
 10
98.80723331948222
 20
-153.812833620401
 30
0.0
 10
98.80723331948222
 20
-153.812833620401
 30
0.0
 10
98.80723331948222
 20
-153.6646945145352
 30
0.0
 10
98.80723331948222
 20
-153.6646945145352
 30
0.0
 10
99.1393405242603
 20
-153.6498806039486
 30
0.0
 10
99.18584931331118
 20
-153.4869275874963
 30
0.0
 10
99.21547713448433
 20
-153.372550417386
 30
0.0
 10
99.21547713448433
 20
-153.372550417386
 30
0.0
 10
99.36154918305893
 20
-153.372550417386
 30
0.0
 10
99.36154918305893
 20
-153.372550417386
 30
0.0
 10
99.36154918305893
 20
-153.372550417386
 30
0.0
 10
99.36154918305893
 20
-154.9169867234235
 30
0.0
 10
99.36154918305893
 20
-154.9169867234235
 30
0.0
 10
99.36154918305893
 20
-154.9169867234235
 30
0.0
 10
99.13727346696916
 20
-154.9169867234235
 30
0.0
 10
99.13727346696916
 20
-154.9169867234235
 30
0.0
  0
HATCH
  5
B2
330
AD
100
AcDbEntity
  8
_U+30EC_U+30A4_U+30E4_U+30FC 1
 62
   179
420
  2234388
100
AcDbHatch
 10
0.0
 20
0.0
 30
0.0
210
0.0
220
0.0
230
1.0
  2
SOLID
 70
     1
 71
     0
 91
        1
 92
        1
 93
        1
 72
     4
 94
        3
 73
     0
 74
     1
 95
       26
 96
       22
 40
0.0
 40
0.0
 40
0.0
 40
0.0
 40
1.0
 40
1.0
 40
1.0
 40
2.0
 40
2.0
 40
2.0
 40
3.0
 40
3.0
 40
3.0
 40
4.0
 40
4.0
 40
4.0
 40
5.0
 40
5.0
 40
5.0
 40
6.0
 40
6.0
 40
6.0
 40
7.0
 40
7.0
 40
7.0
 40
7.0
 10
99.13727346696916
 20
-154.9169867234235
 10
99.13727346696916
 20
-154.9169867234235
 10
99.13727346696916
 20
-153.812833620401
 10
99.13727346696916
 20
-153.812833620401
 10
99.13727346696916
 20
-153.812833620401
 10
98.80723331948222
 20
-153.812833620401
 10
98.80723331948222
 20
-153.812833620401
 10
98.80723331948222
 20
-153.812833620401
 10
98.80723331948222
 20
-153.6646945145352
 10
98.80723331948222
 20
-153.6646945145352
 10
99.1393405242603
 20
-153.6498806039486
 10
99.18584931331118
 20
-153.4869275874963
 10
99.21547713448433
 20
-153.372550417386
 10
99.21547713448433
 20
-153.372550417386
 10
99.36154918305893
 20
-153.372550417386
 10
99.36154918305893
 20
-153.372550417386
 10
99.36154918305893
 20
-153.372550417386
 10
99.36154918305893
 20
-154.9169867234235
 10
99.36154918305893
 20
-154.9169867234235
 10
99.36154918305893
 20
-154.9169867234235
 10
99.13727346696916
 20
-154.9169867234235
 10
99.13727346696916
 20
-154.9169867234235
 97
        0
 97
        0
 75
     2
 76
     1
 98
        0
  0
SPLINE
  5
B3
330
AD
100
AcDbEntity
  8
_U+30EC_U+30A4_U+30E4_U+30FC 1
370
     0
100
AcDbSpline
210
0.0
220
0.0
230
1.0
 70
    11
 71
     3
 72
    29
 73
    25
 74
     0
 42
0.0000000001
 43
0.0000000001
 12
1.0
 22
0.0
 32
0.0
 13
1.0
 23
0.0
 33
0.0
 40
0.0
 40
0.0
 40
0.0
 40
0.0
 40
1.0
 40
1.0
 40
1.0
 40
2.0
 40
2.0
 40
2.0
 40
3.0
 40
3.0
 40
3.0
 40
4.0
 40
4.0
 40
4.0
 40
5.0
 40
5.0
 40
5.0
 40
6.0
 40
6.0
 40
6.0
 40
7.0
 40
7.0
 40
7.0
 40
8.0
 40
8.0
 40
8.0
 40
8.0
 10
100.7604302048446
 20
-154.7392197963846
 30
0.0
 10
100.6525987161563
 20
-154.9486816018878
 30
0.0
 10
100.479138158474
 20
-154.9676296270567
 30
0.0
 10
100.3626939310725
 20
-154.9676296270567
 30
0.0
 10
100.2019802266856
 20
-154.9676296270567
 30
0.0
 10
100.0602145474676
 20
-154.9211208380058
 30
0.0
 10
99.96495765730043
 20
-154.7392197963846
 30
0.0
 10
99.86143253796867
 20
-154.544571901468
 30
0.0
 10
99.84231225802554
 20
-154.3078938416314
 30
0.0
 10
99.84231225802554
 20
-154.144940825179
 30
0.0
 10
99.84231225802554
 20
-154.0009358338956
 30
0.0
 10
99.85919322590327
 20
-153.7490993539238
 30
0.0
 10
99.96495765730043
 20
-153.5503173444249
 30
0.0
 10
100.072961400763
 20
-153.3474012203437
 30
0.0
 10
100.2336751051499
 20
-153.323974571044
 30
0.0
 10
100.3626939310725
 20
-153.323974571044
 30
0.0
 10
100.5213405781683
 20
-153.323974571044
 30
0.0
 10
100.6651733146775
 20
-153.3684163028037
 30
0.0
 10
100.7604302048446
 20
-153.5503173444249
 30
0.0
 10
100.8598212095941
 20
-153.7428981820504
 30
0.0
 10
100.8830756041195
 20
-153.9713080127225
 30
0.0
 10
100.8830756041195
 20
-154.144940825179
 30
0.0
 10
100.8830756041195
 20
-154.316162070796
 30
0.0
 10
100.8620605216595
 20
-154.5466389587592
 30
0.0
 10
100.7604302048446
 20
-154.7392197963846
 30
0.0
  0
SPLINE
  5
B4
330
AD
100
AcDbEntity
  8
_U+30EC_U+30A4_U+30E4_U+30FC 1
370
     0
100
AcDbSpline
210
0.0
220
0.0
230
1.0
 70
    11
 71
     3
 72
    17
 73
    13
 74
     0
 42
0.0000000001
 43
0.0000000001
 12
1.0
 22
0.0
 32
0.0
 13
1.0
 23
0.0
 33
0.0
 40
0.0
 40
0.0
 40
0.0
 40
0.0
 40
1.0
 40
1.0
 40
1.0
 40
2.0
 40
2.0
 40
2.0
 40
3.0
 40
3.0
 40
3.0
 40
4.0
 40
4.0
 40
4.0
 40
4.0
 10
100.3626939310725
 20
-153.5165554086695
 30
0.0
 10
100.1130967631662
 20
-153.5165554086695
 30
0.0
 10
100.0665879741153
 20
-153.8000867671055
 30
0.0
 10
100.0665879741153
 20
-154.144940825179
 30
0.0
 10
100.0665879741153
 20
-154.4643011766617
 30
0.0
 10
100.1025892219362
 20
-154.7729817321401
 30
0.0
 10
100.3626939310725
 20
-154.7729817321401
 30
0.0
 10
100.6102240416877
 20
-154.7729817321401
 30
0.0
 10
100.658972142804
 20
-154.4918619405437
 30
0.0
 10
100.658972142804
 20
-154.144940825179
 30
0.0
 10
100.658972142804
 20
-153.8252359641479
 30
0.0
 10
100.620903837692
 20
-153.5165554086695
 30
0.0
 10
100.3626939310725
 20
-153.5165554086695
 30
0.0
  0
HATCH
  5
B5
330
AD
100
AcDbEntity
  8
_U+30EC_U+30A4_U+30E4_U+30FC 1
 62
   179
420
  2234388
100
AcDbHatch
 10
0.0
 20
0.0
 30
0.0
210
0.0
220
0.0
230
1.0
  2
SOLID
 70
     1
 71
     0
 91
        2
 92
        1
 93
        1
 72
     4
 94
        3
 73
     0
 74
     1
 95
       29
 96
       25
 40
0.0
 40
0.0
 40
0.0
 40
0.0
 40
1.0
 40
1.0
 40
1.0
 40
2.0
 40
2.0
 40
2.0
 40
3.0
 40
3.0
 40
3.0
 40
4.0
 40
4.0
 40
4.0
 40
5.0
 40
5.0
 40
5.0
 40
6.0
 40
6.0
 40
6.0
 40
7.0
 40
7.0
 40
7.0
 40
8.0
 40
8.0
 40
8.0
 40
8.0
 10
100.7604302048446
 20
-154.7392197963846
 10
100.6525987161563
 20
-154.9486816018878
 10
100.479138158474
 20
-154.9676296270567
 10
100.3626939310725
 20
-154.9676296270567
 10
100.2019802266856
 20
-154.9676296270567
 10
100.0602145474676
 20
-154.9211208380058
 10
99.96495765730043
 20
-154.7392197963846
 10
99.86143253796867
 20
-154.544571901468
 10
99.84231225802554
 20
-154.3078938416314
 10
99.84231225802554
 20
-154.144940825179
 10
99.84231225802554
 20
-154.0009358338956
 10
99.85919322590327
 20
-153.7490993539238
 10
99.96495765730043
 20
-153.5503173444249
 10
100.072961400763
 20
-153.3474012203437
 10
100.2336751051499
 20
-153.323974571044
 10
100.3626939310725
 20
-153.323974571044
 10
100.5213405781683
 20
-153.323974571044
 10
100.6651733146775
 20
-153.3684163028037
 10
100.7604302048446
 20
-153.5503173444249
 10
100.8598212095941
 20
-153.7428981820504
 10
100.8830756041195
 20
-153.9713080127225
 10
100.8830756041195
 20
-154.144940825179
 10
100.8830756041195
 20
-154.316162070796
 10
100.8620605216595
 20
-154.5466389587592
 10
100.7604302048446
 20
-154.7392197963846
 97
        0
 97
        0
 92
        1
 93
        1
 72
     4
 94
        3
 73
     0
 74
     1
 95
       17
 96
       13
 40
0.0
 40
0.0
 40
0.0
 40
0.0
 40
1.0
 40
1.0
 40
1.0
 40
2.0
 40
2.0
 40
2.0
 40
3.0
 40
3.0
 40
3.0
 40
4.0
 40
4.0
 40
4.0
 40
4.0
 10
100.3626939310725
 20
-153.5165554086695
 10
100.1130967631662
 20
-153.5165554086695
 10
100.0665879741153
 20
-153.8000867671055
 10
100.0665879741153
 20
-154.144940825179
 10
100.0665879741153
 20
-154.4643011766617
 10
100.1025892219362
 20
-154.7729817321401
 10
100.3626939310725
 20
-154.7729817321401
 10
100.6102240416877
 20
-154.7729817321401
 10
100.658972142804
 20
-154.4918619405437
 10
100.658972142804
 20
-154.144940825179
 10
100.658972142804
 20
-153.8252359641479
 10
100.620903837692
 20
-153.5165554086695
 10
100.3626939310725
 20
-153.5165554086695
 97
        0
 97
        0
 75
     2
 76
     1
 98
        0
  0
ENDBLK
  5
B0
330
AD
100
AcDbEntity
  8
0
100
AcDbBlockEnd
  0
BLOCK
  5
C4
330
C2
100
AcDbEntity
  8
0
100
AcDbBlockBegin
  2
block 4
 70
     0
 10
0.0
 20
0.0
 30
0.0
  3
block 4
  1

  0
POLYLINE
  5
C6
330
C2
100
AcDbEntity
  8
_U+30EC_U+30A4_U+30E4_U+30FC 1
370
     0
100
AcDb2dPolyline
 66
     1
 10
0.0
 20
0.0
 30
0.0
  0
VERTEX
  5
C7
330
C6
100
AcDbEntity
  8
_U+30EC_U+30A4_U+30E4_U+30FC 1
370
     0
100
AcDbVertex
100
AcDb2dVertex
 10
102.5179456666448
 20
-132.5705471131247
 30
0.0
  0
VERTEX
  5
C8
330
C6
100
AcDbEntity
  8
_U+30EC_U+30A4_U+30E4_U+30FC 1
370
     0
100
AcDbVertex
100
AcDb2dVertex
 10
102.5179456666448
 20
-132.9174682284894
 30
0.0
  0
VERTEX
  5
C9
330
C6
100
AcDbEntity
  8
_U+30EC_U+30A4_U+30E4_U+30FC 1
370
     0
100
AcDbVertex
100
AcDb2dVertex
 10
102.3000433772028
 20
-132.9174682284894
 30
0.0
  0
VERTEX
  5
CA
330
C6
100
AcDbEntity
  8
_U+30EC_U+30A4_U+30E4_U+30FC 1
370
     0
100
AcDbVertex
100
AcDb2dVertex
 10
102.3000433772028
 20
-132.5705471131247
 30
0.0
  0
VERTEX
  5
CB
330
C6
100
AcDbEntity
  8
_U+30EC_U+30A4_U+30E4_U+30FC 1
370
     0
100
AcDbVertex
100
AcDb2dVertex
 10
101.6442694515855
 20
-132.5705471131247
 30
0.0
  0
VERTEX
  5
CC
330
C6
100
AcDbEntity
  8
_U+30EC_U+30A4_U+30E4_U+30FC 1
370
     0
100
AcDbVertex
100
AcDb2dVertex
 10
101.6442694515855
 20
-132.346271397035
 30
0.0
  0
VERTEX
  5
CD
330
C6
100
AcDbEntity
  8
_U+30EC_U+30A4_U+30E4_U+30FC 1
370
     0
100
AcDbVertex
100
AcDb2dVertex
 10
102.3232977717282
 20
-131.3730319224519
 30
0.0
  0
VERTEX
  5
CE
330
C6
100
AcDbEntity
  8
_U+30EC_U+30A4_U+30E4_U+30FC 1
370
     0
100
AcDbVertex
100
AcDb2dVertex
 10
102.5179456666448
 20
-131.3730319224519
 30
0.0
  0
VERTEX
  5
CF
330
C6
100
AcDbEntity
  8
_U+30EC_U+30A4_U+30E4_U+30FC 1
370
     0
100
AcDbVertex
100
AcDb2dVertex
 10
102.5179456666448
 20
-132.3717651036258
 30
0.0
  0
VERTEX
  5
D0
330
C6
100
AcDbEntity
  8
_U+30EC_U+30A4_U+30E4_U+30FC 1
370
     0
100
AcDbVertex
100
AcDb2dVertex
 10
102.7253404148569
 20
-132.3717651036258
 30
0.0
  0
VERTEX
  5
D1
330
C6
100
AcDbEntity
  8
_U+30EC_U+30A4_U+30E4_U+30FC 1
370
     0
100
AcDbVertex
100
AcDb2dVertex
 10
102.7253404148569
 20
-132.5705471131247
 30
0.0
  0
VERTEX
  5
D2
330
C6
100
AcDbEntity
  8
_U+30EC_U+30A4_U+30E4_U+30FC 1
370
     0
100
AcDbVertex
100
AcDb2dVertex
 10
102.5179456666448
 20
-132.5705471131247
 30
0.0
  0
SEQEND
  5
D3
330
C6
100
AcDbEntity
  8
_U+30EC_U+30A4_U+30E4_U+30FC 1
370
     0
  0
POLYLINE
  5
D4
330
C2
100
AcDbEntity
  8
_U+30EC_U+30A4_U+30E4_U+30FC 1
370
     0
100
AcDb2dPolyline
 66
     1
 10
0.0
 20
0.0
 30
0.0
  0
VERTEX
  5
D5
330
D4
100
AcDbEntity
  8
_U+30EC_U+30A4_U+30E4_U+30FC 1
370
     0
100
AcDbVertex
100
AcDb2dVertex
 10
102.3000433772028
 20
-131.7158189232343
 30
0.0
  0
VERTEX
  5
D6
330
D4
100
AcDbEntity
  8
_U+30EC_U+30A4_U+30E4_U+30FC 1
370
     0
100
AcDbVertex
100
AcDb2dVertex
 10
101.8432237158586
 20
-132.3717651036258
 30
0.0
  0
VERTEX
  5
D7
330
D4
100
AcDbEntity
  8
_U+30EC_U+30A4_U+30E4_U+30FC 1
370
     0
100
AcDbVertex
100
AcDb2dVertex
 10
102.3000433772028
 20
-132.3717651036258
 30
0.0
  0
VERTEX
  5
D8
330
D4
100
AcDbEntity
  8
_U+30EC_U+30A4_U+30E4_U+30FC 1
370
     0
100
AcDbVertex
100
AcDb2dVertex
 10
102.3000433772028
 20
-131.7158189232343
 30
0.0
  0
SEQEND
  5
D9
330
D4
100
AcDbEntity
  8
_U+30EC_U+30A4_U+30E4_U+30FC 1
370
     0
  0
HATCH
  5
DA
330
C2
100
AcDbEntity
  8
_U+30EC_U+30A4_U+30E4_U+30FC 1
 62
   179
420
  2234388
100
AcDbHatch
 10
0.0
 20
0.0
 30
0.0
210
0.0
220
0.0
230
1.0
  2
SOLID
 70
     1
 71
     0
 91
        2
 92
        1
 93
       11
 72
     1
 10
102.5179456666448
 20
-132.5705471131247
 11
102.5179456666448
 21
-132.9174682284894
 72
     1
 10
102.5179456666448
 20
-132.9174682284894
 11
102.3000433772028
 21
-132.9174682284894
 72
     1
 10
102.3000433772028
 20
-132.9174682284894
 11
102.3000433772028
 21
-132.5705471131247
 72
     1
 10
102.3000433772028
 20
-132.5705471131247
 11
101.6442694515855
 21
-132.5705471131247
 72
     1
 10
101.6442694515855
 20
-132.5705471131247
 11
101.6442694515855
 21
-132.346271397035
 72
     1
 10
101.6442694515855
 20
-132.346271397035
 11
102.3232977717282
 21
-131.3730319224519
 72
     1
 10
102.3232977717282
 20
-131.3730319224519
 11
102.5179456666448
 21
-131.3730319224519
 72
     1
 10
102.5179456666448
 20
-131.3730319224519
 11
102.5179456666448
 21
-132.3717651036258
 72
     1
 10
102.5179456666448
 20
-132.3717651036258
 11
102.7253404148569
 21
-132.3717651036258
 72
     1
 10
102.7253404148569
 20
-132.3717651036258
 11
102.7253404148569
 21
-132.5705471131247
 72
     1
 10
102.7253404148569
 20
-132.5705471131247
 11
102.5179456666448
 21
-132.5705471131247
 97
        0
 92
        1
 93
        3
 72
     1
 10
102.3000433772028
 20
-131.7158189232343
 11
101.8432237158586
 21
-132.3717651036258
 72
     1
 10
101.8432237158586
 20
-132.3717651036258
 11
102.3000433772028
 21
-132.3717651036258
 72
     1
 10
102.3000433772028
 20
-132.3717651036258
 11
102.3000433772028
 21
-131.7158189232343
 97
        0
 75
     2
 76
     1
 98
        0
  0
SPLINE
  5
DB
330
C2
100
AcDbEntity
  8
_U+30EC_U+30A4_U+30E4_U+30FC 1
370
     0
100
AcDbSpline
210
0.0
220
0.0
230
1.0
 70
    11
 71
     3
 72
    29
 73
    25
 74
     0
 42
0.0000000001
 43
0.0000000001
 12
1.0
 22
0.0
 32
0.0
 13
1.0
 23
0.0
 33
0.0
 40
0.0
 40
0.0
 40
0.0
 40
0.0
 40
1.0
 40
1.0
 40
1.0
 40
2.0
 40
2.0
 40
2.0
 40
3.0
 40
3.0
 40
3.0
 40
4.0
 40
4.0
 40
4.0
 40
5.0
 40
5.0
 40
5.0
 40
6.0
 40
6.0
 40
6.0
 40
7.0
 40
7.0
 40
7.0
 40
8.0
 40
8.0
 40
8.0
 40
8.0
 10
103.7604193534002
 20
-132.7397013014505
 30
0.0
 10
103.6525878647119
 20
-132.9491631069537
 30
0.0
 10
103.4791273070295
 20
-132.9681111321226
 30
0.0
 10
103.3626830796281
 20
-132.9681111321226
 30
0.0
 10
103.2019693752412
 20
-132.9681111321226
 30
0.0
 10
103.0602036960232
 20
-132.9216023430717
 30
0.0
 10
102.964946805856
 20
-132.7397013014505
 30
0.0
 10
102.8614216865242
 20
-132.5450534065339
 30
0.0
 10
102.8423014065811
 20
-132.3083753466972
 30
0.0
 10
102.8423014065811
 20
-132.1454223302449
 30
0.0
 10
102.8423014065811
 20
-132.0014173389615
 30
0.0
 10
102.8591823744588
 20
-131.7495808589897
 30
0.0
 10
102.964946805856
 20
-131.5507988494908
 30
0.0
 10
103.0729505493186
 20
-131.3478827254096
 30
0.0
 10
103.2336642537055
 20
-131.3244560761099
 30
0.0
 10
103.3626830796281
 20
-131.3244560761099
 30
0.0
 10
103.5213297267238
 20
-131.3244560761099
 30
0.0
 10
103.665162463233
 20
-131.3688978078696
 30
0.0
 10
103.7604193534002
 20
-131.5507988494908
 30
0.0
 10
103.8598103581496
 20
-131.7433796871162
 30
0.0
 10
103.8830647526751
 20
-131.9717895177883
 30
0.0
 10
103.8830647526751
 20
-132.1454223302449
 30
0.0
 10
103.8830647526751
 20
-132.3166435758618
 30
0.0
 10
103.862049670215
 20
-132.547120463825
 30
0.0
 10
103.7604193534002
 20
-132.7397013014505
 30
0.0
  0
SPLINE
  5
DC
330
C2
100
AcDbEntity
  8
_U+30EC_U+30A4_U+30E4_U+30FC 1
370
     0
100
AcDbSpline
210
0.0
220
0.0
230
1.0
 70
    11
 71
     3
 72
    17
 73
    13
 74
     0
 42
0.0000000001
 43
0.0000000001
 12
1.0
 22
0.0
 32
0.0
 13
1.0
 23
0.0
 33
0.0
 40
0.0
 40
0.0
 40
0.0
 40
0.0
 40
1.0
 40
1.0
 40
1.0
 40
2.0
 40
2.0
 40
2.0
 40
3.0
 40
3.0
 40
3.0
 40
4.0
 40
4.0
 40
4.0
 40
4.0
 10
103.3626830796281
 20
-131.5170369137353
 30
0.0
 10
103.1130859117217
 20
-131.5170369137353
 30
0.0
 10
103.0665771226709
 20
-131.8005682721714
 30
0.0
 10
103.0665771226709
 20
-132.1454223302449
 30
0.0
 10
103.0665771226709
 20
-132.4647826817276
 30
0.0
 10
103.1025783704917
 20
-132.773463237206
 30
0.0
 10
103.3626830796281
 20
-132.773463237206
 30
0.0
 10
103.6102131902433
 20
-132.773463237206
 30
0.0
 10
103.6589612913596
 20
-132.4923434456095
 30
0.0
 10
103.6589612913596
 20
-132.1454223302449
 30
0.0
 10
103.6589612913596
 20
-131.8257174692137
 30
0.0
 10
103.6208929862476
 20
-131.5170369137353
 30
0.0
 10
103.3626830796281
 20
-131.5170369137353
 30
0.0
  0
HATCH
  5
DD
330
C2
100
AcDbEntity
  8
_U+30EC_U+30A4_U+30E4_U+30FC 1
 62
   179
420
  2234388
100
AcDbHatch
 10
0.0
 20
0.0
 30
0.0
210
0.0
220
0.0
230
1.0
  2
SOLID
 70
     1
 71
     0
 91
        2
 92
        1
 93
        1
 72
     4
 94
        3
 73
     0
 74
     1
 95
       29
 96
       25
 40
0.0
 40
0.0
 40
0.0
 40
0.0
 40
1.0
 40
1.0
 40
1.0
 40
2.0
 40
2.0
 40
2.0
 40
3.0
 40
3.0
 40
3.0
 40
4.0
 40
4.0
 40
4.0
 40
5.0
 40
5.0
 40
5.0
 40
6.0
 40
6.0
 40
6.0
 40
7.0
 40
7.0
 40
7.0
 40
8.0
 40
8.0
 40
8.0
 40
8.0
 10
103.7604193534002
 20
-132.7397013014505
 10
103.6525878647119
 20
-132.9491631069537
 10
103.4791273070295
 20
-132.9681111321226
 10
103.3626830796281
 20
-132.9681111321226
 10
103.2019693752412
 20
-132.9681111321226
 10
103.0602036960232
 20
-132.9216023430717
 10
102.964946805856
 20
-132.7397013014505
 10
102.8614216865242
 20
-132.5450534065339
 10
102.8423014065811
 20
-132.3083753466972
 10
102.8423014065811
 20
-132.1454223302449
 10
102.8423014065811
 20
-132.0014173389615
 10
102.8591823744588
 20
-131.7495808589897
 10
102.964946805856
 20
-131.5507988494908
 10
103.0729505493186
 20
-131.3478827254096
 10
103.2336642537055
 20
-131.3244560761099
 10
103.3626830796281
 20
-131.3244560761099
 10
103.5213297267238
 20
-131.3244560761099
 10
103.665162463233
 20
-131.3688978078696
 10
103.7604193534002
 20
-131.5507988494908
 10
103.8598103581496
 20
-131.7433796871162
 10
103.8830647526751
 20
-131.9717895177883
 10
103.8830647526751
 20
-132.1454223302449
 10
103.8830647526751
 20
-132.3166435758618
 10
103.862049670215
 20
-132.547120463825
 10
103.7604193534002
 20
-132.7397013014505
 97
        0
 97
        0
 92
        1
 93
        1
 72
     4
 94
        3
 73
     0
 74
     1
 95
       17
 96
       13
 40
0.0
 40
0.0
 40
0.0
 40
0.0
 40
1.0
 40
1.0
 40
1.0
 40
2.0
 40
2.0
 40
2.0
 40
3.0
 40
3.0
 40
3.0
 40
4.0
 40
4.0
 40
4.0
 40
4.0
 10
103.3626830796281
 20
-131.5170369137353
 10
103.1130859117217
 20
-131.5170369137353
 10
103.0665771226709
 20
-131.8005682721714
 10
103.0665771226709
 20
-132.1454223302449
 10
103.0665771226709
 20
-132.4647826817276
 10
103.1025783704917
 20
-132.773463237206
 10
103.3626830796281
 20
-132.773463237206
 10
103.6102131902433
 20
-132.773463237206
 10
103.6589612913596
 20
-132.4923434456095
 10
103.6589612913596
 20
-132.1454223302449
 10
103.6589612913596
 20
-131.8257174692137
 10
103.6208929862476
 20
-131.5170369137353
 10
103.3626830796281
 20
-131.5170369137353
 97
        0
 97
        0
 75
     2
 76
     1
 98
        0
  0
ENDBLK
  5
C5
330
C2
100
AcDbEntity
  8
0
100
AcDbBlockEnd
  0
BLOCK
  5
EC
330
EA
100
AcDbEntity
  8
0
100
AcDbBlockBegin
  2
block 5
 70
     0
 10
0.0
 20
0.0
 30
0.0
  3
block 5
  1

  0
SPLINE
  5
EE
330
EA
100
AcDbEntity
  8
_U+30EC_U+30A4_U+30E4_U+30FC 1
370
     0
100
AcDbSpline
210
0.0
220
0.0
230
1.0
 70
    11
 71
     3
 72
    26
 73
    22
 74
     0
 42
0.0000000001
 43
0.0000000001
 12
1.0
 22
0.0
 32
0.0
 13
1.0
 23
0.0
 33
0.0
 40
0.0
 40
0.0
 40
0.0
 40
0.0
 40
1.0
 40
1.0
 40
1.0
 40
2.0
 40
2.0
 40
2.0
 40
3.0
 40
3.0
 40
3.0
 40
4.0
 40
4.0
 40
4.0
 40
5.0
 40
5.0
 40
5.0
 40
6.0
 40
6.0
 40
6.0
 40
7.0
 40
7.0
 40
7.0
 40
7.0
 10
88.13725583734069
 20
-154.9169867234235
 30
0.0
 10
88.13725583734069
 20
-154.9169867234235
 30
0.0
 10
88.13725583734069
 20
-153.812833620401
 30
0.0
 10
88.13725583734069
 20
-153.812833620401
 30
0.0
 10
88.13725583734069
 20
-153.812833620401
 30
0.0
 10
87.80721568985375
 20
-153.812833620401
 30
0.0
 10
87.80721568985375
 20
-153.812833620401
 30
0.0
 10
87.80721568985375
 20
-153.812833620401
 30
0.0
 10
87.80721568985375
 20
-153.6646945145352
 30
0.0
 10
87.80721568985375
 20
-153.6646945145352
 30
0.0
 10
88.13932289463185
 20
-153.6498806039486
 30
0.0
 10
88.18583168368271
 20
-153.4869275874963
 30
0.0
 10
88.21545950485586
 20
-153.372550417386
 30
0.0
 10
88.21545950485586
 20
-153.372550417386
 30
0.0
 10
88.36153155343045
 20
-153.372550417386
 30
0.0
 10
88.36153155343045
 20
-153.372550417386
 30
0.0
 10
88.36153155343045
 20
-153.372550417386
 30
0.0
 10
88.36153155343045
 20
-154.9169867234235
 30
0.0
 10
88.36153155343045
 20
-154.9169867234235
 30
0.0
 10
88.36153155343045
 20
-154.9169867234235
 30
0.0
 10
88.13725583734069
 20
-154.9169867234235
 30
0.0
 10
88.13725583734069
 20
-154.9169867234235
 30
0.0
  0
HATCH
  5
EF
330
EA
100
AcDbEntity
  8
_U+30EC_U+30A4_U+30E4_U+30FC 1
 62
   179
420
  2234388
100
AcDbHatch
 10
0.0
 20
0.0
 30
0.0
210
0.0
220
0.0
230
1.0
  2
SOLID
 70
     1
 71
     0
 91
        1
 92
        1
 93
        1
 72
     4
 94
        3
 73
     0
 74
     1
 95
       26
 96
       22
 40
0.0
 40
0.0
 40
0.0
 40
0.0
 40
1.0
 40
1.0
 40
1.0
 40
2.0
 40
2.0
 40
2.0
 40
3.0
 40
3.0
 40
3.0
 40
4.0
 40
4.0
 40
4.0
 40
5.0
 40
5.0
 40
5.0
 40
6.0
 40
6.0
 40
6.0
 40
7.0
 40
7.0
 40
7.0
 40
7.0
 10
88.13725583734069
 20
-154.9169867234235
 10
88.13725583734069
 20
-154.9169867234235
 10
88.13725583734069
 20
-153.812833620401
 10
88.13725583734069
 20
-153.812833620401
 10
88.13725583734069
 20
-153.812833620401
 10
87.80721568985375
 20
-153.812833620401
 10
87.80721568985375
 20
-153.812833620401
 10
87.80721568985375
 20
-153.812833620401
 10
87.80721568985375
 20
-153.6646945145352
 10
87.80721568985375
 20
-153.6646945145352
 10
88.13932289463185
 20
-153.6498806039486
 10
88.18583168368271
 20
-153.4869275874963
 10
88.21545950485586
 20
-153.372550417386
 10
88.21545950485586
 20
-153.372550417386
 10
88.36153155343045
 20
-153.372550417386
 10
88.36153155343045
 20
-153.372550417386
 10
88.36153155343045
 20
-153.372550417386
 10
88.36153155343045
 20
-154.9169867234235
 10
88.36153155343045
 20
-154.9169867234235
 10
88.36153155343045
 20
-154.9169867234235
 10
88.13725583734069
 20
-154.9169867234235
 10
88.13725583734069
 20
-154.9169867234235
 97
        0
 97
        0
 75
     2
 76
     1
 98
        0
  0
SPLINE
  5
F0
330
EA
100
AcDbEntity
  8
_U+30EC_U+30A4_U+30E4_U+30FC 1
370
     0
100
AcDbSpline
210
0.0
220
0.0
230
1.0
 70
    11
 71
     3
 72
    44
 73
    40
 74
     0
 42
0.0000000001
 43
0.0000000001
 12
1.0
 22
0.0
 32
0.0
 13
1.0
 23
0.0
 33
0.0
 40
0.0
 40
0.0
 40
0.0
 40
0.0
 40
1.0
 40
1.0
 40
1.0
 40
2.0
 40
2.0
 40
2.0
 40
3.0
 40
3.0
 40
3.0
 40
4.0
 40
4.0
 40
4.0
 40
5.0
 40
5.0
 40
5.0
 40
6.0
 40
6.0
 40
6.0
 40
7.0
 40
7.0
 40
7.0
 40
8.0
 40
8.0
 40
8.0
 40
9.0
 40
9.0
 40
9.0
 40
10.0
 40
10.0
 40
10.0
 40
11.0
 40
11.0
 40
11.0
 40
12.0
 40
12.0
 40
12.0
 40
13.0
 40
13.0
 40
13.0
 40
13.0
 10
89.45586613432006
 20
-154.3351100959648
 30
0.0
 10
89.23796384487801
 20
-154.4939289978349
 30
0.0
 10
89.144774012002
 20
-154.5679985507677
 30
0.0
 10
89.09619816565998
 20
-154.7116590325026
 30
0.0
 10
89.09619816565998
 20
-154.7116590325026
 30
0.0
 10
89.87461749055218
 20
-154.7116590325026
 30
0.0
 10
89.87461749055218
 20
-154.7116590325026
 30
0.0
 10
89.87461749055218
 20
-154.7116590325026
 30
0.0
 10
89.87461749055218
 20
-154.9169867234235
 30
0.0
 10
89.87461749055218
 20
-154.9169867234235
 30
0.0
 10
89.87461749055218
 20
-154.9169867234235
 30
0.0
 10
88.84660099775363
 20
-154.9169867234235
 30
0.0
 10
88.84660099775363
 20
-154.9169867234235
 30
0.0
 10
88.87829587621793
 20
-154.5593858120546
 30
0.0
 10
88.94375269043768
 20
-154.4811821445394
 30
0.0
 10
89.3289143656886
 20
-154.1828368755168
 30
0.0
 10
89.58488496024268
 20
-153.9840548660179
 30
0.0
 10
89.65034177446242
 20
-153.9161864849585
 30
0.0
 10
89.65034177446242
 20
-153.778727175097
 30
0.0
 10
89.65034177446242
 20
-153.6602158904044
 30
0.0
 10
89.57851153359496
 20
-153.5293022619649
 30
0.0
 10
89.38179658138719
 20
-153.5293022619649
 30
0.0
 10
89.12151961747657
 20
-153.5293022619649
 30
0.0
 10
89.11307913353771
 20
-153.7597791499281
 30
0.0
 10
89.10877276418114
 20
-153.8762233773296
 30
0.0
 10
89.10877276418114
 20
-153.8762233773296
 30
0.0
 10
88.88466930286565
 20
-153.8762233773296
 30
0.0
 10
88.88466930286565
 20
-153.8762233773296
 30
0.0
 10
88.8931097868045
 20
-153.7490993539238
 30
0.0
 10
88.90361732803451
 20
-153.6371337506532
 30
0.0
 10
88.9840603076151
 20
-153.5186224659606
 30
0.0
 10
89.09395885359457
 20
-153.3577365067995
 30
0.0
 10
89.28016626457233
 20
-153.323974571044
 30
0.0
 10
89.39661049197377
 20
-153.323974571044
 30
0.0
 10
89.67376842376211
 20
-153.323974571044
 30
0.0
 10
89.8809909171999
 20
-153.5079426699563
 30
0.0
 10
89.8809909171999
 20
-153.7807942323881
 30
0.0
 10
89.8809909171999
 20
-154.0095485726087
 30
0.0
 10
89.7647189445727
 20
-154.1087673225839
 30
0.0
 10
89.45586613432006
 20
-154.3351100959648
 30
0.0
  0
HATCH
  5
F1
330
EA
100
AcDbEntity
  8
_U+30EC_U+30A4_U+30E4_U+30FC 1
 62
   179
420
  2234388
100
AcDbHatch
 10
0.0
 20
0.0
 30
0.0
210
0.0
220
0.0
230
1.0
  2
SOLID
 70
     1
 71
     0
 91
        1
 92
        1
 93
        1
 72
     4
 94
        3
 73
     0
 74
     1
 95
       44
 96
       40
 40
0.0
 40
0.0
 40
0.0
 40
0.0
 40
1.0
 40
1.0
 40
1.0
 40
2.0
 40
2.0
 40
2.0
 40
3.0
 40
3.0
 40
3.0
 40
4.0
 40
4.0
 40
4.0
 40
5.0
 40
5.0
 40
5.0
 40
6.0
 40
6.0
 40
6.0
 40
7.0
 40
7.0
 40
7.0
 40
8.0
 40
8.0
 40
8.0
 40
9.0
 40
9.0
 40
9.0
 40
10.0
 40
10.0
 40
10.0
 40
11.0
 40
11.0
 40
11.0
 40
12.0
 40
12.0
 40
12.0
 40
13.0
 40
13.0
 40
13.0
 40
13.0
 10
89.45586613432006
 20
-154.3351100959648
 10
89.23796384487801
 20
-154.4939289978349
 10
89.144774012002
 20
-154.5679985507677
 10
89.09619816565998
 20
-154.7116590325026
 10
89.09619816565998
 20
-154.7116590325026
 10
89.87461749055218
 20
-154.7116590325026
 10
89.87461749055218
 20
-154.7116590325026
 10
89.87461749055218
 20
-154.7116590325026
 10
89.87461749055218
 20
-154.9169867234235
 10
89.87461749055218
 20
-154.9169867234235
 10
89.87461749055218
 20
-154.9169867234235
 10
88.84660099775363
 20
-154.9169867234235
 10
88.84660099775363
 20
-154.9169867234235
 10
88.87829587621793
 20
-154.5593858120546
 10
88.94375269043768
 20
-154.4811821445394
 10
89.3289143656886
 20
-154.1828368755168
 10
89.58488496024268
 20
-153.9840548660179
 10
89.65034177446242
 20
-153.9161864849585
 10
89.65034177446242
 20
-153.778727175097
 10
89.65034177446242
 20
-153.6602158904044
 10
89.57851153359496
 20
-153.5293022619649
 10
89.38179658138719
 20
-153.5293022619649
 10
89.12151961747657
 20
-153.5293022619649
 10
89.11307913353771
 20
-153.7597791499281
 10
89.10877276418114
 20
-153.8762233773296
 10
89.10877276418114
 20
-153.8762233773296
 10
88.88466930286565
 20
-153.8762233773296
 10
88.88466930286565
 20
-153.8762233773296
 10
88.8931097868045
 20
-153.7490993539238
 10
88.90361732803451
 20
-153.6371337506532
 10
88.9840603076151
 20
-153.5186224659606
 10
89.09395885359457
 20
-153.3577365067995
 10
89.28016626457233
 20
-153.323974571044
 10
89.39661049197377
 20
-153.323974571044
 10
89.67376842376211
 20
-153.323974571044
 10
89.8809909171999
 20
-153.5079426699563
 10
89.8809909171999
 20
-153.7807942323881
 10
89.8809909171999
 20
-154.0095485726087
 10
89.7647189445727
 20
-154.1087673225839
 10
89.45586613432006
 20
-154.3351100959648
 97
        0
 97
        0
 75
     2
 76
     1
 98
        0
  0
ENDBLK
  5
ED
330
EA
100
AcDbEntity
  8
0
100
AcDbBlockEnd
  0
BLOCK
  5
FC
330
FA
100
AcDbEntity
  8
0
100
AcDbBlockBegin
  2
block 6
 70
     0
 10
0.0
 20
0.0
 30
0.0
  3
block 6
  1

  0
SPLINE
  5
FE
330
FA
100
AcDbEntity
  8
_U+30EC_U+30A4_U+30E4_U+30FC 1
370
     0
100
AcDbSpline
210
0.0
220
0.0
230
1.0
 70
    11
 71
     3
 72
    26
 73
    22
 74
     0
 42
0.0000000001
 43
0.0000000001
 12
1.0
 22
0.0
 32
0.0
 13
1.0
 23
0.0
 33
0.0
 40
0.0
 40
0.0
 40
0.0
 40
0.0
 40
1.0
 40
1.0
 40
1.0
 40
2.0
 40
2.0
 40
2.0
 40
3.0
 40
3.0
 40
3.0
 40
4.0
 40
4.0
 40
4.0
 40
5.0
 40
5.0
 40
5.0
 40
6.0
 40
6.0
 40
6.0
 40
7.0
 40
7.0
 40
7.0
 40
7.0
 10
125.1878797430086
 20
-144.2001559426826
 30
0.0
 10
125.1878797430086
 20
-144.2001559426826
 30
0.0
 10
124.0833821304375
 20
-144.2001559426826
 30
0.0
 10
124.0833821304375
 20
-144.2001559426826
 30
0.0
 10
124.0833821304375
 20
-144.2001559426826
 30
0.0
 10
124.0833821304375
 20
-144.5301960901695
 30
0.0
 10
124.0833821304375
 20
-144.5301960901695
 30
0.0
 10
124.0833821304375
 20
-144.5301960901695
 30
0.0
 10
123.9352430245717
 20
-144.5301960901695
 30
0.0
 10
123.9352430245717
 20
-144.5301960901695
 30
0.0
 10
123.9207736235337
 20
-144.1980888853915
 30
0.0
 10
123.7574760975329
 20
-144.1515800963406
 30
0.0
 10
123.6430989274226
 20
-144.1219522751674
 30
0.0
 10
123.6430989274226
 20
-144.1219522751674
 30
0.0
 10
123.6430989274226
 20
-143.9758802265928
 30
0.0
 10
123.6430989274226
 20
-143.9758802265928
 30
0.0
 10
123.6430989274226
 20
-143.9758802265928
 30
0.0
 10
125.1878797430086
 20
-143.9758802265928
 30
0.0
 10
125.1878797430086
 20
-143.9758802265928
 30
0.0
 10
125.1878797430086
 20
-143.9758802265928
 30
0.0
 10
125.1878797430086
 20
-144.2001559426826
 30
0.0
 10
125.1878797430086
 20
-144.2001559426826
 30
0.0
  0
HATCH
  5
FF
330
FA
100
AcDbEntity
  8
_U+30EC_U+30A4_U+30E4_U+30FC 1
 62
   179
420
  2234388
100
AcDbHatch
 10
0.0
 20
0.0
 30
0.0
210
0.0
220
0.0
230
1.0
  2
SOLID
 70
     1
 71
     0
 91
        1
 92
        1
 93
        1
 72
     4
 94
        3
 73
     0
 74
     1
 95
       26
 96
       22
 40
0.0
 40
0.0
 40
0.0
 40
0.0
 40
1.0
 40
1.0
 40
1.0
 40
2.0
 40
2.0
 40
2.0
 40
3.0
 40
3.0
 40
3.0
 40
4.0
 40
4.0
 40
4.0
 40
5.0
 40
5.0
 40
5.0
 40
6.0
 40
6.0
 40
6.0
 40
7.0
 40
7.0
 40
7.0
 40
7.0
 10
125.1878797430086
 20
-144.2001559426826
 10
125.1878797430086
 20
-144.2001559426826
 10
124.0833821304375
 20
-144.2001559426826
 10
124.0833821304375
 20
-144.2001559426826
 10
124.0833821304375
 20
-144.2001559426826
 10
124.0833821304375
 20
-144.5301960901695
 10
124.0833821304375
 20
-144.5301960901695
 10
124.0833821304375
 20
-144.5301960901695
 10
123.9352430245717
 20
-144.5301960901695
 10
123.9352430245717
 20
-144.5301960901695
 10
123.9207736235337
 20
-144.1980888853915
 10
123.7574760975329
 20
-144.1515800963406
 10
123.6430989274226
 20
-144.1219522751674
 10
123.6430989274226
 20
-144.1219522751674
 10
123.6430989274226
 20
-143.9758802265928
 10
123.6430989274226
 20
-143.9758802265928
 10
123.6430989274226
 20
-143.9758802265928
 10
125.1878797430086
 20
-143.9758802265928
 10
125.1878797430086
 20
-143.9758802265928
 10
125.1878797430086
 20
-143.9758802265928
 10
125.1878797430086
 20
-144.2001559426826
 10
125.1878797430086
 20
-144.2001559426826
 97
        0
 97
        0
 75
     2
 76
     1
 98
        0
  0
SPLINE
  5
100
330
FA
100
AcDbEntity
  8
_U+30EC_U+30A4_U+30E4_U+30FC 1
370
     0
100
AcDbSpline
210
0.0
220
0.0
230
1.0
 70
    11
 71
     3
 72
    29
 73
    25
 74
     0
 42
0.0000000001
 43
0.0000000001
 12
1.0
 22
0.0
 32
0.0
 13
1.0
 23
0.0
 33
0.0
 40
0.0
 40
0.0
 40
0.0
 40
0.0
 40
1.0
 40
1.0
 40
1.0
 40
2.0
 40
2.0
 40
2.0
 40
3.0
 40
3.0
 40
3.0
 40
4.0
 40
4.0
 40
4.0
 40
5.0
 40
5.0
 40
5.0
 40
6.0
 40
6.0
 40
6.0
 40
7.0
 40
7.0
 40
7.0
 40
8.0
 40
8.0
 40
8.0
 40
8.0
 10
125.0101128159697
 20
-142.5769992048072
 30
0.0
 10
125.2195746214729
 20
-142.6848306934955
 30
0.0
 10
125.2381781370932
 20
-142.8582912511778
 30
0.0
 10
125.2381781370932
 20
-142.9747354785792
 30
0.0
 10
125.2381781370932
 20
-143.1354491829661
 30
0.0
 10
125.1920138575909
 20
-143.2772148621842
 30
0.0
 10
125.0101128159697
 20
-143.3724717523513
 30
0.0
 10
124.8151204115046
 20
-143.4759968716831
 30
0.0
 10
124.5780978421194
 20
-143.4951171516262
 30
0.0
 10
124.4154893352156
 20
-143.4951171516262
 30
0.0
 10
124.2714843439321
 20
-143.4951171516262
 30
0.0
 10
124.0199923735089
 20
-143.4782361837485
 30
0.0
 10
123.8208658544615
 20
-143.3724717523513
 30
0.0
 10
123.6182942399288
 20
-143.2644680088887
 30
0.0
 10
123.5948675906291
 20
-143.1037543045018
 30
0.0
 10
123.5948675906291
 20
-142.9747354785792
 30
0.0
 10
123.5948675906291
 20
-142.8160888314835
 30
0.0
 10
123.6389648128403
 20
-142.6722560949743
 30
0.0
 10
123.8208658544615
 20
-142.5769992048072
 30
0.0
 10
124.0137912016354
 20
-142.4776082000577
 30
0.0
 10
124.241856522759
 20
-142.4543538055323
 30
0.0
 10
124.4154893352156
 20
-142.4543538055323
 30
0.0
 10
124.587055090381
 20
-142.4543538055323
 30
0.0
 10
124.8171874687957
 20
-142.4753688879923
 30
0.0
 10
125.0101128159697
 20
-142.5769992048072
 30
0.0
  0
SPLINE
  5
101
330
FA
100
AcDbEntity
  8
_U+30EC_U+30A4_U+30E4_U+30FC 1
370
     0
100
AcDbSpline
210
0.0
220
0.0
230
1.0
 70
    11
 71
     3
 72
    17
 73
    13
 74
     0
 42
0.0000000001
 43
0.0000000001
 12
1.0
 22
0.0
 32
0.0
 13
1.0
 23
0.0
 33
0.0
 40
0.0
 40
0.0
 40
0.0
 40
0.0
 40
1.0
 40
1.0
 40
1.0
 40
2.0
 40
2.0
 40
2.0
 40
3.0
 40
3.0
 40
3.0
 40
4.0
 40
4.0
 40
4.0
 40
4.0
 10
123.787103918706
 20
-142.9747354785792
 30
0.0
 10
123.787103918706
 20
-143.2243326464856
 30
0.0
 10
124.0709797866906
 20
-143.2708414355365
 30
0.0
 10
124.4154893352156
 20
-143.2708414355365
 30
0.0
 10
124.7351941962468
 20
-143.2708414355365
 30
0.0
 10
125.0438747517251
 20
-143.2348401877156
 30
0.0
 10
125.0438747517251
 20
-142.9747354785792
 30
0.0
 10
125.0438747517251
 20
-142.727205367964
 30
0.0
 10
124.7627549601288
 20
-142.6784572668477
 30
0.0
 10
124.4154893352156
 20
-142.6784572668477
 30
0.0
 10
124.0957844741844
 20
-142.6784572668477
 30
0.0
 10
123.787103918706
 20
-142.7165255719598
 30
0.0
 10
123.787103918706
 20
-142.9747354785792
 30
0.0
  0
HATCH
  5
102
330
FA
100
AcDbEntity
  8
_U+30EC_U+30A4_U+30E4_U+30FC 1
 62
   179
420
  2234388
100
AcDbHatch
 10
0.0
 20
0.0
 30
0.0
210
0.0
220
0.0
230
1.0
  2
SOLID
 70
     1
 71
     0
 91
        2
 92
        1
 93
        1
 72
     4
 94
        3
 73
     0
 74
     1
 95
       29
 96
       25
 40
0.0
 40
0.0
 40
0.0
 40
0.0
 40
1.0
 40
1.0
 40
1.0
 40
2.0
 40
2.0
 40
2.0
 40
3.0
 40
3.0
 40
3.0
 40
4.0
 40
4.0
 40
4.0
 40
5.0
 40
5.0
 40
5.0
 40
6.0
 40
6.0
 40
6.0
 40
7.0
 40
7.0
 40
7.0
 40
8.0
 40
8.0
 40
8.0
 40
8.0
 10
125.0101128159697
 20
-142.5769992048072
 10
125.2195746214729
 20
-142.6848306934955
 10
125.2381781370932
 20
-142.8582912511778
 10
125.2381781370932
 20
-142.9747354785792
 10
125.2381781370932
 20
-143.1354491829661
 10
125.1920138575909
 20
-143.2772148621842
 10
125.0101128159697
 20
-143.3724717523513
 10
124.8151204115046
 20
-143.4759968716831
 10
124.5780978421194
 20
-143.4951171516262
 10
124.4154893352156
 20
-143.4951171516262
 10
124.2714843439321
 20
-143.4951171516262
 10
124.0199923735089
 20
-143.4782361837485
 10
123.8208658544615
 20
-143.3724717523513
 10
123.6182942399288
 20
-143.2644680088887
 10
123.5948675906291
 20
-143.1037543045018
 10
123.5948675906291
 20
-142.9747354785792
 10
123.5948675906291
 20
-142.8160888314835
 10
123.6389648128403
 20
-142.6722560949743
 10
123.8208658544615
 20
-142.5769992048072
 10
124.0137912016354
 20
-142.4776082000577
 10
124.241856522759
 20
-142.4543538055323
 10
124.4154893352156
 20
-142.4543538055323
 10
124.587055090381
 20
-142.4543538055323
 10
124.8171874687957
 20
-142.4753688879923
 10
125.0101128159697
 20
-142.5769992048072
 97
        0
 97
        0
 92
        1
 93
        1
 72
     4
 94
        3
 73
     0
 74
     1
 95
       17
 96
       13
 40
0.0
 40
0.0
 40
0.0
 40
0.0
 40
1.0
 40
1.0
 40
1.0
 40
2.0
 40
2.0
 40
2.0
 40
3.0
 40
3.0
 40
3.0
 40
4.0
 40
4.0
 40
4.0
 40
4.0
 10
123.787103918706
 20
-142.9747354785792
 10
123.787103918706
 20
-143.2243326464856
 10
124.0709797866906
 20
-143.2708414355365
 10
124.4154893352156
 20
-143.2708414355365
 10
124.7351941962468
 20
-143.2708414355365
 10
125.0438747517251
 20
-143.2348401877156
 10
125.0438747517251
 20
-142.9747354785792
 10
125.0438747517251
 20
-142.727205367964
 10
124.7627549601288
 20
-142.6784572668477
 10
124.4154893352156
 20
-142.6784572668477
 10
124.0957844741844
 20
-142.6784572668477
 10
123.787103918706
 20
-142.7165255719598
 10
123.787103918706
 20
-142.9747354785792
 97
        0
 97
        0
 75
     2
 76
     1
 98
        0
  0
ENDBLK
  5
FD
330
FA
100
AcDbEntity
  8
0
100
AcDbBlockEnd
  0
BLOCK
  5
10D
330
10B
100
AcDbEntity
  8
0
100
AcDbBlockBegin
  2
block 7
 70
     0
 10
0.0
 20
0.0
 30
0.0
  3
block 7
  1

  0
SPLINE
  5
10F
330
10B
100
AcDbEntity
  8
_U+30EC_U+30A4_U+30E4_U+30FC 1
370
     0
100
AcDbSpline
210
0.0
220
0.0
230
1.0
 70
    11
 71
     3
 72
    62
 73
    58
 74
     0
 42
0.0000000001
 43
0.0000000001
 12
1.0
 22
0.0
 32
0.0
 13
1.0
 23
0.0
 33
0.0
 40
0.0
 40
0.0
 40
0.0
 40
0.0
 40
1.0
 40
1.0
 40
1.0
 40
2.0
 40
2.0
 40
2.0
 40
3.0
 40
3.0
 40
3.0
 40
4.0
 40
4.0
 40
4.0
 40
5.0
 40
5.0
 40
5.0
 40
6.0
 40
6.0
 40
6.0
 40
7.0
 40
7.0
 40
7.0
 40
8.0
 40
8.0
 40
8.0
 40
9.0
 40
9.0
 40
9.0
 40
10.0
 40
10.0
 40
10.0
 40
11.0
 40
11.0
 40
11.0
 40
12.0
 40
12.0
 40
12.0
 40
13.0
 40
13.0
 40
13.0
 40
14.0
 40
14.0
 40
14.0
 40
15.0
 40
15.0
 40
15.0
 40
16.0
 40
16.0
 40
16.0
 40
17.0
 40
17.0
 40
17.0
 40
18.0
 40
18.0
 40
18.0
 40
19.0
 40
19.0
 40
19.0
 40
19.0
 10
125.2381781370932
 20
-150.0711154138711
 30
0.0
 10
125.2381781370932
 20
-150.166200049264
 30
0.0
 10
125.2171630546332
 20
-150.3842745934803
 30
0.0
 10
125.0311278984297
 20
-150.5089870500464
 30
0.0
 10
124.9188177856106
 20
-150.5830566029792
 30
0.0
 10
124.8195990356354
 20
-150.5871907175616
 30
0.0
 10
124.7348496866982
 20
-150.5913248321438
 30
0.0
 10
124.7348496866982
 20
-150.5913248321438
 30
0.0
 10
124.7348496866982
 20
-150.3715277401849
 30
0.0
 10
124.7348496866982
 20
-150.3715277401849
 30
0.0
 10
124.8089192396311
 20
-150.3694606828938
 30
0.0
 10
125.0435302421766
 20
-150.3587808868895
 30
0.0
 10
125.0435302421766
 20
-150.0752495284534
 30
0.0
 10
125.0435302421766
 20
-149.9377902185919
 30
0.0
 10
124.9739393133746
 20
-149.7855169981439
 30
0.0
 10
124.7455294827025
 20
-149.7855169981439
 30
0.0
 10
124.6290852553011
 20
-149.7855169981439
 30
0.0
 10
124.580509408959
 20
-149.8237575580302
 30
0.0
 10
124.5488145304948
 20
-149.8554524364945
 30
0.0
 10
124.4747449775619
 20
-149.9291774798788
 30
0.0
 10
124.4619981242664
 20
-150.0456217072803
 30
0.0
 10
124.4619981242664
 20
-150.1007432350443
 30
0.0
 10
124.4619981242664
 20
-150.1196912602131
 30
0.0
 10
124.4640651815576
 20
-150.1558647628082
 30
0.0
 10
124.4681992961399
 20
-150.1834255266903
 30
0.0
 10
124.4681992961399
 20
-150.1834255266903
 30
0.0
 10
124.2735514012233
 20
-150.1834255266903
 30
0.0
 10
124.2735514012233
 20
-150.1834255266903
 30
0.0
 10
124.2800970826453
 20
-150.145184966804
 30
0.0
 10
124.2821641399364
 20
-150.1028102923354
 30
0.0
 10
124.2821641399364
 20
-150.096609120462
 30
0.0
 10
124.2821641399364
 20
-150.0311523062422
 30
0.0
 10
124.2608045479279
 20
-149.8320257871948
 30
0.0
 10
124.0241264880912
 20
-149.8320257871948
 30
0.0
 10
123.8463595610523
 20
-149.8320257871948
 30
0.0
 10
123.7912380332883
 20
-149.9632839251828
 30
0.0
 10
123.7912380332883
 20
-150.0731824711623
 30
0.0
 10
123.7912380332883
 20
-150.3377658044295
 30
0.0
 10
124.0241264880912
 20
-150.3460340335941
 30
0.0
 10
124.0957844741844
 20
-150.3501681481764
 30
0.0
 10
124.0957844741844
 20
-150.3501681481764
 30
0.0
 10
124.0957844741844
 20
-150.5534287818061
 30
0.0
 10
124.0957844741844
 20
-150.5534287818061
 30
0.0
 10
123.9710720176184
 20
-150.5451605526415
 30
0.0
 10
123.5945230810805
 20
-150.5175997887595
 30
0.0
 10
123.5945230810805
 20
-150.0607801274154
 30
0.0
 10
123.5945230810805
 20
-149.8361599017771
 30
0.0
 10
123.7216471044863
 20
-149.5950032178096
 30
0.0
 10
124.0175808066692
 20
-149.5950032178096
 30
0.0
 10
124.2039604724212
 20
-149.5950032178096
 30
0.0
 10
124.2862982545187
 20
-149.6900878532025
 30
0.0
 10
124.3476209541562
 20
-149.7899956222747
 30
0.0
 10
124.3751817180381
 20
-149.7283284130887
 30
0.0
 10
124.4554524428445
 20
-149.5464273714676
 30
0.0
 10
124.7327826294071
 20
-149.5464273714676
 30
0.0
 10
125.0710910060586
 20
-149.5464273714676
 30
0.0
 10
125.2381781370932
 20
-149.794129736857
 30
0.0
 10
125.2381781370932
 20
-150.0711154138711
 30
0.0
  0
HATCH
  5
110
330
10B
100
AcDbEntity
  8
_U+30EC_U+30A4_U+30E4_U+30FC 1
 62
   179
420
  2234388
100
AcDbHatch
 10
0.0
 20
0.0
 30
0.0
210
0.0
220
0.0
230
1.0
  2
SOLID
 70
     1
 71
     0
 91
        1
 92
        1
 93
        1
 72
     4
 94
        3
 73
     0
 74
     1
 95
       62
 96
       58
 40
0.0
 40
0.0
 40
0.0
 40
0.0
 40
1.0
 40
1.0
 40
1.0
 40
2.0
 40
2.0
 40
2.0
 40
3.0
 40
3.0
 40
3.0
 40
4.0
 40
4.0
 40
4.0
 40
5.0
 40
5.0
 40
5.0
 40
6.0
 40
6.0
 40
6.0
 40
7.0
 40
7.0
 40
7.0
 40
8.0
 40
8.0
 40
8.0
 40
9.0
 40
9.0
 40
9.0
 40
10.0
 40
10.0
 40
10.0
 40
11.0
 40
11.0
 40
11.0
 40
12.0
 40
12.0
 40
12.0
 40
13.0
 40
13.0
 40
13.0
 40
14.0
 40
14.0
 40
14.0
 40
15.0
 40
15.0
 40
15.0
 40
16.0
 40
16.0
 40
16.0
 40
17.0
 40
17.0
 40
17.0
 40
18.0
 40
18.0
 40
18.0
 40
19.0
 40
19.0
 40
19.0
 40
19.0
 10
125.2381781370932
 20
-150.0711154138711
 10
125.2381781370932
 20
-150.166200049264
 10
125.2171630546332
 20
-150.3842745934803
 10
125.0311278984297
 20
-150.5089870500464
 10
124.9188177856106
 20
-150.5830566029792
 10
124.8195990356354
 20
-150.5871907175616
 10
124.7348496866982
 20
-150.5913248321438
 10
124.7348496866982
 20
-150.5913248321438
 10
124.7348496866982
 20
-150.3715277401849
 10
124.7348496866982
 20
-150.3715277401849
 10
124.8089192396311
 20
-150.3694606828938
 10
125.0435302421766
 20
-150.3587808868895
 10
125.0435302421766
 20
-150.0752495284534
 10
125.0435302421766
 20
-149.9377902185919
 10
124.9739393133746
 20
-149.7855169981439
 10
124.7455294827025
 20
-149.7855169981439
 10
124.6290852553011
 20
-149.7855169981439
 10
124.580509408959
 20
-149.8237575580302
 10
124.5488145304948
 20
-149.8554524364945
 10
124.4747449775619
 20
-149.9291774798788
 10
124.4619981242664
 20
-150.0456217072803
 10
124.4619981242664
 20
-150.1007432350443
 10
124.4619981242664
 20
-150.1196912602131
 10
124.4640651815576
 20
-150.1558647628082
 10
124.4681992961399
 20
-150.1834255266903
 10
124.4681992961399
 20
-150.1834255266903
 10
124.2735514012233
 20
-150.1834255266903
 10
124.2735514012233
 20
-150.1834255266903
 10
124.2800970826453
 20
-150.145184966804
 10
124.2821641399364
 20
-150.1028102923354
 10
124.2821641399364
 20
-150.096609120462
 10
124.2821641399364
 20
-150.0311523062422
 10
124.2608045479279
 20
-149.8320257871948
 10
124.0241264880912
 20
-149.8320257871948
 10
123.8463595610523
 20
-149.8320257871948
 10
123.7912380332883
 20
-149.9632839251828
 10
123.7912380332883
 20
-150.0731824711623
 10
123.7912380332883
 20
-150.3377658044295
 10
124.0241264880912
 20
-150.3460340335941
 10
124.0957844741844
 20
-150.3501681481764
 10
124.0957844741844
 20
-150.3501681481764
 10
124.0957844741844
 20
-150.5534287818061
 10
124.0957844741844
 20
-150.5534287818061
 10
123.9710720176184
 20
-150.5451605526415
 10
123.5945230810805
 20
-150.5175997887595
 10
123.5945230810805
 20
-150.0607801274154
 10
123.5945230810805
 20
-149.8361599017771
 10
123.7216471044863
 20
-149.5950032178096
 10
124.0175808066692
 20
-149.5950032178096
 10
124.2039604724212
 20
-149.5950032178096
 10
124.2862982545187
 20
-149.6900878532025
 10
124.3476209541562
 20
-149.7899956222747
 10
124.3751817180381
 20
-149.7283284130887
 10
124.4554524428445
 20
-149.5464273714676
 10
124.7327826294071
 20
-149.5464273714676
 10
125.0710910060586
 20
-149.5464273714676
 10
125.2381781370932
 20
-149.794129736857
 10
125.2381781370932
 20
-150.0711154138711
 97
        0
 97
        0
 75
     2
 76
     1
 98
        0
  0
ENDBLK
  5
10E
330
10B
100
AcDbEntity
  8
0
100
AcDbBlockEnd
  0
ENDSEC
  0
SECTION
  2
ENTITIES
  0
POLYLINE
  5
41
330
1F
100
AcDbEntity
  8
_U+30EC_U+30A4_U+30E4_U+30FC 1
  6
AI-Linetype-1
 62
   154
420
    23468
370
    25
100
AcDb2dPolyline
 66
     1
 10
0.0
 20
0.0
 30
0.0
  0
VERTEX
  5
42
330
41
100
AcDbEntity
  8
_U+30EC_U+30A4_U+30E4_U+30FC 1
  6
AI-Linetype-1
 62
   154
420
    23468
370
    25
100
AcDbVertex
100
AcDb2dVertex
 10
82.24558811250881
 20
-137.3522319874176
 30
0.0
  0
VERTEX
  5
43
330
41
100
AcDbEntity
  8
_U+30EC_U+30A4_U+30E4_U+30FC 1
  6
AI-Linetype-1
 62
   154
420
    23468
370
    25
100
AcDbVertex
100
AcDb2dVertex
 10
82.24558811250881
 20
-139.1528111427834
 30
0.0
  0
VERTEX
  5
44
330
41
100
AcDbEntity
  8
_U+30EC_U+30A4_U+30E4_U+30FC 1
  6
AI-Linetype-1
 62
   154
420
    23468
370
    25
100
AcDbVertex
100
AcDb2dVertex
 10
94.20228184358268
 20
-139.1528111427834
 30
0.0
  0
VERTEX
  5
45
330
41
100
AcDbEntity
  8
_U+30EC_U+30A4_U+30E4_U+30FC 1
  6
AI-Linetype-1
 62
   154
420
    23468
370
    25
100
AcDbVertex
100
AcDb2dVertex
 10
94.20228184358268
 20
-152.1643123670154
 30
0.0
  0
VERTEX
  5
46
330
41
100
AcDbEntity
  8
_U+30EC_U+30A4_U+30E4_U+30FC 1
  6
AI-Linetype-1
 62
   154
420
    23468
370
    25
100
AcDbVertex
100
AcDb2dVertex
 10
105.402976285227
 20
-152.1643123670154
 30
0.0
  0
VERTEX
  5
47
330
41
100
AcDbEntity
  8
_U+30EC_U+30A4_U+30E4_U+30FC 1
  6
AI-Linetype-1
 62
   154
420
    23468
370
    25
100
AcDbVertex
100
AcDb2dVertex
 10
105.402976285227
 20
-148.5014222515574
 30
0.0
  0
SEQEND
  5
49
330
41
100
AcDbEntity
  8
_U+30EC_U+30A4_U+30E4_U+30FC 1
  6
AI-Linetype-1
 62
   154
420
    23468
370
    25
  0
SPLINE
  5
4A
330
1F
100
AcDbEntity
  8
_U+30EC_U+30A4_U+30E4_U+30FC 1
370
     0
100
AcDbSpline
210
0.0
220
0.0
230
1.0
 70
    11
 71
     3
 72
    62
 73
    58
 74
     0
 42
0.0000000001
 43
0.0000000001
 12
1.0
 22
0.0
 32
0.0
 13
1.0
 23
0.0
 33
0.0
 40
0.0
 40
0.0
 40
0.0
 40
0.0
 40
1.0
 40
1.0
 40
1.0
 40
2.0
 40
2.0
 40
2.0
 40
3.0
 40
3.0
 40
3.0
 40
4.0
 40
4.0
 40
4.0
 40
5.0
 40
5.0
 40
5.0
 40
6.0
 40
6.0
 40
6.0
 40
7.0
 40
7.0
 40
7.0
 40
8.0
 40
8.0
 40
8.0
 40
9.0
 40
9.0
 40
9.0
 40
10.0
 40
10.0
 40
10.0
 40
11.0
 40
11.0
 40
11.0
 40
12.0
 40
12.0
 40
12.0
 40
13.0
 40
13.0
 40
13.0
 40
14.0
 40
14.0
 40
14.0
 40
15.0
 40
15.0
 40
15.0
 40
16.0
 40
16.0
 40
16.0
 40
17.0
 40
17.0
 40
17.0
 40
18.0
 40
18.0
 40
18.0
 40
19.0
 40
19.0
 40
19.0
 40
19.0
 10
82.77475477904319
 20
-138.5632153482531
 30
0.0
 10
82.77475477904319
 20
-138.5632153482531
 30
0.0
 10
94.77484056434612
 20
-138.5632153482531
 30
0.0
 10
94.77484056434612
 20
-138.5632153482531
 30
0.0
 10
94.77484056434612
 20
-138.5632153482531
 30
0.0
 10
94.77484056434612
 20
-151.5634338847708
 30
0.0
 10
94.77484056434612
 20
-151.5634338847708
 30
0.0
 10
94.77484056434612
 20
-151.5634338847708
 30
0.0
 10
104.7746769961045
 20
-151.5634338847708
 30
0.0
 10
104.7746769961045
 20
-151.5634338847708
 30
0.0
 10
104.7746769961045
 20
-151.5634338847708
 30
0.0
 10
104.7746769961045
 20
-148.5634124384454
 30
0.0
 10
104.7746769961045
 20
-148.5634124384454
 30
0.0
 10
104.7746769961045
 20
-148.5634124384454
 30
0.0
 10
103.774910286285
 20
-148.5634124384454
 30
0.0
 10
103.774910286285
 20
-148.5634124384454
 30
0.0
 10
103.774910286285
 20
-148.5634124384454
 30
0.0
 10
103.774910286285
 20
-150.5636564090279
 30
0.0
 10
103.774910286285
 20
-150.5636564090279
 30
0.0
 10
103.774910286285
 20
-150.5636564090279
 30
0.0
 10
95.6747802495188
 20
-150.5636564090279
 30
0.0
 10
95.6747802495188
 20
-150.5636564090279
 30
0.0
 10
95.6747802495188
 20
-150.5636564090279
 30
0.0
 10
95.6747802495188
 20
-138.5632153482531
 30
0.0
 10
95.6747802495188
 20
-138.5632153482531
 30
0.0
 10
95.6747802495188
 20
-138.5632153482531
 30
0.0
 10
113.9765378031302
 20
-138.5632153482531
 30
0.0
 10
113.9765378031302
 20
-138.5632153482531
 30
0.0
 10
113.9867654303521
 20
-138.6443581128541
 30
0.0
 10
114.0460318386217
 20
-138.7113867518893
 30
0.0
 10
114.1246984408427
 20
-138.7318527722561
 30
0.0
 10
114.2887388155576
 20
-138.7741843830311
 30
0.0
 10
114.4608966965096
 20
-138.7741843830311
 30
0.0
 10
114.6249370712244
 20
-138.7318527722561
 30
0.0
 10
114.7131315156468
 20
-138.7089213554324
 30
0.0
 10
114.7748740862965
 20
-138.6295442022675
 30
0.0
 10
114.7748740862965
 20
-138.5381738104447
 30
0.0
 10
114.7748740862965
 20
-138.6295442022675
 30
0.0
 10
114.8362506155509
 20
-138.7089213554324
 30
0.0
 10
114.9251556109172
 20
-138.7318527722561
 30
0.0
 10
115.089195985632
 20
-138.7741843830311
 30
0.0
 10
115.2606433156401
 20
-138.7741843830311
 30
0.0
 10
115.424683690355
 20
-138.7318527722561
 30
0.0
 10
115.5040608435198
 20
-138.7113867518893
 30
0.0
 10
115.5626274667691
 20
-138.6443581128541
 30
0.0
 10
115.5735548790114
 20
-138.5632153482531
 30
0.0
 10
115.5735548790114
 20
-138.5632153482531
 30
0.0
 10
122.7751609495308
 20
-138.5632153482531
 30
0.0
 10
122.7751609495308
 20
-138.5632153482531
 30
0.0
 10
122.7751609495308
 20
-138.5632153482531
 30
0.0
 10
122.7751609495308
 20
-137.5634486384336
 30
0.0
 10
122.7751609495308
 20
-137.5634486384336
 30
0.0
 10
122.7751609495308
 20
-137.5634486384336
 30
0.0
 10
82.77475477904319
 20
-137.5634486384336
 30
0.0
 10
82.77475477904319
 20
-137.5634486384336
 30
0.0
 10
82.77475477904319
 20
-137.5634486384336
 30
0.0
 10
82.77475477904319
 20
-138.5632153482531
 30
0.0
 10
82.77475477904319
 20
-138.5632153482531
 30
0.0
  0
HATCH
  5
4B
330
1F
100
AcDbEntity
  8
_U+30EC_U+30A4_U+30E4_U+30FC 1
 62
     9
420
 13224394
100
AcDbHatch
 10
0.0
 20
0.0
 30
0.0
210
0.0
220
0.0
230
1.0
  2
SOLID
 70
     1
 71
     0
 91
        1
 92
        1
 93
        1
 72
     4
 94
        3
 73
     0
 74
     1
 95
       62
 96
       58
 40
0.0
 40
0.0
 40
0.0
 40
0.0
 40
1.0
 40
1.0
 40
1.0
 40
2.0
 40
2.0
 40
2.0
 40
3.0
 40
3.0
 40
3.0
 40
4.0
 40
4.0
 40
4.0
 40
5.0
 40
5.0
 40
5.0
 40
6.0
 40
6.0
 40
6.0
 40
7.0
 40
7.0
 40
7.0
 40
8.0
 40
8.0
 40
8.0
 40
9.0
 40
9.0
 40
9.0
 40
10.0
 40
10.0
 40
10.0
 40
11.0
 40
11.0
 40
11.0
 40
12.0
 40
12.0
 40
12.0
 40
13.0
 40
13.0
 40
13.0
 40
14.0
 40
14.0
 40
14.0
 40
15.0
 40
15.0
 40
15.0
 40
16.0
 40
16.0
 40
16.0
 40
17.0
 40
17.0
 40
17.0
 40
18.0
 40
18.0
 40
18.0
 40
19.0
 40
19.0
 40
19.0
 40
19.0
 10
82.77475477904319
 20
-138.5632153482531
 10
82.77475477904319
 20
-138.5632153482531
 10
94.77484056434612
 20
-138.5632153482531
 10
94.77484056434612
 20
-138.5632153482531
 10
94.77484056434612
 20
-138.5632153482531
 10
94.77484056434612
 20
-151.5634338847708
 10
94.77484056434612
 20
-151.5634338847708
 10
94.77484056434612
 20
-151.5634338847708
 10
104.7746769961045
 20
-151.5634338847708
 10
104.7746769961045
 20
-151.5634338847708
 10
104.7746769961045
 20
-151.5634338847708
 10
104.7746769961045
 20
-148.5634124384454
 10
104.7746769961045
 20
-148.5634124384454
 10
104.7746769961045
 20
-148.5634124384454
 10
103.774910286285
 20
-148.5634124384454
 10
103.774910286285
 20
-148.5634124384454
 10
103.774910286285
 20
-148.5634124384454
 10
103.774910286285
 20
-150.5636564090279
 10
103.774910286285
 20
-150.5636564090279
 10
103.774910286285
 20
-150.5636564090279
 10
95.6747802495188
 20
-150.5636564090279
 10
95.6747802495188
 20
-150.5636564090279
 10
95.6747802495188
 20
-150.5636564090279
 10
95.6747802495188
 20
-138.5632153482531
 10
95.6747802495188
 20
-138.5632153482531
 10
95.6747802495188
 20
-138.5632153482531
 10
113.9765378031302
 20
-138.5632153482531
 10
113.9765378031302
 20
-138.5632153482531
 10
113.9867654303521
 20
-138.6443581128541
 10
114.0460318386217
 20
-138.7113867518893
 10
114.1246984408427
 20
-138.7318527722561
 10
114.2887388155576
 20
-138.7741843830311
 10
114.4608966965096
 20
-138.7741843830311
 10
114.6249370712244
 20
-138.7318527722561
 10
114.7131315156468
 20
-138.7089213554324
 10
114.7748740862965
 20
-138.6295442022675
 10
114.7748740862965
 20
-138.5381738104447
 10
114.7748740862965
 20
-138.6295442022675
 10
114.8362506155509
 20
-138.7089213554324
 10
114.9251556109172
 20
-138.7318527722561
 10
115.089195985632
 20
-138.7741843830311
 10
115.2606433156401
 20
-138.7741843830311
 10
115.424683690355
 20
-138.7318527722561
 10
115.5040608435198
 20
-138.7113867518893
 10
115.5626274667691
 20
-138.6443581128541
 10
115.5735548790114
 20
-138.5632153482531
 10
115.5735548790114
 20
-138.5632153482531
 10
122.7751609495308
 20
-138.5632153482531
 10
122.7751609495308
 20
-138.5632153482531
 10
122.7751609495308
 20
-138.5632153482531
 10
122.7751609495308
 20
-137.5634486384336
 10
122.7751609495308
 20
-137.5634486384336
 10
122.7751609495308
 20
-137.5634486384336
 10
82.77475477904319
 20
-137.5634486384336
 10
82.77475477904319
 20
-137.5634486384336
 10
82.77475477904319
 20
-137.5634486384336
 10
82.77475477904319
 20
-138.5632153482531
 10
82.77475477904319
 20
-138.5632153482531
 97
        0
 97
        0
 75
     2
 76
     1
 98
        0
  0
POLYLINE
  5
4C
330
1F
100
AcDbEntity
  8
_U+30EC_U+30A4_U+30E4_U+30FC 1
 62
   179
420
  2234388
370
    25
100
AcDb2dPolyline
 66
     1
 10
0.0
 20
0.0
 30
0.0
  0
VERTEX
  5
4D
330
4C
100
AcDbEntity
  8
_U+30EC_U+30A4_U+30E4_U+30FC 1
 62
   179
420
  2234388
370
    25
100
AcDbVertex
100
AcDb2dVertex
 10
94.77487824507831
 20
-151.5632939277667
 30
0.0
  0
VERTEX
  5
4E
330
4C
100
AcDbEntity
  8
_U+30EC_U+30A4_U+30E4_U+30FC 1
 62
   179
420
  2234388
370
    25
100
AcDbVertex
100
AcDb2dVertex
 10
104.7747092938747
 20
-151.5632939277667
 30
0.0
  0
SEQEND
  5
4F
330
4C
100
AcDbEntity
  8
_U+30EC_U+30A4_U+30E4_U+30FC 1
 62
   179
420
  2234388
370
    25
  0
POLYLINE
  5
50
330
1F
100
AcDbEntity
  8
_U+30EC_U+30A4_U+30E4_U+30FC 1
 62
   179
420
  2234388
370
    25
100
AcDb2dPolyline
 66
     1
 10
0.0
 20
0.0
 30
0.0
  0
VERTEX
  5
51
330
50
100
AcDbEntity
  8
_U+30EC_U+30A4_U+30E4_U+30FC 1
 62
   179
420
  2234388
370
    25
100
AcDbVertex
100
AcDb2dVertex
 10
82.77475477904319
 20
-137.5634486384336
 30
0.0
  0
VERTEX
  5
52
330
50
100
AcDbEntity
  8
_U+30EC_U+30A4_U+30E4_U+30FC 1
 62
   179
420
  2234388
370
    25
100
AcDbVertex
100
AcDb2dVertex
 10
122.7751609495308
 20
-137.5634486384336
 30
0.0
  0
SEQEND
  5
53
330
50
100
AcDbEntity
  8
_U+30EC_U+30A4_U+30E4_U+30FC 1
 62
   179
420
  2234388
370
    25
  0
POLYLINE
  5
54
330
1F
100
AcDbEntity
  8
_U+30EC_U+30A4_U+30E4_U+30FC 1
 62
   179
420
  2234388
370
    25
100
AcDb2dPolyline
 66
     1
 10
0.0
 20
0.0
 30
0.0
  0
VERTEX
  5
55
330
54
100
AcDbEntity
  8
_U+30EC_U+30A4_U+30E4_U+30FC 1
 62
   179
420
  2234388
370
    25
100
AcDbVertex
100
AcDb2dVertex
 10
103.7748349248213
 20
-148.5633047792112
 30
0.0
  0
VERTEX
  5
56
330
54
100
AcDbEntity
  8
_U+30EC_U+30A4_U+30E4_U+30FC 1
 62
   179
420
  2234388
370
    25
100
AcDbVertex
100
AcDb2dVertex
 10
104.7746016346408
 20
-148.5633047792112
 30
0.0
  0
SEQEND
  5
57
330
54
100
AcDbEntity
  8
_U+30EC_U+30A4_U+30E4_U+30FC 1
 62
   179
420
  2234388
370
    25
  0
POLYLINE
  5
58
330
1F
100
AcDbEntity
  8
_U+30EC_U+30A4_U+30E4_U+30FC 1
 62
   179
420
  2234388
370
    25
100
AcDb2dPolyline
 66
     1
 10
0.0
 20
0.0
 30
0.0
  0
VERTEX
  5
59
330
58
100
AcDbEntity
  8
_U+30EC_U+30A4_U+30E4_U+30FC 1
 62
   179
420
  2234388
370
    25
100
AcDbVertex
100
AcDb2dVertex
 10
104.7746124005645
 20
-151.5632939277667
 30
0.0
  0
VERTEX
  5
5A
330
58
100
AcDbEntity
  8
_U+30EC_U+30A4_U+30E4_U+30FC 1
 62
   179
420
  2234388
370
    25
100
AcDbVertex
100
AcDb2dVertex
 10
104.7746124005645
 20
-148.563272481441
 30
0.0
  0
SEQEND
  5
5B
330
58
100
AcDbEntity
  8
_U+30EC_U+30A4_U+30E4_U+30FC 1
 62
   179
420
  2234388
370
    25
  0
POLYLINE
  5
5C
330
1F
100
AcDbEntity
  8
_U+30EC_U+30A4_U+30E4_U+30FC 1
 62
   179
420
  2234388
370
    25
100
AcDb2dPolyline
 66
     1
 10
0.0
 20
0.0
 30
0.0
  0
VERTEX
  5
5D
330
5C
100
AcDbEntity
  8
_U+30EC_U+30A4_U+30E4_U+30FC 1
 62
   179
420
  2234388
370
    25
100
AcDbVertex
100
AcDb2dVertex
 10
82.77475477904319
 20
-138.5632153482531
 30
0.0
  0
VERTEX
  5
5E
330
5C
100
AcDbEntity
  8
_U+30EC_U+30A4_U+30E4_U+30FC 1
 62
   179
420
  2234388
370
    25
100
AcDbVertex
100
AcDb2dVertex
 10
82.77475477904319
 20
-137.5634486384336
 30
0.0
  0
SEQEND
  5
5F
330
5C
100
AcDbEntity
  8
_U+30EC_U+30A4_U+30E4_U+30FC 1
 62
   179
420
  2234388
370
    25
  0
POLYLINE
  5
60
330
1F
100
AcDbEntity
  8
_U+30EC_U+30A4_U+30E4_U+30FC 1
 62
   179
420
  2234388
370
    25
100
AcDb2dPolyline
 66
     1
 10
0.0
 20
0.0
 30
0.0
  0
VERTEX
  5
61
330
60
100
AcDbEntity
  8
_U+30EC_U+30A4_U+30E4_U+30FC 1
 62
   179
420
  2234388
370
    25
100
AcDbVertex
100
AcDb2dVertex
 10
82.77475477904319
 20
-138.5632153482531
 30
0.0
  0
VERTEX
  5
62
330
60
100
AcDbEntity
  8
_U+30EC_U+30A4_U+30E4_U+30FC 1
 62
   179
420
  2234388
370
    25
100
AcDbVertex
100
AcDb2dVertex
 10
94.77484056434612
 20
-138.5632153482531
 30
0.0
  0
SEQEND
  5
63
330
60
100
AcDbEntity
  8
_U+30EC_U+30A4_U+30E4_U+30FC 1
 62
   179
420
  2234388
370
    25
  0
POLYLINE
  5
64
330
1F
100
AcDbEntity
  8
_U+30EC_U+30A4_U+30E4_U+30FC 1
 62
   179
420
  2234388
370
    25
100
AcDb2dPolyline
 66
     1
 10
0.0
 20
0.0
 30
0.0
  0
VERTEX
  5
65
330
64
100
AcDbEntity
  8
_U+30EC_U+30A4_U+30E4_U+30FC 1
 62
   179
420
  2234388
370
    25
100
AcDbVertex
100
AcDb2dVertex
 10
103.7748349248213
 20
-150.5635164520238
 30
0.0
  0
VERTEX
  5
66
330
64
100
AcDbEntity
  8
_U+30EC_U+30A4_U+30E4_U+30FC 1
 62
   179
420
  2234388
370
    25
100
AcDbVertex
100
AcDb2dVertex
 10
103.7748349248213
 20
-148.563272481441
 30
0.0
  0
SEQEND
  5
67
330
64
100
AcDbEntity
  8
_U+30EC_U+30A4_U+30E4_U+30FC 1
 62
   179
420
  2234388
370
    25
  0
POLYLINE
  5
68
330
1F
100
AcDbEntity
  8
_U+30EC_U+30A4_U+30E4_U+30FC 1
 62
   179
420
  2234388
370
    25
100
AcDb2dPolyline
 66
     1
 10
0.0
 20
0.0
 30
0.0
  0
VERTEX
  5
69
330
68
100
AcDbEntity
  8
_U+30EC_U+30A4_U+30E4_U+30FC 1
 62
   179
420
  2234388
370
    25
100
AcDbVertex
100
AcDb2dVertex
 10
95.67474256878694
 20
-150.5635164520238
 30
0.0
  0
VERTEX
  5
6A
330
68
100
AcDbEntity
  8
_U+30EC_U+30A4_U+30E4_U+30FC 1
 62
   179
420
  2234388
370
    25
100
AcDbVertex
100
AcDb2dVertex
 10
103.7748672225914
 20
-150.5635164520238
 30
0.0
  0
SEQEND
  5
6B
330
68
100
AcDbEntity
  8
_U+30EC_U+30A4_U+30E4_U+30FC 1
 62
   179
420
  2234388
370
    25
  0
POLYLINE
  5
6C
330
1F
100
AcDbEntity
  8
_U+30EC_U+30A4_U+30E4_U+30FC 1
 62
   179
420
  2234388
370
    25
100
AcDb2dPolyline
 66
     1
 10
0.0
 20
0.0
 30
0.0
  0
VERTEX
  5
6D
330
6C
100
AcDbEntity
  8
_U+30EC_U+30A4_U+30E4_U+30FC 1
 62
   179
420
  2234388
370
    25
100
AcDbVertex
100
AcDb2dVertex
 10
94.77487824507831
 20
-151.5632939277667
 30
0.0
  0
VERTEX
  5
6E
330
6C
100
AcDbEntity
  8
_U+30EC_U+30A4_U+30E4_U+30FC 1
 62
   179
420
  2234388
370
    25
100
AcDbVertex
100
AcDb2dVertex
 10
94.77487824507831
 20
-138.5630861571724
 30
0.0
  0
SEQEND
  5
6F
330
6C
100
AcDbEntity
  8
_U+30EC_U+30A4_U+30E4_U+30FC 1
 62
   179
420
  2234388
370
    25
  0
POLYLINE
  5
70
330
1F
100
AcDbEntity
  8
_U+30EC_U+30A4_U+30E4_U+30FC 1
 62
   179
420
  2234388
370
    25
100
AcDb2dPolyline
 66
     1
 10
0.0
 20
0.0
 30
0.0
  0
VERTEX
  5
71
330
70
100
AcDbEntity
  8
_U+30EC_U+30A4_U+30E4_U+30FC 1
 62
   179
420
  2234388
370
    25
100
AcDbVertex
100
AcDb2dVertex
 10
122.7752363109946
 20
-138.5632153482531
 30
0.0
  0
VERTEX
  5
72
330
70
100
AcDbEntity
  8
_U+30EC_U+30A4_U+30E4_U+30FC 1
 62
   179
420
  2234388
370
    25
100
AcDbVertex
100
AcDb2dVertex
 10
122.7752363109946
 20
-137.5634486384336
 30
0.0
  0
SEQEND
  5
73
330
70
100
AcDbEntity
  8
_U+30EC_U+30A4_U+30E4_U+30FC 1
 62
   179
420
  2234388
370
    25
  0
POLYLINE
  5
74
330
1F
100
AcDbEntity
  8
_U+30EC_U+30A4_U+30E4_U+30FC 1
 62
   179
420
  2234388
370
    25
100
AcDb2dPolyline
 66
     1
 10
0.0
 20
0.0
 30
0.0
  0
VERTEX
  5
75
330
74
100
AcDbEntity
  8
_U+30EC_U+30A4_U+30E4_U+30FC 1
 62
   179
420
  2234388
370
    25
100
AcDbVertex
100
AcDb2dVertex
 10
95.67474256878694
 20
-138.5632153482531
 30
0.0
  0
VERTEX
  5
76
330
74
100
AcDbEntity
  8
_U+30EC_U+30A4_U+30E4_U+30FC 1
 62
   179
420
  2234388
370
    25
100
AcDbVertex
100
AcDb2dVertex
 10
113.9764947394367
 20
-138.5632153482531
 30
0.0
  0
SEQEND
  5
77
330
74
100
AcDbEntity
  8
_U+30EC_U+30A4_U+30E4_U+30FC 1
 62
   179
420
  2234388
370
    25
  0
POLYLINE
  5
78
330
1F
100
AcDbEntity
  8
_U+30EC_U+30A4_U+30E4_U+30FC 1
 62
   179
420
  2234388
370
    25
100
AcDb2dPolyline
 66
     1
 10
0.0
 20
0.0
 30
0.0
  0
VERTEX
  5
79
330
78
100
AcDbEntity
  8
_U+30EC_U+30A4_U+30E4_U+30FC 1
 62
   179
420
  2234388
370
    25
100
AcDbVertex
100
AcDb2dVertex
 10
115.5735979427049
 20
-138.5632153482531
 30
0.0
  0
VERTEX
  5
7A
330
78
100
AcDbEntity
  8
_U+30EC_U+30A4_U+30E4_U+30FC 1
 62
   179
420
  2234388
370
    25
100
AcDbVertex
100
AcDb2dVertex
 10
122.775193247301
 20
-138.5632153482531
 30
0.0
  0
SEQEND
  5
7B
330
78
100
AcDbEntity
  8
_U+30EC_U+30A4_U+30E4_U+30FC 1
 62
   179
420
  2234388
370
    25
  0
POLYLINE
  5
7C
330
1F
100
AcDbEntity
  8
_U+30EC_U+30A4_U+30E4_U+30FC 1
 62
   179
420
  2234388
370
    25
100
AcDb2dPolyline
 66
     1
 10
0.0
 20
0.0
 30
0.0
  0
VERTEX
  5
7D
330
7C
100
AcDbEntity
  8
_U+30EC_U+30A4_U+30E4_U+30FC 1
 62
   179
420
  2234388
370
    25
100
AcDbVertex
100
AcDb2dVertex
 10
95.67474256878694
 20
-150.5635164520238
 30
0.0
  0
VERTEX
  5
7E
330
7C
100
AcDbEntity
  8
_U+30EC_U+30A4_U+30E4_U+30FC 1
 62
   179
420
  2234388
370
    25
100
AcDbVertex
100
AcDb2dVertex
 10
95.67474256878694
 20
-138.5630753912493
 30
0.0
  0
SEQEND
  5
7F
330
7C
100
AcDbEntity
  8
_U+30EC_U+30A4_U+30E4_U+30FC 1
 62
   179
420
  2234388
370
    25
  0
SPLINE
  5
80
330
1F
100
AcDbEntity
  8
_U+30EC_U+30A4_U+30E4_U+30FC 1
 62
   179
420
  2234388
370
     9
100
AcDbSpline
210
0.0
220
0.0
230
1.0
 70
    11
 71
     3
 72
    17
 73
    13
 74
     0
 42
0.0000000001
 43
0.0000000001
 12
1.0
 22
0.0
 32
0.0
 13
1.0
 23
0.0
 33
0.0
 40
0.0
 40
0.0
 40
0.0
 40
0.0
 40
1.0
 40
1.0
 40
1.0
 40
2.0
 40
2.0
 40
2.0
 40
3.0
 40
3.0
 40
3.0
 40
4.0
 40
4.0
 40
4.0
 40
4.0
 10
94.87478601415056
 20
-155.5630497861418
 30
0.0
 10
94.87478601415056
 20
-155.5080251516883
 30
0.0
 10
94.8299782409952
 20
-155.4632173785333
 30
0.0
 10
94.77494822358003
 20
-155.4632173785333
 30
0.0
 10
94.71991282320316
 20
-155.4632173785333
 30
0.0
 10
94.67511043300983
 20
-155.5080251516883
 30
0.0
 10
94.67511043300983
 20
-155.5630497861418
 30
0.0
 10
94.67511043300983
 20
-155.6180851865187
 30
0.0
 10
94.71991282320316
 20
-155.6628929596737
 30
0.0
 10
94.77494822358003
 20
-155.6628929596737
 30
0.0
 10
94.8299782409952
 20
-155.6628929596737
 30
0.0
 10
94.87478601415056
 20
-155.6180851865187
 30
0.0
 10
94.87478601415056
 20
-155.5630497861418
 30
0.0
  0
SPLINE
  5
81
330
1F
100
AcDbEntity
  8
_U+30EC_U+30A4_U+30E4_U+30FC 1
 62
   179
420
  2234388
370
     9
100
AcDbSpline
210
0.0
220
0.0
230
1.0
 70
    11
 71
     3
 72
    17
 73
    13
 74
     0
 42
0.0000000001
 43
0.0000000001
 12
1.0
 22
0.0
 32
0.0
 13
1.0
 23
0.0
 33
0.0
 40
0.0
 40
0.0
 40
0.0
 40
0.0
 40
1.0
 40
1.0
 40
1.0
 40
2.0
 40
2.0
 40
2.0
 40
3.0
 40
3.0
 40
3.0
 40
4.0
 40
4.0
 40
4.0
 40
4.0
 10
104.8752199546569
 20
-155.5630497861418
 30
0.0
 10
104.8752199546569
 20
-155.5080251516883
 30
0.0
 10
104.8304121815018
 20
-155.4632173785333
 30
0.0
 10
104.7746769961045
 20
-155.4632173785333
 30
0.0
 10
104.7196415957277
 20
-155.4632173785333
 30
0.0
 10
104.6748338225726
 20
-155.5080251516883
 30
0.0
 10
104.6748338225726
 20
-155.5630497861418
 30
0.0
 10
104.6748338225726
 20
-155.6180851865187
 30
0.0
 10
104.7196415957277
 20
-155.6628929596737
 30
0.0
 10
104.7746769961045
 20
-155.6628929596737
 30
0.0
 10
104.8304121815018
 20
-155.6628929596737
 30
0.0
 10
104.8752199546569
 20
-155.6180851865187
 30
0.0
 10
104.8752199546569
 20
-155.5630497861418
 30
0.0
  0
SPLINE
  5
82
330
1F
100
AcDbEntity
  8
_U+30EC_U+30A4_U+30E4_U+30FC 1
 62
   179
420
  2234388
370
     9
100
AcDbSpline
210
0.0
220
0.0
230
1.0
 70
    11
 71
     3
 72
    17
 73
    13
 74
     0
 42
0.0000000001
 43
0.0000000001
 12
1.0
 22
0.0
 32
0.0
 13
1.0
 23
0.0
 33
0.0
 40
0.0
 40
0.0
 40
0.0
 40
0.0
 40
1.0
 40
1.0
 40
1.0
 40
2.0
 40
2.0
 40
2.0
 40
3.0
 40
3.0
 40
3.0
 40
4.0
 40
4.0
 40
4.0
 40
4.0
 10
126.8748999384419
 20
-151.5632939277667
 30
0.0
 10
126.8748999384419
 20
-151.5082692933132
 30
0.0
 10
126.8300921652868
 20
-151.4634615201582
 30
0.0
 10
126.77505676491
 20
-151.4634615201582
 30
0.0
 10
126.7200213645331
 20
-151.4634615201582
 30
0.0
 10
126.6752243573015
 20
-151.5082692933132
 30
0.0
 10
126.6752243573015
 20
-151.5632939277667
 30
0.0
 10
126.6752243573015
 20
-151.6183293281436
 30
0.0
 10
126.7200213645331
 20
-151.6631371012986
 30
0.0
 10
126.77505676491
 20
-151.6631371012986
 30
0.0
 10
126.8300921652868
 20
-151.6631371012986
 30
0.0
 10
126.8748999384419
 20
-151.6183293281436
 30
0.0
 10
126.8748999384419
 20
-151.5632939277667
 30
0.0
  0
SPLINE
  5
83
330
1F
100
AcDbEntity
  8
_U+30EC_U+30A4_U+30E4_U+30FC 1
 62
   179
420
  2234388
370
     9
100
AcDbSpline
210
0.0
220
0.0
230
1.0
 70
    11
 71
     3
 72
    17
 73
    13
 74
     0
 42
0.0000000001
 43
0.0000000001
 12
1.0
 22
0.0
 32
0.0
 13
1.0
 23
0.0
 33
0.0
 40
0.0
 40
0.0
 40
0.0
 40
0.0
 40
1.0
 40
1.0
 40
1.0
 40
2.0
 40
2.0
 40
2.0
 40
3.0
 40
3.0
 40
3.0
 40
4.0
 40
4.0
 40
4.0
 40
4.0
 10
126.8748999384419
 20
-148.5633047792112
 30
0.0
 10
126.8748999384419
 20
-148.5082801447577
 30
0.0
 10
126.8300921652868
 20
-148.4634723716027
 30
0.0
 10
126.77505676491
 20
-148.4634723716027
 30
0.0
 10
126.7200213645331
 20
-148.4634723716027
 30
0.0
 10
126.6752243573015
 20
-148.5082801447577
 30
0.0
 10
126.6752243573015
 20
-148.5633047792112
 30
0.0
 10
126.6752243573015
 20
-148.618340179588
 30
0.0
 10
126.7200213645331
 20
-148.6631479527434
 30
0.0
 10
126.77505676491
 20
-148.6631479527434
 30
0.0
 10
126.8300921652868
 20
-148.6631479527434
 30
0.0
 10
126.8748999384419
 20
-148.618340179588
 30
0.0
 10
126.8748999384419
 20
-148.5633047792112
 30
0.0
  0
SPLINE
  5
84
330
1F
100
AcDbEntity
  8
_U+30EC_U+30A4_U+30E4_U+30FC 1
 62
   179
420
  2234388
370
     9
100
AcDbSpline
210
0.0
220
0.0
230
1.0
 70
    11
 71
     3
 72
    17
 73
    13
 74
     0
 42
0.0000000001
 43
0.0000000001
 12
1.0
 22
0.0
 32
0.0
 13
1.0
 23
0.0
 33
0.0
 40
0.0
 40
0.0
 40
0.0
 40
0.0
 40
1.0
 40
1.0
 40
1.0
 40
2.0
 40
2.0
 40
2.0
 40
3.0
 40
3.0
 40
3.0
 40
4.0
 40
4.0
 40
4.0
 40
4.0
 10
126.8748999384419
 20
-137.5634486384336
 30
0.0
 10
126.8748999384419
 20
-137.5084240039801
 30
0.0
 10
126.8300921652868
 20
-137.4636162308251
 30
0.0
 10
126.77505676491
 20
-137.4636162308251
 30
0.0
 10
126.7200213645331
 20
-137.4636162308251
 30
0.0
 10
126.6752243573015
 20
-137.5084240039801
 30
0.0
 10
126.6752243573015
 20
-137.5634486384336
 30
0.0
 10
126.6752243573015
 20
-137.6184840388104
 30
0.0
 10
126.7200213645331
 20
-137.6632918119655
 30
0.0
 10
126.77505676491
 20
-137.6632918119655
 30
0.0
 10
126.8300921652868
 20
-137.6632918119655
 30
0.0
 10
126.8748999384419
 20
-137.6184840388104
 30
0.0
 10
126.8748999384419
 20
-137.5634486384336
 30
0.0
  0
SPLINE
  5
85
330
1F
100
AcDbEntity
  8
_U+30EC_U+30A4_U+30E4_U+30FC 1
 62
   179
420
  2234388
370
     9
100
AcDbSpline
210
0.0
220
0.0
230
1.0
 70
    11
 71
     3
 72
    17
 73
    13
 74
     0
 42
0.0000000001
 43
0.0000000001
 12
1.0
 22
0.0
 32
0.0
 13
1.0
 23
0.0
 33
0.0
 40
0.0
 40
0.0
 40
0.0
 40
0.0
 40
1.0
 40
1.0
 40
1.0
 40
2.0
 40
2.0
 40
2.0
 40
3.0
 40
3.0
 40
3.0
 40
4.0
 40
4.0
 40
4.0
 40
4.0
 10
122.8751440800668
 20
-133.5633698023568
 30
0.0
 10
122.8751440800668
 20
-133.5083451679036
 30
0.0
 10
122.8303363069118
 20
-133.4635373947483
 30
0.0
 10
122.7753009065349
 20
-133.4635373947483
 30
0.0
 10
122.7195657211376
 20
-133.4635373947483
 30
0.0
 10
122.6747579479826
 20
-133.5083451679036
 30
0.0
 10
122.6747579479826
 20
-133.5633698023568
 30
0.0
 10
122.6747579479826
 20
-133.6191157536775
 30
0.0
 10
122.7195657211376
 20
-133.6639127609091
 30
0.0
 10
122.7753009065349
 20
-133.6639127609091
 30
0.0
 10
122.8303363069118
 20
-133.6639127609091
 30
0.0
 10
122.8751440800668
 20
-133.6191157536775
 30
0.0
 10
122.8751440800668
 20
-133.5633698023568
 30
0.0
  0
SPLINE
  5
86
330
1F
100
AcDbEntity
  8
_U+30EC_U+30A4_U+30E4_U+30FC 1
 62
   179
420
  2234388
370
     9
100
AcDbSpline
210
0.0
220
0.0
230
1.0
 70
    11
 71
     3
 72
    17
 73
    13
 74
     0
 42
0.0000000001
 43
0.0000000001
 12
1.0
 22
0.0
 32
0.0
 13
1.0
 23
0.0
 33
0.0
 40
0.0
 40
0.0
 40
0.0
 40
0.0
 40
1.0
 40
1.0
 40
1.0
 40
2.0
 40
2.0
 40
2.0
 40
3.0
 40
3.0
 40
3.0
 40
4.0
 40
4.0
 40
4.0
 40
4.0
 10
126.8748999384419
 20
-138.5632153482531
 30
0.0
 10
126.8748999384419
 20
-138.5081907137996
 30
0.0
 10
126.8300921652868
 20
-138.4633829406446
 30
0.0
 10
126.77505676491
 20
-138.4633829406446
 30
0.0
 10
126.7200213645331
 20
-138.4633829406446
 30
0.0
 10
126.6752243573015
 20
-138.5081907137996
 30
0.0
 10
126.6752243573015
 20
-138.5632153482531
 30
0.0
 10
126.6752243573015
 20
-138.6186060241019
 30
0.0
 10
126.7200213645331
 20
-138.6634137972572
 30
0.0
 10
126.77505676491
 20
-138.6634137972572
 30
0.0
 10
126.8300921652868
 20
-138.6634137972572
 30
0.0
 10
126.8748999384419
 20
-138.6186060241019
 30
0.0
 10
126.8748999384419
 20
-138.5632153482531
 30
0.0
  0
SPLINE
  5
87
330
1F
100
AcDbEntity
  8
_U+30EC_U+30A4_U+30E4_U+30FC 1
 62
   179
420
  2234388
370
     9
100
AcDbSpline
210
0.0
220
0.0
230
1.0
 70
    11
 71
     3
 72
    17
 73
    13
 74
     0
 42
0.0000000001
 43
0.0000000001
 12
1.0
 22
0.0
 32
0.0
 13
1.0
 23
0.0
 33
0.0
 40
0.0
 40
0.0
 40
0.0
 40
0.0
 40
1.0
 40
1.0
 40
1.0
 40
2.0
 40
2.0
 40
2.0
 40
3.0
 40
3.0
 40
3.0
 40
4.0
 40
4.0
 40
4.0
 40
4.0
 10
82.87466254811542
 20
-155.5630497861418
 30
0.0
 10
82.87466254811542
 20
-155.5080251516883
 30
0.0
 10
82.8298547749604
 20
-155.4632173785333
 30
0.0
 10
82.77482475754523
 20
-155.4632173785333
 30
0.0
 10
82.71978935716837
 20
-155.4632173785333
 30
0.0
 10
82.67498696697503
 20
-155.5080251516883
 30
0.0
 10
82.67498696697503
 20
-155.5630497861418
 30
0.0
 10
82.67498696697503
 20
-155.6180851865187
 30
0.0
 10
82.71978935716837
 20
-155.6628929596737
 30
0.0
 10
82.77482475754523
 20
-155.6628929596737
 30
0.0
 10
82.8298547749604
 20
-155.6628929596737
 30
0.0
 10
82.87466254811542
 20
-155.6180851865187
 30
0.0
 10
82.87466254811542
 20
-155.5630497861418
 30
0.0
  0
SPLINE
  5
88
330
1F
100
AcDbEntity
  8
_U+30EC_U+30A4_U+30E4_U+30FC 1
 62
   179
420
  2234388
370
     9
100
AcDbSpline
210
0.0
220
0.0
230
1.0
 70
    11
 71
     3
 72
    17
 73
    13
 74
     0
 42
0.0000000001
 43
0.0000000001
 12
1.0
 22
0.0
 32
0.0
 13
1.0
 23
0.0
 33
0.0
 40
0.0
 40
0.0
 40
0.0
 40
0.0
 40
1.0
 40
1.0
 40
1.0
 40
2.0
 40
2.0
 40
2.0
 40
3.0
 40
3.0
 40
3.0
 40
4.0
 40
4.0
 40
4.0
 40
4.0
 10
82.87466254811542
 20
-133.5633698023568
 30
0.0
 10
82.87466254811542
 20
-133.5083451679036
 30
0.0
 10
82.8298547749604
 20
-133.4635373947483
 30
0.0
 10
82.77482475754523
 20
-133.4635373947483
 30
0.0
 10
82.71978935716837
 20
-133.4635373947483
 30
0.0
 10
82.67498696697503
 20
-133.5083451679036
 30
0.0
 10
82.67498696697503
 20
-133.5633698023568
 30
0.0
 10
82.67498696697503
 20
-133.6191157536775
 30
0.0
 10
82.71978935716837
 20
-133.6639127609091
 30
0.0
 10
82.77482475754523
 20
-133.6639127609091
 30
0.0
 10
82.8298547749604
 20
-133.6639127609091
 30
0.0
 10
82.87466254811542
 20
-133.6191157536775
 30
0.0
 10
82.87466254811542
 20
-133.5633698023568
 30
0.0
  0
SPLINE
  5
89
330
1F
100
AcDbEntity
  8
_U+30EC_U+30A4_U+30E4_U+30FC 1
 62
   179
420
  2234388
370
    25
100
AcDbSpline
210
0.0
220
0.0
230
1.0
 70
     8
 71
     3
 72
     8
 73
     4
 74
     0
 42
0.0000000001
 43
0.0000000001
 12
1.0
 22
0.0
 32
0.0
 13
1.0
 23
0.0
 33
0.0
 40
0.0
 40
0.0
 40
0.0
 40
0.0
 40
1.0
 40
1.0
 40
1.0
 40
1.0
 10
114.9252632701511
 20
-138.7316697515584
 30
0.0
 10
115.0893036448659
 20
-138.7740121282568
 30
0.0
 10
115.2607509748741
 20
-138.7740121282568
 30
0.0
 10
115.4247913495889
 20
-138.7316697515584
 30
0.0
  0
SPLINE
  5
8A
330
1F
100
AcDbEntity
  8
_U+30EC_U+30A4_U+30E4_U+30FC 1
 62
   179
420
  2234388
370
    25
100
AcDbSpline
210
0.0
220
0.0
230
1.0
 70
     8
 71
     3
 72
     8
 73
     4
 74
     0
 42
0.0000000001
 43
0.0000000001
 12
1.0
 22
0.0
 32
0.0
 13
1.0
 23
0.0
 33
0.0
 40
0.0
 40
0.0
 40
0.0
 40
0.0
 40
1.0
 40
1.0
 40
1.0
 40
1.0
 10
115.4247913495889
 20
-138.7316697515584
 30
0.0
 10
115.5041577368304
 20
-138.7112144971151
 30
0.0
 10
115.5627243600796
 20
-138.6445411335518
 30
0.0
 10
115.5736625382453
 20
-138.5630430934788
 30
0.0
  0
SPLINE
  5
8B
330
1F
100
AcDbEntity
  8
_U+30EC_U+30A4_U+30E4_U+30FC 1
 62
   179
420
  2234388
370
    25
100
AcDbSpline
210
0.0
220
0.0
230
1.0
 70
     8
 71
     3
 72
     8
 73
     4
 74
     0
 42
0.0000000001
 43
0.0000000001
 12
1.0
 22
0.0
 32
0.0
 13
1.0
 23
0.0
 33
0.0
 40
0.0
 40
0.0
 40
0.0
 40
0.0
 40
1.0
 40
1.0
 40
1.0
 40
1.0
 10
114.7750463410708
 20
-138.5380661512108
 30
0.0
 10
114.7750463410708
 20
-138.6294365430336
 30
0.0
 10
114.8364228703252
 20
-138.7088136961985
 30
0.0
 10
114.9253278656914
 20
-138.7317451130222
 30
0.0
  0
SPLINE
  5
8C
330
1F
100
AcDbEntity
  8
_U+30EC_U+30A4_U+30E4_U+30FC 1
 62
   179
420
  2234388
370
    25
100
AcDbSpline
210
0.0
220
0.0
230
1.0
 70
     8
 71
     3
 72
     8
 73
     4
 74
     0
 42
0.0000000001
 43
0.0000000001
 12
1.0
 22
0.0
 32
0.0
 13
1.0
 23
0.0
 33
0.0
 40
0.0
 40
0.0
 40
0.0
 40
0.0
 40
1.0
 40
1.0
 40
1.0
 40
1.0
 10
114.1246015475322
 20
-138.7316697515584
 30
0.0
 10
114.2886419222471
 20
-138.7740121282568
 30
0.0
 10
114.4607890372756
 20
-138.7740121282568
 30
0.0
 10
114.6248401779139
 20
-138.7316697515584
 30
0.0
  0
SPLINE
  5
8D
330
1F
100
AcDbEntity
  8
_U+30EC_U+30A4_U+30E4_U+30FC 1
 62
   179
420
  2234388
370
    25
100
AcDbSpline
210
0.0
220
0.0
230
1.0
 70
     8
 71
     3
 72
     8
 73
     4
 74
     0
 42
0.0000000001
 43
0.0000000001
 12
1.0
 22
0.0
 32
0.0
 13
1.0
 23
0.0
 33
0.0
 40
0.0
 40
0.0
 40
0.0
 40
0.0
 40
1.0
 40
1.0
 40
1.0
 40
1.0
 10
113.9764624416665
 20
-138.5632153482531
 30
0.0
 10
113.9866900688883
 20
-138.6443581128541
 30
0.0
 10
114.045956477158
 20
-138.7113867518893
 30
0.0
 10
114.124623079379
 20
-138.7318527722561
 30
0.0
  0
SPLINE
  5
8E
330
1F
100
AcDbEntity
  8
_U+30EC_U+30A4_U+30E4_U+30FC 1
 62
   179
420
  2234388
370
    25
100
AcDbSpline
210
0.0
220
0.0
230
1.0
 70
     8
 71
     3
 72
     8
 73
     4
 74
     0
 42
0.0000000001
 43
0.0000000001
 12
1.0
 22
0.0
 32
0.0
 13
1.0
 23
0.0
 33
0.0
 40
0.0
 40
0.0
 40
0.0
 40
0.0
 40
1.0
 40
1.0
 40
1.0
 40
1.0
 10
114.6248401779139
 20
-138.7316697515584
 30
0.0
 10
114.7130346223363
 20
-138.7090936102066
 30
0.0
 10
114.7751217025345
 20
-138.6293719474933
 30
0.0
 10
114.7751217025345
 20
-138.5380015556704
 30
0.0
  0
POLYLINE
  5
8F
330
1F
100
AcDbEntity
  8
_U+30EC_U+30A4_U+30E4_U+30FC 1
 62
   179
420
  2234388
370
     9
100
AcDb2dPolyline
 66
     1
 10
0.0
 20
0.0
 30
0.0
  0
VERTEX
  5
90
330
8F
100
AcDbEntity
  8
_U+30EC_U+30A4_U+30E4_U+30FC 1
 62
   179
420
  2234388
370
     9
100
AcDbVertex
100
AcDb2dVertex
 10
126.775002935293
 20
-137.5634486384336
 30
0.0
  0
VERTEX
  5
91
330
8F
100
AcDbEntity
  8
_U+30EC_U+30A4_U+30E4_U+30FC 1
 62
   179
420
  2234388
370
     9
100
AcDbVertex
100
AcDb2dVertex
 10
126.775002935293
 20
-133.7933191600738
 30
0.0
  0
SEQEND
  5
92
330
8F
100
AcDbEntity
  8
_U+30EC_U+30A4_U+30E4_U+30FC 1
 62
   179
420
  2234388
370
     9
  0
POLYLINE
  5
93
330
1F
100
AcDbEntity
  8
_U+30EC_U+30A4_U+30E4_U+30FC 1
 62
   179
420
  2234388
370
     9
100
AcDb2dPolyline
 66
     1
 10
0.0
 20
0.0
 30
0.0
  0
VERTEX
  5
94
330
93
100
AcDbEntity
  8
_U+30EC_U+30A4_U+30E4_U+30FC 1
 62
   179
420
  2234388
370
     9
100
AcDbVertex
100
AcDb2dVertex
 10
126.775002935293
 20
-137.5634486384336
 30
0.0
  0
VERTEX
  5
95
330
93
100
AcDbEntity
  8
_U+30EC_U+30A4_U+30E4_U+30FC 1
 62
   179
420
  2234388
370
     9
100
AcDbVertex
100
AcDb2dVertex
 10
126.775002935293
 20
-138.5632261141765
 30
0.0
  0
SEQEND
  5
96
330
93
100
AcDbEntity
  8
_U+30EC_U+30A4_U+30E4_U+30FC 1
 62
   179
420
  2234388
370
     9
  0
POLYLINE
  5
97
330
1F
100
AcDbEntity
  8
_U+30EC_U+30A4_U+30E4_U+30FC 1
 62
   179
420
  2234388
370
     9
100
AcDb2dPolyline
 66
     1
 10
0.0
 20
0.0
 30
0.0
  0
VERTEX
  5
98
330
97
100
AcDbEntity
  8
_U+30EC_U+30A4_U+30E4_U+30FC 1
 62
   179
420
  2234388
370
     9
100
AcDbVertex
100
AcDb2dVertex
 10
125.3149607027207
 20
-137.5634486384336
 30
0.0
  0
VERTEX
  5
99
330
97
100
AcDbEntity
  8
_U+30EC_U+30A4_U+30E4_U+30FC 1
 62
   179
420
  2234388
370
     9
100
AcDbVertex
100
AcDb2dVertex
 10
127.7748773043464
 20
-137.5634486384336
 30
0.0
  0
SEQEND
  5
9A
330
97
100
AcDbEntity
  8
_U+30EC_U+30A4_U+30E4_U+30FC 1
 62
   179
420
  2234388
370
     9
  0
POLYLINE
  5
9B
330
1F
100
AcDbEntity
  8
_U+30EC_U+30A4_U+30E4_U+30FC 1
 62
   179
420
  2234388
370
     9
100
AcDb2dPolyline
 66
     1
 10
0.0
 20
0.0
 30
0.0
  0
VERTEX
  5
9C
330
9B
100
AcDbEntity
  8
_U+30EC_U+30A4_U+30E4_U+30FC 1
 62
   179
420
  2234388
370
     9
100
AcDbVertex
100
AcDb2dVertex
 10
125.3149607027207
 20
-138.5632153482531
 30
0.0
  0
VERTEX
  5
9D
330
9B
100
AcDbEntity
  8
_U+30EC_U+30A4_U+30E4_U+30FC 1
 62
   179
420
  2234388
370
     9
100
AcDbVertex
100
AcDb2dVertex
 10
127.7748773043464
 20
-138.5632153482531
 30
0.0
  0
SEQEND
  5
9E
330
9B
100
AcDbEntity
  8
_U+30EC_U+30A4_U+30E4_U+30FC 1
 62
   179
420
  2234388
370
     9
  0
INSERT
  5
A0
330
1F
100
AcDbEntity
  8
_U+30EC_U+30A4_U+30E4_U+30FC 1
100
AcDbBlockReference
  2
block 2
 10
0.0
 20
0.0
 30
0.0
  0
POLYLINE
  5
A5
330
1F
100
AcDbEntity
  8
_U+30EC_U+30A4_U+30E4_U+30FC 1
 62
   179
420
  2234388
370
     9
100
AcDb2dPolyline
 66
     1
 10
0.0
 20
0.0
 30
0.0
  0
VERTEX
  5
A6
330
A5
100
AcDbEntity
  8
_U+30EC_U+30A4_U+30E4_U+30FC 1
 62
   179
420
  2234388
370
     9
100
AcDbVertex
100
AcDb2dVertex
 10
94.77487824507831
 20
-155.5630497861418
 30
0.0
  0
VERTEX
  5
A7
330
A5
100
AcDbEntity
  8
_U+30EC_U+30A4_U+30E4_U+30FC 1
 62
   179
420
  2234388
370
     9
100
AcDbVertex
100
AcDb2dVertex
 10
104.7747092938747
 20
-155.5630497861418
 30
0.0
  0
SEQEND
  5
A8
330
A5
100
AcDbEntity
  8
_U+30EC_U+30A4_U+30E4_U+30FC 1
 62
   179
420
  2234388
370
     9
  0
POLYLINE
  5
A9
330
1F
100
AcDbEntity
  8
_U+30EC_U+30A4_U+30E4_U+30FC 1
 62
   179
420
  2234388
370
     9
100
AcDb2dPolyline
 66
     1
 10
0.0
 20
0.0
 30
0.0
  0
VERTEX
  5
AA
330
A9
100
AcDbEntity
  8
_U+30EC_U+30A4_U+30E4_U+30FC 1
 62
   179
420
  2234388
370
     9
100
AcDbVertex
100
AcDb2dVertex
 10
104.7746124005645
 20
-154.1030075535695
 30
0.0
  0
VERTEX
  5
AB
330
A9
100
AcDbEntity
  8
_U+30EC_U+30A4_U+30E4_U+30FC 1
 62
   179
420
  2234388
370
     9
100
AcDbVertex
100
AcDb2dVertex
 10
104.7746124005645
 20
-156.5636347061391
 30
0.0
  0
SEQEND
  5
AC
330
A9
100
AcDbEntity
  8
_U+30EC_U+30A4_U+30E4_U+30FC 1
 62
   179
420
  2234388
370
     9
  0
INSERT
  5
AE
330
1F
100
AcDbEntity
  8
_U+30EC_U+30A4_U+30E4_U+30FC 1
100
AcDbBlockReference
  2
block 3
 10
0.0
 20
0.0
 30
0.0
  0
POLYLINE
  5
B6
330
1F
100
AcDbEntity
  8
_U+30EC_U+30A4_U+30E4_U+30FC 1
 62
   179
420
  2234388
370
     9
100
AcDb2dPolyline
 66
     1
 10
0.0
 20
0.0
 30
0.0
  0
VERTEX
  5
B7
330
B6
100
AcDbEntity
  8
_U+30EC_U+30A4_U+30E4_U+30FC 1
 62
   179
420
  2234388
370
     9
100
AcDbVertex
100
AcDb2dVertex
 10
82.77475477904319
 20
-133.5633698023568
 30
0.0
  0
VERTEX
  5
B8
330
B6
100
AcDbEntity
  8
_U+30EC_U+30A4_U+30E4_U+30FC 1
 62
   179
420
  2234388
370
     9
100
AcDbVertex
100
AcDb2dVertex
 10
122.7751609495308
 20
-133.5633698023568
 30
0.0
  0
SEQEND
  5
B9
330
B6
100
AcDbEntity
  8
_U+30EC_U+30A4_U+30E4_U+30FC 1
 62
   179
420
  2234388
370
     9
  0
POLYLINE
  5
BA
330
1F
100
AcDbEntity
  8
_U+30EC_U+30A4_U+30E4_U+30FC 1
 62
   179
420
  2234388
370
     9
100
AcDb2dPolyline
 66
     1
 10
0.0
 20
0.0
 30
0.0
  0
VERTEX
  5
BB
330
BA
100
AcDbEntity
  8
_U+30EC_U+30A4_U+30E4_U+30FC 1
 62
   179
420
  2234388
370
     9
100
AcDbVertex
100
AcDb2dVertex
 10
82.77475477904319
 20
-135.0233689712355
 30
0.0
  0
VERTEX
  5
BC
330
BA
100
AcDbEntity
  8
_U+30EC_U+30A4_U+30E4_U+30FC 1
 62
   179
420
  2234388
370
     9
100
AcDbVertex
100
AcDb2dVertex
 10
82.77475477904319
 20
-132.5634523696098
 30
0.0
  0
SEQEND
  5
BD
330
BA
100
AcDbEntity
  8
_U+30EC_U+30A4_U+30E4_U+30FC 1
 62
   179
420
  2234388
370
     9
  0
POLYLINE
  5
BE
330
1F
100
AcDbEntity
  8
_U+30EC_U+30A4_U+30E4_U+30FC 1
 62
   179
420
  2234388
370
     9
100
AcDb2dPolyline
 66
     1
 10
0.0
 20
0.0
 30
0.0
  0
VERTEX
  5
BF
330
BE
100
AcDbEntity
  8
_U+30EC_U+30A4_U+30E4_U+30FC 1
 62
   179
420
  2234388
370
     9
100
AcDbVertex
100
AcDb2dVertex
 10
122.7752363109946
 20
-135.0233689712355
 30
0.0
  0
VERTEX
  5
C0
330
BE
100
AcDbEntity
  8
_U+30EC_U+30A4_U+30E4_U+30FC 1
 62
   179
420
  2234388
370
     9
100
AcDbVertex
100
AcDb2dVertex
 10
122.7752363109946
 20
-132.5634523696098
 30
0.0
  0
SEQEND
  5
C1
330
BE
100
AcDbEntity
  8
_U+30EC_U+30A4_U+30E4_U+30FC 1
 62
   179
420
  2234388
370
     9
  0
INSERT
  5
C3
330
1F
100
AcDbEntity
  8
_U+30EC_U+30A4_U+30E4_U+30FC 1
100
AcDbBlockReference
  2
block 4
 10
0.0
 20
0.0
 30
0.0
  0
POLYLINE
  5
DE
330
1F
100
AcDbEntity
  8
_U+30EC_U+30A4_U+30E4_U+30FC 1
 62
   179
420
  2234388
370
     9
100
AcDb2dPolyline
 66
     1
 10
0.0
 20
0.0
 30
0.0
  0
VERTEX
  5
DF
330
DE
100
AcDbEntity
  8
_U+30EC_U+30A4_U+30E4_U+30FC 1
 62
   179
420
  2234388
370
     9
100
AcDbVertex
100
AcDb2dVertex
 10
94.77487824507831
 20
-155.5630497861418
 30
0.0
  0
VERTEX
  5
E0
330
DE
100
AcDbEntity
  8
_U+30EC_U+30A4_U+30E4_U+30FC 1
 62
   179
420
  2234388
370
     9
100
AcDbVertex
100
AcDb2dVertex
 10
82.77478707681335
 20
-155.5630497861418
 30
0.0
  0
SEQEND
  5
E1
330
DE
100
AcDbEntity
  8
_U+30EC_U+30A4_U+30E4_U+30FC 1
 62
   179
420
  2234388
370
     9
  0
POLYLINE
  5
E2
330
1F
100
AcDbEntity
  8
_U+30EC_U+30A4_U+30E4_U+30FC 1
 62
   179
420
  2234388
370
     9
100
AcDb2dPolyline
 66
     1
 10
0.0
 20
0.0
 30
0.0
  0
VERTEX
  5
E3
330
E2
100
AcDbEntity
  8
_U+30EC_U+30A4_U+30E4_U+30FC 1
 62
   179
420
  2234388
370
     9
100
AcDbVertex
100
AcDb2dVertex
 10
94.77487824507831
 20
-154.1030075535695
 30
0.0
  0
VERTEX
  5
E4
330
E2
100
AcDbEntity
  8
_U+30EC_U+30A4_U+30E4_U+30FC 1
 62
   179
420
  2234388
370
     9
100
AcDbVertex
100
AcDb2dVertex
 10
94.77487824507831
 20
-156.5636347061391
 30
0.0
  0
SEQEND
  5
E5
330
E2
100
AcDbEntity
  8
_U+30EC_U+30A4_U+30E4_U+30FC 1
 62
   179
420
  2234388
370
     9
  0
POLYLINE
  5
E6
330
1F
100
AcDbEntity
  8
_U+30EC_U+30A4_U+30E4_U+30FC 1
 62
   179
420
  2234388
370
     9
100
AcDb2dPolyline
 66
     1
 10
0.0
 20
0.0
 30
0.0
  0
VERTEX
  5
E7
330
E6
100
AcDbEntity
  8
_U+30EC_U+30A4_U+30E4_U+30FC 1
 62
   179
420
  2234388
370
     9
100
AcDbVertex
100
AcDb2dVertex
 10
82.77475477904319
 20
-141.1039948004716
 30
0.0
  0
VERTEX
  5
E8
330
E6
100
AcDbEntity
  8
_U+30EC_U+30A4_U+30E4_U+30FC 1
 62
   179
420
  2234388
370
     9
100
AcDbVertex
100
AcDb2dVertex
 10
82.77475477904319
 20
-156.5634301535946
 30
0.0
  0
SEQEND
  5
E9
330
E6
100
AcDbEntity
  8
_U+30EC_U+30A4_U+30E4_U+30FC 1
 62
   179
420
  2234388
370
     9
  0
INSERT
  5
EB
330
1F
100
AcDbEntity
  8
_U+30EC_U+30A4_U+30E4_U+30FC 1
100
AcDbBlockReference
  2
block 5
 10
0.0
 20
0.0
 30
0.0
  0
POLYLINE
  5
F2
330
1F
100
AcDbEntity
  8
_U+30EC_U+30A4_U+30E4_U+30FC 1
 62
   179
420
  2234388
370
     9
100
AcDb2dPolyline
 66
     1
 10
0.0
 20
0.0
 30
0.0
  0
VERTEX
  5
F3
330
F2
100
AcDbEntity
  8
_U+30EC_U+30A4_U+30E4_U+30FC 1
 62
   179
420
  2234388
370
     9
100
AcDbVertex
100
AcDb2dVertex
 10
126.775002935293
 20
-148.5633047792112
 30
0.0
  0
VERTEX
  5
F4
330
F2
100
AcDbEntity
  8
_U+30EC_U+30A4_U+30E4_U+30FC 1
 62
   179
420
  2234388
370
     9
100
AcDbVertex
100
AcDb2dVertex
 10
126.775002935293
 20
-138.5631184549426
 30
0.0
  0
SEQEND
  5
F5
330
F2
100
AcDbEntity
  8
_U+30EC_U+30A4_U+30E4_U+30FC 1
 62
   179
420
  2234388
370
     9
  0
POLYLINE
  5
F6
330
1F
100
AcDbEntity
  8
_U+30EC_U+30A4_U+30E4_U+30FC 1
 62
   179
420
  2234388
370
     9
100
AcDb2dPolyline
 66
     1
 10
0.0
 20
0.0
 30
0.0
  0
VERTEX
  5
F7
330
F6
100
AcDbEntity
  8
_U+30EC_U+30A4_U+30E4_U+30FC 1
 62
   179
420
  2234388
370
     9
100
AcDbVertex
100
AcDb2dVertex
 10
107.3150365773108
 20
-148.5633047792112
 30
0.0
  0
VERTEX
  5
F8
330
F6
100
AcDbEntity
  8
_U+30EC_U+30A4_U+30E4_U+30FC 1
 62
   179
420
  2234388
370
     9
100
AcDbVertex
100
AcDb2dVertex
 10
127.774726581419
 20
-148.5633047792112
 30
0.0
  0
SEQEND
  5
F9
330
F6
100
AcDbEntity
  8
_U+30EC_U+30A4_U+30E4_U+30FC 1
 62
   179
420
  2234388
370
     9
  0
INSERT
  5
FB
330
1F
100
AcDbEntity
  8
_U+30EC_U+30A4_U+30E4_U+30FC 1
100
AcDbBlockReference
  2
block 6
 10
0.0
 20
0.0
 30
0.0
  0
POLYLINE
  5
103
330
1F
100
AcDbEntity
  8
_U+30EC_U+30A4_U+30E4_U+30FC 1
 62
   179
420
  2234388
370
     9
100
AcDb2dPolyline
 66
     1
 10
0.0
 20
0.0
 30
0.0
  0
VERTEX
  5
104
330
103
100
AcDbEntity
  8
_U+30EC_U+30A4_U+30E4_U+30FC 1
 62
   179
420
  2234388
370
     9
100
AcDbVertex
100
AcDb2dVertex
 10
126.775002935293
 20
-151.5632939277667
 30
0.0
  0
VERTEX
  5
105
330
103
100
AcDbEntity
  8
_U+30EC_U+30A4_U+30E4_U+30FC 1
 62
   179
420
  2234388
370
     9
100
AcDbVertex
100
AcDb2dVertex
 10
126.775002935293
 20
-148.563272481441
 30
0.0
  0
SEQEND
  5
106
330
103
100
AcDbEntity
  8
_U+30EC_U+30A4_U+30E4_U+30FC 1
 62
   179
420
  2234388
370
     9
  0
POLYLINE
  5
107
330
1F
100
AcDbEntity
  8
_U+30EC_U+30A4_U+30E4_U+30FC 1
 62
   179
420
  2234388
370
     9
100
AcDb2dPolyline
 66
     1
 10
0.0
 20
0.0
 30
0.0
  0
VERTEX
  5
108
330
107
100
AcDbEntity
  8
_U+30EC_U+30A4_U+30E4_U+30FC 1
 62
   179
420
  2234388
370
     9
100
AcDbVertex
100
AcDb2dVertex
 10
107.3150365773108
 20
-151.5632939277667
 30
0.0
  0
VERTEX
  5
109
330
107
100
AcDbEntity
  8
_U+30EC_U+30A4_U+30E4_U+30FC 1
 62
   179
420
  2234388
370
     9
100
AcDbVertex
100
AcDb2dVertex
 10
127.774726581419
 20
-151.5632939277667
 30
0.0
  0
SEQEND
  5
10A
330
107
100
AcDbEntity
  8
_U+30EC_U+30A4_U+30E4_U+30FC 1
 62
   179
420
  2234388
370
     9
  0
INSERT
  5
10C
330
1F
100
AcDbEntity
  8
_U+30EC_U+30A4_U+30E4_U+30FC 1
100
AcDbBlockReference
  2
block 7
 10
0.0
 20
0.0
 30
0.0
  0
ENDSEC
  0
SECTION
  2
OBJECTS
  0
DICTIONARY
  5
C
330
0
100
AcDbDictionary
281
     1
  3
ACAD_GROUP
350
D
  3
ACAD_LAYOUT
350
1A
  3
ACAD_MATERIAL
350
3B
  3
ACAD_MLEADERSTYLE
350
112
  3
ACAD_MLINESTYLE
350
17
  3
ACAD_PLOTSETTINGS
350
19
  3
ACAD_PLOTSTYLENAME
350
E
  3
ACAD_TABLESTYLE
350
111
  3
ACAD_VISUALSTYLE
350
2A
  0
SUN
  5
3F
330
29
100
AcDbSun
 90
        1
290
     0
 63
     7
421
 16777215
 40
1.0
291
     1
 91
  2455826
 92
 54000000
292
     0
 70
     2
 71
   256
280
     1
  0
DICTIONARY
  5
D
102
{ACAD_REACTORS
330
C
102
}
330
C
100
AcDbDictionary
281
     1
  0
DICTIONARY
  5
1A
102
{ACAD_REACTORS
330
C
102
}
330
C
100
AcDbDictionary
281
     1
  3
Layout1
350
1E
  3
Layout2
350
26
  3
Model
350
22
  0
DICTIONARY
  5
3B
102
{ACAD_REACTORS
330
C
102
}
330
C
100
AcDbDictionary
281
     1
  3
ByBlock
350
3D
  3
ByLayer
350
3C
  3
Global
350
3E
  0
DICTIONARY
  5
112
102
{ACAD_REACTORS
330
C
102
}
330
C
100
AcDbDictionary
281
     1
  0
DICTIONARY
  5
17
102
{ACAD_REACTORS
330
C
102
}
330
C
100
AcDbDictionary
281
     1
  3
Standard
350
18
  0
DICTIONARY
  5
19
102
{ACAD_REACTORS
330
C
102
}
330
C
100
AcDbDictionary
281
     1
  0
ACDBDICTIONARYWDFLT
  5
E
102
{ACAD_REACTORS
330
C
102
}
330
C
100
AcDbDictionary
281
     1
  3
Normal
350
F
100
AcDbDictionaryWithDefault
340
F
  0
DICTIONARY
  5
111
102
{ACAD_REACTORS
330
C
102
}
330
C
100
AcDbDictionary
281
     1
  0
DICTIONARY
  5
2A
102
{ACAD_REACTORS
330
C
102
}
330
C
100
AcDbDictionary
281
     1
  3
2dWireframe
350
2F
  3
3D Hidden
350
31
  3
3dWireframe
350
30
  3
Basic
350
32
  3
Brighten
350
36
  3
ColorChange
350
3A
  3
Conceptual
350
34
  3
Dim
350
35
  3
Facepattern
350
39
  3
Flat
350
2B
  3
FlatWithEdges
350
2C
  3
Gouraud
350
2D
  3
GouraudWithEdges
350
2E
  3
Linepattern
350
38
  3
Realistic
350
33
  3
Thicken
350
37
  0
LAYOUT
  5
1E
102
{ACAD_REACTORS
330
1A
102
}
330
1A
100
AcDbPlotSettings
  1

  2
none_device
  4

  6

 40
0.0
 41
0.0
 42
0.0
 43
0.0
 44
0.0
 45
0.0
 46
0.0
 47
0.0
 48
0.0
 49
0.0
140
0.0
141
0.0
142
1.0
143
1.0
 70
   688
 72
     0
 73
     0
 74
     5
  7

 75
    16
 76
     0
 77
     2
 78
   300
147
1.0
148
0.0
149
0.0
100
AcDbLayout
  1
Layout1
 70
     1
 71
     1
 10
0.0
 20
0.0
 11
12.0
 21
9.0
 12
0.0
 22
0.0
 32
0.0
 14
1.000000000000000E+20
 24
1.000000000000000E+20
 34
1.000000000000000E+20
 15
-1.000000000000000E+20
 25
-1.000000000000000E+20
 35
-1.000000000000000E+20
146
0.0
 13
0.0
 23
0.0
 33
0.0
 16
1.0
 26
0.0
 36
0.0
 17
0.0
 27
1.0
 37
0.0
 76
     0
330
1B
  0
LAYOUT
  5
26
102
{ACAD_REACTORS
330
1A
102
}
330
1A
100
AcDbPlotSettings
  1

  2
none_device
  4

  6

 40
0.0
 41
0.0
 42
0.0
 43
0.0
 44
0.0
 45
0.0
 46
0.0
 47
0.0
 48
0.0
 49
0.0
140
0.0
141
0.0
142
1.0
143
1.0
 70
   688
 72
     0
 73
     0
 74
     5
  7

 75
    16
 76
     0
 77
     2
 78
   300
147
1.0
148
0.0
149
0.0
100
AcDbLayout
  1
Layout2
 70
     1
 71
     2
 10
0.0
 20
0.0
 11
0.0
 21
0.0
 12
0.0
 22
0.0
 32
0.0
 14
0.0
 24
0.0
 34
0.0
 15
0.0
 25
0.0
 35
0.0
146
0.0
 13
0.0
 23
0.0
 33
0.0
 16
1.0
 26
0.0
 36
0.0
 17
0.0
 27
1.0
 37
0.0
 76
     0
330
23
  0
LAYOUT
  5
22
102
{ACAD_REACTORS
330
1A
102
}
330
1A
100
AcDbPlotSettings
  1

  2
none_device
  4

  6

 40
0.0
 41
0.0
 42
0.0
 43
0.0
 44
0.0
 45
0.0
 46
0.0
 47
0.0
 48
0.0
 49
0.0
140
0.0
141
0.0
142
1.0
143
1.0
 70
  1712
 72
     0
 73
     0
 74
     0
  7

 75
     0
 76
     0
 77
     2
 78
   300
147
1.0
148
0.0
149
0.0
100
AcDbLayout
  1
Model
 70
     1
 71
     0
 10
0.0
 20
0.0
 11
12.0
 21
9.0
 12
0.0
 22
0.0
 32
0.0
 14
1.000000000000000E+20
 24
1.000000000000000E+20
 34
1.000000000000000E+20
 15
-1.000000000000000E+20
 25
-1.000000000000000E+20
 35
-1.000000000000000E+20
146
0.0
 13
0.0
 23
0.0
 33
0.0
 16
1.0
 26
0.0
 36
0.0
 17
0.0
 27
1.0
 37
0.0
 76
     0
330
1F
331
29
  0
MATERIAL
  5
3D
102
{ACAD_REACTORS
330
3B
102
}
330
3B
100
AcDbMaterial
  1
ByBlock
 72
     1
 94
      127
  0
MATERIAL
  5
3C
102
{ACAD_REACTORS
330
3B
102
}
330
3B
100
AcDbMaterial
  1
ByLayer
 72
     1
 94
      127
  0
MATERIAL
  5
3E
102
{ACAD_REACTORS
330
3B
102
}
330
3B
100
AcDbMaterial
  1
Global
 72
     1
 94
      127
  0
MLINESTYLE
  5
18
102
{ACAD_REACTORS
330
17
102
}
330
17
100
AcDbMlineStyle
  2
Standard
 70
     0
  3

 62
   256
 51
90.0
 52
90.0
 71
     2
 49
0.5
 62
   256
  6
BYLAYER
 49
-0.5
 62
   256
  6
BYLAYER
  0
ACDBPLACEHOLDER
  5
F
102
{ACAD_REACTORS
330
E
102
}
330
E
  0
VISUALSTYLE
  5
2F
102
{ACAD_REACTORS
330
2A
102
}
330
2A
100
AcDbVisualStyle
  2
2dWireframe
 70
     4
177
     2
291
     0
 71
     0
176
     1
 72
     2
176
     1
 73
     0
176
     1
 90
        0
176
     1
 40
-0.6
176
     1
 41
-30.0
176
     1
 62
     5
 63
     7
421
 16777215
176
     1
 74
     1
176
     1
 91
        4
176
     1
 64
     7
176
     1
 65
   257
176
     1
 75
     1
176
     1
175
     1
176
     1
 42
1.0
176
     1
 92
        0
176
     1
 66
   257
176
     1
 43
1.0
176
     1
 76
     1
176
     1
 77
     6
176
     1
 78
     2
176
     1
 67
     7
176
     1
 79
     5
176
     1
170
     0
176
     1
171
     0
176
     1
290
     0
176
     1
 93
        1
176
     1
 44
0.0
176
     1
173
     0
176
     1
  0
VISUALSTYLE
  5
31
102
{ACAD_REACTORS
330
2A
102
}
330
2A
100
AcDbVisualStyle
  2
3D Hidden
 70
     6
177
     2
291
     0
 71
     1
176
     1
 72
     2
176
     1
 73
     2
176
     1
 90
        0
176
     1
 40
-0.6
176
     1
 41
-30.0
176
     1
 62
     5
 63
     7
421
 16777215
176
     1
 74
     2
176
     1
 91
        2
176
     1
 64
     7
176
     1
 65
   257
176
     1
 75
     2
176
     1
175
     1
176
     1
 42
40.0
176
     1
 92
        0
176
     1
 66
   257
176
     1
 43
1.0
176
     1
 76
     1
176
     1
 77
     6
176
     1
 78
     2
176
     1
 67
     7
176
     1
 79
     3
176
     1
170
     0
176
     1
171
     0
176
     1
290
     0
176
     1
 93
        1
176
     1
 44
0.0
176
     1
173
     0
176
     1
  0
VISUALSTYLE
  5
30
102
{ACAD_REACTORS
330
2A
102
}
330
2A
100
AcDbVisualStyle
  2
3dWireframe
 70
     5
177
     2
291
     0
 71
     0
176
     1
 72
     2
176
     1
 73
     0
176
     1
 90
        0
176
     1
 40
-0.6
176
     1
 41
-30.0
176
     1
 62
     5
 63
     7
421
 16777215
176
     1
 74
     1
176
     1
 91
        4
176
     1
 64
     7
176
     1
 65
   257
176
     1
 75
     1
176
     1
175
     1
176
     1
 42
1.0
176
     1
 92
        0
176
     1
 66
   257
176
     1
 43
1.0
176
     1
 76
     1
176
     1
 77
     6
176
     1
 78
     2
176
     1
 67
     7
176
     1
 79
     5
176
     1
170
     0
176
     1
171
     0
176
     1
290
     0
176
     1
 93
        1
176
     1
 44
0.0
176
     1
173
     0
176
     1
  0
VISUALSTYLE
  5
32
102
{ACAD_REACTORS
330
2A
102
}
330
2A
100
AcDbVisualStyle
  2
Basic
 70
     7
177
     2
291
     1
 71
     1
176
     1
 72
     0
176
     1
 73
     1
176
     1
 90
        0
176
     1
 40
-0.6
176
     1
 41
-30.0
176
     1
 62
     5
 63
     7
421
 16777215
176
     1
 74
     0
176
     1
 91
        4
176
     1
 64
     7
176
     1
 65
   257
176
     1
 75
     1
176
     1
175
     1
176
     1
 42
1.0
176
     1
 92
        8
176
     1
 66
     7
176
     1
 43
1.0
176
     1
 76
     1
176
     1
 77
     6
176
     1
 78
     2
176
     1
 67
     7
176
     1
 79
     5
176
     1
170
     0
176
     1
171
     0
176
     1
290
     0
176
     1
 93
        1
176
     1
 44
0.0
176
     1
173
     0
176
     1
  0
VISUALSTYLE
  5
36
102
{ACAD_REACTORS
330
2A
102
}
330
2A
100
AcDbVisualStyle
  2
Brighten
 70
    12
177
     2
291
     1
 71
     2
176
     1
 72
     2
176
     1
 73
     0
176
     1
 90
        0
176
     1
 40
-0.6
176
     1
 41
-30.0
176
     1
 62
     5
 63
     7
421
 16777215
176
     1
 74
     1
176
     1
 91
        4
176
     1
 64
     7
176
     1
 65
   257
176
     1
 75
     1
176
     1
175
     1
176
     1
 42
1.0
176
     1
 92
        8
176
     1
 66
     7
176
     1
 43
1.0
176
     1
 76
     1
176
     1
 77
     6
176
     1
 78
     2
176
     1
 67
     7
176
     1
 79
     5
176
     1
170
     0
176
     1
171
     0
176
     1
290
     0
176
     1
 93
        1
176
     1
 44
50.0
176
     1
173
     0
176
     1
  0
VISUALSTYLE
  5
3A
102
{ACAD_REACTORS
330
2A
102
}
330
2A
100
AcDbVisualStyle
  2
ColorChange
 70
    16
177
     2
291
     1
 71
     2
176
     1
 72
     2
176
     1
 73
     3
176
     1
 90
        0
176
     1
 40
-0.6
176
     1
 41
-30.0
176
     1
 62
     5
 63
     8
421
  8421504
176
     1
 74
     1
176
     1
 91
        4
176
     1
 64
     7
176
     1
 65
   257
176
     1
 75
     1
176
     1
175
     1
176
     1
 42
1.0
176
     1
 92
        8
176
     1
 66
     8
424
  8421504
176
     1
 43
1.0
176
     1
 76
     1
176
     1
 77
     6
176
     1
 78
     2
176
     1
 67
     7
176
     1
 79
     5
176
     1
170
     0
176
     1
171
     0
176
     1
290
     0
176
     1
 93
        1
176
     1
 44
0.0
176
     1
173
     0
176
     1
  0
VISUALSTYLE
  5
34
102
{ACAD_REACTORS
330
2A
102
}
330
2A
100
AcDbVisualStyle
  2
Conceptual
 70
     9
177
     2
291
     0
 71
     3
176
     1
 72
     2
176
     1
 73
     0
176
     1
 90
        0
176
     1
 40
-0.6
176
     1
 41
-30.0
176
     1
 62
     5
 63
     7
421
 16777215
176
     1
 74
     2
176
     1
 91
        2
176
     1
 64
     7
176
     1
 65
   257
176
     1
 75
     1
176
     1
175
     1
176
     1
 42
40.0
176
     1
 92
        8
176
     1
 66
     7
176
     1
 43
1.0
176
     1
 76
     1
176
     1
 77
     6
176
     1
 78
     2
176
     1
 67
     7
176
     1
 79
     3
176
     1
170
     0
176
     1
171
     0
176
     1
290
     0
176
     1
 93
        1
176
     1
 44
0.0
176
     1
173
     0
176
     1
  0
VISUALSTYLE
  5
35
102
{ACAD_REACTORS
330
2A
102
}
330
2A
100
AcDbVisualStyle
  2
Dim
 70
    11
177
     2
291
     1
 71
     2
176
     1
 72
     2
176
     1
 73
     0
176
     1
 90
        0
176
     1
 40
-0.6
176
     1
 41
-30.0
176
     1
 62
     5
 63
     7
421
 16777215
176
     1
 74
     1
176
     1
 91
        4
176
     1
 64
     7
176
     1
 65
   257
176
     1
 75
     1
176
     1
175
     1
176
     1
 42
1.0
176
     1
 92
        8
176
     1
 66
     7
176
     1
 43
1.0
176
     1
 76
     1
176
     1
 77
     6
176
     1
 78
     2
176
     1
 67
     7
176
     1
 79
     5
176
     1
170
     0
176
     1
171
     0
176
     1
290
     0
176
     1
 93
        1
176
     1
 44
-50.0
176
     1
173
     0
176
     1
  0
VISUALSTYLE
  5
39
102
{ACAD_REACTORS
330
2A
102
}
330
2A
100
AcDbVisualStyle
  2
Facepattern
 70
    15
177
     2
291
     1
 71
     2
176
     1
 72
     2
176
     1
 73
     0
176
     1
 90
        0
176
     1
 40
-0.6
176
     1
 41
-30.0
176
     1
 62
     5
 63
     7
421
 16777215
176
     1
 74
     1
176
     1
 91
        4
176
     1
 64
     7
176
     1
 65
   257
176
     1
 75
     1
176
     1
175
     1
176
     1
 42
1.0
176
     1
 92
        8
176
     1
 66
     7
176
     1
 43
1.0
176
     1
 76
     1
176
     1
 77
     6
176
     1
 78
     2
176
     1
 67
     7
176
     1
 79
     5
176
     1
170
     0
176
     1
171
     0
176
     1
290
     0
176
     1
 93
        1
176
     1
 44
0.0
176
     1
173
     0
176
     1
  0
VISUALSTYLE
  5
2B
102
{ACAD_REACTORS
330
2A
102
}
330
2A
100
AcDbVisualStyle
  2
Flat
 70
     0
177
     2
291
     1
 71
     2
176
     1
 72
     1
176
     1
 73
     1
176
     1
 90
        2
176
     1
 40
-0.6
176
     1
 41
30.0
176
     1
 62
     5
 63
     7
421
 16777215
176
     1
 74
     0
176
     1
 91
        4
176
     1
 64
     7
176
     1
 65
   257
176
     1
 75
     1
176
     1
175
     1
176
     1
 42
1.0
176
     1
 92
        8
176
     1
 66
     7
176
     1
 43
1.0
176
     1
 76
     1
176
     1
 77
     6
176
     1
 78
     2
176
     1
 67
     7
176
     1
 79
     5
176
     1
170
     0
176
     1
171
     0
176
     1
290
     0
176
     1
 93
       13
176
     1
 44
0.0
176
     1
173
     0
176
     1
  0
VISUALSTYLE
  5
2C
102
{ACAD_REACTORS
330
2A
102
}
330
2A
100
AcDbVisualStyle
  2
FlatWithEdges
 70
     1
177
     2
291
     1
 71
     2
176
     1
 72
     1
176
     1
 73
     1
176
     1
 90
        2
176
     1
 40
-0.6
176
     1
 41
30.0
176
     1
 62
     5
 63
     7
421
 16777215
176
     1
 74
     1
176
     1
 91
        4
176
     1
 64
     7
176
     1
 65
   257
176
     1
 75
     1
176
     1
175
     1
176
     1
 42
1.0
176
     1
 92
        0
176
     1
 66
   257
176
     1
 43
1.0
176
     1
 76
     1
176
     1
 77
     6
176
     1
 78
     2
176
     1
 67
     7
176
     1
 79
     5
176
     1
170
     0
176
     1
171
     0
176
     1
290
     0
176
     1
 93
       13
176
     1
 44
0.0
176
     1
173
     0
176
     1
  0
VISUALSTYLE
  5
2D
102
{ACAD_REACTORS
330
2A
102
}
330
2A
100
AcDbVisualStyle
  2
Gouraud
 70
     2
177
     2
291
     1
 71
     2
176
     1
 72
     2
176
     1
 73
     1
176
     1
 90
        2
176
     1
 40
-0.6
176
     1
 41
30.0
176
     1
 62
     5
 63
     7
421
 16777215
176
     1
 74
     0
176
     1
 91
        4
176
     1
 64
     7
176
     1
 65
   257
176
     1
 75
     1
176
     1
175
     1
176
     1
 42
1.0
176
     1
 92
        0
176
     1
 66
     7
176
     1
 43
1.0
176
     1
 76
     1
176
     1
 77
     6
176
     1
 78
     2
176
     1
 67
     7
176
     1
 79
     5
176
     1
170
     0
176
     1
171
     0
176
     1
290
     0
176
     1
 93
       13
176
     1
 44
0.0
176
     1
173
     0
176
     1
  0
VISUALSTYLE
  5
2E
102
{ACAD_REACTORS
330
2A
102
}
330
2A
100
AcDbVisualStyle
  2
GouraudWithEdges
 70
     3
177
     2
291
     1
 71
     2
176
     1
 72
     2
176
     1
 73
     1
176
     1
 90
        2
176
     1
 40
-0.6
176
     1
 41
30.0
176
     1
 62
     5
 63
     7
421
 16777215
176
     1
 74
     1
176
     1
 91
        4
176
     1
 64
     7
176
     1
 65
   257
176
     1
 75
     1
176
     1
175
     1
176
     1
 42
1.0
176
     1
 92
        0
176
     1
 66
   257
176
     1
 43
1.0
176
     1
 76
     1
176
     1
 77
     6
176
     1
 78
     2
176
     1
 67
     7
176
     1
 79
     5
176
     1
170
     0
176
     1
171
     0
176
     1
290
     0
176
     1
 93
       13
176
     1
 44
0.0
176
     1
173
     0
176
     1
  0
VISUALSTYLE
  5
38
102
{ACAD_REACTORS
330
2A
102
}
330
2A
100
AcDbVisualStyle
  2
Linepattern
 70
    14
177
     2
291
     1
 71
     2
176
     1
 72
     2
176
     1
 73
     0
176
     1
 90
        0
176
     1
 40
-0.6
176
     1
 41
-30.0
176
     1
 62
     5
 63
     7
421
 16777215
176
     1
 74
     1
176
     1
 91
        4
176
     1
 64
     7
176
     1
 65
   257
176
     1
 75
     7
176
     1
175
     7
176
     1
 42
1.0
176
     1
 92
        8
176
     1
 66
     7
176
     1
 43
1.0
176
     1
 76
     1
176
     1
 77
     6
176
     1
 78
     2
176
     1
 67
     7
176
     1
 79
     5
176
     1
170
     0
176
     1
171
     0
176
     1
290
     0
176
     1
 93
        1
176
     1
 44
0.0
176
     1
173
     0
176
     1
  0
VISUALSTYLE
  5
33
102
{ACAD_REACTORS
330
2A
102
}
330
2A
100
AcDbVisualStyle
  2
Realistic
 70
     8
177
     2
291
     0
 71
     2
176
     1
 72
     2
176
     1
 73
     0
176
     1
 90
        0
176
     1
 40
-0.6
176
     1
 41
-30.0
176
     1
 62
     5
 63
     7
421
 16777215
176
     1
 74
     1
176
     1
 91
        0
176
     1
 64
     7
176
     1
 65
   257
176
     1
 75
     1
176
     1
175
     1
176
     1
 42
1.0
176
     1
 92
        8
176
     1
 66
     8
424
  7895160
176
     1
 43
1.0
176
     1
 76
     1
176
     1
 77
     6
176
     1
 78
     2
176
     1
 67
     7
176
     1
 79
     5
176
     1
170
     0
176
     1
171
     0
176
     1
290
     0
176
     1
 93
       13
176
     1
 44
0.0
176
     1
173
     0
176
     1
  0
VISUALSTYLE
  5
37
102
{ACAD_REACTORS
330
2A
102
}
330
2A
100
AcDbVisualStyle
  2
Thicken
 70
    13
177
     2
291
     1
 71
     2
176
     1
 72
     2
176
     1
 73
     0
176
     1
 90
        0
176
     1
 40
-0.6
176
     1
 41
-30.0
176
     1
 62
     5
 63
     7
421
 16777215
176
     1
 74
     1
176
     1
 91
        4
176
     1
 64
     7
176
     1
 65
   257
176
     1
 75
     1
176
     1
175
     1
176
     1
 42
1.0
176
     1
 92
       12
176
     1
 66
     7
176
     1
 43
1.0
176
     1
 76
     1
176
     1
 77
     6
176
     1
 78
     2
176
     1
 67
     7
176
     1
 79
     5
176
     1
170
     0
176
     1
171
     0
176
     1
290
     0
176
     1
 93
        1
176
     1
 44
0.0
176
     1
173
     0
176
     1
  0
ENDSEC
  0
EOF
