  0
SECTION
  2
HEADER
  9
$ACADVER
  1
AC1024
  9
$ACADMAINTVER
 70
     6
  9
$DWGCODEPAGE
  3
UNDEFINED
  9
$INSBASE
 10
0.0
 20
0.0
 30
0.0
  9
$EXTMIN
 10
1.000000000000000E+20
 20
1.000000000000000E+20
 30
1.000000000000000E+20
  9
$EXTMAX
 10
-1.000000000000000E+20
 20
-1.000000000000000E+20
 30
-1.000000000000000E+20
  9
$LIMMIN
 10
0.0
 20
0.0
  9
$LIMMAX
 10
12.0
 20
9.0
  9
$ORTHOMODE
 70
     0
  9
$REGENMODE
 70
     1
  9
$FILLMODE
 70
     1
  9
$QTEXTMODE
 70
     0
  9
$MIRRTEXT
 70
     1
  9
$LTSCALE
 40
1.0
  9
$ATTMODE
 70
     1
  9
$TEXTSIZE
 40
0.2
  9
$TRACEWID
 40
0.05
  9
$TEXTSTYLE
  7
Standard
  9
$CLAYER
  8
0
  9
$CELTYPE
  6
ByLayer
  9
$CECOLOR
 62
   256
  9
$CELTSCALE
 40
1.0
  9
$DISPSILH
 70
     0
  9
$DIMSCALE
 40
1.0
  9
$DIMASZ
 40
0.18
  9
$DIMEXO
 40
0.0625
  9
$DIMDLI
 40
0.38
  9
$DIMRND
 40
0.0
  9
$DIMDLE
 40
0.0
  9
$DIMEXE
 40
0.18
  9
$DIMTP
 40
0.0
  9
$DIMTM
 40
0.0
  9
$DIMTXT
 40
0.18
  9
$DIMCEN
 40
0.09
  9
$DIMTSZ
 40
0.0
  9
$DIMTOL
 70
     0
  9
$DIMLIM
 70
     0
  9
$DIMTIH
 70
     1
  9
$DIMTOH
 70
     1
  9
$DIMSE1
 70
     0
  9
$DIMSE2
 70
     0
  9
$DIMTAD
 70
     0
  9
$DIMZIN
 70
     0
  9
$DIMBLK
  1

  9
$DIMASO
 70
     1
  9
$DIMSHO
 70
     1
  9
$DIMPOST
  1

  9
$DIMAPOST
  1

  9
$DIMALT
 70
     0
  9
$DIMALTD
 70
     2
  9
$DIMALTF
 40
25.4
  9
$DIMLFAC
 40
1.0
  9
$DIMTOFL
 70
     0
  9
$DIMTVP
 40
0.0
  9
$DIMTIX
 70
     0
  9
$DIMSOXD
 70
     0
  9
$DIMSAH
 70
     0
  9
$DIMBLK1
  1

  9
$DIMBLK2
  1

  9
$DIMSTYLE
  2
Standard
  9
$DIMCLRD
 70
     0
  9
$DIMCLRE
 70
     0
  9
$DIMCLRT
 70
     0
  9
$DIMTFAC
 40
1.0
  9
$DIMGAP
 40
0.09
  9
$DIMJUST
 70
     0
  9
$DIMSD1
 70
     0
  9
$DIMSD2
 70
     0
  9
$DIMTOLJ
 70
     1
  9
$DIMTZIN
 70
     0
  9
$DIMALTZ
 70
     0
  9
$DIMALTTZ
 70
     0
  9
$DIMUPT
 70
     0
  9
$DIMDEC
 70
     4
  9
$DIMTDEC
 70
     4
  9
$DIMALTU
 70
     2
  9
$DIMALTTD
 70
     2
  9
$DIMTXSTY
  7
Standard
  9
$DIMAUNIT
 70
     0
  9
$DIMADEC
 70
     0
  9
$DIMALTRND
 40
0.0
  9
$DIMAZIN
 70
     0
  9
$DIMDSEP
 70
    46
  9
$DIMATFIT
 70
     3
  9
$DIMFRAC
 70
     0
  9
$DIMLDRBLK
  1

  9
$DIMLUNIT
 70
     2
  9
$DIMLWD
 70
    -2
  9
$DIMLWE
 70
    -2
  9
$DIMTMOVE
 70
     0
  9
$DIMFXL
 40
1.0
  9
$DIMFXLON
 70
     0
  9
$DIMJOGANG
 40
0.7853981633974483
  9
$DIMTFILL
 70
     0
  9
$DIMTFILLCLR
 70
     0
  9
$DIMARCSYM
 70
     0
  9
$DIMLTYPE
  6

  9
$DIMLTEX1
  6

  9
$DIMLTEX2
  6

  9
$DIMTXTDIRECTION
 70
     0
  9
$LUNITS
 70
     2
  9
$LUPREC
 70
     4
  9
$SKETCHINC
 40
0.1
  9
$FILLETRAD
 40
0.5
  9
$AUNITS
 70
     0
  9
$AUPREC
 70
     0
  9
$MENU
  1
.
  9
$ELEVATION
 40
0.0
  9
$PELEVATION
 40
0.0
  9
$THICKNESS
 40
0.0
  9
$LIMCHECK
 70
     0
  9
$CHAMFERA
 40
0.5
  9
$CHAMFERB
 40
0.5
  9
$CHAMFERC
 40
1.0
  9
$CHAMFERD
 40
0.0
  9
$SKPOLY
 70
     0
  9
$TDCREATE
 40
2458263.580833334
  9
$TDUCREATE
 40
2458263.205833334
  9
$TDUPDATE
 40
2458263.580833334
  9
$TDUUPDATE
 40
2458263.205833334
  9
$TDINDWG
 40
0.0000000116
  9
$TDUSRTIMER
 40
0.0000000116
  9
$USRTIMER
 70
     1
  9
$ANGBASE
 50
0.0
  9
$ANGDIR
 70
     0
  9
$PDMODE
 70
     0
  9
$PDSIZE
 40
0.0
  9
$PLINEWID
 40
0.0
  9
$SPLFRAME
 70
     0
  9
$SPLINETYPE
 70
     6
  9
$SPLINESEGS
 70
     8
  9
$HANDSEED
  5
104
  9
$SURFTAB1
 70
     6
  9
$SURFTAB2
 70
     6
  9
$SURFTYPE
 70
     6
  9
$SURFU
 70
     6
  9
$SURFV
 70
     6
  9
$UCSBASE
  2

  9
$UCSNAME
  2

  9
$UCSORG
 10
0.0
 20
0.0
 30
0.0
  9
$UCSXDIR
 10
1.0
 20
0.0
 30
0.0
  9
$UCSYDIR
 10
0.0
 20
1.0
 30
0.0
  9
$UCSORTHOREF
  2

  9
$UCSORTHOVIEW
 70
     0
  9
$UCSORGTOP
 10
0.0
 20
0.0
 30
0.0
  9
$UCSORGBOTTOM
 10
0.0
 20
0.0
 30
0.0
  9
$UCSORGLEFT
 10
0.0
 20
0.0
 30
0.0
  9
$UCSORGRIGHT
 10
0.0
 20
0.0
 30
0.0
  9
$UCSORGFRONT
 10
0.0
 20
0.0
 30
0.0
  9
$UCSORGBACK
 10
0.0
 20
0.0
 30
0.0
  9
$PUCSBASE
  2

  9
$PUCSNAME
  2

  9
$PUCSORG
 10
0.0
 20
0.0
 30
0.0
  9
$PUCSXDIR
 10
1.0
 20
0.0
 30
0.0
  9
$PUCSYDIR
 10
0.0
 20
1.0
 30
0.0
  9
$PUCSORTHOREF
  2

  9
$PUCSORTHOVIEW
 70
     0
  9
$PUCSORGTOP
 10
0.0
 20
0.0
 30
0.0
  9
$PUCSORGBOTTOM
 10
0.0
 20
0.0
 30
0.0
  9
$PUCSORGLEFT
 10
0.0
 20
0.0
 30
0.0
  9
$PUCSORGRIGHT
 10
0.0
 20
0.0
 30
0.0
  9
$PUCSORGFRONT
 10
0.0
 20
0.0
 30
0.0
  9
$PUCSORGBACK
 10
0.0
 20
0.0
 30
0.0
  9
$USERI1
 70
     0
  9
$USERI2
 70
     0
  9
$USERI3
 70
     0
  9
$USERI4
 70
     0
  9
$USERI5
 70
     0
  9
$USERR1
 40
0.0
  9
$USERR2
 40
0.0
  9
$USERR3
 40
0.0
  9
$USERR4
 40
0.0
  9
$USERR5
 40
0.0
  9
$WORLDVIEW
 70
     1
  9
$SHADEDGE
 70
     3
  9
$SHADEDIF
 70
    70
  9
$TILEMODE
 70
     1
  9
$MAXACTVP
 70
    64
  9
$PINSBASE
 10
0.0
 20
0.0
 30
0.0
  9
$PLIMCHECK
 70
     0
  9
$PEXTMIN
 10
1.000000000000000E+20
 20
1.000000000000000E+20
 30
1.000000000000000E+20
  9
$PEXTMAX
 10
-1.000000000000000E+20
 20
-1.000000000000000E+20
 30
-1.000000000000000E+20
  9
$PLIMMIN
 10
0.0
 20
0.0
  9
$PLIMMAX
 10
12.0
 20
9.0
  9
$UNITMODE
 70
     0
  9
$VISRETAIN
 70
     1
  9
$PLINEGEN
 70
     0
  9
$PSLTSCALE
 70
     1
  9
$TREEDEPTH
 70
  3020
  9
$CMLSTYLE
  2
Standard
  9
$CMLJUST
 70
     0
  9
$CMLSCALE
 40
1.0
  9
$PROXYGRAPHICS
 70
     1
  9
$MEASUREMENT
 70
     0
  9
$CELWEIGHT
370
    -1
  9
$ENDCAPS
280
     0
  9
$JOINSTYLE
280
     0
  9
$LWDISPLAY
290
     1
  9
$INSUNITS
 70
     1
  9
$HYPERLINKBASE
  1

  9
$STYLESHEET
  1

  9
$XEDIT
290
     1
  9
$CEPSNTYPE
380
     0
  9
$PSTYLEMODE
290
     1
  9
$FINGERPRINTGUID
  2
{16B0B893-43AF-FC39-9839-67B81B58DB23}
  9
$VERSIONGUID
  2
{FAEB1C32-E019-11D5-929B-00C0DF256EC4}
  9
$EXTNAMES
290
     1
  9
$PSVPSCALE
 40
0.0
  9
$OLESTARTUP
290
     0
  9
$SORTENTS
280
   127
  9
$INDEXCTL
280
     0
  9
$HIDETEXT
280
     1
  9
$XCLIPFRAME
280
     2
  9
$HALOGAP
280
     0
  9
$OBSCOLOR
 70
   257
  9
$OBSLTYPE
280
     0
  9
$INTERSECTIONDISPLAY
280
     0
  9
$INTERSECTIONCOLOR
 70
   257
  9
$DIMASSOC
280
     2
  9
$PROJECTNAME
  1

  9
$CAMERADISPLAY
290
     0
  9
$LENSLENGTH
 40
50.0
  9
$CAMERAHEIGHT
 40
0.0
  9
$STEPSPERSEC
 40
2.0
  9
$STEPSIZE
 40
6.0
  9
$3DDWFPREC
 40
2.0
  9
$PSOLWIDTH
 40
0.25
  9
$PSOLHEIGHT
 40
4.0
  9
$LOFTANG1
 40
1.570796326794897
  9
$LOFTANG2
 40
1.570796326794897
  9
$LOFTMAG1
 40
0.0
  9
$LOFTMAG2
 40
0.0
  9
$LOFTPARAM
 70
     7
  9
$LOFTNORMALS
280
     1
  9
$LATITUDE
 40
37.795
  9
$LONGITUDE
 40
-122.394
  9
$NORTHDIRECTION
 40
0.0
  9
$TIMEZONE
 70
 -8000
  9
$LIGHTGLYPHDISPLAY
280
     1
  9
$TILEMODELIGHTSYNCH
280
     1
  9
$CMATERIAL
347
3C
  9
$SOLIDHIST
280
     1
  9
$SHOWHIST
280
     1
  9
$DWFFRAME
280
     2
  9
$DGNFRAME
280
     2
  9
$REALWORLDSCALE
290
     1
  9
$INTERFERECOLOR
 62
   256
  9
$CSHADOW
280
     0
  9
$SHADOWPLANELOCATION
 40
0.0
  0
ENDSEC
  0
SECTION
  2
CLASSES
  0
CLASS
  1
ACDBDICTIONARYWDFLT
  2
AcDbDictionaryWithDefault
  3
ObjectDBX Classes
 90
        0
 91
        4
280
     0
281
     0
  0
CLASS
  1
VISUALSTYLE
  2
AcDbVisualStyle
  3
ObjectDBX Classes
 90
     4095
 91
        4
280
     0
281
     0
  0
CLASS
  1
MATERIAL
  2
AcDbMaterial
  3
ObjectDBX Classes
 90
     1153
 91
        4
280
     0
281
     0
  0
CLASS
  1
SUN
  2
AcDbSun
  3
SCENEOE
 90
     1024
 91
        4
280
     0
281
     0
  0
ENDSEC
  0
SECTION
  2
TABLES
  0
TABLE
  2
VPORT
  5
8
330
0
100
AcDbSymbolTable
 70
     1
  0
VPORT
  5
29
330
8
100
AcDbSymbolTableRecord
100
AcDbViewportTableRecord
  2
*Active
 70
     0
 10
0.0
 20
0.0
 11
1.0
 21
1.0
 12
0.0
 22
0.0
 13
0.0
 23
0.0
 14
0.5
 24
0.5
 15
0.5
 25
0.5
 16
0.0
 26
0.0
 36
1.0
 17
105.0007777515277
 27
-148.5000416295416
 37
0.0
 40
297.0000832590831
 41
0.7070757462376333
 42
50.0
 43
0.0
 44
0.0
 50
0.0
 51
0.0
 71
     0
 72
   100
 73
     1
 74
     3
 75
     0
 76
     0
 77
     0
 78
     0
281
     0
 65
     1
110
0.0
120
0.0
130
0.0
111
1.0
121
0.0
131
0.0
112
0.0
122
1.0
132
0.0
 79
     0
146
0.0
 60
     3
 61
     5
292
     1
282
     1
141
0.0
142
0.0
 63
   250
361
3F
  0
ENDTAB
  0
TABLE
  2
LTYPE
  5
5
330
0
100
AcDbSymbolTable
 70
     2
  0
LTYPE
  5
14
330
5
100
AcDbSymbolTableRecord
100
AcDbLinetypeTableRecord
  2
ByBlock
 70
     0
  3

 72
    65
 73
     0
 40
0.0
  0
LTYPE
  5
15
330
5
100
AcDbSymbolTableRecord
100
AcDbLinetypeTableRecord
  2
ByLayer
 70
     0
  3

 72
    65
 73
     0
 40
0.0
  0
LTYPE
  5
16
330
5
100
AcDbSymbolTableRecord
100
AcDbLinetypeTableRecord
  2
Continuous
 70
     0
  3
Solid line
 72
    65
 73
     0
 40
0.0
  0
LTYPE
  5
100
330
5
100
AcDbSymbolTableRecord
100
AcDbLinetypeTableRecord
  2
AI-Linetype-1
 70
     0
  3
Adobe Illustrator Linetype No. 1
 72
    65
 73
     2
 40
1.411111110758333
 49
0.7055555553791667
 74
     0
 49
-0.7055555553791667
 74
     0
  0
ENDTAB
  0
TABLE
  2
LAYER
  5
2
330
0
100
AcDbSymbolTable
 70
     2
  0
LAYER
  5
10
330
2
100
AcDbSymbolTableRecord
100
AcDbLayerTableRecord
  2
0
 70
     0
 62
     7
  6
Continuous
370
    -3
390
F
347
3E
  0
LAYER
  5
40
330
2
100
AcDbSymbolTableRecord
100
AcDbLayerTableRecord
  2
_U+30EC_U+30A4_U+30E4_U+30FC 1
 70
     0
 62
     7
  6
Continuous
370
    -3
390
F
347
3E
  0
ENDTAB
  0
TABLE
  2
STYLE
  5
3
330
0
100
AcDbSymbolTable
 70
     1
  0
STYLE
  5
11
330
3
100
AcDbSymbolTableRecord
100
AcDbTextStyleTableRecord
  2
Standard
 70
     0
 40
0.0
 41
1.0
 50
0.0
 71
     0
 42
0.2
  3
txt
  4

  0
ENDTAB
  0
TABLE
  2
VIEW
  5
6
330
0
100
AcDbSymbolTable
 70
     0
  0
ENDTAB
  0
TABLE
  2
UCS
  5
7
330
0
100
AcDbSymbolTable
 70
     0
  0
ENDTAB
  0
TABLE
  2
APPID
  5
9
330
0
100
AcDbSymbolTable
 70
     1
  0
APPID
  5
12
330
9
100
AcDbSymbolTableRecord
100
AcDbRegAppTableRecord
  2
ACAD
 70
     0
  0
ENDTAB
  0
TABLE
  2
DIMSTYLE
  5
A
330
0
100
AcDbSymbolTable
 70
     1
100
AcDbDimStyleTable
  0
DIMSTYLE
105
27
330
A
100
AcDbSymbolTableRecord
100
AcDbDimStyleTableRecord
  2
Standard
 70
     0
178
     0
340
11
  0
ENDTAB
  0
TABLE
  2
BLOCK_RECORD
  5
1
330
0
100
AcDbSymbolTable
 70
     7
  0
BLOCK_RECORD
  5
1F
330
1
100
AcDbSymbolTableRecord
100
AcDbBlockTableRecord
  2
*Model_Space
340
22
 70
     0
280
     1
281
     0
  0
BLOCK_RECORD
  5
1B
330
1
100
AcDbSymbolTableRecord
100
AcDbBlockTableRecord
  2
*Paper_Space
340
1E
 70
     0
280
     1
281
     0
  0
BLOCK_RECORD
  5
23
330
1
100
AcDbSymbolTableRecord
100
AcDbBlockTableRecord
  2
*Paper_Space0
340
26
 70
     0
280
     1
281
     0
  0
BLOCK_RECORD
  5
9A
330
1
100
AcDbSymbolTableRecord
100
AcDbBlockTableRecord
  2
block 2
340
0
102
{BLKREFS
331
9B
102
}
 70
     0
280
     1
281
     0
  0
BLOCK_RECORD
  5
A8
330
1
100
AcDbSymbolTableRecord
100
AcDbBlockTableRecord
  2
block 3
340
0
102
{BLKREFS
331
A9
102
}
 70
     0
280
     1
281
     0
  0
BLOCK_RECORD
  5
B9
330
1
100
AcDbSymbolTableRecord
100
AcDbBlockTableRecord
  2
block 4
340
0
102
{BLKREFS
331
BA
102
}
 70
     0
280
     1
281
     0
  0
BLOCK_RECORD
  5
CB
330
1
100
AcDbSymbolTableRecord
100
AcDbBlockTableRecord
  2
block 5
340
0
102
{BLKREFS
331
CC
102
}
 70
     0
280
     1
281
     0
  0
BLOCK_RECORD
  5
DD
330
1
100
AcDbSymbolTableRecord
100
AcDbBlockTableRecord
  2
block 6
340
0
102
{BLKREFS
331
DE
102
}
 70
     0
280
     1
281
     0
  0
BLOCK_RECORD
  5
F1
330
1
100
AcDbSymbolTableRecord
100
AcDbBlockTableRecord
  2
block 7
340
0
102
{BLKREFS
331
F2
102
}
 70
     0
280
     1
281
     0
  0
ENDTAB
  0
ENDSEC
  0
SECTION
  2
BLOCKS
  0
BLOCK
  5
20
330
1F
100
AcDbEntity
  8
0
100
AcDbBlockBegin
  2
*Model_Space
 70
     0
 10
0.0
 20
0.0
 30
0.0
  3
*Model_Space
  1

  0
ENDBLK
  5
21
330
1F
100
AcDbEntity
  8
0
100
AcDbBlockEnd
  0
BLOCK
  5
1C
330
1B
100
AcDbEntity
 67
     1
  8
0
100
AcDbBlockBegin
  2
*Paper_Space
 70
     0
 10
0.0
 20
0.0
 30
0.0
  3
*Paper_Space
  1

  0
ENDBLK
  5
1D
330
1B
100
AcDbEntity
 67
     1
  8
0
100
AcDbBlockEnd
  0
BLOCK
  5
24
330
23
100
AcDbEntity
  8
0
100
AcDbBlockBegin
  2
*Paper_Space0
 70
     0
 10
0.0
 20
0.0
 30
0.0
  3
*Paper_Space0
  1

  0
ENDBLK
  5
25
330
23
100
AcDbEntity
  8
0
100
AcDbBlockEnd
  0
BLOCK
  5
9C
330
9A
100
AcDbEntity
  8
0
100
AcDbBlockBegin
  2
block 2
 70
     0
 10
0.0
 20
0.0
 30
0.0
  3
block 2
  1

  0
SPLINE
  5
9E
330
9A
100
AcDbEntity
  8
_U+30EC_U+30A4_U+30E4_U+30FC 1
370
     0
100
AcDbSpline
210
0.0
220
0.0
230
1.0
 70
    11
 71
     3
 72
    26
 73
    22
 74
     0
 42
0.0000000001
 43
0.0000000001
 12
1.0
 22
0.0
 32
0.0
 13
1.0
 23
0.0
 33
0.0
 40
0.0
 40
0.0
 40
0.0
 40
0.0
 40
1.0
 40
1.0
 40
1.0
 40
2.0
 40
2.0
 40
2.0
 40
3.0
 40
3.0
 40
3.0
 40
4.0
 40
4.0
 40
4.0
 40
5.0
 40
5.0
 40
5.0
 40
6.0
 40
6.0
 40
6.0
 40
7.0
 40
7.0
 40
7.0
 40
7.0
 10
123.7705674603768
 20
-144.8233737159643
 30
0.0
 10
123.7705674603768
 20
-144.8233737159643
 30
0.0
 10
122.6664143573542
 20
-144.8233737159643
 30
0.0
 10
122.6664143573542
 20
-144.8233737159643
 30
0.0
 10
122.6664143573542
 20
-144.8233737159643
 30
0.0
 10
122.6664143573542
 20
-145.1534138634512
 30
0.0
 10
122.6664143573542
 20
-145.1534138634512
 30
0.0
 10
122.6664143573542
 20
-145.1534138634512
 30
0.0
 10
122.5182752514885
 20
-145.1534138634512
 30
0.0
 10
122.5182752514885
 20
-145.1534138634512
 30
0.0
 10
122.5034613409019
 20
-144.8213066586732
 30
0.0
 10
122.3405083244496
 20
-144.7747978696223
 30
0.0
 10
122.2261311543393
 20
-144.7451700484491
 30
0.0
 10
122.2261311543393
 20
-144.7451700484491
 30
0.0
 10
122.2261311543393
 20
-144.5990979998745
 30
0.0
 10
122.2261311543393
 20
-144.5990979998745
 30
0.0
 10
122.2261311543393
 20
-144.5990979998745
 30
0.0
 10
123.7705674603768
 20
-144.5990979998745
 30
0.0
 10
123.7705674603768
 20
-144.5990979998745
 30
0.0
 10
123.7705674603768
 20
-144.5990979998745
 30
0.0
 10
123.7705674603768
 20
-144.8233737159643
 30
0.0
 10
123.7705674603768
 20
-144.8233737159643
 30
0.0
  0
HATCH
  5
9F
330
9A
100
AcDbEntity
  8
_U+30EC_U+30A4_U+30E4_U+30FC 1
 62
   179
420
  2234388
100
AcDbHatch
 10
0.0
 20
0.0
 30
0.0
210
0.0
220
0.0
230
1.0
  2
SOLID
 70
     1
 71
     0
 91
        1
 92
        1
 93
        1
 72
     4
 94
        3
 73
     0
 74
     1
 95
       26
 96
       22
 40
0.0
 40
0.0
 40
0.0
 40
0.0
 40
1.0
 40
1.0
 40
1.0
 40
2.0
 40
2.0
 40
2.0
 40
3.0
 40
3.0
 40
3.0
 40
4.0
 40
4.0
 40
4.0
 40
5.0
 40
5.0
 40
5.0
 40
6.0
 40
6.0
 40
6.0
 40
7.0
 40
7.0
 40
7.0
 40
7.0
 10
123.7705674603768
 20
-144.8233737159643
 10
123.7705674603768
 20
-144.8233737159643
 10
122.6664143573542
 20
-144.8233737159643
 10
122.6664143573542
 20
-144.8233737159643
 10
122.6664143573542
 20
-144.8233737159643
 10
122.6664143573542
 20
-145.1534138634512
 10
122.6664143573542
 20
-145.1534138634512
 10
122.6664143573542
 20
-145.1534138634512
 10
122.5182752514885
 20
-145.1534138634512
 10
122.5182752514885
 20
-145.1534138634512
 10
122.5034613409019
 20
-144.8213066586732
 10
122.3405083244496
 20
-144.7747978696223
 10
122.2261311543393
 20
-144.7451700484491
 10
122.2261311543393
 20
-144.7451700484491
 10
122.2261311543393
 20
-144.5990979998745
 10
122.2261311543393
 20
-144.5990979998745
 10
122.2261311543393
 20
-144.5990979998745
 10
123.7705674603768
 20
-144.5990979998745
 10
123.7705674603768
 20
-144.5990979998745
 10
123.7705674603768
 20
-144.5990979998745
 10
123.7705674603768
 20
-144.8233737159643
 10
123.7705674603768
 20
-144.8233737159643
 97
        0
 97
        0
 75
     2
 76
     1
 98
        0
  0
ENDBLK
  5
9D
330
9A
100
AcDbEntity
  8
0
100
AcDbBlockEnd
  0
BLOCK
  5
AA
330
A8
100
AcDbEntity
  8
0
100
AcDbBlockBegin
  2
block 3
 70
     0
 10
0.0
 20
0.0
 30
0.0
  3
block 3
  1

  0
SPLINE
  5
AC
330
A8
100
AcDbEntity
  8
_U+30EC_U+30A4_U+30E4_U+30FC 1
370
     0
100
AcDbSpline
210
0.0
220
0.0
230
1.0
 70
    11
 71
     3
 72
    26
 73
    22
 74
     0
 42
0.0000000001
 43
0.0000000001
 12
1.0
 22
0.0
 32
0.0
 13
1.0
 23
0.0
 33
0.0
 40
0.0
 40
0.0
 40
0.0
 40
0.0
 40
1.0
 40
1.0
 40
1.0
 40
2.0
 40
2.0
 40
2.0
 40
3.0
 40
3.0
 40
3.0
 40
4.0
 40
4.0
 40
4.0
 40
5.0
 40
5.0
 40
5.0
 40
6.0
 40
6.0
 40
6.0
 40
7.0
 40
7.0
 40
7.0
 40
7.0
 10
100.8377725984885
 20
-158.5997937971556
 30
0.0
 10
100.8377725984885
 20
-158.5997937971556
 30
0.0
 10
100.8377725984885
 20
-157.495640694133
 30
0.0
 10
100.8377725984885
 20
-157.495640694133
 30
0.0
 10
100.8377725984885
 20
-157.495640694133
 30
0.0
 10
100.5077324510015
 20
-157.495640694133
 30
0.0
 10
100.5077324510015
 20
-157.495640694133
 30
0.0
 10
100.5077324510015
 20
-157.495640694133
 30
0.0
 10
100.5077324510015
 20
-157.3475015882673
 30
0.0
 10
100.5077324510015
 20
-157.3475015882673
 30
0.0
 10
100.8398396557796
 20
-157.3326876776807
 30
0.0
 10
100.8863484448305
 20
-157.1697346612284
 30
0.0
 10
100.9159762660037
 20
-157.0553574911181
 30
0.0
 10
100.9159762660037
 20
-157.0553574911181
 30
0.0
 10
101.0620483145782
 20
-157.0553574911181
 30
0.0
 10
101.0620483145782
 20
-157.0553574911181
 30
0.0
 10
101.0620483145782
 20
-157.0553574911181
 30
0.0
 10
101.0620483145782
 20
-158.5997937971556
 30
0.0
 10
101.0620483145782
 20
-158.5997937971556
 30
0.0
 10
101.0620483145782
 20
-158.5997937971556
 30
0.0
 10
100.8377725984885
 20
-158.5997937971556
 30
0.0
 10
100.8377725984885
 20
-158.5997937971556
 30
0.0
  0
HATCH
  5
AD
330
A8
100
AcDbEntity
  8
_U+30EC_U+30A4_U+30E4_U+30FC 1
 62
   179
420
  2234388
100
AcDbHatch
 10
0.0
 20
0.0
 30
0.0
210
0.0
220
0.0
230
1.0
  2
SOLID
 70
     1
 71
     0
 91
        1
 92
        1
 93
        1
 72
     4
 94
        3
 73
     0
 74
     1
 95
       26
 96
       22
 40
0.0
 40
0.0
 40
0.0
 40
0.0
 40
1.0
 40
1.0
 40
1.0
 40
2.0
 40
2.0
 40
2.0
 40
3.0
 40
3.0
 40
3.0
 40
4.0
 40
4.0
 40
4.0
 40
5.0
 40
5.0
 40
5.0
 40
6.0
 40
6.0
 40
6.0
 40
7.0
 40
7.0
 40
7.0
 40
7.0
 10
100.8377725984885
 20
-158.5997937971556
 10
100.8377725984885
 20
-158.5997937971556
 10
100.8377725984885
 20
-157.495640694133
 10
100.8377725984885
 20
-157.495640694133
 10
100.8377725984885
 20
-157.495640694133
 10
100.5077324510015
 20
-157.495640694133
 10
100.5077324510015
 20
-157.495640694133
 10
100.5077324510015
 20
-157.495640694133
 10
100.5077324510015
 20
-157.3475015882673
 10
100.5077324510015
 20
-157.3475015882673
 10
100.8398396557796
 20
-157.3326876776807
 10
100.8863484448305
 20
-157.1697346612284
 10
100.9159762660037
 20
-157.0553574911181
 10
100.9159762660037
 20
-157.0553574911181
 10
101.0620483145782
 20
-157.0553574911181
 10
101.0620483145782
 20
-157.0553574911181
 10
101.0620483145782
 20
-157.0553574911181
 10
101.0620483145782
 20
-158.5997937971556
 10
101.0620483145782
 20
-158.5997937971556
 10
101.0620483145782
 20
-158.5997937971556
 10
100.8377725984885
 20
-158.5997937971556
 10
100.8377725984885
 20
-158.5997937971556
 97
        0
 97
        0
 75
     2
 76
     1
 98
        0
  0
SPLINE
  5
AE
330
A8
100
AcDbEntity
  8
_U+30EC_U+30A4_U+30E4_U+30FC 1
370
     0
100
AcDbSpline
210
0.0
220
0.0
230
1.0
 70
    11
 71
     3
 72
    29
 73
    25
 74
     0
 42
0.0000000001
 43
0.0000000001
 12
1.0
 22
0.0
 32
0.0
 13
1.0
 23
0.0
 33
0.0
 40
0.0
 40
0.0
 40
0.0
 40
0.0
 40
1.0
 40
1.0
 40
1.0
 40
2.0
 40
2.0
 40
2.0
 40
3.0
 40
3.0
 40
3.0
 40
4.0
 40
4.0
 40
4.0
 40
5.0
 40
5.0
 40
5.0
 40
6.0
 40
6.0
 40
6.0
 40
7.0
 40
7.0
 40
7.0
 40
8.0
 40
8.0
 40
8.0
 40
8.0
 10
102.4609293363639
 20
-158.4220268701167
 30
0.0
 10
102.3530978476756
 20
-158.6314886756199
 30
0.0
 10
102.1796372899933
 20
-158.6504367007888
 30
0.0
 10
102.0631930625918
 20
-158.6504367007888
 30
0.0
 10
101.9024793582049
 20
-158.6504367007888
 30
0.0
 10
101.7607136789869
 20
-158.6039279117379
 30
0.0
 10
101.6654567888198
 20
-158.4220268701167
 30
0.0
 10
101.561931669488
 20
-158.2273789752001
 30
0.0
 10
101.5428113895449
 20
-157.9907009153634
 30
0.0
 10
101.5428113895449
 20
-157.8277478989111
 30
0.0
 10
101.5428113895449
 20
-157.6837429076277
 30
0.0
 10
101.5596923574226
 20
-157.4319064276559
 30
0.0
 10
101.6654567888198
 20
-157.233124418157
 30
0.0
 10
101.7734605322823
 20
-157.0302082940758
 30
0.0
 10
101.9341742366692
 20
-157.0067816447761
 30
0.0
 10
102.0631930625918
 20
-157.0067816447761
 30
0.0
 10
102.2218397096876
 20
-157.0067816447761
 30
0.0
 10
102.3656724461968
 20
-157.0512233765358
 30
0.0
 10
102.4609293363639
 20
-157.233124418157
 30
0.0
 10
102.5603203411134
 20
-157.4257052557825
 30
0.0
 10
102.5835747356388
 20
-157.6541150864545
 30
0.0
 10
102.5835747356388
 20
-157.8277478989111
 30
0.0
 10
102.5835747356388
 20
-157.998969144528
 30
0.0
 10
102.5625596531788
 20
-158.2294460324913
 30
0.0
 10
102.4609293363639
 20
-158.4220268701167
 30
0.0
  0
SPLINE
  5
AF
330
A8
100
AcDbEntity
  8
_U+30EC_U+30A4_U+30E4_U+30FC 1
370
     0
100
AcDbSpline
210
0.0
220
0.0
230
1.0
 70
    11
 71
     3
 72
    17
 73
    13
 74
     0
 42
0.0000000001
 43
0.0000000001
 12
1.0
 22
0.0
 32
0.0
 13
1.0
 23
0.0
 33
0.0
 40
0.0
 40
0.0
 40
0.0
 40
0.0
 40
1.0
 40
1.0
 40
1.0
 40
2.0
 40
2.0
 40
2.0
 40
3.0
 40
3.0
 40
3.0
 40
4.0
 40
4.0
 40
4.0
 40
4.0
 10
102.0631930625918
 20
-157.1993624824016
 30
0.0
 10
101.8135958946855
 20
-157.1993624824016
 30
0.0
 10
101.7670871056346
 20
-157.4828938408376
 30
0.0
 10
101.7670871056346
 20
-157.8277478989111
 30
0.0
 10
101.7670871056346
 20
-158.1471082503938
 30
0.0
 10
101.8030883534555
 20
-158.4557888058722
 30
0.0
 10
102.0631930625918
 20
-158.4557888058722
 30
0.0
 10
102.3107231732071
 20
-158.4557888058722
 30
0.0
 10
102.3594712743233
 20
-158.1746690142758
 30
0.0
 10
102.3594712743233
 20
-157.8277478989111
 30
0.0
 10
102.3594712743233
 20
-157.5080430378799
 30
0.0
 10
102.3214029692113
 20
-157.1993624824016
 30
0.0
 10
102.0631930625918
 20
-157.1993624824016
 30
0.0
  0
HATCH
  5
B0
330
A8
100
AcDbEntity
  8
_U+30EC_U+30A4_U+30E4_U+30FC 1
 62
   179
420
  2234388
100
AcDbHatch
 10
0.0
 20
0.0
 30
0.0
210
0.0
220
0.0
230
1.0
  2
SOLID
 70
     1
 71
     0
 91
        2
 92
        1
 93
        1
 72
     4
 94
        3
 73
     0
 74
     1
 95
       29
 96
       25
 40
0.0
 40
0.0
 40
0.0
 40
0.0
 40
1.0
 40
1.0
 40
1.0
 40
2.0
 40
2.0
 40
2.0
 40
3.0
 40
3.0
 40
3.0
 40
4.0
 40
4.0
 40
4.0
 40
5.0
 40
5.0
 40
5.0
 40
6.0
 40
6.0
 40
6.0
 40
7.0
 40
7.0
 40
7.0
 40
8.0
 40
8.0
 40
8.0
 40
8.0
 10
102.4609293363639
 20
-158.4220268701167
 10
102.3530978476756
 20
-158.6314886756199
 10
102.1796372899933
 20
-158.6504367007888
 10
102.0631930625918
 20
-158.6504367007888
 10
101.9024793582049
 20
-158.6504367007888
 10
101.7607136789869
 20
-158.6039279117379
 10
101.6654567888198
 20
-158.4220268701167
 10
101.561931669488
 20
-158.2273789752001
 10
101.5428113895449
 20
-157.9907009153634
 10
101.5428113895449
 20
-157.8277478989111
 10
101.5428113895449
 20
-157.6837429076277
 10
101.5596923574226
 20
-157.4319064276559
 10
101.6654567888198
 20
-157.233124418157
 10
101.7734605322823
 20
-157.0302082940758
 10
101.9341742366692
 20
-157.0067816447761
 10
102.0631930625918
 20
-157.0067816447761
 10
102.2218397096876
 20
-157.0067816447761
 10
102.3656724461968
 20
-157.0512233765358
 10
102.4609293363639
 20
-157.233124418157
 10
102.5603203411134
 20
-157.4257052557825
 10
102.5835747356388
 20
-157.6541150864545
 10
102.5835747356388
 20
-157.8277478989111
 10
102.5835747356388
 20
-157.998969144528
 10
102.5625596531788
 20
-158.2294460324913
 10
102.4609293363639
 20
-158.4220268701167
 97
        0
 97
        0
 92
        1
 93
        1
 72
     4
 94
        3
 73
     0
 74
     1
 95
       17
 96
       13
 40
0.0
 40
0.0
 40
0.0
 40
0.0
 40
1.0
 40
1.0
 40
1.0
 40
2.0
 40
2.0
 40
2.0
 40
3.0
 40
3.0
 40
3.0
 40
4.0
 40
4.0
 40
4.0
 40
4.0
 10
102.0631930625918
 20
-157.1993624824016
 10
101.8135958946855
 20
-157.1993624824016
 10
101.7670871056346
 20
-157.4828938408376
 10
101.7670871056346
 20
-157.8277478989111
 10
101.7670871056346
 20
-158.1471082503938
 10
101.8030883534555
 20
-158.4557888058722
 10
102.0631930625918
 20
-158.4557888058722
 10
102.3107231732071
 20
-158.4557888058722
 10
102.3594712743233
 20
-158.1746690142758
 10
102.3594712743233
 20
-157.8277478989111
 10
102.3594712743233
 20
-157.5080430378799
 10
102.3214029692113
 20
-157.1993624824016
 10
102.0631930625918
 20
-157.1993624824016
 97
        0
 97
        0
 75
     2
 76
     1
 98
        0
  0
ENDBLK
  5
AB
330
A8
100
AcDbEntity
  8
0
100
AcDbBlockEnd
  0
BLOCK
  5
BB
330
B9
100
AcDbEntity
  8
0
100
AcDbBlockBegin
  2
block 4
 70
     0
 10
0.0
 20
0.0
 30
0.0
  3
block 4
  1

  0
SPLINE
  5
BD
330
B9
100
AcDbEntity
  8
_U+30EC_U+30A4_U+30E4_U+30FC 1
370
     0
100
AcDbSpline
210
0.0
220
0.0
230
1.0
 70
    11
 71
     3
 72
    62
 73
    58
 74
     0
 42
0.0000000001
 43
0.0000000001
 12
1.0
 22
0.0
 32
0.0
 13
1.0
 23
0.0
 33
0.0
 40
0.0
 40
0.0
 40
0.0
 40
0.0
 40
1.0
 40
1.0
 40
1.0
 40
2.0
 40
2.0
 40
2.0
 40
3.0
 40
3.0
 40
3.0
 40
4.0
 40
4.0
 40
4.0
 40
5.0
 40
5.0
 40
5.0
 40
6.0
 40
6.0
 40
6.0
 40
7.0
 40
7.0
 40
7.0
 40
8.0
 40
8.0
 40
8.0
 40
9.0
 40
9.0
 40
9.0
 40
10.0
 40
10.0
 40
10.0
 40
11.0
 40
11.0
 40
11.0
 40
12.0
 40
12.0
 40
12.0
 40
13.0
 40
13.0
 40
13.0
 40
14.0
 40
14.0
 40
14.0
 40
15.0
 40
15.0
 40
15.0
 40
16.0
 40
16.0
 40
16.0
 40
17.0
 40
17.0
 40
17.0
 40
18.0
 40
18.0
 40
18.0
 40
19.0
 40
19.0
 40
19.0
 40
19.0
 10
123.82121036401
 20
-153.7553005257973
 30
0.0
 10
123.82121036401
 20
-153.8503851611902
 30
0.0
 10
123.80019528155
 20
-154.0684597054065
 30
0.0
 10
123.6141601253465
 20
-154.1931721619725
 30
0.0
 10
123.5018500125273
 20
-154.2672417149054
 30
0.0
 10
123.4026312625521
 20
-154.2713758294877
 30
0.0
 10
123.317881913615
 20
-154.27550994407
 30
0.0
 10
123.317881913615
 20
-154.27550994407
 30
0.0
 10
123.317881913615
 20
-154.0557128521111
 30
0.0
 10
123.317881913615
 20
-154.0557128521111
 30
0.0
 10
123.3919514665479
 20
-154.0536457948199
 30
0.0
 10
123.6265624690934
 20
-154.0429659988156
 30
0.0
 10
123.6265624690934
 20
-153.7594346403796
 30
0.0
 10
123.6265624690934
 20
-153.6219753305181
 30
0.0
 10
123.5569715402913
 20
-153.4697021100701
 30
0.0
 10
123.3285617096193
 20
-153.4697021100701
 30
0.0
 10
123.2121174822178
 20
-153.4697021100701
 30
0.0
 10
123.1635416358758
 20
-153.5079426699563
 30
0.0
 10
123.1318467574115
 20
-153.5396375484206
 30
0.0
 10
123.0577772044786
 20
-153.613362591805
 30
0.0
 10
123.0450303511832
 20
-153.7298068192064
 30
0.0
 10
123.0450303511832
 20
-153.7849283469704
 30
0.0
 10
123.0450303511832
 20
-153.8038763721393
 30
0.0
 10
123.0470974084743
 20
-153.8400498747344
 30
0.0
 10
123.0512315230566
 20
-153.8676106386164
 30
0.0
 10
123.0512315230566
 20
-153.8676106386164
 30
0.0
 10
122.85658362814
 20
-153.8676106386164
 30
0.0
 10
122.85658362814
 20
-153.8676106386164
 30
0.0
 10
122.863129309562
 20
-153.8293700787302
 30
0.0
 10
122.8651963668532
 20
-153.7869954042616
 30
0.0
 10
122.8651963668532
 20
-153.7807942323881
 30
0.0
 10
122.8651963668532
 20
-153.7153374181684
 30
0.0
 10
122.8438367748446
 20
-153.5162108991209
 30
0.0
 10
122.6071587150079
 20
-153.5162108991209
 30
0.0
 10
122.4293917879691
 20
-153.5162108991209
 30
0.0
 10
122.3742702602051
 20
-153.647469037109
 30
0.0
 10
122.3742702602051
 20
-153.7573675830884
 30
0.0
 10
122.3742702602051
 20
-154.0219509163556
 30
0.0
 10
122.6071587150079
 20
-154.0302191455202
 30
0.0
 10
122.6788167011011
 20
-154.0343532601025
 30
0.0
 10
122.6788167011011
 20
-154.0343532601025
 30
0.0
 10
122.6788167011011
 20
-154.2376138937323
 30
0.0
 10
122.6788167011011
 20
-154.2376138937323
 30
0.0
 10
122.5541042445351
 20
-154.2293456645677
 30
0.0
 10
122.1775553079973
 20
-154.2017849006857
 30
0.0
 10
122.1775553079973
 20
-153.7449652393416
 30
0.0
 10
122.1775553079973
 20
-153.5203450137033
 30
0.0
 10
122.304679331403
 20
-153.2791883297358
 30
0.0
 10
122.600613033586
 20
-153.2791883297358
 30
0.0
 10
122.786992699338
 20
-153.2791883297358
 30
0.0
 10
122.8693304814355
 20
-153.3742729651287
 30
0.0
 10
122.9306531810729
 20
-153.4741807342009
 30
0.0
 10
122.9582139449549
 20
-153.4125135250149
 30
0.0
 10
123.0384846697612
 20
-153.2306124833937
 30
0.0
 10
123.3158148563238
 20
-153.2306124833937
 30
0.0
 10
123.6541232329754
 20
-153.2306124833937
 30
0.0
 10
123.82121036401
 20
-153.4783148487832
 30
0.0
 10
123.82121036401
 20
-153.7553005257973
 30
0.0
  0
HATCH
  5
BE
330
B9
100
AcDbEntity
  8
_U+30EC_U+30A4_U+30E4_U+30FC 1
 62
   179
420
  2234388
100
AcDbHatch
 10
0.0
 20
0.0
 30
0.0
210
0.0
220
0.0
230
1.0
  2
SOLID
 70
     1
 71
     0
 91
        1
 92
        1
 93
        1
 72
     4
 94
        3
 73
     0
 74
     1
 95
       62
 96
       58
 40
0.0
 40
0.0
 40
0.0
 40
0.0
 40
1.0
 40
1.0
 40
1.0
 40
2.0
 40
2.0
 40
2.0
 40
3.0
 40
3.0
 40
3.0
 40
4.0
 40
4.0
 40
4.0
 40
5.0
 40
5.0
 40
5.0
 40
6.0
 40
6.0
 40
6.0
 40
7.0
 40
7.0
 40
7.0
 40
8.0
 40
8.0
 40
8.0
 40
9.0
 40
9.0
 40
9.0
 40
10.0
 40
10.0
 40
10.0
 40
11.0
 40
11.0
 40
11.0
 40
12.0
 40
12.0
 40
12.0
 40
13.0
 40
13.0
 40
13.0
 40
14.0
 40
14.0
 40
14.0
 40
15.0
 40
15.0
 40
15.0
 40
16.0
 40
16.0
 40
16.0
 40
17.0
 40
17.0
 40
17.0
 40
18.0
 40
18.0
 40
18.0
 40
19.0
 40
19.0
 40
19.0
 40
19.0
 10
123.82121036401
 20
-153.7553005257973
 10
123.82121036401
 20
-153.8503851611902
 10
123.80019528155
 20
-154.0684597054065
 10
123.6141601253465
 20
-154.1931721619725
 10
123.5018500125273
 20
-154.2672417149054
 10
123.4026312625521
 20
-154.2713758294877
 10
123.317881913615
 20
-154.27550994407
 10
123.317881913615
 20
-154.27550994407
 10
123.317881913615
 20
-154.0557128521111
 10
123.317881913615
 20
-154.0557128521111
 10
123.3919514665479
 20
-154.0536457948199
 10
123.6265624690934
 20
-154.0429659988156
 10
123.6265624690934
 20
-153.7594346403796
 10
123.6265624690934
 20
-153.6219753305181
 10
123.5569715402913
 20
-153.4697021100701
 10
123.3285617096193
 20
-153.4697021100701
 10
123.2121174822178
 20
-153.4697021100701
 10
123.1635416358758
 20
-153.5079426699563
 10
123.1318467574115
 20
-153.5396375484206
 10
123.0577772044786
 20
-153.613362591805
 10
123.0450303511832
 20
-153.7298068192064
 10
123.0450303511832
 20
-153.7849283469704
 10
123.0450303511832
 20
-153.8038763721393
 10
123.0470974084743
 20
-153.8400498747344
 10
123.0512315230566
 20
-153.8676106386164
 10
123.0512315230566
 20
-153.8676106386164
 10
122.85658362814
 20
-153.8676106386164
 10
122.85658362814
 20
-153.8676106386164
 10
122.863129309562
 20
-153.8293700787302
 10
122.8651963668532
 20
-153.7869954042616
 10
122.8651963668532
 20
-153.7807942323881
 10
122.8651963668532
 20
-153.7153374181684
 10
122.8438367748446
 20
-153.5162108991209
 10
122.6071587150079
 20
-153.5162108991209
 10
122.4293917879691
 20
-153.5162108991209
 10
122.3742702602051
 20
-153.647469037109
 10
122.3742702602051
 20
-153.7573675830884
 10
122.3742702602051
 20
-154.0219509163556
 10
122.6071587150079
 20
-154.0302191455202
 10
122.6788167011011
 20
-154.0343532601025
 10
122.6788167011011
 20
-154.0343532601025
 10
122.6788167011011
 20
-154.2376138937323
 10
122.6788167011011
 20
-154.2376138937323
 10
122.5541042445351
 20
-154.2293456645677
 10
122.1775553079973
 20
-154.2017849006857
 10
122.1775553079973
 20
-153.7449652393416
 10
122.1775553079973
 20
-153.5203450137033
 10
122.304679331403
 20
-153.2791883297358
 10
122.600613033586
 20
-153.2791883297358
 10
122.786992699338
 20
-153.2791883297358
 10
122.8693304814355
 20
-153.3742729651287
 10
122.9306531810729
 20
-153.4741807342009
 10
122.9582139449549
 20
-153.4125135250149
 10
123.0384846697612
 20
-153.2306124833937
 10
123.3158148563238
 20
-153.2306124833937
 10
123.6541232329754
 20
-153.2306124833937
 10
123.82121036401
 20
-153.4783148487832
 10
123.82121036401
 20
-153.7553005257973
 97
        0
 97
        0
 75
     2
 76
     1
 98
        0
  0
ENDBLK
  5
BC
330
B9
100
AcDbEntity
  8
0
100
AcDbBlockEnd
  0
BLOCK
  5
CD
330
CB
100
AcDbEntity
  8
0
100
AcDbBlockBegin
  2
block 5
 70
     0
 10
0.0
 20
0.0
 30
0.0
  3
block 5
  1

  0
SPLINE
  5
CF
330
CB
100
AcDbEntity
  8
_U+30EC_U+30A4_U+30E4_U+30FC 1
370
     0
100
AcDbSpline
210
0.0
220
0.0
230
1.0
 70
    11
 71
     3
 72
    26
 73
    22
 74
     0
 42
0.0000000001
 43
0.0000000001
 12
1.0
 22
0.0
 32
0.0
 13
1.0
 23
0.0
 33
0.0
 40
0.0
 40
0.0
 40
0.0
 40
0.0
 40
1.0
 40
1.0
 40
1.0
 40
2.0
 40
2.0
 40
2.0
 40
3.0
 40
3.0
 40
3.0
 40
4.0
 40
4.0
 40
4.0
 40
5.0
 40
5.0
 40
5.0
 40
6.0
 40
6.0
 40
6.0
 40
7.0
 40
7.0
 40
7.0
 40
7.0
 10
123.7702229508283
 20
-148.8358764276348
 30
0.0
 10
123.7702229508283
 20
-148.8358764276348
 30
0.0
 10
123.7702229508283
 20
-149.0727267422457
 30
0.0
 10
123.7702229508283
 20
-149.0727267422457
 30
0.0
 10
123.4611978858014
 20
-149.0472330356549
 30
0.0
 10
122.9430555248198
 20
-148.8548244528037
 30
0.0
 10
122.4373155075851
 20
-148.4486476950927
 30
0.0
 10
122.4373155075851
 20
-148.4486476950927
 30
0.0
 10
122.4373155075851
 20
-149.2863226623312
 30
0.0
 10
122.4373155075851
 20
-149.2863226623312
 30
0.0
 10
122.4373155075851
 20
-149.2863226623312
 30
0.0
 10
122.2257866447908
 20
-149.2863226623312
 30
0.0
 10
122.2257866447908
 20
-149.2863226623312
 30
0.0
 10
122.2257866447908
 20
-149.2863226623312
 30
0.0
 10
122.2257866447908
 20
-148.2117973804818
 30
0.0
 10
122.2257866447908
 20
-148.2117973804818
 30
0.0
 10
122.2257866447908
 20
-148.2117973804818
 30
0.0
 10
122.4373155075851
 20
-148.2117973804818
 30
0.0
 10
122.4373155075851
 20
-148.2117973804818
 30
0.0
 10
122.7273925474432
 20
-148.535464101321
 30
0.0
 10
123.3196044613576
 20
-148.8019422371051
 30
0.0
 10
123.7702229508283
 20
-148.8358764276348
 30
0.0
  0
HATCH
  5
D0
330
CB
100
AcDbEntity
  8
_U+30EC_U+30A4_U+30E4_U+30FC 1
 62
   179
420
  2234388
100
AcDbHatch
 10
0.0
 20
0.0
 30
0.0
210
0.0
220
0.0
230
1.0
  2
SOLID
 70
     1
 71
     0
 91
        1
 92
        1
 93
        1
 72
     4
 94
        3
 73
     0
 74
     1
 95
       26
 96
       22
 40
0.0
 40
0.0
 40
0.0
 40
0.0
 40
1.0
 40
1.0
 40
1.0
 40
2.0
 40
2.0
 40
2.0
 40
3.0
 40
3.0
 40
3.0
 40
4.0
 40
4.0
 40
4.0
 40
5.0
 40
5.0
 40
5.0
 40
6.0
 40
6.0
 40
6.0
 40
7.0
 40
7.0
 40
7.0
 40
7.0
 10
123.7702229508283
 20
-148.8358764276348
 10
123.7702229508283
 20
-148.8358764276348
 10
123.7702229508283
 20
-149.0727267422457
 10
123.7702229508283
 20
-149.0727267422457
 10
123.4611978858014
 20
-149.0472330356549
 10
122.9430555248198
 20
-148.8548244528037
 10
122.4373155075851
 20
-148.4486476950927
 10
122.4373155075851
 20
-148.4486476950927
 10
122.4373155075851
 20
-149.2863226623312
 10
122.4373155075851
 20
-149.2863226623312
 10
122.4373155075851
 20
-149.2863226623312
 10
122.2257866447908
 20
-149.2863226623312
 10
122.2257866447908
 20
-149.2863226623312
 10
122.2257866447908
 20
-149.2863226623312
 10
122.2257866447908
 20
-148.2117973804818
 10
122.2257866447908
 20
-148.2117973804818
 10
122.2257866447908
 20
-148.2117973804818
 10
122.4373155075851
 20
-148.2117973804818
 10
122.4373155075851
 20
-148.2117973804818
 10
122.7273925474432
 20
-148.535464101321
 10
123.3196044613576
 20
-148.8019422371051
 10
123.7702229508283
 20
-148.8358764276348
 97
        0
 97
        0
 75
     2
 76
     1
 98
        0
  0
ENDBLK
  5
CE
330
CB
100
AcDbEntity
  8
0
100
AcDbBlockEnd
  0
BLOCK
  5
DF
330
DD
100
AcDbEntity
  8
0
100
AcDbBlockBegin
  2
block 6
 70
     0
 10
0.0
 20
0.0
 30
0.0
  3
block 6
  1

  0
SPLINE
  5
E1
330
DD
100
AcDbEntity
  8
_U+30EC_U+30A4_U+30E4_U+30FC 1
370
     0
100
AcDbSpline
210
0.0
220
0.0
230
1.0
 70
    11
 71
     3
 72
    62
 73
    58
 74
     0
 42
0.0000000001
 43
0.0000000001
 12
1.0
 22
0.0
 32
0.0
 13
1.0
 23
0.0
 33
0.0
 40
0.0
 40
0.0
 40
0.0
 40
0.0
 40
1.0
 40
1.0
 40
1.0
 40
2.0
 40
2.0
 40
2.0
 40
3.0
 40
3.0
 40
3.0
 40
4.0
 40
4.0
 40
4.0
 40
5.0
 40
5.0
 40
5.0
 40
6.0
 40
6.0
 40
6.0
 40
7.0
 40
7.0
 40
7.0
 40
8.0
 40
8.0
 40
8.0
 40
9.0
 40
9.0
 40
9.0
 40
10.0
 40
10.0
 40
10.0
 40
11.0
 40
11.0
 40
11.0
 40
12.0
 40
12.0
 40
12.0
 40
13.0
 40
13.0
 40
13.0
 40
14.0
 40
14.0
 40
14.0
 40
15.0
 40
15.0
 40
15.0
 40
16.0
 40
16.0
 40
16.0
 40
17.0
 40
17.0
 40
17.0
 40
18.0
 40
18.0
 40
18.0
 40
19.0
 40
19.0
 40
19.0
 40
19.0
 10
102.3779025351694
 20
-139.6509073544102
 30
0.0
 10
102.2826456450023
 20
-139.6509073544102
 30
0.0
 10
102.0647433555602
 20
-139.6297200171759
 30
0.0
 10
101.9400308989942
 20
-139.4435126061982
 30
0.0
 10
101.8659613460613
 20
-139.3313747481533
 30
0.0
 10
101.8616549767047
 20
-139.2319837434038
 30
0.0
 10
101.8575208621224
 20
-139.1474066492409
 30
0.0
 10
101.8575208621224
 20
-139.1474066492409
 30
0.0
 10
102.0774902088556
 20
-139.1474066492409
 30
0.0
 10
102.0774902088556
 20
-139.1474066492409
 30
0.0
 10
102.0795572661468
 20
-139.2214762021738
 30
0.0
 10
102.0902370621511
 20
-139.4562594594936
 30
0.0
 10
102.3737684205871
 20
-139.4562594594936
 30
0.0
 10
102.5112277304486
 20
-139.4562594594936
 30
0.0
 10
102.6635009508966
 20
-139.3864962759173
 30
0.0
 10
102.6635009508966
 20
-139.1579141904709
 30
0.0
 10
102.6635009508966
 20
-139.0416422178438
 30
0.0
 10
102.6254326457846
 20
-138.9928941167275
 30
0.0
 10
102.5937377673203
 20
-138.9611992382632
 30
0.0
 10
102.5196682143875
 20
-138.8871296853303
 30
0.0
 10
102.403223986986
 20
-138.8745550868092
 30
0.0
 10
102.3482747139963
 20
-138.8745550868092
 30
0.0
 10
102.3293266888274
 20
-138.8745550868092
 30
0.0
 10
102.2933254410065
 20
-138.8766221441003
 30
0.0
 10
102.2657646771245
 20
-138.8807562586826
 30
0.0
 10
102.2657646771245
 20
-138.8807562586826
 30
0.0
 10
102.2657646771245
 20
-138.6862806185403
 30
0.0
 10
102.2657646771245
 20
-138.6862806185403
 30
0.0
 10
102.3038329822365
 20
-138.6924817904137
 30
0.0
 10
102.3462076567051
 20
-138.6947211024791
 30
0.0
 10
102.3525810833528
 20
-138.6947211024791
 30
0.0
 10
102.4180378975726
 20
-138.6947211024791
 30
0.0
 10
102.6169921618458
 20
-138.6735337652448
 30
0.0
 10
102.6169921618458
 20
-138.4365111958596
 30
0.0
 10
102.6169921618458
 20
-138.258916523595
 30
0.0
 10
102.4857340238577
 20
-138.203794995831
 30
0.0
 10
102.3758354778783
 20
-138.203794995831
 30
0.0
 10
102.1114243993853
 20
-138.203794995831
 30
0.0
 10
102.1029839154465
 20
-138.4365111958596
 30
0.0
 10
102.0986775460899
 20
-138.5085136915013
 30
0.0
 10
102.0986775460899
 20
-138.5085136915013
 30
0.0
 10
101.8955891672344
 20
-138.5085136915013
 30
0.0
 10
101.8955891672344
 20
-138.5085136915013
 30
0.0
 10
101.9040296511733
 20
-138.383628980161
 30
0.0
 10
101.9315904150553
 20
-138.0070800436232
 30
0.0
 10
102.3884100763994
 20
-138.0070800436232
 30
0.0
 10
102.6126857924892
 20
-138.0070800436232
 30
0.0
 10
102.8538424764567
 20
-138.1340318122547
 30
0.0
 10
102.8538424764567
 20
-138.4301377692119
 30
0.0
 10
102.8538424764567
 20
-138.6163451801897
 30
0.0
 10
102.7587578410638
 20
-138.6988552170614
 30
0.0
 10
102.6591945815401
 20
-138.7601779166989
 30
0.0
 10
102.7206895359518
 20
-138.7877386805808
 30
0.0
 10
102.902590577573
 20
-138.8681816601614
 30
0.0
 10
102.902590577573
 20
-139.1453395919498
 30
0.0
 10
102.902590577573
 20
-139.4838202233756
 30
0.0
 10
102.6550604669578
 20
-139.6509073544102
 30
0.0
 10
102.3779025351694
 20
-139.6509073544102
 30
0.0
  0
HATCH
  5
E2
330
DD
100
AcDbEntity
  8
_U+30EC_U+30A4_U+30E4_U+30FC 1
 62
   179
420
  2234388
100
AcDbHatch
 10
0.0
 20
0.0
 30
0.0
210
0.0
220
0.0
230
1.0
  2
SOLID
 70
     1
 71
     0
 91
        1
 92
        1
 93
        1
 72
     4
 94
        3
 73
     0
 74
     1
 95
       62
 96
       58
 40
0.0
 40
0.0
 40
0.0
 40
0.0
 40
1.0
 40
1.0
 40
1.0
 40
2.0
 40
2.0
 40
2.0
 40
3.0
 40
3.0
 40
3.0
 40
4.0
 40
4.0
 40
4.0
 40
5.0
 40
5.0
 40
5.0
 40
6.0
 40
6.0
 40
6.0
 40
7.0
 40
7.0
 40
7.0
 40
8.0
 40
8.0
 40
8.0
 40
9.0
 40
9.0
 40
9.0
 40
10.0
 40
10.0
 40
10.0
 40
11.0
 40
11.0
 40
11.0
 40
12.0
 40
12.0
 40
12.0
 40
13.0
 40
13.0
 40
13.0
 40
14.0
 40
14.0
 40
14.0
 40
15.0
 40
15.0
 40
15.0
 40
16.0
 40
16.0
 40
16.0
 40
17.0
 40
17.0
 40
17.0
 40
18.0
 40
18.0
 40
18.0
 40
19.0
 40
19.0
 40
19.0
 40
19.0
 10
102.3779025351694
 20
-139.6509073544102
 10
102.2826456450023
 20
-139.6509073544102
 10
102.0647433555602
 20
-139.6297200171759
 10
101.9400308989942
 20
-139.4435126061982
 10
101.8659613460613
 20
-139.3313747481533
 10
101.8616549767047
 20
-139.2319837434038
 10
101.8575208621224
 20
-139.1474066492409
 10
101.8575208621224
 20
-139.1474066492409
 10
102.0774902088556
 20
-139.1474066492409
 10
102.0774902088556
 20
-139.1474066492409
 10
102.0795572661468
 20
-139.2214762021738
 10
102.0902370621511
 20
-139.4562594594936
 10
102.3737684205871
 20
-139.4562594594936
 10
102.5112277304486
 20
-139.4562594594936
 10
102.6635009508966
 20
-139.3864962759173
 10
102.6635009508966
 20
-139.1579141904709
 10
102.6635009508966
 20
-139.0416422178438
 10
102.6254326457846
 20
-138.9928941167275
 10
102.5937377673203
 20
-138.9611992382632
 10
102.5196682143875
 20
-138.8871296853303
 10
102.403223986986
 20
-138.8745550868092
 10
102.3482747139963
 20
-138.8745550868092
 10
102.3293266888274
 20
-138.8745550868092
 10
102.2933254410065
 20
-138.8766221441003
 10
102.2657646771245
 20
-138.8807562586826
 10
102.2657646771245
 20
-138.8807562586826
 10
102.2657646771245
 20
-138.6862806185403
 10
102.2657646771245
 20
-138.6862806185403
 10
102.3038329822365
 20
-138.6924817904137
 10
102.3462076567051
 20
-138.6947211024791
 10
102.3525810833528
 20
-138.6947211024791
 10
102.4180378975726
 20
-138.6947211024791
 10
102.6169921618458
 20
-138.6735337652448
 10
102.6169921618458
 20
-138.4365111958596
 10
102.6169921618458
 20
-138.258916523595
 10
102.4857340238577
 20
-138.203794995831
 10
102.3758354778783
 20
-138.203794995831
 10
102.1114243993853
 20
-138.203794995831
 10
102.1029839154465
 20
-138.4365111958596
 10
102.0986775460899
 20
-138.5085136915013
 10
102.0986775460899
 20
-138.5085136915013
 10
101.8955891672344
 20
-138.5085136915013
 10
101.8955891672344
 20
-138.5085136915013
 10
101.9040296511733
 20
-138.383628980161
 10
101.9315904150553
 20
-138.0070800436232
 10
102.3884100763994
 20
-138.0070800436232
 10
102.6126857924892
 20
-138.0070800436232
 10
102.8538424764567
 20
-138.1340318122547
 10
102.8538424764567
 20
-138.4301377692119
 10
102.8538424764567
 20
-138.6163451801897
 10
102.7587578410638
 20
-138.6988552170614
 10
102.6591945815401
 20
-138.7601779166989
 10
102.7206895359518
 20
-138.7877386805808
 10
102.902590577573
 20
-138.8681816601614
 10
102.902590577573
 20
-139.1453395919498
 10
102.902590577573
 20
-139.4838202233756
 10
102.6550604669578
 20
-139.6509073544102
 10
102.3779025351694
 20
-139.6509073544102
 97
        0
 97
        0
 75
     2
 76
     1
 98
        0
  0
SPLINE
  5
E3
330
DD
100
AcDbEntity
  8
_U+30EC_U+30A4_U+30E4_U+30FC 1
370
     0
100
AcDbSpline
210
0.0
220
0.0
230
1.0
 70
    11
 71
     3
 72
    26
 73
    22
 74
     0
 42
0.0000000001
 43
0.0000000001
 12
1.0
 22
0.0
 32
0.0
 13
1.0
 23
0.0
 33
0.0
 40
0.0
 40
0.0
 40
0.0
 40
0.0
 40
1.0
 40
1.0
 40
1.0
 40
2.0
 40
2.0
 40
2.0
 40
3.0
 40
3.0
 40
3.0
 40
4.0
 40
4.0
 40
4.0
 40
5.0
 40
5.0
 40
5.0
 40
6.0
 40
6.0
 40
6.0
 40
7.0
 40
7.0
 40
7.0
 40
7.0
 10
103.4743041733502
 20
-139.6000921960027
 30
0.0
 10
103.4743041733502
 20
-139.6000921960027
 30
0.0
 10
103.2374538587393
 20
-139.6000921960027
 30
0.0
 10
103.2374538587393
 20
-139.6000921960027
 30
0.0
 10
103.2627753105558
 20
-139.2912393857501
 30
0.0
 10
103.4553561481813
 20
-138.7729247699943
 30
0.0
 10
103.8615329058923
 20
-138.2673570075339
 30
0.0
 10
103.8615329058923
 20
-138.2673570075339
 30
0.0
 10
103.0236856838795
 20
-138.2673570075339
 30
0.0
 10
103.0236856838795
 20
-138.2673570075339
 30
0.0
 10
103.0236856838795
 20
-138.2673570075339
 30
0.0
 10
103.0236856838795
 20
-138.0558281447395
 30
0.0
 10
103.0236856838795
 20
-138.0558281447395
 30
0.0
 10
103.0236856838795
 20
-138.0558281447395
 30
0.0
 10
104.0983832205032
 20
-138.0558281447395
 30
0.0
 10
104.0983832205032
 20
-138.0558281447395
 30
0.0
 10
104.0983832205032
 20
-138.0558281447395
 30
0.0
 10
104.0983832205032
 20
-138.2673570075339
 30
0.0
 10
104.0983832205032
 20
-138.2673570075339
 30
0.0
 10
103.774716499664
 20
-138.5570895378434
 30
0.0
 10
103.5082383638799
 20
-139.1494737065321
 30
0.0
 10
103.4743041733502
 20
-139.6000921960027
 30
0.0
  0
HATCH
  5
E4
330
DD
100
AcDbEntity
  8
_U+30EC_U+30A4_U+30E4_U+30FC 1
 62
   179
420
  2234388
100
AcDbHatch
 10
0.0
 20
0.0
 30
0.0
210
0.0
220
0.0
230
1.0
  2
SOLID
 70
     1
 71
     0
 91
        1
 92
        1
 93
        1
 72
     4
 94
        3
 73
     0
 74
     1
 95
       26
 96
       22
 40
0.0
 40
0.0
 40
0.0
 40
0.0
 40
1.0
 40
1.0
 40
1.0
 40
2.0
 40
2.0
 40
2.0
 40
3.0
 40
3.0
 40
3.0
 40
4.0
 40
4.0
 40
4.0
 40
5.0
 40
5.0
 40
5.0
 40
6.0
 40
6.0
 40
6.0
 40
7.0
 40
7.0
 40
7.0
 40
7.0
 10
103.4743041733502
 20
-139.6000921960027
 10
103.4743041733502
 20
-139.6000921960027
 10
103.2374538587393
 20
-139.6000921960027
 10
103.2374538587393
 20
-139.6000921960027
 10
103.2627753105558
 20
-139.2912393857501
 10
103.4553561481813
 20
-138.7729247699943
 10
103.8615329058923
 20
-138.2673570075339
 10
103.8615329058923
 20
-138.2673570075339
 10
103.0236856838795
 20
-138.2673570075339
 10
103.0236856838795
 20
-138.2673570075339
 10
103.0236856838795
 20
-138.2673570075339
 10
103.0236856838795
 20
-138.0558281447395
 10
103.0236856838795
 20
-138.0558281447395
 10
103.0236856838795
 20
-138.0558281447395
 10
104.0983832205032
 20
-138.0558281447395
 10
104.0983832205032
 20
-138.0558281447395
 10
104.0983832205032
 20
-138.0558281447395
 10
104.0983832205032
 20
-138.2673570075339
 10
104.0983832205032
 20
-138.2673570075339
 10
103.774716499664
 20
-138.5570895378434
 10
103.5082383638799
 20
-139.1494737065321
 10
103.4743041733502
 20
-139.6000921960027
 97
        0
 97
        0
 75
     2
 76
     1
 98
        0
  0
ENDBLK
  5
E0
330
DD
100
AcDbEntity
  8
0
100
AcDbBlockEnd
  0
BLOCK
  5
F3
330
F1
100
AcDbEntity
  8
0
100
AcDbBlockBegin
  2
block 7
 70
     0
 10
0.0
 20
0.0
 30
0.0
  3
block 7
  1

  0
SPLINE
  5
F5
330
F1
100
AcDbEntity
  8
_U+30EC_U+30A4_U+30E4_U+30FC 1
370
     0
100
AcDbSpline
210
0.0
220
0.0
230
1.0
 70
    11
 71
     3
 72
    26
 73
    22
 74
     0
 42
0.0000000001
 43
0.0000000001
 12
1.0
 22
0.0
 32
0.0
 13
1.0
 23
0.0
 33
0.0
 40
0.0
 40
0.0
 40
0.0
 40
0.0
 40
1.0
 40
1.0
 40
1.0
 40
2.0
 40
2.0
 40
2.0
 40
3.0
 40
3.0
 40
3.0
 40
4.0
 40
4.0
 40
4.0
 40
5.0
 40
5.0
 40
5.0
 40
6.0
 40
6.0
 40
6.0
 40
7.0
 40
7.0
 40
7.0
 40
7.0
 10
89.83758271408574
 20
-158.5997937971556
 30
0.0
 10
89.83758271408574
 20
-158.5997937971556
 30
0.0
 10
89.83758271408574
 20
-157.495640694133
 30
0.0
 10
89.83758271408574
 20
-157.495640694133
 30
0.0
 10
89.83758271408574
 20
-157.495640694133
 30
0.0
 10
89.50754256659881
 20
-157.495640694133
 30
0.0
 10
89.50754256659881
 20
-157.495640694133
 30
0.0
 10
89.50754256659881
 20
-157.495640694133
 30
0.0
 10
89.50754256659881
 20
-157.3475015882673
 30
0.0
 10
89.50754256659881
 20
-157.3475015882673
 30
0.0
 10
89.8396497713769
 20
-157.3326876776807
 30
0.0
 10
89.88615856042777
 20
-157.1697346612284
 30
0.0
 10
89.91578638160092
 20
-157.0553574911181
 30
0.0
 10
89.91578638160092
 20
-157.0553574911181
 30
0.0
 10
90.0618584301755
 20
-157.0553574911181
 30
0.0
 10
90.0618584301755
 20
-157.0553574911181
 30
0.0
 10
90.0618584301755
 20
-157.0553574911181
 30
0.0
 10
90.0618584301755
 20
-158.5997937971556
 30
0.0
 10
90.0618584301755
 20
-158.5997937971556
 30
0.0
 10
90.0618584301755
 20
-158.5997937971556
 30
0.0
 10
89.83758271408574
 20
-158.5997937971556
 30
0.0
 10
89.83758271408574
 20
-158.5997937971556
 30
0.0
  0
HATCH
  5
F6
330
F1
100
AcDbEntity
  8
_U+30EC_U+30A4_U+30E4_U+30FC 1
 62
   179
420
  2234388
100
AcDbHatch
 10
0.0
 20
0.0
 30
0.0
210
0.0
220
0.0
230
1.0
  2
SOLID
 70
     1
 71
     0
 91
        1
 92
        1
 93
        1
 72
     4
 94
        3
 73
     0
 74
     1
 95
       26
 96
       22
 40
0.0
 40
0.0
 40
0.0
 40
0.0
 40
1.0
 40
1.0
 40
1.0
 40
2.0
 40
2.0
 40
2.0
 40
3.0
 40
3.0
 40
3.0
 40
4.0
 40
4.0
 40
4.0
 40
5.0
 40
5.0
 40
5.0
 40
6.0
 40
6.0
 40
6.0
 40
7.0
 40
7.0
 40
7.0
 40
7.0
 10
89.83758271408574
 20
-158.5997937971556
 10
89.83758271408574
 20
-158.5997937971556
 10
89.83758271408574
 20
-157.495640694133
 10
89.83758271408574
 20
-157.495640694133
 10
89.83758271408574
 20
-157.495640694133
 10
89.50754256659881
 20
-157.495640694133
 10
89.50754256659881
 20
-157.495640694133
 10
89.50754256659881
 20
-157.495640694133
 10
89.50754256659881
 20
-157.3475015882673
 10
89.50754256659881
 20
-157.3475015882673
 10
89.8396497713769
 20
-157.3326876776807
 10
89.88615856042777
 20
-157.1697346612284
 10
89.91578638160092
 20
-157.0553574911181
 10
89.91578638160092
 20
-157.0553574911181
 10
90.0618584301755
 20
-157.0553574911181
 10
90.0618584301755
 20
-157.0553574911181
 10
90.0618584301755
 20
-157.0553574911181
 10
90.0618584301755
 20
-158.5997937971556
 10
90.0618584301755
 20
-158.5997937971556
 10
90.0618584301755
 20
-158.5997937971556
 10
89.83758271408574
 20
-158.5997937971556
 10
89.83758271408574
 20
-158.5997937971556
 97
        0
 97
        0
 75
     2
 76
     1
 98
        0
  0
SPLINE
  5
F7
330
F1
100
AcDbEntity
  8
_U+30EC_U+30A4_U+30E4_U+30FC 1
370
     0
100
AcDbSpline
210
0.0
220
0.0
230
1.0
 70
    11
 71
     3
 72
    44
 73
    40
 74
     0
 42
0.0000000001
 43
0.0000000001
 12
1.0
 22
0.0
 32
0.0
 13
1.0
 23
0.0
 33
0.0
 40
0.0
 40
0.0
 40
0.0
 40
0.0
 40
1.0
 40
1.0
 40
1.0
 40
2.0
 40
2.0
 40
2.0
 40
3.0
 40
3.0
 40
3.0
 40
4.0
 40
4.0
 40
4.0
 40
5.0
 40
5.0
 40
5.0
 40
6.0
 40
6.0
 40
6.0
 40
7.0
 40
7.0
 40
7.0
 40
8.0
 40
8.0
 40
8.0
 40
9.0
 40
9.0
 40
9.0
 40
10.0
 40
10.0
 40
10.0
 40
11.0
 40
11.0
 40
11.0
 40
12.0
 40
12.0
 40
12.0
 40
13.0
 40
13.0
 40
13.0
 40
13.0
 10
91.15619301106513
 20
-158.0179171696969
 30
0.0
 10
90.93829072162308
 20
-158.1767360715669
 30
0.0
 10
90.84510088874707
 20
-158.2508056244998
 30
0.0
 10
90.79652504240504
 20
-158.3944661062347
 30
0.0
 10
90.79652504240504
 20
-158.3944661062347
 30
0.0
 10
91.57494436729723
 20
-158.3944661062347
 30
0.0
 10
91.57494436729723
 20
-158.3944661062347
 30
0.0
 10
91.57494436729723
 20
-158.3944661062347
 30
0.0
 10
91.57494436729723
 20
-158.5997937971556
 30
0.0
 10
91.57494436729723
 20
-158.5997937971556
 30
0.0
 10
91.57494436729723
 20
-158.5997937971556
 30
0.0
 10
90.54692787449869
 20
-158.5997937971556
 30
0.0
 10
90.54692787449869
 20
-158.5997937971556
 30
0.0
 10
90.57862275296299
 20
-158.2421928857867
 30
0.0
 10
90.644251821957
 20
-158.1639892182715
 30
0.0
 10
91.02924124243367
 20
-157.8656439492489
 30
0.0
 10
91.28521183698773
 20
-157.66686193975
 30
0.0
 10
91.35066865120747
 20
-157.5989935586905
 30
0.0
 10
91.35066865120747
 20
-157.4615342488291
 30
0.0
 10
91.35066865120747
 20
-157.3430229641365
 30
0.0
 10
91.27883841034001
 20
-157.212109335697
 30
0.0
 10
91.08212345813224
 20
-157.212109335697
 30
0.0
 10
90.82184649422163
 20
-157.212109335697
 30
0.0
 10
90.81340601028276
 20
-157.4425862236602
 30
0.0
 10
90.8090996409262
 20
-157.5590304510616
 30
0.0
 10
90.8090996409262
 20
-157.5590304510616
 30
0.0
 10
90.5849961796107
 20
-157.5590304510616
 30
0.0
 10
90.5849961796107
 20
-157.5590304510616
 30
0.0
 10
90.59343666354957
 20
-157.4319064276559
 30
0.0
 10
90.60394420477958
 20
-157.3199408243853
 30
0.0
 10
90.68438718436016
 20
-157.2014295396927
 30
0.0
 10
90.79428573033962
 20
-157.0405435805315
 30
0.0
 10
90.98049314131738
 20
-157.0067816447761
 30
0.0
 10
91.09693736871883
 20
-157.0067816447761
 30
0.0
 10
91.37409530050718
 20
-157.0067816447761
 30
0.0
 10
91.58131779394495
 20
-157.1907497436884
 30
0.0
 10
91.58131779394495
 20
-157.4636013061202
 30
0.0
 10
91.58131779394495
 20
-157.6923556463408
 30
0.0
 10
91.46504582131777
 20
-157.791574396316
 30
0.0
 10
91.15619301106513
 20
-158.0179171696969
 30
0.0
  0
HATCH
  5
F8
330
F1
100
AcDbEntity
  8
_U+30EC_U+30A4_U+30E4_U+30FC 1
 62
   179
420
  2234388
100
AcDbHatch
 10
0.0
 20
0.0
 30
0.0
210
0.0
220
0.0
230
1.0
  2
SOLID
 70
     1
 71
     0
 91
        1
 92
        1
 93
        1
 72
     4
 94
        3
 73
     0
 74
     1
 95
       44
 96
       40
 40
0.0
 40
0.0
 40
0.0
 40
0.0
 40
1.0
 40
1.0
 40
1.0
 40
2.0
 40
2.0
 40
2.0
 40
3.0
 40
3.0
 40
3.0
 40
4.0
 40
4.0
 40
4.0
 40
5.0
 40
5.0
 40
5.0
 40
6.0
 40
6.0
 40
6.0
 40
7.0
 40
7.0
 40
7.0
 40
8.0
 40
8.0
 40
8.0
 40
9.0
 40
9.0
 40
9.0
 40
10.0
 40
10.0
 40
10.0
 40
11.0
 40
11.0
 40
11.0
 40
12.0
 40
12.0
 40
12.0
 40
13.0
 40
13.0
 40
13.0
 40
13.0
 10
91.15619301106513
 20
-158.0179171696969
 10
90.93829072162308
 20
-158.1767360715669
 10
90.84510088874707
 20
-158.2508056244998
 10
90.79652504240504
 20
-158.3944661062347
 10
90.79652504240504
 20
-158.3944661062347
 10
91.57494436729723
 20
-158.3944661062347
 10
91.57494436729723
 20
-158.3944661062347
 10
91.57494436729723
 20
-158.3944661062347
 10
91.57494436729723
 20
-158.5997937971556
 10
91.57494436729723
 20
-158.5997937971556
 10
91.57494436729723
 20
-158.5997937971556
 10
90.54692787449869
 20
-158.5997937971556
 10
90.54692787449869
 20
-158.5997937971556
 10
90.57862275296299
 20
-158.2421928857867
 10
90.644251821957
 20
-158.1639892182715
 10
91.02924124243367
 20
-157.8656439492489
 10
91.28521183698773
 20
-157.66686193975
 10
91.35066865120747
 20
-157.5989935586905
 10
91.35066865120747
 20
-157.4615342488291
 10
91.35066865120747
 20
-157.3430229641365
 10
91.27883841034001
 20
-157.212109335697
 10
91.08212345813224
 20
-157.212109335697
 10
90.82184649422163
 20
-157.212109335697
 10
90.81340601028276
 20
-157.4425862236602
 10
90.8090996409262
 20
-157.5590304510616
 10
90.8090996409262
 20
-157.5590304510616
 10
90.5849961796107
 20
-157.5590304510616
 10
90.5849961796107
 20
-157.5590304510616
 10
90.59343666354957
 20
-157.4319064276559
 10
90.60394420477958
 20
-157.3199408243853
 10
90.68438718436016
 20
-157.2014295396927
 10
90.79428573033962
 20
-157.0405435805315
 10
90.98049314131738
 20
-157.0067816447761
 10
91.09693736871883
 20
-157.0067816447761
 10
91.37409530050718
 20
-157.0067816447761
 10
91.58131779394495
 20
-157.1907497436884
 10
91.58131779394495
 20
-157.4636013061202
 10
91.58131779394495
 20
-157.6923556463408
 10
91.46504582131777
 20
-157.791574396316
 10
91.15619301106513
 20
-158.0179171696969
 97
        0
 97
        0
 75
     2
 76
     1
 98
        0
  0
ENDBLK
  5
F4
330
F1
100
AcDbEntity
  8
0
100
AcDbBlockEnd
  0
ENDSEC
  0
SECTION
  2
ENTITIES
  0
POLYLINE
  5
41
330
1F
100
AcDbEntity
  8
_U+30EC_U+30A4_U+30E4_U+30FC 1
370
     0
100
AcDb2dPolyline
 66
     1
 10
0.0
 20
0.0
 30
0.0
  0
VERTEX
  5
42
330
41
100
AcDbEntity
  8
_U+30EC_U+30A4_U+30E4_U+30FC 1
370
     0
100
AcDbVertex
100
AcDb2dVertex
 10
84.47524852760112
 20
-145.245634763222
 30
0.0
  0
VERTEX
  5
43
330
41
100
AcDbEntity
  8
_U+30EC_U+30A4_U+30E4_U+30FC 1
370
     0
100
AcDbVertex
100
AcDb2dVertex
 10
96.47533431290374
 20
-145.245634763222
 30
0.0
  0
VERTEX
  5
44
330
41
100
AcDbEntity
  8
_U+30EC_U+30A4_U+30E4_U+30FC 1
370
     0
100
AcDbVertex
100
AcDb2dVertex
 10
96.47533431290374
 20
-155.2461871288859
 30
0.0
  0
VERTEX
  5
45
330
41
100
AcDbEntity
  8
_U+30EC_U+30A4_U+30E4_U+30FC 1
370
     0
100
AcDbVertex
100
AcDb2dVertex
 10
106.4748208521519
 20
-155.2461871288859
 30
0.0
  0
VERTEX
  5
46
330
41
100
AcDbEntity
  8
_U+30EC_U+30A4_U+30E4_U+30FC 1
370
     0
100
AcDbVertex
100
AcDb2dVertex
 10
106.4748208521519
 20
-152.2461656825602
 30
0.0
  0
VERTEX
  5
47
330
41
100
AcDbEntity
  8
_U+30EC_U+30A4_U+30E4_U+30FC 1
370
     0
100
AcDbVertex
100
AcDb2dVertex
 10
105.4750487593707
 20
-152.2461656825602
 30
0.0
  0
VERTEX
  5
48
330
41
100
AcDbEntity
  8
_U+30EC_U+30A4_U+30E4_U+30FC 1
370
     0
100
AcDbVertex
100
AcDb2dVertex
 10
105.4750487593707
 20
-154.2460543776711
 30
0.0
  0
VERTEX
  5
49
330
41
100
AcDbEntity
  8
_U+30EC_U+30A4_U+30E4_U+30FC 1
370
     0
100
AcDbVertex
100
AcDb2dVertex
 10
97.37491872260452
 20
-154.2460543776711
 30
0.0
  0
VERTEX
  5
4A
330
41
100
AcDbEntity
  8
_U+30EC_U+30A4_U+30E4_U+30FC 1
370
     0
100
AcDbVertex
100
AcDb2dVertex
 10
97.37491872260452
 20
-145.245634763222
 30
0.0
  0
VERTEX
  5
4B
330
41
100
AcDbEntity
  8
_U+30EC_U+30A4_U+30E4_U+30FC 1
370
     0
100
AcDbVertex
100
AcDb2dVertex
 10
121.4759939101963
 20
-145.245634763222
 30
0.0
  0
VERTEX
  5
4C
330
41
100
AcDbEntity
  8
_U+30EC_U+30A4_U+30E4_U+30FC 1
370
     0
100
AcDbVertex
100
AcDb2dVertex
 10
121.4759939101963
 20
-144.2458680534025
 30
0.0
  0
VERTEX
  5
4D
330
41
100
AcDbEntity
  8
_U+30EC_U+30A4_U+30E4_U+30FC 1
370
     0
100
AcDbVertex
100
AcDb2dVertex
 10
84.47524852760112
 20
-144.2458680534025
 30
0.0
  0
VERTEX
  5
4E
330
41
100
AcDbEntity
  8
_U+30EC_U+30A4_U+30E4_U+30FC 1
370
     0
100
AcDbVertex
100
AcDb2dVertex
 10
84.47524852760112
 20
-145.245634763222
 30
0.0
  0
SEQEND
  5
50
330
41
100
AcDbEntity
  8
_U+30EC_U+30A4_U+30E4_U+30FC 1
370
     0
  0
HATCH
  5
4F
330
1F
100
AcDbEntity
  8
_U+30EC_U+30A4_U+30E4_U+30FC 1
 62
     9
420
 13224394
100
AcDbHatch
 10
0.0
 20
0.0
 30
0.0
210
0.0
220
0.0
230
1.0
  2
SOLID
 70
     1
 71
     0
 91
        1
 92
        1
 93
       12
 72
     1
 10
84.47524852760112
 20
-145.245634763222
 11
96.47533431290374
 21
-145.245634763222
 72
     1
 10
96.47533431290374
 20
-145.245634763222
 11
96.47533431290374
 21
-155.2461871288859
 72
     1
 10
96.47533431290374
 20
-155.2461871288859
 11
106.4748208521519
 21
-155.2461871288859
 72
     1
 10
106.4748208521519
 20
-155.2461871288859
 11
106.4748208521519
 21
-152.2461656825602
 72
     1
 10
106.4748208521519
 20
-152.2461656825602
 11
105.4750487593707
 21
-152.2461656825602
 72
     1
 10
105.4750487593707
 20
-152.2461656825602
 11
105.4750487593707
 21
-154.2460543776711
 72
     1
 10
105.4750487593707
 20
-154.2460543776711
 11
97.37491872260452
 21
-154.2460543776711
 72
     1
 10
97.37491872260452
 20
-154.2460543776711
 11
97.37491872260452
 21
-145.245634763222
 72
     1
 10
97.37491872260452
 20
-145.245634763222
 11
121.4759939101963
 21
-145.245634763222
 72
     1
 10
121.4759939101963
 20
-145.245634763222
 11
121.4759939101963
 21
-144.2458680534025
 72
     1
 10
121.4759939101963
 20
-144.2458680534025
 11
84.47524852760112
 21
-144.2458680534025
 72
     1
 10
84.47524852760112
 20
-144.2458680534025
 11
84.47524852760112
 21
-145.245634763222
 97
        0
 75
     2
 76
     1
 98
        0
  0
POLYLINE
  5
51
330
1F
100
AcDbEntity
  8
_U+30EC_U+30A4_U+30E4_U+30FC 1
 62
   179
420
  2234388
370
    25
100
AcDb2dPolyline
 66
     1
 10
0.0
 20
0.0
 30
0.0
  0
VERTEX
  5
52
330
51
100
AcDbEntity
  8
_U+30EC_U+30A4_U+30E4_U+30FC 1
 62
   179
420
  2234388
370
    25
100
AcDbVertex
100
AcDb2dVertex
 10
96.47519973886135
 20
-155.246079469652
 30
0.0
  0
VERTEX
  5
53
330
51
100
AcDbEntity
  8
_U+30EC_U+30A4_U+30E4_U+30FC 1
 62
   179
420
  2234388
370
    25
100
AcDbVertex
100
AcDb2dVertex
 10
106.4750361706197
 20
-155.246079469652
 30
0.0
  0
SEQEND
  5
54
330
51
100
AcDbEntity
  8
_U+30EC_U+30A4_U+30E4_U+30FC 1
 62
   179
420
  2234388
370
    25
  0
POLYLINE
  5
55
330
1F
100
AcDbEntity
  8
_U+30EC_U+30A4_U+30E4_U+30FC 1
 62
   179
420
  2234388
370
    25
100
AcDb2dPolyline
 66
     1
 10
0.0
 20
0.0
 30
0.0
  0
VERTEX
  5
56
330
55
100
AcDbEntity
  8
_U+30EC_U+30A4_U+30E4_U+30FC 1
 62
   179
420
  2234388
370
    25
100
AcDbVertex
100
AcDb2dVertex
 10
84.47524852760112
 20
-144.2459003511727
 30
0.0
  0
VERTEX
  5
57
330
55
100
AcDbEntity
  8
_U+30EC_U+30A4_U+30E4_U+30FC 1
 62
   179
420
  2234388
370
    25
100
AcDbVertex
100
AcDb2dVertex
 10
121.4759939101963
 20
-144.2459003511727
 30
0.0
  0
SEQEND
  5
58
330
55
100
AcDbEntity
  8
_U+30EC_U+30A4_U+30E4_U+30FC 1
 62
   179
420
  2234388
370
    25
  0
POLYLINE
  5
59
330
1F
100
AcDbEntity
  8
_U+30EC_U+30A4_U+30E4_U+30FC 1
 62
   179
420
  2234388
370
    25
100
AcDb2dPolyline
 66
     1
 10
0.0
 20
0.0
 30
0.0
  0
VERTEX
  5
5A
330
59
100
AcDbEntity
  8
_U+30EC_U+30A4_U+30E4_U+30FC 1
 62
   179
420
  2234388
370
    25
100
AcDbVertex
100
AcDb2dVertex
 10
105.4751940993365
 20
-152.2460903210965
 30
0.0
  0
VERTEX
  5
5B
330
59
100
AcDbEntity
  8
_U+30EC_U+30A4_U+30E4_U+30FC 1
 62
   179
420
  2234388
370
    25
100
AcDbVertex
100
AcDb2dVertex
 10
106.4749661921177
 20
-152.2460903210965
 30
0.0
  0
SEQEND
  5
5C
330
59
100
AcDbEntity
  8
_U+30EC_U+30A4_U+30E4_U+30FC 1
 62
   179
420
  2234388
370
    25
  0
POLYLINE
  5
5D
330
1F
100
AcDbEntity
  8
_U+30EC_U+30A4_U+30E4_U+30FC 1
 62
   179
420
  2234388
370
    25
100
AcDb2dPolyline
 66
     1
 10
0.0
 20
0.0
 30
0.0
  0
VERTEX
  5
5E
330
5D
100
AcDbEntity
  8
_U+30EC_U+30A4_U+30E4_U+30FC 1
 62
   179
420
  2234388
370
    25
100
AcDbVertex
100
AcDb2dVertex
 10
106.4749285113858
 20
-155.246079469652
 30
0.0
  0
VERTEX
  5
5F
330
5D
100
AcDbEntity
  8
_U+30EC_U+30A4_U+30E4_U+30FC 1
 62
   179
420
  2234388
370
    25
100
AcDbVertex
100
AcDb2dVertex
 10
106.4749285113858
 20
-152.2460580233263
 30
0.0
  0
SEQEND
  5
60
330
5D
100
AcDbEntity
  8
_U+30EC_U+30A4_U+30E4_U+30FC 1
 62
   179
420
  2234388
370
    25
  0
POLYLINE
  5
61
330
1F
100
AcDbEntity
  8
_U+30EC_U+30A4_U+30E4_U+30FC 1
 62
   179
420
  2234388
370
    25
100
AcDb2dPolyline
 66
     1
 10
0.0
 20
0.0
 30
0.0
  0
VERTEX
  5
62
330
61
100
AcDbEntity
  8
_U+30EC_U+30A4_U+30E4_U+30FC 1
 62
   179
420
  2234388
370
    25
100
AcDbVertex
100
AcDb2dVertex
 10
84.47524852760112
 20
-145.245634763222
 30
0.0
  0
VERTEX
  5
63
330
61
100
AcDbEntity
  8
_U+30EC_U+30A4_U+30E4_U+30FC 1
 62
   179
420
  2234388
370
    25
100
AcDbVertex
100
AcDb2dVertex
 10
84.47524852760112
 20
-144.2458680534025
 30
0.0
  0
SEQEND
  5
64
330
61
100
AcDbEntity
  8
_U+30EC_U+30A4_U+30E4_U+30FC 1
 62
   179
420
  2234388
370
    25
  0
POLYLINE
  5
65
330
1F
100
AcDbEntity
  8
_U+30EC_U+30A4_U+30E4_U+30FC 1
 62
   179
420
  2234388
370
    25
100
AcDb2dPolyline
 66
     1
 10
0.0
 20
0.0
 30
0.0
  0
VERTEX
  5
66
330
65
100
AcDbEntity
  8
_U+30EC_U+30A4_U+30E4_U+30FC 1
 62
   179
420
  2234388
370
    25
100
AcDbVertex
100
AcDb2dVertex
 10
84.47524852760112
 20
-145.245634763222
 30
0.0
  0
VERTEX
  5
67
330
65
100
AcDbEntity
  8
_U+30EC_U+30A4_U+30E4_U+30FC 1
 62
   179
420
  2234388
370
    25
100
AcDbVertex
100
AcDb2dVertex
 10
96.47533431290374
 20
-145.245634763222
 30
0.0
  0
SEQEND
  5
68
330
65
100
AcDbEntity
  8
_U+30EC_U+30A4_U+30E4_U+30FC 1
 62
   179
420
  2234388
370
    25
  0
POLYLINE
  5
69
330
1F
100
AcDbEntity
  8
_U+30EC_U+30A4_U+30E4_U+30FC 1
 62
   179
420
  2234388
370
    25
100
AcDb2dPolyline
 66
     1
 10
0.0
 20
0.0
 30
0.0
  0
VERTEX
  5
6A
330
69
100
AcDbEntity
  8
_U+30EC_U+30A4_U+30E4_U+30FC 1
 62
   179
420
  2234388
370
    25
100
AcDbVertex
100
AcDb2dVertex
 10
105.4751940993365
 20
-154.2459897821308
 30
0.0
  0
VERTEX
  5
6B
330
69
100
AcDbEntity
  8
_U+30EC_U+30A4_U+30E4_U+30FC 1
 62
   179
420
  2234388
370
    25
100
AcDbVertex
100
AcDb2dVertex
 10
105.4751940993365
 20
-152.2461010870199
 30
0.0
  0
SEQEND
  5
6C
330
69
100
AcDbEntity
  8
_U+30EC_U+30A4_U+30E4_U+30FC 1
 62
   179
420
  2234388
370
    25
  0
POLYLINE
  5
6D
330
1F
100
AcDbEntity
  8
_U+30EC_U+30A4_U+30E4_U+30FC 1
 62
   179
420
  2234388
370
    25
100
AcDb2dPolyline
 66
     1
 10
0.0
 20
0.0
 30
0.0
  0
VERTEX
  5
6E
330
6D
100
AcDbEntity
  8
_U+30EC_U+30A4_U+30E4_U+30FC 1
 62
   179
420
  2234388
370
    25
100
AcDbVertex
100
AcDb2dVertex
 10
97.37506406257062
 20
-154.2459897821308
 30
0.0
  0
VERTEX
  5
6F
330
6D
100
AcDbEntity
  8
_U+30EC_U+30A4_U+30E4_U+30FC 1
 62
   179
420
  2234388
370
    25
100
AcDbVertex
100
AcDb2dVertex
 10
105.4751940993365
 20
-154.2459897821308
 30
0.0
  0
SEQEND
  5
70
330
6D
100
AcDbEntity
  8
_U+30EC_U+30A4_U+30E4_U+30FC 1
 62
   179
420
  2234388
370
    25
  0
POLYLINE
  5
71
330
1F
100
AcDbEntity
  8
_U+30EC_U+30A4_U+30E4_U+30FC 1
 62
   179
420
  2234388
370
    25
100
AcDb2dPolyline
 66
     1
 10
0.0
 20
0.0
 30
0.0
  0
VERTEX
  5
72
330
71
100
AcDbEntity
  8
_U+30EC_U+30A4_U+30E4_U+30FC 1
 62
   179
420
  2234388
370
    25
100
AcDbVertex
100
AcDb2dVertex
 10
96.47519973886135
 20
-155.246079469652
 30
0.0
  0
VERTEX
  5
73
330
71
100
AcDbEntity
  8
_U+30EC_U+30A4_U+30E4_U+30FC 1
 62
   179
420
  2234388
370
    25
100
AcDbVertex
100
AcDb2dVertex
 10
96.47519973886135
 20
-145.2455378699115
 30
0.0
  0
SEQEND
  5
74
330
71
100
AcDbEntity
  8
_U+30EC_U+30A4_U+30E4_U+30FC 1
 62
   179
420
  2234388
370
    25
  0
POLYLINE
  5
75
330
1F
100
AcDbEntity
  8
_U+30EC_U+30A4_U+30E4_U+30FC 1
 62
   179
420
  2234388
370
    25
100
AcDb2dPolyline
 66
     1
 10
0.0
 20
0.0
 30
0.0
  0
VERTEX
  5
76
330
75
100
AcDbEntity
  8
_U+30EC_U+30A4_U+30E4_U+30FC 1
 62
   179
420
  2234388
370
    25
100
AcDbVertex
100
AcDb2dVertex
 10
121.4759239316943
 20
-145.245634763222
 30
0.0
  0
VERTEX
  5
77
330
75
100
AcDbEntity
  8
_U+30EC_U+30A4_U+30E4_U+30FC 1
 62
   179
420
  2234388
370
    25
100
AcDbVertex
100
AcDb2dVertex
 10
121.4759239316943
 20
-144.2458680534025
 30
0.0
  0
SEQEND
  5
78
330
75
100
AcDbEntity
  8
_U+30EC_U+30A4_U+30E4_U+30FC 1
 62
   179
420
  2234388
370
    25
  0
POLYLINE
  5
79
330
1F
100
AcDbEntity
  8
_U+30EC_U+30A4_U+30E4_U+30FC 1
 62
   179
420
  2234388
370
    25
100
AcDb2dPolyline
 66
     1
 10
0.0
 20
0.0
 30
0.0
  0
VERTEX
  5
7A
330
79
100
AcDbEntity
  8
_U+30EC_U+30A4_U+30E4_U+30FC 1
 62
   179
420
  2234388
370
    25
100
AcDbVertex
100
AcDb2dVertex
 10
97.37506406257062
 20
-145.245634763222
 30
0.0
  0
VERTEX
  5
7B
330
79
100
AcDbEntity
  8
_U+30EC_U+30A4_U+30E4_U+30FC 1
 62
   179
420
  2234388
370
    25
100
AcDbVertex
100
AcDb2dVertex
 10
121.4757839746902
 20
-145.245634763222
 30
0.0
  0
SEQEND
  5
7C
330
79
100
AcDbEntity
  8
_U+30EC_U+30A4_U+30E4_U+30FC 1
 62
   179
420
  2234388
370
    25
  0
POLYLINE
  5
7D
330
1F
100
AcDbEntity
  8
_U+30EC_U+30A4_U+30E4_U+30FC 1
 62
   179
420
  2234388
370
    25
100
AcDb2dPolyline
 66
     1
 10
0.0
 20
0.0
 30
0.0
  0
VERTEX
  5
7E
330
7D
100
AcDbEntity
  8
_U+30EC_U+30A4_U+30E4_U+30FC 1
 62
   179
420
  2234388
370
    25
100
AcDbVertex
100
AcDb2dVertex
 10
97.37506406257062
 20
-154.2459897821308
 30
0.0
  0
VERTEX
  5
7F
330
7D
100
AcDbEntity
  8
_U+30EC_U+30A4_U+30E4_U+30FC 1
 62
   179
420
  2234388
370
    25
100
AcDbVertex
100
AcDb2dVertex
 10
97.37506406257062
 20
-145.2455701676817
 30
0.0
  0
SEQEND
  5
80
330
7D
100
AcDbEntity
  8
_U+30EC_U+30A4_U+30E4_U+30FC 1
 62
   179
420
  2234388
370
    25
  0
SPLINE
  5
81
330
1F
100
AcDbEntity
  8
_U+30EC_U+30A4_U+30E4_U+30FC 1
 62
   179
420
  2234388
370
     9
100
AcDbSpline
210
0.0
220
0.0
230
1.0
 70
    11
 71
     3
 72
    17
 73
    13
 74
     0
 42
0.0000000001
 43
0.0000000001
 12
1.0
 22
0.0
 32
0.0
 13
1.0
 23
0.0
 33
0.0
 40
0.0
 40
0.0
 40
0.0
 40
0.0
 40
1.0
 40
1.0
 40
1.0
 40
2.0
 40
2.0
 40
2.0
 40
3.0
 40
3.0
 40
3.0
 40
4.0
 40
4.0
 40
4.0
 40
4.0
 10
96.57510212497189
 20
-159.2458353280271
 30
0.0
 10
96.57510212497189
 20
-159.1908106935736
 30
0.0
 10
96.53029435181686
 20
-159.1460029204186
 30
0.0
 10
96.4752643344017
 20
-159.1460029204186
 30
0.0
 10
96.42022893402483
 20
-159.1460029204186
 30
0.0
 10
96.3754265438315
 20
-159.1908106935736
 30
0.0
 10
96.3754265438315
 20
-159.2458353280271
 30
0.0
 10
96.3754265438315
 20
-159.300870728404
 30
0.0
 10
96.42022893402483
 20
-159.345678501559
 30
0.0
 10
96.4752643344017
 20
-159.345678501559
 30
0.0
 10
96.53029435181686
 20
-159.345678501559
 30
0.0
 10
96.57510212497189
 20
-159.300870728404
 30
0.0
 10
96.57510212497189
 20
-159.2458353280271
 30
0.0
  0
SPLINE
  5
82
330
1F
100
AcDbEntity
  8
_U+30EC_U+30A4_U+30E4_U+30FC 1
 62
   179
420
  2234388
370
     9
100
AcDbSpline
210
0.0
220
0.0
230
1.0
 70
    11
 71
     3
 72
    17
 73
    13
 74
     0
 42
0.0000000001
 43
0.0000000001
 12
1.0
 22
0.0
 32
0.0
 13
1.0
 23
0.0
 33
0.0
 40
0.0
 40
0.0
 40
0.0
 40
0.0
 40
1.0
 40
1.0
 40
1.0
 40
2.0
 40
2.0
 40
2.0
 40
3.0
 40
3.0
 40
3.0
 40
4.0
 40
4.0
 40
4.0
 40
4.0
 10
106.57519155593
 20
-159.2458353280271
 30
0.0
 10
106.57519155593
 20
-159.1908106935736
 30
0.0
 10
106.530383782775
 20
-159.1460029204186
 30
0.0
 10
106.4749984898879
 20
-159.1460029204186
 30
0.0
 10
106.4199684724727
 20
-159.1460029204186
 30
0.0
 10
106.3751660822794
 20
-159.1908106935736
 30
0.0
 10
106.3751660822794
 20
-159.2458353280271
 30
0.0
 10
106.3751660822794
 20
-159.300870728404
 30
0.0
 10
106.4199684724727
 20
-159.345678501559
 30
0.0
 10
106.4749984898879
 20
-159.345678501559
 30
0.0
 10
106.530383782775
 20
-159.345678501559
 30
0.0
 10
106.57519155593
 20
-159.300870728404
 30
0.0
 10
106.57519155593
 20
-159.2458353280271
 30
0.0
  0
SPLINE
  5
83
330
1F
100
AcDbEntity
  8
_U+30EC_U+30A4_U+30E4_U+30FC 1
 62
   179
420
  2234388
370
     9
100
AcDbSpline
210
0.0
220
0.0
230
1.0
 70
    11
 71
     3
 72
    17
 73
    13
 74
     0
 42
0.0000000001
 43
0.0000000001
 12
1.0
 22
0.0
 32
0.0
 13
1.0
 23
0.0
 33
0.0
 40
0.0
 40
0.0
 40
0.0
 40
0.0
 40
1.0
 40
1.0
 40
1.0
 40
2.0
 40
2.0
 40
2.0
 40
3.0
 40
3.0
 40
3.0
 40
4.0
 40
4.0
 40
4.0
 40
4.0
 10
125.5755875591416
 20
-155.246079469652
 30
0.0
 10
125.5755875591416
 20
-155.1906995597266
 30
0.0
 10
125.5307797859866
 20
-155.1458917865716
 30
0.0
 10
125.4757497685714
 20
-155.1458917865716
 30
0.0
 10
125.4207143681945
 20
-155.1458917865716
 30
0.0
 10
125.3759119780012
 20
-155.1906995597266
 30
0.0
 10
125.3759119780012
 20
-155.246079469652
 30
0.0
 10
125.3759119780012
 20
-155.3011148700289
 30
0.0
 10
125.4207143681945
 20
-155.3459226431839
 30
0.0
 10
125.4757497685714
 20
-155.3459226431839
 30
0.0
 10
125.5307797859866
 20
-155.3459226431839
 30
0.0
 10
125.5755875591416
 20
-155.3011148700289
 30
0.0
 10
125.5755875591416
 20
-155.246079469652
 30
0.0
  0
SPLINE
  5
84
330
1F
100
AcDbEntity
  8
_U+30EC_U+30A4_U+30E4_U+30FC 1
 62
   179
420
  2234388
370
     9
100
AcDbSpline
210
0.0
220
0.0
230
1.0
 70
    11
 71
     3
 72
    17
 73
    13
 74
     0
 42
0.0000000001
 43
0.0000000001
 12
1.0
 22
0.0
 32
0.0
 13
1.0
 23
0.0
 33
0.0
 40
0.0
 40
0.0
 40
0.0
 40
0.0
 40
1.0
 40
1.0
 40
1.0
 40
2.0
 40
2.0
 40
2.0
 40
3.0
 40
3.0
 40
3.0
 40
4.0
 40
4.0
 40
4.0
 40
4.0
 10
125.5755875591416
 20
-152.2460903210965
 30
0.0
 10
125.5755875591416
 20
-152.1907104111711
 30
0.0
 10
125.5307797859866
 20
-152.1459026380161
 30
0.0
 10
125.4757497685714
 20
-152.1459026380161
 30
0.0
 10
125.4207143681945
 20
-152.1459026380161
 30
0.0
 10
125.3759119780012
 20
-152.1907104111711
 30
0.0
 10
125.3759119780012
 20
-152.2460903210965
 30
0.0
 10
125.3759119780012
 20
-152.3011257214733
 30
0.0
 10
125.4207143681945
 20
-152.3459334946284
 30
0.0
 10
125.4757497685714
 20
-152.3459334946284
 30
0.0
 10
125.5307797859866
 20
-152.3459334946284
 30
0.0
 10
125.5755875591416
 20
-152.3011257214733
 30
0.0
 10
125.5755875591416
 20
-152.2460903210965
 30
0.0
  0
SPLINE
  5
85
330
1F
100
AcDbEntity
  8
_U+30EC_U+30A4_U+30E4_U+30FC 1
 62
   179
420
  2234388
370
     9
100
AcDbSpline
210
0.0
220
0.0
230
1.0
 70
    11
 71
     3
 72
    17
 73
    13
 74
     0
 42
0.0000000001
 43
0.0000000001
 12
1.0
 22
0.0
 32
0.0
 13
1.0
 23
0.0
 33
0.0
 40
0.0
 40
0.0
 40
0.0
 40
0.0
 40
1.0
 40
1.0
 40
1.0
 40
2.0
 40
2.0
 40
2.0
 40
3.0
 40
3.0
 40
3.0
 40
4.0
 40
4.0
 40
4.0
 40
4.0
 10
125.5755875591416
 20
-144.2459003511727
 30
0.0
 10
125.5755875591416
 20
-144.1908757167192
 30
0.0
 10
125.5307797859866
 20
-144.1460679435642
 30
0.0
 10
125.4757497685714
 20
-144.1460679435642
 30
0.0
 10
125.4207143681945
 20
-144.1460679435642
 30
0.0
 10
125.3759119780012
 20
-144.1908757167192
 30
0.0
 10
125.3759119780012
 20
-144.2459003511727
 30
0.0
 10
125.3759119780012
 20
-144.3009357515496
 30
0.0
 10
125.4207143681945
 20
-144.3457435247046
 30
0.0
 10
125.4757497685714
 20
-144.3457435247046
 30
0.0
 10
125.5307797859866
 20
-144.3457435247046
 30
0.0
 10
125.5755875591416
 20
-144.3009357515496
 30
0.0
 10
125.5755875591416
 20
-144.2459003511727
 30
0.0
  0
SPLINE
  5
86
330
1F
100
AcDbEntity
  8
_U+30EC_U+30A4_U+30E4_U+30FC 1
 62
   179
420
  2234388
370
     9
100
AcDbSpline
210
0.0
220
0.0
230
1.0
 70
    11
 71
     3
 72
    17
 73
    13
 74
     0
 42
0.0000000001
 43
0.0000000001
 12
1.0
 22
0.0
 32
0.0
 13
1.0
 23
0.0
 33
0.0
 40
0.0
 40
0.0
 40
0.0
 40
0.0
 40
1.0
 40
1.0
 40
1.0
 40
2.0
 40
2.0
 40
2.0
 40
3.0
 40
3.0
 40
3.0
 40
4.0
 40
4.0
 40
4.0
 40
4.0
 10
121.5758317007665
 20
-140.2455738988582
 30
0.0
 10
121.5758317007665
 20
-140.1905492644044
 30
0.0
 10
121.5310239276115
 20
-140.1457414912494
 30
0.0
 10
121.4759939101963
 20
-140.1457414912494
 30
0.0
 10
121.4202533418373
 20
-140.1457414912494
 30
0.0
 10
121.375450951644
 20
-140.1905492644044
 30
0.0
 10
121.375450951644
 20
-140.2455738988582
 30
0.0
 10
121.375450951644
 20
-140.3009645747067
 30
0.0
 10
121.4202533418373
 20
-140.3457723478617
 30
0.0
 10
121.4759939101963
 20
-140.3457723478617
 30
0.0
 10
121.5310239276115
 20
-140.3457723478617
 30
0.0
 10
121.5758317007665
 20
-140.3009645747067
 30
0.0
 10
121.5758317007665
 20
-140.2455738988582
 30
0.0
  0
SPLINE
  5
87
330
1F
100
AcDbEntity
  8
_U+30EC_U+30A4_U+30E4_U+30FC 1
 62
   179
420
  2234388
370
     9
100
AcDbSpline
210
0.0
220
0.0
230
1.0
 70
    11
 71
     3
 72
    17
 73
    13
 74
     0
 42
0.0000000001
 43
0.0000000001
 12
1.0
 22
0.0
 32
0.0
 13
1.0
 23
0.0
 33
0.0
 40
0.0
 40
0.0
 40
0.0
 40
0.0
 40
1.0
 40
1.0
 40
1.0
 40
2.0
 40
2.0
 40
2.0
 40
3.0
 40
3.0
 40
3.0
 40
4.0
 40
4.0
 40
4.0
 40
4.0
 10
125.5755875591416
 20
-145.245634763222
 30
0.0
 10
125.5755875591416
 20
-145.1906101287686
 30
0.0
 10
125.5307797859866
 20
-145.1458023556135
 30
0.0
 10
125.4757497685714
 20
-145.1458023556135
 30
0.0
 10
125.4207143681945
 20
-145.1458023556135
 30
0.0
 10
125.3759119780012
 20
-145.1906101287686
 30
0.0
 10
125.3759119780012
 20
-145.245634763222
 30
0.0
 10
125.3759119780012
 20
-145.3010254390708
 30
0.0
 10
125.4207143681945
 20
-145.3458332122258
 30
0.0
 10
125.4757497685714
 20
-145.3458332122258
 30
0.0
 10
125.5307797859866
 20
-145.3458332122258
 30
0.0
 10
125.5755875591416
 20
-145.3010254390708
 30
0.0
 10
125.5755875591416
 20
-145.245634763222
 30
0.0
  0
SPLINE
  5
88
330
1F
100
AcDbEntity
  8
_U+30EC_U+30A4_U+30E4_U+30FC 1
 62
   179
420
  2234388
370
     9
100
AcDbSpline
210
0.0
220
0.0
230
1.0
 70
    11
 71
     3
 72
    17
 73
    13
 74
     0
 42
0.0000000001
 43
0.0000000001
 12
1.0
 22
0.0
 32
0.0
 13
1.0
 23
0.0
 33
0.0
 40
0.0
 40
0.0
 40
0.0
 40
0.0
 40
1.0
 40
1.0
 40
1.0
 40
2.0
 40
2.0
 40
2.0
 40
3.0
 40
3.0
 40
3.0
 40
4.0
 40
4.0
 40
4.0
 40
4.0
 10
84.57515629667337
 20
-159.2458353280271
 30
0.0
 10
84.57515629667337
 20
-159.1908106935736
 30
0.0
 10
84.53035121499887
 20
-159.1460029204186
 30
0.0
 10
84.47531850610285
 20
-159.1460029204186
 30
0.0
 10
84.41993321321577
 20
-159.1460029204186
 30
0.0
 10
84.3754834070135
 20
-159.1908106935736
 30
0.0
 10
84.3754834070135
 20
-159.2458353280271
 30
0.0
 10
84.3754834070135
 20
-159.300870728404
 30
0.0
 10
84.41993321321577
 20
-159.345678501559
 30
0.0
 10
84.47531850610285
 20
-159.345678501559
 30
0.0
 10
84.53035121499887
 20
-159.345678501559
 30
0.0
 10
84.57515629667337
 20
-159.300870728404
 30
0.0
 10
84.57515629667337
 20
-159.2458353280271
 30
0.0
  0
SPLINE
  5
89
330
1F
100
AcDbEntity
  8
_U+30EC_U+30A4_U+30E4_U+30FC 1
 62
   179
420
  2234388
370
     9
100
AcDbSpline
210
0.0
220
0.0
230
1.0
 70
    11
 71
     3
 72
    17
 73
    13
 74
     0
 42
0.0000000001
 43
0.0000000001
 12
1.0
 22
0.0
 32
0.0
 13
1.0
 23
0.0
 33
0.0
 40
0.0
 40
0.0
 40
0.0
 40
0.0
 40
1.0
 40
1.0
 40
1.0
 40
2.0
 40
2.0
 40
2.0
 40
3.0
 40
3.0
 40
3.0
 40
4.0
 40
4.0
 40
4.0
 40
4.0
 10
84.57515629667337
 20
-140.2455738988582
 30
0.0
 10
84.57515629667337
 20
-140.1905492644044
 30
0.0
 10
84.53035121499887
 20
-140.1457414912494
 30
0.0
 10
84.47531850610285
 20
-140.1457414912494
 30
0.0
 10
84.41993321321577
 20
-140.1457414912494
 30
0.0
 10
84.3754834070135
 20
-140.1905492644044
 30
0.0
 10
84.3754834070135
 20
-140.2455738988582
 30
0.0
 10
84.3754834070135
 20
-140.3009645747067
 30
0.0
 10
84.41993321321577
 20
-140.3457723478617
 30
0.0
 10
84.47531850610285
 20
-140.3457723478617
 30
0.0
 10
84.53035121499887
 20
-140.3457723478617
 30
0.0
 10
84.57515629667337
 20
-140.3009645747067
 30
0.0
 10
84.57515629667337
 20
-140.2455738988582
 30
0.0
  0
POLYLINE
  5
8A
330
1F
100
AcDbEntity
  8
_U+30EC_U+30A4_U+30E4_U+30FC 1
 62
   179
420
  2234388
370
     9
100
AcDb2dPolyline
 66
     1
 10
0.0
 20
0.0
 30
0.0
  0
VERTEX
  5
8B
330
8A
100
AcDbEntity
  8
_U+30EC_U+30A4_U+30E4_U+30FC 1
 62
   179
420
  2234388
370
     9
100
AcDbVertex
100
AcDb2dVertex
 10
125.4756797900693
 20
-144.2459003511727
 30
0.0
  0
VERTEX
  5
8C
330
8A
100
AcDbEntity
  8
_U+30EC_U+30A4_U+30E4_U+30FC 1
 62
   179
420
  2234388
370
     9
100
AcDbVertex
100
AcDb2dVertex
 10
125.4756797900693
 20
-140.475415597341
 30
0.0
  0
SEQEND
  5
8D
330
8A
100
AcDbEntity
  8
_U+30EC_U+30A4_U+30E4_U+30FC 1
 62
   179
420
  2234388
370
     9
  0
POLYLINE
  5
8E
330
1F
100
AcDbEntity
  8
_U+30EC_U+30A4_U+30E4_U+30FC 1
 62
   179
420
  2234388
370
     9
100
AcDb2dPolyline
 66
     1
 10
0.0
 20
0.0
 30
0.0
  0
VERTEX
  5
8F
330
8E
100
AcDbEntity
  8
_U+30EC_U+30A4_U+30E4_U+30FC 1
 62
   179
420
  2234388
370
     9
100
AcDbVertex
100
AcDb2dVertex
 10
125.4756797900693
 20
-144.2459003511727
 30
0.0
  0
VERTEX
  5
90
330
8E
100
AcDbEntity
  8
_U+30EC_U+30A4_U+30E4_U+30FC 1
 62
   179
420
  2234388
370
     9
100
AcDbVertex
100
AcDb2dVertex
 10
125.4756797900693
 20
-145.2456778269156
 30
0.0
  0
SEQEND
  5
91
330
8E
100
AcDbEntity
  8
_U+30EC_U+30A4_U+30E4_U+30FC 1
 62
   179
420
  2234388
370
     9
  0
POLYLINE
  5
92
330
1F
100
AcDbEntity
  8
_U+30EC_U+30A4_U+30E4_U+30FC 1
 62
   179
420
  2234388
370
     9
100
AcDb2dPolyline
 66
     1
 10
0.0
 20
0.0
 30
0.0
  0
VERTEX
  5
93
330
92
100
AcDbEntity
  8
_U+30EC_U+30A4_U+30E4_U+30FC 1
 62
   179
420
  2234388
370
     9
100
AcDbVertex
100
AcDb2dVertex
 10
124.0156429404588
 20
-144.2459003511727
 30
0.0
  0
VERTEX
  5
94
330
92
100
AcDbEntity
  8
_U+30EC_U+30A4_U+30E4_U+30FC 1
 62
   179
420
  2234388
370
     9
100
AcDbVertex
100
AcDb2dVertex
 10
126.4755595420845
 20
-144.2459003511727
 30
0.0
  0
SEQEND
  5
95
330
92
100
AcDbEntity
  8
_U+30EC_U+30A4_U+30E4_U+30FC 1
 62
   179
420
  2234388
370
     9
  0
POLYLINE
  5
96
330
1F
100
AcDbEntity
  8
_U+30EC_U+30A4_U+30E4_U+30FC 1
 62
   179
420
  2234388
370
     9
100
AcDb2dPolyline
 66
     1
 10
0.0
 20
0.0
 30
0.0
  0
VERTEX
  5
97
330
96
100
AcDbEntity
  8
_U+30EC_U+30A4_U+30E4_U+30FC 1
 62
   179
420
  2234388
370
     9
100
AcDbVertex
100
AcDb2dVertex
 10
124.0156429404588
 20
-145.245634763222
 30
0.0
  0
VERTEX
  5
98
330
96
100
AcDbEntity
  8
_U+30EC_U+30A4_U+30E4_U+30FC 1
 62
   179
420
  2234388
370
     9
100
AcDbVertex
100
AcDb2dVertex
 10
126.4755595420845
 20
-145.245634763222
 30
0.0
  0
SEQEND
  5
99
330
96
100
AcDbEntity
  8
_U+30EC_U+30A4_U+30E4_U+30FC 1
 62
   179
420
  2234388
370
     9
  0
INSERT
  5
9B
330
1F
100
AcDbEntity
  8
_U+30EC_U+30A4_U+30E4_U+30FC 1
100
AcDbBlockReference
  2
block 2
 10
0.0
 20
0.0
 30
0.0
  0
POLYLINE
  5
A0
330
1F
100
AcDbEntity
  8
_U+30EC_U+30A4_U+30E4_U+30FC 1
 62
   179
420
  2234388
370
     9
100
AcDb2dPolyline
 66
     1
 10
0.0
 20
0.0
 30
0.0
  0
VERTEX
  5
A1
330
A0
100
AcDbEntity
  8
_U+30EC_U+30A4_U+30E4_U+30FC 1
 62
   179
420
  2234388
370
     9
100
AcDbVertex
100
AcDb2dVertex
 10
96.47519973886135
 20
-159.2458353280271
 30
0.0
  0
VERTEX
  5
A2
330
A0
100
AcDbEntity
  8
_U+30EC_U+30A4_U+30E4_U+30FC 1
 62
   179
420
  2234388
370
     9
100
AcDbVertex
100
AcDb2dVertex
 10
106.4750361706197
 20
-159.2458353280271
 30
0.0
  0
SEQEND
  5
A3
330
A0
100
AcDbEntity
  8
_U+30EC_U+30A4_U+30E4_U+30FC 1
 62
   179
420
  2234388
370
     9
  0
POLYLINE
  5
A4
330
1F
100
AcDbEntity
  8
_U+30EC_U+30A4_U+30E4_U+30FC 1
 62
   179
420
  2234388
370
     9
100
AcDb2dPolyline
 66
     1
 10
0.0
 20
0.0
 30
0.0
  0
VERTEX
  5
A5
330
A4
100
AcDbEntity
  8
_U+30EC_U+30A4_U+30E4_U+30FC 1
 62
   179
420
  2234388
370
     9
100
AcDbVertex
100
AcDb2dVertex
 10
106.4749285113858
 20
-157.7858361591484
 30
0.0
  0
VERTEX
  5
A6
330
A4
100
AcDbEntity
  8
_U+30EC_U+30A4_U+30E4_U+30FC 1
 62
   179
420
  2234388
370
     9
100
AcDbVertex
100
AcDb2dVertex
 10
106.4749285113858
 20
-160.2461188021694
 30
0.0
  0
SEQEND
  5
A7
330
A4
100
AcDbEntity
  8
_U+30EC_U+30A4_U+30E4_U+30FC 1
 62
   179
420
  2234388
370
     9
  0
INSERT
  5
A9
330
1F
100
AcDbEntity
  8
_U+30EC_U+30A4_U+30E4_U+30FC 1
100
AcDbBlockReference
  2
block 3
 10
0.0
 20
0.0
 30
0.0
  0
POLYLINE
  5
B1
330
1F
100
AcDbEntity
  8
_U+30EC_U+30A4_U+30E4_U+30FC 1
 62
   179
420
  2234388
370
     9
100
AcDb2dPolyline
 66
     1
 10
0.0
 20
0.0
 30
0.0
  0
VERTEX
  5
B2
330
B1
100
AcDbEntity
  8
_U+30EC_U+30A4_U+30E4_U+30FC 1
 62
   179
420
  2234388
370
     9
100
AcDbVertex
100
AcDb2dVertex
 10
125.4756797900693
 20
-155.246079469652
 30
0.0
  0
VERTEX
  5
B3
330
B1
100
AcDbEntity
  8
_U+30EC_U+30A4_U+30E4_U+30FC 1
 62
   179
420
  2234388
370
     9
100
AcDbVertex
100
AcDb2dVertex
 10
125.4756797900693
 20
-152.2460580233263
 30
0.0
  0
SEQEND
  5
B4
330
B1
100
AcDbEntity
  8
_U+30EC_U+30A4_U+30E4_U+30FC 1
 62
   179
420
  2234388
370
     9
  0
POLYLINE
  5
B5
330
1F
100
AcDbEntity
  8
_U+30EC_U+30A4_U+30E4_U+30FC 1
 62
   179
420
  2234388
370
     9
100
AcDb2dPolyline
 66
     1
 10
0.0
 20
0.0
 30
0.0
  0
VERTEX
  5
B6
330
B5
100
AcDbEntity
  8
_U+30EC_U+30A4_U+30E4_U+30FC 1
 62
   179
420
  2234388
370
     9
100
AcDbVertex
100
AcDb2dVertex
 10
109.0153526881325
 20
-155.246079469652
 30
0.0
  0
VERTEX
  5
B7
330
B5
100
AcDbEntity
  8
_U+30EC_U+30A4_U+30E4_U+30FC 1
 62
   179
420
  2234388
370
     9
100
AcDbVertex
100
AcDb2dVertex
 10
126.4753819043485
 20
-155.246079469652
 30
0.0
  0
SEQEND
  5
B8
330
B5
100
AcDbEntity
  8
_U+30EC_U+30A4_U+30E4_U+30FC 1
 62
   179
420
  2234388
370
     9
  0
INSERT
  5
BA
330
1F
100
AcDbEntity
  8
_U+30EC_U+30A4_U+30E4_U+30FC 1
100
AcDbBlockReference
  2
block 4
 10
0.0
 20
0.0
 30
0.0
  0
POLYLINE
  5
BF
330
1F
100
AcDbEntity
  8
_U+30EC_U+30A4_U+30E4_U+30FC 1
 62
   179
420
  2234388
370
     9
100
AcDb2dPolyline
 66
     1
 10
0.0
 20
0.0
 30
0.0
  0
VERTEX
  5
C0
330
BF
100
AcDbEntity
  8
_U+30EC_U+30A4_U+30E4_U+30FC 1
 62
   179
420
  2234388
370
     9
100
AcDbVertex
100
AcDb2dVertex
 10
125.4756797900693
 20
-152.2460903210965
 30
0.0
  0
VERTEX
  5
C1
330
BF
100
AcDbEntity
  8
_U+30EC_U+30A4_U+30E4_U+30FC 1
 62
   179
420
  2234388
370
     9
100
AcDbVertex
100
AcDb2dVertex
 10
125.4756797900693
 20
-145.2455701676817
 30
0.0
  0
SEQEND
  5
C2
330
BF
100
AcDbEntity
  8
_U+30EC_U+30A4_U+30E4_U+30FC 1
 62
   179
420
  2234388
370
     9
  0
POLYLINE
  5
C3
330
1F
100
AcDbEntity
  8
_U+30EC_U+30A4_U+30E4_U+30FC 1
 62
   179
420
  2234388
370
     9
100
AcDb2dPolyline
 66
     1
 10
0.0
 20
0.0
 30
0.0
  0
VERTEX
  5
C4
330
C3
100
AcDbEntity
  8
_U+30EC_U+30A4_U+30E4_U+30FC 1
 62
   179
420
  2234388
370
     9
100
AcDbVertex
100
AcDb2dVertex
 10
109.0153526881325
 20
-152.2460903210965
 30
0.0
  0
VERTEX
  5
C5
330
C3
100
AcDbEntity
  8
_U+30EC_U+30A4_U+30E4_U+30FC 1
 62
   179
420
  2234388
370
     9
100
AcDbVertex
100
AcDb2dVertex
 10
126.4753819043485
 20
-152.2460903210965
 30
0.0
  0
SEQEND
  5
C6
330
C3
100
AcDbEntity
  8
_U+30EC_U+30A4_U+30E4_U+30FC 1
 62
   179
420
  2234388
370
     9
  0
POLYLINE
  5
C7
330
1F
100
AcDbEntity
  8
_U+30EC_U+30A4_U+30E4_U+30FC 1
 62
   179
420
  2234388
370
     9
100
AcDb2dPolyline
 66
     1
 10
0.0
 20
0.0
 30
0.0
  0
VERTEX
  5
C8
330
C7
100
AcDbEntity
  8
_U+30EC_U+30A4_U+30E4_U+30FC 1
 62
   179
420
  2234388
370
     9
100
AcDbVertex
100
AcDb2dVertex
 10
124.0156429404588
 20
-145.245634763222
 30
0.0
  0
VERTEX
  5
C9
330
C7
100
AcDbEntity
  8
_U+30EC_U+30A4_U+30E4_U+30FC 1
 62
   179
420
  2234388
370
     9
100
AcDbVertex
100
AcDb2dVertex
 10
126.4755595420845
 20
-145.245634763222
 30
0.0
  0
SEQEND
  5
CA
330
C7
100
AcDbEntity
  8
_U+30EC_U+30A4_U+30E4_U+30FC 1
 62
   179
420
  2234388
370
     9
  0
INSERT
  5
CC
330
1F
100
AcDbEntity
  8
_U+30EC_U+30A4_U+30E4_U+30FC 1
100
AcDbBlockReference
  2
block 5
 10
0.0
 20
0.0
 30
0.0
  0
POLYLINE
  5
D1
330
1F
100
AcDbEntity
  8
_U+30EC_U+30A4_U+30E4_U+30FC 1
 62
   179
420
  2234388
370
     9
100
AcDb2dPolyline
 66
     1
 10
0.0
 20
0.0
 30
0.0
  0
VERTEX
  5
D2
330
D1
100
AcDbEntity
  8
_U+30EC_U+30A4_U+30E4_U+30FC 1
 62
   179
420
  2234388
370
     9
100
AcDbVertex
100
AcDb2dVertex
 10
84.47524852760112
 20
-140.2455738988582
 30
0.0
  0
VERTEX
  5
D3
330
D1
100
AcDbEntity
  8
_U+30EC_U+30A4_U+30E4_U+30FC 1
 62
   179
420
  2234388
370
     9
100
AcDbVertex
100
AcDb2dVertex
 10
121.4759939101963
 20
-140.2455738988582
 30
0.0
  0
SEQEND
  5
D4
330
D1
100
AcDbEntity
  8
_U+30EC_U+30A4_U+30E4_U+30FC 1
 62
   179
420
  2234388
370
     9
  0
POLYLINE
  5
D5
330
1F
100
AcDbEntity
  8
_U+30EC_U+30A4_U+30E4_U+30FC 1
 62
   179
420
  2234388
370
     9
100
AcDb2dPolyline
 66
     1
 10
0.0
 20
0.0
 30
0.0
  0
VERTEX
  5
D6
330
D5
100
AcDbEntity
  8
_U+30EC_U+30A4_U+30E4_U+30FC 1
 62
   179
420
  2234388
370
     9
100
AcDbVertex
100
AcDb2dVertex
 10
84.47524852760112
 20
-141.705831449898
 30
0.0
  0
VERTEX
  5
D7
330
D5
100
AcDbEntity
  8
_U+30EC_U+30A4_U+30E4_U+30FC 1
 62
   179
420
  2234388
370
     9
100
AcDbVertex
100
AcDb2dVertex
 10
84.47524852760112
 20
-139.2462701237442
 30
0.0
  0
SEQEND
  5
D8
330
D5
100
AcDbEntity
  8
_U+30EC_U+30A4_U+30E4_U+30FC 1
 62
   179
420
  2234388
370
     9
  0
POLYLINE
  5
D9
330
1F
100
AcDbEntity
  8
_U+30EC_U+30A4_U+30E4_U+30FC 1
 62
   179
420
  2234388
370
     9
100
AcDb2dPolyline
 66
     1
 10
0.0
 20
0.0
 30
0.0
  0
VERTEX
  5
DA
330
D9
100
AcDbEntity
  8
_U+30EC_U+30A4_U+30E4_U+30FC 1
 62
   179
420
  2234388
370
     9
100
AcDbVertex
100
AcDb2dVertex
 10
121.4759239316943
 20
-141.705831449898
 30
0.0
  0
VERTEX
  5
DB
330
D9
100
AcDbEntity
  8
_U+30EC_U+30A4_U+30E4_U+30FC 1
 62
   179
420
  2234388
370
     9
100
AcDbVertex
100
AcDb2dVertex
 10
121.4759239316943
 20
-139.2462701237442
 30
0.0
  0
SEQEND
  5
DC
330
D9
100
AcDbEntity
  8
_U+30EC_U+30A4_U+30E4_U+30FC 1
 62
   179
420
  2234388
370
     9
  0
INSERT
  5
DE
330
1F
100
AcDbEntity
  8
_U+30EC_U+30A4_U+30E4_U+30FC 1
100
AcDbBlockReference
  2
block 6
 10
0.0
 20
0.0
 30
0.0
  0
POLYLINE
  5
E5
330
1F
100
AcDbEntity
  8
_U+30EC_U+30A4_U+30E4_U+30FC 1
 62
   179
420
  2234388
370
     9
100
AcDb2dPolyline
 66
     1
 10
0.0
 20
0.0
 30
0.0
  0
VERTEX
  5
E6
330
E5
100
AcDbEntity
  8
_U+30EC_U+30A4_U+30E4_U+30FC 1
 62
   179
420
  2234388
370
     9
100
AcDbVertex
100
AcDb2dVertex
 10
96.47519973886135
 20
-159.2458353280271
 30
0.0
  0
VERTEX
  5
E7
330
E5
100
AcDbEntity
  8
_U+30EC_U+30A4_U+30E4_U+30FC 1
 62
   179
420
  2234388
370
     9
100
AcDbVertex
100
AcDb2dVertex
 10
84.47511126207758
 20
-159.2458353280271
 30
0.0
  0
SEQEND
  5
E8
330
E5
100
AcDbEntity
  8
_U+30EC_U+30A4_U+30E4_U+30FC 1
 62
   179
420
  2234388
370
     9
  0
POLYLINE
  5
E9
330
1F
100
AcDbEntity
  8
_U+30EC_U+30A4_U+30E4_U+30FC 1
 62
   179
420
  2234388
370
     9
100
AcDb2dPolyline
 66
     1
 10
0.0
 20
0.0
 30
0.0
  0
VERTEX
  5
EA
330
E9
100
AcDbEntity
  8
_U+30EC_U+30A4_U+30E4_U+30FC 1
 62
   179
420
  2234388
370
     9
100
AcDbVertex
100
AcDb2dVertex
 10
96.47519973886135
 20
-157.7858361591484
 30
0.0
  0
VERTEX
  5
EB
330
E9
100
AcDbEntity
  8
_U+30EC_U+30A4_U+30E4_U+30FC 1
 62
   179
420
  2234388
370
     9
100
AcDbVertex
100
AcDb2dVertex
 10
96.47519973886135
 20
-160.2461188021694
 30
0.0
  0
SEQEND
  5
EC
330
E9
100
AcDbEntity
  8
_U+30EC_U+30A4_U+30E4_U+30FC 1
 62
   179
420
  2234388
370
     9
  0
POLYLINE
  5
ED
330
1F
100
AcDbEntity
  8
_U+30EC_U+30A4_U+30E4_U+30FC 1
 62
   179
420
  2234388
370
     9
100
AcDb2dPolyline
 66
     1
 10
0.0
 20
0.0
 30
0.0
  0
VERTEX
  5
EE
330
ED
100
AcDbEntity
  8
_U+30EC_U+30A4_U+30E4_U+30FC 1
 62
   179
420
  2234388
370
     9
100
AcDbVertex
100
AcDb2dVertex
 10
84.47524852760112
 20
-147.7861020036622
 30
0.0
  0
VERTEX
  5
EF
330
ED
100
AcDbEntity
  8
_U+30EC_U+30A4_U+30E4_U+30FC 1
 62
   179
420
  2234388
370
     9
100
AcDbVertex
100
AcDb2dVertex
 10
84.47524852760112
 20
-160.245860420008
 30
0.0
  0
SEQEND
  5
F0
330
ED
100
AcDbEntity
  8
_U+30EC_U+30A4_U+30E4_U+30FC 1
 62
   179
420
  2234388
370
     9
  0
INSERT
  5
F2
330
1F
100
AcDbEntity
  8
_U+30EC_U+30A4_U+30E4_U+30FC 1
100
AcDbBlockReference
  2
block 7
 10
0.0
 20
0.0
 30
0.0
  0
POLYLINE
  5
F9
330
1F
100
AcDbEntity
  8
_U+30EC_U+30A4_U+30E4_U+30FC 1
  6
AI-Linetype-1
 62
   154
420
    23468
370
    25
100
AcDb2dPolyline
 66
     1
 10
0.0
 20
0.0
 30
0.0
  0
VERTEX
  5
FA
330
F9
100
AcDbEntity
  8
_U+30EC_U+30A4_U+30E4_U+30FC 1
  6
AI-Linetype-1
 62
   154
420
    23468
370
    25
100
AcDbVertex
100
AcDb2dVertex
 10
83.8968358359933
 20
-144.1456480725519
 30
0.0
  0
VERTEX
  5
FB
330
F9
100
AcDbEntity
  8
_U+30EC_U+30A4_U+30E4_U+30FC 1
  6
AI-Linetype-1
 62
   154
420
    23468
370
    25
100
AcDbVertex
100
AcDb2dVertex
 10
83.8968358359933
 20
-145.9462272279177
 30
0.0
  0
VERTEX
  5
FC
330
F9
100
AcDbEntity
  8
_U+30EC_U+30A4_U+30E4_U+30FC 1
  6
AI-Linetype-1
 62
   154
420
    23468
370
    25
100
AcDbVertex
100
AcDb2dVertex
 10
95.85388215105856
 20
-145.9462272279177
 30
0.0
  0
VERTEX
  5
FD
330
F9
100
AcDbEntity
  8
_U+30EC_U+30A4_U+30E4_U+30FC 1
  6
AI-Linetype-1
 62
   154
420
    23468
370
    25
100
AcDbVertex
100
AcDb2dVertex
 10
95.85388215105856
 20
-155.8201292708052
 30
0.0
  0
VERTEX
  5
FE
330
F9
100
AcDbEntity
  8
_U+30EC_U+30A4_U+30E4_U+30FC 1
  6
AI-Linetype-1
 62
   154
420
    23468
370
    25
100
AcDbVertex
100
AcDb2dVertex
 10
107.0538714247204
 20
-155.8201292708052
 30
0.0
  0
VERTEX
  5
FF
330
F9
100
AcDbEntity
  8
_U+30EC_U+30A4_U+30E4_U+30FC 1
  6
AI-Linetype-1
 62
   154
420
    23468
370
    25
100
AcDbVertex
100
AcDb2dVertex
 10
107.0538714247204
 20
-152.1572391553472
 30
0.0
  0
SEQEND
  5
101
330
F9
100
AcDbEntity
  8
_U+30EC_U+30A4_U+30E4_U+30FC 1
  6
AI-Linetype-1
 62
   154
420
    23468
370
    25
  0
ENDSEC
  0
SECTION
  2
OBJECTS
  0
DICTIONARY
  5
C
330
0
100
AcDbDictionary
281
     1
  3
ACAD_GROUP
350
D
  3
ACAD_LAYOUT
350
1A
  3
ACAD_MATERIAL
350
3B
  3
ACAD_MLEADERSTYLE
350
103
  3
ACAD_MLINESTYLE
350
17
  3
ACAD_PLOTSETTINGS
350
19
  3
ACAD_PLOTSTYLENAME
350
E
  3
ACAD_TABLESTYLE
350
102
  3
ACAD_VISUALSTYLE
350
2A
  0
SUN
  5
3F
330
29
100
AcDbSun
 90
        1
290
     0
 63
     7
421
 16777215
 40
1.0
291
     1
 91
  2455826
 92
 54000000
292
     0
 70
     2
 71
   256
280
     1
  0
DICTIONARY
  5
D
102
{ACAD_REACTORS
330
C
102
}
330
C
100
AcDbDictionary
281
     1
  0
DICTIONARY
  5
1A
102
{ACAD_REACTORS
330
C
102
}
330
C
100
AcDbDictionary
281
     1
  3
Layout1
350
1E
  3
Layout2
350
26
  3
Model
350
22
  0
DICTIONARY
  5
3B
102
{ACAD_REACTORS
330
C
102
}
330
C
100
AcDbDictionary
281
     1
  3
ByBlock
350
3D
  3
ByLayer
350
3C
  3
Global
350
3E
  0
DICTIONARY
  5
103
102
{ACAD_REACTORS
330
C
102
}
330
C
100
AcDbDictionary
281
     1
  0
DICTIONARY
  5
17
102
{ACAD_REACTORS
330
C
102
}
330
C
100
AcDbDictionary
281
     1
  3
Standard
350
18
  0
DICTIONARY
  5
19
102
{ACAD_REACTORS
330
C
102
}
330
C
100
AcDbDictionary
281
     1
  0
ACDBDICTIONARYWDFLT
  5
E
102
{ACAD_REACTORS
330
C
102
}
330
C
100
AcDbDictionary
281
     1
  3
Normal
350
F
100
AcDbDictionaryWithDefault
340
F
  0
DICTIONARY
  5
102
102
{ACAD_REACTORS
330
C
102
}
330
C
100
AcDbDictionary
281
     1
  0
DICTIONARY
  5
2A
102
{ACAD_REACTORS
330
C
102
}
330
C
100
AcDbDictionary
281
     1
  3
2dWireframe
350
2F
  3
3D Hidden
350
31
  3
3dWireframe
350
30
  3
Basic
350
32
  3
Brighten
350
36
  3
ColorChange
350
3A
  3
Conceptual
350
34
  3
Dim
350
35
  3
Facepattern
350
39
  3
Flat
350
2B
  3
FlatWithEdges
350
2C
  3
Gouraud
350
2D
  3
GouraudWithEdges
350
2E
  3
Linepattern
350
38
  3
Realistic
350
33
  3
Thicken
350
37
  0
LAYOUT
  5
1E
102
{ACAD_REACTORS
330
1A
102
}
330
1A
100
AcDbPlotSettings
  1

  2
none_device
  4

  6

 40
0.0
 41
0.0
 42
0.0
 43
0.0
 44
0.0
 45
0.0
 46
0.0
 47
0.0
 48
0.0
 49
0.0
140
0.0
141
0.0
142
1.0
143
1.0
 70
   688
 72
     0
 73
     0
 74
     5
  7

 75
    16
 76
     0
 77
     2
 78
   300
147
1.0
148
0.0
149
0.0
100
AcDbLayout
  1
Layout1
 70
     1
 71
     1
 10
0.0
 20
0.0
 11
12.0
 21
9.0
 12
0.0
 22
0.0
 32
0.0
 14
1.000000000000000E+20
 24
1.000000000000000E+20
 34
1.000000000000000E+20
 15
-1.000000000000000E+20
 25
-1.000000000000000E+20
 35
-1.000000000000000E+20
146
0.0
 13
0.0
 23
0.0
 33
0.0
 16
1.0
 26
0.0
 36
0.0
 17
0.0
 27
1.0
 37
0.0
 76
     0
330
1B
  0
LAYOUT
  5
26
102
{ACAD_REACTORS
330
1A
102
}
330
1A
100
AcDbPlotSettings
  1

  2
none_device
  4

  6

 40
0.0
 41
0.0
 42
0.0
 43
0.0
 44
0.0
 45
0.0
 46
0.0
 47
0.0
 48
0.0
 49
0.0
140
0.0
141
0.0
142
1.0
143
1.0
 70
   688
 72
     0
 73
     0
 74
     5
  7

 75
    16
 76
     0
 77
     2
 78
   300
147
1.0
148
0.0
149
0.0
100
AcDbLayout
  1
Layout2
 70
     1
 71
     2
 10
0.0
 20
0.0
 11
0.0
 21
0.0
 12
0.0
 22
0.0
 32
0.0
 14
0.0
 24
0.0
 34
0.0
 15
0.0
 25
0.0
 35
0.0
146
0.0
 13
0.0
 23
0.0
 33
0.0
 16
1.0
 26
0.0
 36
0.0
 17
0.0
 27
1.0
 37
0.0
 76
     0
330
23
  0
LAYOUT
  5
22
102
{ACAD_REACTORS
330
1A
102
}
330
1A
100
AcDbPlotSettings
  1

  2
none_device
  4

  6

 40
0.0
 41
0.0
 42
0.0
 43
0.0
 44
0.0
 45
0.0
 46
0.0
 47
0.0
 48
0.0
 49
0.0
140
0.0
141
0.0
142
1.0
143
1.0
 70
  1712
 72
     0
 73
     0
 74
     0
  7

 75
     0
 76
     0
 77
     2
 78
   300
147
1.0
148
0.0
149
0.0
100
AcDbLayout
  1
Model
 70
     1
 71
     0
 10
0.0
 20
0.0
 11
12.0
 21
9.0
 12
0.0
 22
0.0
 32
0.0
 14
1.000000000000000E+20
 24
1.000000000000000E+20
 34
1.000000000000000E+20
 15
-1.000000000000000E+20
 25
-1.000000000000000E+20
 35
-1.000000000000000E+20
146
0.0
 13
0.0
 23
0.0
 33
0.0
 16
1.0
 26
0.0
 36
0.0
 17
0.0
 27
1.0
 37
0.0
 76
     0
330
1F
331
29
  0
MATERIAL
  5
3D
102
{ACAD_REACTORS
330
3B
102
}
330
3B
100
AcDbMaterial
  1
ByBlock
 72
     1
 94
      127
  0
MATERIAL
  5
3C
102
{ACAD_REACTORS
330
3B
102
}
330
3B
100
AcDbMaterial
  1
ByLayer
 72
     1
 94
      127
  0
MATERIAL
  5
3E
102
{ACAD_REACTORS
330
3B
102
}
330
3B
100
AcDbMaterial
  1
Global
 72
     1
 94
      127
  0
MLINESTYLE
  5
18
102
{ACAD_REACTORS
330
17
102
}
330
17
100
AcDbMlineStyle
  2
Standard
 70
     0
  3

 62
   256
 51
90.0
 52
90.0
 71
     2
 49
0.5
 62
   256
  6
BYLAYER
 49
-0.5
 62
   256
  6
BYLAYER
  0
ACDBPLACEHOLDER
  5
F
102
{ACAD_REACTORS
330
E
102
}
330
E
  0
VISUALSTYLE
  5
2F
102
{ACAD_REACTORS
330
2A
102
}
330
2A
100
AcDbVisualStyle
  2
2dWireframe
 70
     4
177
     2
291
     0
 71
     0
176
     1
 72
     2
176
     1
 73
     0
176
     1
 90
        0
176
     1
 40
-0.6
176
     1
 41
-30.0
176
     1
 62
     5
 63
     7
421
 16777215
176
     1
 74
     1
176
     1
 91
        4
176
     1
 64
     7
176
     1
 65
   257
176
     1
 75
     1
176
     1
175
     1
176
     1
 42
1.0
176
     1
 92
        0
176
     1
 66
   257
176
     1
 43
1.0
176
     1
 76
     1
176
     1
 77
     6
176
     1
 78
     2
176
     1
 67
     7
176
     1
 79
     5
176
     1
170
     0
176
     1
171
     0
176
     1
290
     0
176
     1
 93
        1
176
     1
 44
0.0
176
     1
173
     0
176
     1
  0
VISUALSTYLE
  5
31
102
{ACAD_REACTORS
330
2A
102
}
330
2A
100
AcDbVisualStyle
  2
3D Hidden
 70
     6
177
     2
291
     0
 71
     1
176
     1
 72
     2
176
     1
 73
     2
176
     1
 90
        0
176
     1
 40
-0.6
176
     1
 41
-30.0
176
     1
 62
     5
 63
     7
421
 16777215
176
     1
 74
     2
176
     1
 91
        2
176
     1
 64
     7
176
     1
 65
   257
176
     1
 75
     2
176
     1
175
     1
176
     1
 42
40.0
176
     1
 92
        0
176
     1
 66
   257
176
     1
 43
1.0
176
     1
 76
     1
176
     1
 77
     6
176
     1
 78
     2
176
     1
 67
     7
176
     1
 79
     3
176
     1
170
     0
176
     1
171
     0
176
     1
290
     0
176
     1
 93
        1
176
     1
 44
0.0
176
     1
173
     0
176
     1
  0
VISUALSTYLE
  5
30
102
{ACAD_REACTORS
330
2A
102
}
330
2A
100
AcDbVisualStyle
  2
3dWireframe
 70
     5
177
     2
291
     0
 71
     0
176
     1
 72
     2
176
     1
 73
     0
176
     1
 90
        0
176
     1
 40
-0.6
176
     1
 41
-30.0
176
     1
 62
     5
 63
     7
421
 16777215
176
     1
 74
     1
176
     1
 91
        4
176
     1
 64
     7
176
     1
 65
   257
176
     1
 75
     1
176
     1
175
     1
176
     1
 42
1.0
176
     1
 92
        0
176
     1
 66
   257
176
     1
 43
1.0
176
     1
 76
     1
176
     1
 77
     6
176
     1
 78
     2
176
     1
 67
     7
176
     1
 79
     5
176
     1
170
     0
176
     1
171
     0
176
     1
290
     0
176
     1
 93
        1
176
     1
 44
0.0
176
     1
173
     0
176
     1
  0
VISUALSTYLE
  5
32
102
{ACAD_REACTORS
330
2A
102
}
330
2A
100
AcDbVisualStyle
  2
Basic
 70
     7
177
     2
291
     1
 71
     1
176
     1
 72
     0
176
     1
 73
     1
176
     1
 90
        0
176
     1
 40
-0.6
176
     1
 41
-30.0
176
     1
 62
     5
 63
     7
421
 16777215
176
     1
 74
     0
176
     1
 91
        4
176
     1
 64
     7
176
     1
 65
   257
176
     1
 75
     1
176
     1
175
     1
176
     1
 42
1.0
176
     1
 92
        8
176
     1
 66
     7
176
     1
 43
1.0
176
     1
 76
     1
176
     1
 77
     6
176
     1
 78
     2
176
     1
 67
     7
176
     1
 79
     5
176
     1
170
     0
176
     1
171
     0
176
     1
290
     0
176
     1
 93
        1
176
     1
 44
0.0
176
     1
173
     0
176
     1
  0
VISUALSTYLE
  5
36
102
{ACAD_REACTORS
330
2A
102
}
330
2A
100
AcDbVisualStyle
  2
Brighten
 70
    12
177
     2
291
     1
 71
     2
176
     1
 72
     2
176
     1
 73
     0
176
     1
 90
        0
176
     1
 40
-0.6
176
     1
 41
-30.0
176
     1
 62
     5
 63
     7
421
 16777215
176
     1
 74
     1
176
     1
 91
        4
176
     1
 64
     7
176
     1
 65
   257
176
     1
 75
     1
176
     1
175
     1
176
     1
 42
1.0
176
     1
 92
        8
176
     1
 66
     7
176
     1
 43
1.0
176
     1
 76
     1
176
     1
 77
     6
176
     1
 78
     2
176
     1
 67
     7
176
     1
 79
     5
176
     1
170
     0
176
     1
171
     0
176
     1
290
     0
176
     1
 93
        1
176
     1
 44
50.0
176
     1
173
     0
176
     1
  0
VISUALSTYLE
  5
3A
102
{ACAD_REACTORS
330
2A
102
}
330
2A
100
AcDbVisualStyle
  2
ColorChange
 70
    16
177
     2
291
     1
 71
     2
176
     1
 72
     2
176
     1
 73
     3
176
     1
 90
        0
176
     1
 40
-0.6
176
     1
 41
-30.0
176
     1
 62
     5
 63
     8
421
  8421504
176
     1
 74
     1
176
     1
 91
        4
176
     1
 64
     7
176
     1
 65
   257
176
     1
 75
     1
176
     1
175
     1
176
     1
 42
1.0
176
     1
 92
        8
176
     1
 66
     8
424
  8421504
176
     1
 43
1.0
176
     1
 76
     1
176
     1
 77
     6
176
     1
 78
     2
176
     1
 67
     7
176
     1
 79
     5
176
     1
170
     0
176
     1
171
     0
176
     1
290
     0
176
     1
 93
        1
176
     1
 44
0.0
176
     1
173
     0
176
     1
  0
VISUALSTYLE
  5
34
102
{ACAD_REACTORS
330
2A
102
}
330
2A
100
AcDbVisualStyle
  2
Conceptual
 70
     9
177
     2
291
     0
 71
     3
176
     1
 72
     2
176
     1
 73
     0
176
     1
 90
        0
176
     1
 40
-0.6
176
     1
 41
-30.0
176
     1
 62
     5
 63
     7
421
 16777215
176
     1
 74
     2
176
     1
 91
        2
176
     1
 64
     7
176
     1
 65
   257
176
     1
 75
     1
176
     1
175
     1
176
     1
 42
40.0
176
     1
 92
        8
176
     1
 66
     7
176
     1
 43
1.0
176
     1
 76
     1
176
     1
 77
     6
176
     1
 78
     2
176
     1
 67
     7
176
     1
 79
     3
176
     1
170
     0
176
     1
171
     0
176
     1
290
     0
176
     1
 93
        1
176
     1
 44
0.0
176
     1
173
     0
176
     1
  0
VISUALSTYLE
  5
35
102
{ACAD_REACTORS
330
2A
102
}
330
2A
100
AcDbVisualStyle
  2
Dim
 70
    11
177
     2
291
     1
 71
     2
176
     1
 72
     2
176
     1
 73
     0
176
     1
 90
        0
176
     1
 40
-0.6
176
     1
 41
-30.0
176
     1
 62
     5
 63
     7
421
 16777215
176
     1
 74
     1
176
     1
 91
        4
176
     1
 64
     7
176
     1
 65
   257
176
     1
 75
     1
176
     1
175
     1
176
     1
 42
1.0
176
     1
 92
        8
176
     1
 66
     7
176
     1
 43
1.0
176
     1
 76
     1
176
     1
 77
     6
176
     1
 78
     2
176
     1
 67
     7
176
     1
 79
     5
176
     1
170
     0
176
     1
171
     0
176
     1
290
     0
176
     1
 93
        1
176
     1
 44
-50.0
176
     1
173
     0
176
     1
  0
VISUALSTYLE
  5
39
102
{ACAD_REACTORS
330
2A
102
}
330
2A
100
AcDbVisualStyle
  2
Facepattern
 70
    15
177
     2
291
     1
 71
     2
176
     1
 72
     2
176
     1
 73
     0
176
     1
 90
        0
176
     1
 40
-0.6
176
     1
 41
-30.0
176
     1
 62
     5
 63
     7
421
 16777215
176
     1
 74
     1
176
     1
 91
        4
176
     1
 64
     7
176
     1
 65
   257
176
     1
 75
     1
176
     1
175
     1
176
     1
 42
1.0
176
     1
 92
        8
176
     1
 66
     7
176
     1
 43
1.0
176
     1
 76
     1
176
     1
 77
     6
176
     1
 78
     2
176
     1
 67
     7
176
     1
 79
     5
176
     1
170
     0
176
     1
171
     0
176
     1
290
     0
176
     1
 93
        1
176
     1
 44
0.0
176
     1
173
     0
176
     1
  0
VISUALSTYLE
  5
2B
102
{ACAD_REACTORS
330
2A
102
}
330
2A
100
AcDbVisualStyle
  2
Flat
 70
     0
177
     2
291
     1
 71
     2
176
     1
 72
     1
176
     1
 73
     1
176
     1
 90
        2
176
     1
 40
-0.6
176
     1
 41
30.0
176
     1
 62
     5
 63
     7
421
 16777215
176
     1
 74
     0
176
     1
 91
        4
176
     1
 64
     7
176
     1
 65
   257
176
     1
 75
     1
176
     1
175
     1
176
     1
 42
1.0
176
     1
 92
        8
176
     1
 66
     7
176
     1
 43
1.0
176
     1
 76
     1
176
     1
 77
     6
176
     1
 78
     2
176
     1
 67
     7
176
     1
 79
     5
176
     1
170
     0
176
     1
171
     0
176
     1
290
     0
176
     1
 93
       13
176
     1
 44
0.0
176
     1
173
     0
176
     1
  0
VISUALSTYLE
  5
2C
102
{ACAD_REACTORS
330
2A
102
}
330
2A
100
AcDbVisualStyle
  2
FlatWithEdges
 70
     1
177
     2
291
     1
 71
     2
176
     1
 72
     1
176
     1
 73
     1
176
     1
 90
        2
176
     1
 40
-0.6
176
     1
 41
30.0
176
     1
 62
     5
 63
     7
421
 16777215
176
     1
 74
     1
176
     1
 91
        4
176
     1
 64
     7
176
     1
 65
   257
176
     1
 75
     1
176
     1
175
     1
176
     1
 42
1.0
176
     1
 92
        0
176
     1
 66
   257
176
     1
 43
1.0
176
     1
 76
     1
176
     1
 77
     6
176
     1
 78
     2
176
     1
 67
     7
176
     1
 79
     5
176
     1
170
     0
176
     1
171
     0
176
     1
290
     0
176
     1
 93
       13
176
     1
 44
0.0
176
     1
173
     0
176
     1
  0
VISUALSTYLE
  5
2D
102
{ACAD_REACTORS
330
2A
102
}
330
2A
100
AcDbVisualStyle
  2
Gouraud
 70
     2
177
     2
291
     1
 71
     2
176
     1
 72
     2
176
     1
 73
     1
176
     1
 90
        2
176
     1
 40
-0.6
176
     1
 41
30.0
176
     1
 62
     5
 63
     7
421
 16777215
176
     1
 74
     0
176
     1
 91
        4
176
     1
 64
     7
176
     1
 65
   257
176
     1
 75
     1
176
     1
175
     1
176
     1
 42
1.0
176
     1
 92
        0
176
     1
 66
     7
176
     1
 43
1.0
176
     1
 76
     1
176
     1
 77
     6
176
     1
 78
     2
176
     1
 67
     7
176
     1
 79
     5
176
     1
170
     0
176
     1
171
     0
176
     1
290
     0
176
     1
 93
       13
176
     1
 44
0.0
176
     1
173
     0
176
     1
  0
VISUALSTYLE
  5
2E
102
{ACAD_REACTORS
330
2A
102
}
330
2A
100
AcDbVisualStyle
  2
GouraudWithEdges
 70
     3
177
     2
291
     1
 71
     2
176
     1
 72
     2
176
     1
 73
     1
176
     1
 90
        2
176
     1
 40
-0.6
176
     1
 41
30.0
176
     1
 62
     5
 63
     7
421
 16777215
176
     1
 74
     1
176
     1
 91
        4
176
     1
 64
     7
176
     1
 65
   257
176
     1
 75
     1
176
     1
175
     1
176
     1
 42
1.0
176
     1
 92
        0
176
     1
 66
   257
176
     1
 43
1.0
176
     1
 76
     1
176
     1
 77
     6
176
     1
 78
     2
176
     1
 67
     7
176
     1
 79
     5
176
     1
170
     0
176
     1
171
     0
176
     1
290
     0
176
     1
 93
       13
176
     1
 44
0.0
176
     1
173
     0
176
     1
  0
VISUALSTYLE
  5
38
102
{ACAD_REACTORS
330
2A
102
}
330
2A
100
AcDbVisualStyle
  2
Linepattern
 70
    14
177
     2
291
     1
 71
     2
176
     1
 72
     2
176
     1
 73
     0
176
     1
 90
        0
176
     1
 40
-0.6
176
     1
 41
-30.0
176
     1
 62
     5
 63
     7
421
 16777215
176
     1
 74
     1
176
     1
 91
        4
176
     1
 64
     7
176
     1
 65
   257
176
     1
 75
     7
176
     1
175
     7
176
     1
 42
1.0
176
     1
 92
        8
176
     1
 66
     7
176
     1
 43
1.0
176
     1
 76
     1
176
     1
 77
     6
176
     1
 78
     2
176
     1
 67
     7
176
     1
 79
     5
176
     1
170
     0
176
     1
171
     0
176
     1
290
     0
176
     1
 93
        1
176
     1
 44
0.0
176
     1
173
     0
176
     1
  0
VISUALSTYLE
  5
33
102
{ACAD_REACTORS
330
2A
102
}
330
2A
100
AcDbVisualStyle
  2
Realistic
 70
     8
177
     2
291
     0
 71
     2
176
     1
 72
     2
176
     1
 73
     0
176
     1
 90
        0
176
     1
 40
-0.6
176
     1
 41
-30.0
176
     1
 62
     5
 63
     7
421
 16777215
176
     1
 74
     1
176
     1
 91
        0
176
     1
 64
     7
176
     1
 65
   257
176
     1
 75
     1
176
     1
175
     1
176
     1
 42
1.0
176
     1
 92
        8
176
     1
 66
     8
424
  7895160
176
     1
 43
1.0
176
     1
 76
     1
176
     1
 77
     6
176
     1
 78
     2
176
     1
 67
     7
176
     1
 79
     5
176
     1
170
     0
176
     1
171
     0
176
     1
290
     0
176
     1
 93
       13
176
     1
 44
0.0
176
     1
173
     0
176
     1
  0
VISUALSTYLE
  5
37
102
{ACAD_REACTORS
330
2A
102
}
330
2A
100
AcDbVisualStyle
  2
Thicken
 70
    13
177
     2
291
     1
 71
     2
176
     1
 72
     2
176
     1
 73
     0
176
     1
 90
        0
176
     1
 40
-0.6
176
     1
 41
-30.0
176
     1
 62
     5
 63
     7
421
 16777215
176
     1
 74
     1
176
     1
 91
        4
176
     1
 64
     7
176
     1
 65
   257
176
     1
 75
     1
176
     1
175
     1
176
     1
 42
1.0
176
     1
 92
       12
176
     1
 66
     7
176
     1
 43
1.0
176
     1
 76
     1
176
     1
 77
     6
176
     1
 78
     2
176
     1
 67
     7
176
     1
 79
     5
176
     1
170
     0
176
     1
171
     0
176
     1
290
     0
176
     1
 93
        1
176
     1
 44
0.0
176
     1
173
     0
176
     1
  0
ENDSEC
  0
EOF
