  0
SECTION
  2
HEADER
  9
$ACADVER
  1
AC1024
  9
$ACADMAINTVER
 70
     6
  9
$DWGCODEPAGE
  3
UNDEFINED
  9
$INSBASE
 10
0.0
 20
0.0
 30
0.0
  9
$EXTMIN
 10
1.000000000000000E+20
 20
1.000000000000000E+20
 30
1.000000000000000E+20
  9
$EXTMAX
 10
-1.000000000000000E+20
 20
-1.000000000000000E+20
 30
-1.000000000000000E+20
  9
$LIMMIN
 10
0.0
 20
0.0
  9
$LIMMAX
 10
12.0
 20
9.0
  9
$ORTHOMODE
 70
     0
  9
$REGENMODE
 70
     1
  9
$FILLMODE
 70
     1
  9
$QTEXTMODE
 70
     0
  9
$MIRRTEXT
 70
     1
  9
$LTSCALE
 40
1.0
  9
$ATTMODE
 70
     1
  9
$TEXTSIZE
 40
0.2
  9
$TRACEWID
 40
0.05
  9
$TEXTSTYLE
  7
Standard
  9
$CLAYER
  8
0
  9
$CELTYPE
  6
ByLayer
  9
$CECOLOR
 62
   256
  9
$CELTSCALE
 40
1.0
  9
$DISPSILH
 70
     0
  9
$DIMSCALE
 40
1.0
  9
$DIMASZ
 40
0.18
  9
$DIMEXO
 40
0.0625
  9
$DIMDLI
 40
0.38
  9
$DIMRND
 40
0.0
  9
$DIMDLE
 40
0.0
  9
$DIMEXE
 40
0.18
  9
$DIMTP
 40
0.0
  9
$DIMTM
 40
0.0
  9
$DIMTXT
 40
0.18
  9
$DIMCEN
 40
0.09
  9
$DIMTSZ
 40
0.0
  9
$DIMTOL
 70
     0
  9
$DIMLIM
 70
     0
  9
$DIMTIH
 70
     1
  9
$DIMTOH
 70
     1
  9
$DIMSE1
 70
     0
  9
$DIMSE2
 70
     0
  9
$DIMTAD
 70
     0
  9
$DIMZIN
 70
     0
  9
$DIMBLK
  1

  9
$DIMASO
 70
     1
  9
$DIMSHO
 70
     1
  9
$DIMPOST
  1

  9
$DIMAPOST
  1

  9
$DIMALT
 70
     0
  9
$DIMALTD
 70
     2
  9
$DIMALTF
 40
25.4
  9
$DIMLFAC
 40
1.0
  9
$DIMTOFL
 70
     0
  9
$DIMTVP
 40
0.0
  9
$DIMTIX
 70
     0
  9
$DIMSOXD
 70
     0
  9
$DIMSAH
 70
     0
  9
$DIMBLK1
  1

  9
$DIMBLK2
  1

  9
$DIMSTYLE
  2
Standard
  9
$DIMCLRD
 70
     0
  9
$DIMCLRE
 70
     0
  9
$DIMCLRT
 70
     0
  9
$DIMTFAC
 40
1.0
  9
$DIMGAP
 40
0.09
  9
$DIMJUST
 70
     0
  9
$DIMSD1
 70
     0
  9
$DIMSD2
 70
     0
  9
$DIMTOLJ
 70
     1
  9
$DIMTZIN
 70
     0
  9
$DIMALTZ
 70
     0
  9
$DIMALTTZ
 70
     0
  9
$DIMUPT
 70
     0
  9
$DIMDEC
 70
     4
  9
$DIMTDEC
 70
     4
  9
$DIMALTU
 70
     2
  9
$DIMALTTD
 70
     2
  9
$DIMTXSTY
  7
Standard
  9
$DIMAUNIT
 70
     0
  9
$DIMADEC
 70
     0
  9
$DIMALTRND
 40
0.0
  9
$DIMAZIN
 70
     0
  9
$DIMDSEP
 70
    46
  9
$DIMATFIT
 70
     3
  9
$DIMFRAC
 70
     0
  9
$DIMLDRBLK
  1

  9
$DIMLUNIT
 70
     2
  9
$DIMLWD
 70
    -2
  9
$DIMLWE
 70
    -2
  9
$DIMTMOVE
 70
     0
  9
$DIMFXL
 40
1.0
  9
$DIMFXLON
 70
     0
  9
$DIMJOGANG
 40
0.7853981633974483
  9
$DIMTFILL
 70
     0
  9
$DIMTFILLCLR
 70
     0
  9
$DIMARCSYM
 70
     0
  9
$DIMLTYPE
  6

  9
$DIMLTEX1
  6

  9
$DIMLTEX2
  6

  9
$DIMTXTDIRECTION
 70
     0
  9
$LUNITS
 70
     2
  9
$LUPREC
 70
     4
  9
$SKETCHINC
 40
0.1
  9
$FILLETRAD
 40
0.5
  9
$AUNITS
 70
     0
  9
$AUPREC
 70
     0
  9
$MENU
  1
.
  9
$ELEVATION
 40
0.0
  9
$PELEVATION
 40
0.0
  9
$THICKNESS
 40
0.0
  9
$LIMCHECK
 70
     0
  9
$CHAMFERA
 40
0.5
  9
$CHAMFERB
 40
0.5
  9
$CHAMFERC
 40
1.0
  9
$CHAMFERD
 40
0.0
  9
$SKPOLY
 70
     0
  9
$TDCREATE
 40
2457917.617083333
  9
$TDUCREATE
 40
2457917.242083333
  9
$TDUPDATE
 40
2457917.617083333
  9
$TDUUPDATE
 40
2457917.242083333
  9
$TDINDWG
 40
0.0000000116
  9
$TDUSRTIMER
 40
0.0000000116
  9
$USRTIMER
 70
     1
  9
$ANGBASE
 50
0.0
  9
$ANGDIR
 70
     0
  9
$PDMODE
 70
     0
  9
$PDSIZE
 40
0.0
  9
$PLINEWID
 40
0.0
  9
$SPLFRAME
 70
     0
  9
$SPLINETYPE
 70
     6
  9
$SPLINESEGS
 70
     8
  9
$HANDSEED
  5
E8
  9
$SURFTAB1
 70
     6
  9
$SURFTAB2
 70
     6
  9
$SURFTYPE
 70
     6
  9
$SURFU
 70
     6
  9
$SURFV
 70
     6
  9
$UCSBASE
  2

  9
$UCSNAME
  2

  9
$UCSORG
 10
0.0
 20
0.0
 30
0.0
  9
$UCSXDIR
 10
1.0
 20
0.0
 30
0.0
  9
$UCSYDIR
 10
0.0
 20
1.0
 30
0.0
  9
$UCSORTHOREF
  2

  9
$UCSORTHOVIEW
 70
     0
  9
$UCSORGTOP
 10
0.0
 20
0.0
 30
0.0
  9
$UCSORGBOTTOM
 10
0.0
 20
0.0
 30
0.0
  9
$UCSORGLEFT
 10
0.0
 20
0.0
 30
0.0
  9
$UCSORGRIGHT
 10
0.0
 20
0.0
 30
0.0
  9
$UCSORGFRONT
 10
0.0
 20
0.0
 30
0.0
  9
$UCSORGBACK
 10
0.0
 20
0.0
 30
0.0
  9
$PUCSBASE
  2

  9
$PUCSNAME
  2

  9
$PUCSORG
 10
0.0
 20
0.0
 30
0.0
  9
$PUCSXDIR
 10
1.0
 20
0.0
 30
0.0
  9
$PUCSYDIR
 10
0.0
 20
1.0
 30
0.0
  9
$PUCSORTHOREF
  2

  9
$PUCSORTHOVIEW
 70
     0
  9
$PUCSORGTOP
 10
0.0
 20
0.0
 30
0.0
  9
$PUCSORGBOTTOM
 10
0.0
 20
0.0
 30
0.0
  9
$PUCSORGLEFT
 10
0.0
 20
0.0
 30
0.0
  9
$PUCSORGRIGHT
 10
0.0
 20
0.0
 30
0.0
  9
$PUCSORGFRONT
 10
0.0
 20
0.0
 30
0.0
  9
$PUCSORGBACK
 10
0.0
 20
0.0
 30
0.0
  9
$USERI1
 70
     0
  9
$USERI2
 70
     0
  9
$USERI3
 70
     0
  9
$USERI4
 70
     0
  9
$USERI5
 70
     0
  9
$USERR1
 40
0.0
  9
$USERR2
 40
0.0
  9
$USERR3
 40
0.0
  9
$USERR4
 40
0.0
  9
$USERR5
 40
0.0
  9
$WORLDVIEW
 70
     1
  9
$SHADEDGE
 70
     3
  9
$SHADEDIF
 70
    70
  9
$TILEMODE
 70
     1
  9
$MAXACTVP
 70
    64
  9
$PINSBASE
 10
0.0
 20
0.0
 30
0.0
  9
$PLIMCHECK
 70
     0
  9
$PEXTMIN
 10
1.000000000000000E+20
 20
1.000000000000000E+20
 30
1.000000000000000E+20
  9
$PEXTMAX
 10
-1.000000000000000E+20
 20
-1.000000000000000E+20
 30
-1.000000000000000E+20
  9
$PLIMMIN
 10
0.0
 20
0.0
  9
$PLIMMAX
 10
12.0
 20
9.0
  9
$UNITMODE
 70
     0
  9
$VISRETAIN
 70
     1
  9
$PLINEGEN
 70
     0
  9
$PSLTSCALE
 70
     1
  9
$TREEDEPTH
 70
  3020
  9
$CMLSTYLE
  2
Standard
  9
$CMLJUST
 70
     0
  9
$CMLSCALE
 40
1.0
  9
$PROXYGRAPHICS
 70
     1
  9
$MEASUREMENT
 70
     0
  9
$CELWEIGHT
370
    -1
  9
$ENDCAPS
280
     0
  9
$JOINSTYLE
280
     0
  9
$LWDISPLAY
290
     1
  9
$INSUNITS
 70
     1
  9
$HYPERLINKBASE
  1

  9
$STYLESHEET
  1

  9
$XEDIT
290
     1
  9
$CEPSNTYPE
380
     0
  9
$PSTYLEMODE
290
     1
  9
$FINGERPRINTGUID
  2
{681A076C-462F-FC7B-3178-E6DDA9EBA28B}
  9
$VERSIONGUID
  2
{FAEB1C32-E019-11D5-929B-00C0DF256EC4}
  9
$EXTNAMES
290
     1
  9
$PSVPSCALE
 40
0.0
  9
$OLESTARTUP
290
     0
  9
$SORTENTS
280
   127
  9
$INDEXCTL
280
     0
  9
$HIDETEXT
280
     1
  9
$XCLIPFRAME
280
     2
  9
$HALOGAP
280
     0
  9
$OBSCOLOR
 70
   257
  9
$OBSLTYPE
280
     0
  9
$INTERSECTIONDISPLAY
280
     0
  9
$INTERSECTIONCOLOR
 70
   257
  9
$DIMASSOC
280
     2
  9
$PROJECTNAME
  1

  9
$CAMERADISPLAY
290
     0
  9
$LENSLENGTH
 40
50.0
  9
$CAMERAHEIGHT
 40
0.0
  9
$STEPSPERSEC
 40
2.0
  9
$STEPSIZE
 40
6.0
  9
$3DDWFPREC
 40
2.0
  9
$PSOLWIDTH
 40
0.25
  9
$PSOLHEIGHT
 40
4.0
  9
$LOFTANG1
 40
1.570796326794897
  9
$LOFTANG2
 40
1.570796326794897
  9
$LOFTMAG1
 40
0.0
  9
$LOFTMAG2
 40
0.0
  9
$LOFTPARAM
 70
     7
  9
$LOFTNORMALS
280
     1
  9
$LATITUDE
 40
37.795
  9
$LONGITUDE
 40
-122.394
  9
$NORTHDIRECTION
 40
0.0
  9
$TIMEZONE
 70
 -8000
  9
$LIGHTGLYPHDISPLAY
280
     1
  9
$TILEMODELIGHTSYNCH
280
     1
  9
$CMATERIAL
347
3C
  9
$SOLIDHIST
280
     1
  9
$SHOWHIST
280
     1
  9
$DWFFRAME
280
     2
  9
$DGNFRAME
280
     2
  9
$REALWORLDSCALE
290
     1
  9
$INTERFERECOLOR
 62
   256
  9
$CSHADOW
280
     0
  9
$SHADOWPLANELOCATION
 40
0.0
  0
ENDSEC
  0
SECTION
  2
CLASSES
  0
CLASS
  1
ACDBDICTIONARYWDFLT
  2
AcDbDictionaryWithDefault
  3
ObjectDBX Classes
 90
        0
 91
        4
280
     0
281
     0
  0
CLASS
  1
VISUALSTYLE
  2
AcDbVisualStyle
  3
ObjectDBX Classes
 90
     4095
 91
        4
280
     0
281
     0
  0
CLASS
  1
MATERIAL
  2
AcDbMaterial
  3
ObjectDBX Classes
 90
     1153
 91
        4
280
     0
281
     0
  0
CLASS
  1
SUN
  2
AcDbSun
  3
SCENEOE
 90
     1024
 91
        4
280
     0
281
     0
  0
ENDSEC
  0
SECTION
  2
TABLES
  0
TABLE
  2
VPORT
  5
8
330
0
100
AcDbSymbolTable
 70
     1
  0
VPORT
  5
29
330
8
100
AcDbSymbolTableRecord
100
AcDbViewportTableRecord
  2
*Active
 70
     0
 10
0.0
 20
0.0
 11
1.0
 21
1.0
 12
0.0
 22
0.0
 13
0.0
 23
0.0
 14
0.5
 24
0.5
 15
0.5
 25
0.5
 16
0.0
 26
0.0
 36
1.0
 17
91.00082462281999
 27
-128.4993055234307
 37
0.0
 40
256.9986110468615
 41
0.7081814508812795
 42
50.0
 43
0.0
 44
0.0
 50
0.0
 51
0.0
 71
     0
 72
   100
 73
     1
 74
     3
 75
     0
 76
     0
 77
     0
 78
     0
281
     0
 65
     1
110
0.0
120
0.0
130
0.0
111
1.0
121
0.0
131
0.0
112
0.0
122
1.0
132
0.0
 79
     0
146
0.0
 60
     3
 61
     5
292
     1
282
     1
141
0.0
142
0.0
 63
   250
361
3F
  0
ENDTAB
  0
TABLE
  2
LTYPE
  5
5
330
0
100
AcDbSymbolTable
 70
     1
  0
LTYPE
  5
14
330
5
100
AcDbSymbolTableRecord
100
AcDbLinetypeTableRecord
  2
ByBlock
 70
     0
  3

 72
    65
 73
     0
 40
0.0
  0
LTYPE
  5
15
330
5
100
AcDbSymbolTableRecord
100
AcDbLinetypeTableRecord
  2
ByLayer
 70
     0
  3

 72
    65
 73
     0
 40
0.0
  0
LTYPE
  5
16
330
5
100
AcDbSymbolTableRecord
100
AcDbLinetypeTableRecord
  2
Continuous
 70
     0
  3
Solid line
 72
    65
 73
     0
 40
0.0
  0
ENDTAB
  0
TABLE
  2
LAYER
  5
2
330
0
100
AcDbSymbolTable
 70
     2
  0
LAYER
  5
10
330
2
100
AcDbSymbolTableRecord
100
AcDbLayerTableRecord
  2
0
 70
     0
 62
     7
  6
Continuous
370
    -3
390
F
347
3E
  0
LAYER
  5
40
330
2
100
AcDbSymbolTableRecord
100
AcDbLayerTableRecord
  2
_U+30EC_U+30A4_U+30E4_U+30FC 1
 70
     0
 62
     7
  6
Continuous
370
    -3
390
F
347
3E
  0
ENDTAB
  0
TABLE
  2
STYLE
  5
3
330
0
100
AcDbSymbolTable
 70
     1
  0
STYLE
  5
11
330
3
100
AcDbSymbolTableRecord
100
AcDbTextStyleTableRecord
  2
Standard
 70
     0
 40
0.0
 41
1.0
 50
0.0
 71
     0
 42
0.2
  3
txt
  4

  0
ENDTAB
  0
TABLE
  2
VIEW
  5
6
330
0
100
AcDbSymbolTable
 70
     0
  0
ENDTAB
  0
TABLE
  2
UCS
  5
7
330
0
100
AcDbSymbolTable
 70
     0
  0
ENDTAB
  0
TABLE
  2
APPID
  5
9
330
0
100
AcDbSymbolTable
 70
     1
  0
APPID
  5
12
330
9
100
AcDbSymbolTableRecord
100
AcDbRegAppTableRecord
  2
ACAD
 70
     0
  0
ENDTAB
  0
TABLE
  2
DIMSTYLE
  5
A
330
0
100
AcDbSymbolTable
 70
     1
100
AcDbDimStyleTable
  0
DIMSTYLE
105
27
330
A
100
AcDbSymbolTableRecord
100
AcDbDimStyleTableRecord
  2
Standard
 70
     0
178
     0
340
11
  0
ENDTAB
  0
TABLE
  2
BLOCK_RECORD
  5
1
330
0
100
AcDbSymbolTable
 70
     6
  0
BLOCK_RECORD
  5
1F
330
1
100
AcDbSymbolTableRecord
100
AcDbBlockTableRecord
  2
*Model_Space
340
22
 70
     0
280
     1
281
     0
  0
BLOCK_RECORD
  5
1B
330
1
100
AcDbSymbolTableRecord
100
AcDbBlockTableRecord
  2
*Paper_Space
340
1E
 70
     0
280
     1
281
     0
  0
BLOCK_RECORD
  5
23
330
1
100
AcDbSymbolTableRecord
100
AcDbBlockTableRecord
  2
*Paper_Space0
340
26
 70
     0
280
     1
281
     0
  0
BLOCK_RECORD
  5
8F
330
1
100
AcDbSymbolTableRecord
100
AcDbBlockTableRecord
  2
block 2
340
0
102
{BLKREFS
331
90
102
}
 70
     0
280
     1
281
     0
  0
BLOCK_RECORD
  5
A1
330
1
100
AcDbSymbolTableRecord
100
AcDbBlockTableRecord
  2
block 3
340
0
102
{BLKREFS
331
A2
102
}
 70
     0
280
     1
281
     0
  0
BLOCK_RECORD
  5
B3
330
1
100
AcDbSymbolTableRecord
100
AcDbBlockTableRecord
  2
block 4
340
0
102
{BLKREFS
331
B4
102
}
 70
     0
280
     1
281
     0
  0
BLOCK_RECORD
  5
C4
330
1
100
AcDbSymbolTableRecord
100
AcDbBlockTableRecord
  2
block 5
340
0
102
{BLKREFS
331
C5
102
}
 70
     0
280
     1
281
     0
  0
BLOCK_RECORD
  5
D4
330
1
100
AcDbSymbolTableRecord
100
AcDbBlockTableRecord
  2
block 6
340
0
102
{BLKREFS
331
D5
102
}
 70
     0
280
     1
281
     0
  0
ENDTAB
  0
ENDSEC
  0
SECTION
  2
BLOCKS
  0
BLOCK
  5
20
330
1F
100
AcDbEntity
  8
0
100
AcDbBlockBegin
  2
*Model_Space
 70
     0
 10
0.0
 20
0.0
 30
0.0
  3
*Model_Space
  1

  0
ENDBLK
  5
21
330
1F
100
AcDbEntity
  8
0
100
AcDbBlockEnd
  0
BLOCK
  5
1C
330
1B
100
AcDbEntity
 67
     1
  8
0
100
AcDbBlockBegin
  2
*Paper_Space
 70
     0
 10
0.0
 20
0.0
 30
0.0
  3
*Paper_Space
  1

  0
ENDBLK
  5
1D
330
1B
100
AcDbEntity
 67
     1
  8
0
100
AcDbBlockEnd
  0
BLOCK
  5
24
330
23
100
AcDbEntity
  8
0
100
AcDbBlockBegin
  2
*Paper_Space0
 70
     0
 10
0.0
 20
0.0
 30
0.0
  3
*Paper_Space0
  1

  0
ENDBLK
  5
25
330
23
100
AcDbEntity
  8
0
100
AcDbBlockEnd
  0
BLOCK
  5
91
330
8F
100
AcDbEntity
  8
0
100
AcDbBlockBegin
  2
block 2
 70
     0
 10
0.0
 20
0.0
 30
0.0
  3
block 2
  1

  0
SPLINE
  5
93
330
8F
100
AcDbEntity
  8
_U+30EC_U+30A4_U+30E4_U+30FC 1
370
     0
100
AcDbSpline
210
0.0
220
0.0
230
1.0
 70
    11
 71
     3
 72
    26
 73
    22
 74
     0
 42
0.0000000001
 43
0.0000000001
 12
1.0
 22
0.0
 32
0.0
 13
1.0
 23
0.0
 33
0.0
 40
0.0
 40
0.0
 40
0.0
 40
0.0
 40
1.0
 40
1.0
 40
1.0
 40
2.0
 40
2.0
 40
2.0
 40
3.0
 40
3.0
 40
3.0
 40
4.0
 40
4.0
 40
4.0
 40
5.0
 40
5.0
 40
5.0
 40
6.0
 40
6.0
 40
6.0
 40
7.0
 40
7.0
 40
7.0
 40
7.0
 10
76.70298392179647
 20
-119.7339490803096
 30
0.0
 10
76.70298392179647
 20
-119.7339490803096
 30
0.0
 10
75.5988308187739
 20
-119.7339490803096
 30
0.0
 10
75.5988308187739
 20
-119.7339490803096
 30
0.0
 10
75.5988308187739
 20
-119.7339490803096
 30
0.0
 10
75.5988308187739
 20
-120.0639892277965
 30
0.0
 10
75.5988308187739
 20
-120.0639892277965
 30
0.0
 10
75.5988308187739
 20
-120.0639892277965
 30
0.0
 10
75.45069171290817
 20
-120.0639892277965
 30
0.0
 10
75.45069171290817
 20
-120.0639892277965
 30
0.0
 10
75.43587780232158
 20
-119.7318820230184
 30
0.0
 10
75.27292478586928
 20
-119.6853732339676
 30
0.0
 10
75.15854761575898
 20
-119.6557454127944
 30
0.0
 10
75.15854761575898
 20
-119.6557454127944
 30
0.0
 10
75.15854761575898
 20
-119.5096733642198
 30
0.0
 10
75.15854761575898
 20
-119.5096733642198
 30
0.0
 10
75.15854761575898
 20
-119.5096733642198
 30
0.0
 10
76.70298392179647
 20
-119.5096733642198
 30
0.0
 10
76.70298392179647
 20
-119.5096733642198
 30
0.0
 10
76.70298392179647
 20
-119.5096733642198
 30
0.0
 10
76.70298392179647
 20
-119.7339490803096
 30
0.0
 10
76.70298392179647
 20
-119.7339490803096
 30
0.0
  0
HATCH
  5
94
330
8F
100
AcDbEntity
  8
_U+30EC_U+30A4_U+30E4_U+30FC 1
 62
   179
420
  2234388
100
AcDbHatch
 10
0.0
 20
0.0
 30
0.0
210
0.0
220
0.0
230
1.0
  2
SOLID
 70
     1
 71
     0
 91
        1
 92
        1
 93
        1
 72
     4
 94
        3
 73
     0
 74
     1
 95
       26
 96
       22
 40
0.0
 40
0.0
 40
0.0
 40
0.0
 40
1.0
 40
1.0
 40
1.0
 40
2.0
 40
2.0
 40
2.0
 40
3.0
 40
3.0
 40
3.0
 40
4.0
 40
4.0
 40
4.0
 40
5.0
 40
5.0
 40
5.0
 40
6.0
 40
6.0
 40
6.0
 40
7.0
 40
7.0
 40
7.0
 40
7.0
 10
76.70298392179647
 20
-119.7339490803096
 10
76.70298392179647
 20
-119.7339490803096
 10
75.5988308187739
 20
-119.7339490803096
 10
75.5988308187739
 20
-119.7339490803096
 10
75.5988308187739
 20
-119.7339490803096
 10
75.5988308187739
 20
-120.0639892277965
 10
75.5988308187739
 20
-120.0639892277965
 10
75.5988308187739
 20
-120.0639892277965
 10
75.45069171290817
 20
-120.0639892277965
 10
75.45069171290817
 20
-120.0639892277965
 10
75.43587780232158
 20
-119.7318820230184
 10
75.27292478586928
 20
-119.6853732339676
 10
75.15854761575898
 20
-119.6557454127944
 10
75.15854761575898
 20
-119.6557454127944
 10
75.15854761575898
 20
-119.5096733642198
 10
75.15854761575898
 20
-119.5096733642198
 10
75.15854761575898
 20
-119.5096733642198
 10
76.70298392179647
 20
-119.5096733642198
 10
76.70298392179647
 20
-119.5096733642198
 10
76.70298392179647
 20
-119.5096733642198
 10
76.70298392179647
 20
-119.7339490803096
 10
76.70298392179647
 20
-119.7339490803096
 97
        0
 97
        0
 75
     2
 76
     1
 98
        0
  0
ENDBLK
  5
92
330
8F
100
AcDbEntity
  8
0
100
AcDbBlockEnd
  0
BLOCK
  5
A3
330
A1
100
AcDbEntity
  8
0
100
AcDbBlockBegin
  2
block 3
 70
     0
 10
0.0
 20
0.0
 30
0.0
  3
block 3
  1

  0
SPLINE
  5
A5
330
A1
100
AcDbEntity
  8
_U+30EC_U+30A4_U+30E4_U+30FC 1
370
     0
100
AcDbSpline
210
0.0
220
0.0
230
1.0
 70
    11
 71
     3
 72
    62
 73
    58
 74
     0
 42
0.0000000001
 43
0.0000000001
 12
1.0
 22
0.0
 32
0.0
 13
1.0
 23
0.0
 33
0.0
 40
0.0
 40
0.0
 40
0.0
 40
0.0
 40
1.0
 40
1.0
 40
1.0
 40
2.0
 40
2.0
 40
2.0
 40
3.0
 40
3.0
 40
3.0
 40
4.0
 40
4.0
 40
4.0
 40
5.0
 40
5.0
 40
5.0
 40
6.0
 40
6.0
 40
6.0
 40
7.0
 40
7.0
 40
7.0
 40
8.0
 40
8.0
 40
8.0
 40
9.0
 40
9.0
 40
9.0
 40
10.0
 40
10.0
 40
10.0
 40
11.0
 40
11.0
 40
11.0
 40
12.0
 40
12.0
 40
12.0
 40
13.0
 40
13.0
 40
13.0
 40
14.0
 40
14.0
 40
14.0
 40
15.0
 40
15.0
 40
15.0
 40
16.0
 40
16.0
 40
16.0
 40
17.0
 40
17.0
 40
17.0
 40
18.0
 40
18.0
 40
18.0
 40
19.0
 40
19.0
 40
19.0
 40
19.0
 10
106.7535183109852
 20
-133.2214979050627
 30
0.0
 10
106.7535183109852
 20
-133.3169270500041
 30
0.0
 10
106.7325032285252
 20
-133.5346570846719
 30
0.0
 10
106.5464680723217
 20
-133.6597140507865
 30
0.0
 10
106.4341579595026
 20
-133.7337836037193
 30
0.0
 10
106.3349392095274
 20
-133.7379177183016
 30
0.0
 10
106.2501898605902
 20
-133.7420518328839
 30
0.0
 10
106.2501898605902
 20
-133.7420518328839
 30
0.0
 10
106.2501898605902
 20
-133.5219102313765
 30
0.0
 10
106.2501898605902
 20
-133.5219102313765
 30
0.0
 10
106.3242594135231
 20
-133.5198431740853
 30
0.0
 10
106.5588704160686
 20
-133.5095078876296
 30
0.0
 10
106.5588704160686
 20
-133.2259765291935
 30
0.0
 10
106.5588704160686
 20
-133.088517219332
 30
0.0
 10
106.4892794872666
 20
-132.9358994893355
 30
0.0
 10
106.2608696565945
 20
-132.9358994893355
 30
0.0
 10
106.1444254291931
 20
-132.9358994893355
 30
0.0
 10
106.095849582851
 20
-132.9741400492217
 30
0.0
 10
106.0641547043867
 20
-133.005834927686
 30
0.0
 10
105.9900851514539
 20
-133.0799044806189
 30
0.0
 10
105.9773382981584
 20
-133.1963487080204
 30
0.0
 10
105.9773382981584
 20
-133.2511257262358
 30
0.0
 10
105.9773382981584
 20
-133.2704182609532
 30
0.0
 10
105.9794053554496
 20
-133.3062472539998
 30
0.0
 10
105.9835394700319
 20
-133.3338080178818
 30
0.0
 10
105.9835394700319
 20
-133.3338080178818
 30
0.0
 10
105.7888915751153
 20
-133.3338080178818
 30
0.0
 10
105.7888915751153
 20
-133.3338080178818
 30
0.0
 10
105.7954372565373
 20
-133.2955674579956
 30
0.0
 10
105.7975043138284
 20
-133.2535372930755
 30
0.0
 10
105.7975043138284
 20
-133.2469916116535
 30
0.0
 10
105.7975043138284
 20
-133.1815347974338
 30
0.0
 10
105.7761447218199
 20
-132.9827527879349
 30
0.0
 10
105.5394666619832
 20
-132.9827527879349
 30
0.0
 10
105.3616997349443
 20
-132.9827527879349
 30
0.0
 10
105.3065782071803
 20
-133.1136664163744
 30
0.0
 10
105.3065782071803
 20
-133.2239094719024
 30
0.0
 10
105.3065782071803
 20
-133.488148295621
 30
0.0
 10
105.5394666619832
 20
-133.4967610343342
 30
0.0
 10
105.6111246480764
 20
-133.5008951489164
 30
0.0
 10
105.6111246480764
 20
-133.5008951489164
 30
0.0
 10
105.6111246480764
 20
-133.7041557825462
 30
0.0
 10
105.6111246480764
 20
-133.7041557825462
 30
0.0
 10
105.4864121915103
 20
-133.6955430438331
 30
0.0
 10
105.1098632549725
 20
-133.6679822799511
 30
0.0
 10
105.1098632549725
 20
-133.2111626186069
 30
0.0
 10
105.1098632549725
 20
-132.9868869025172
 30
0.0
 10
105.2369872783783
 20
-132.7457302185497
 30
0.0
 10
105.5329209805612
 20
-132.7457302185497
 30
0.0
 10
105.7193006463132
 20
-132.7457302185497
 30
0.0
 10
105.8016384284107
 20
-132.8408148539426
 30
0.0
 10
105.8629611280482
 20
-132.9403781134663
 30
0.0
 10
105.8905218919301
 20
-132.8790554138289
 30
0.0
 10
105.9707926167365
 20
-132.6971543722076
 30
0.0
 10
106.2481228032991
 20
-132.6971543722076
 30
0.0
 10
106.5864311799506
 20
-132.6971543722076
 30
0.0
 10
106.7535183109852
 20
-132.9445122280486
 30
0.0
 10
106.7535183109852
 20
-133.2214979050627
 30
0.0
  0
HATCH
  5
A6
330
A1
100
AcDbEntity
  8
_U+30EC_U+30A4_U+30E4_U+30FC 1
 62
   179
420
  2234388
100
AcDbHatch
 10
0.0
 20
0.0
 30
0.0
210
0.0
220
0.0
230
1.0
  2
SOLID
 70
     1
 71
     0
 91
        1
 92
        1
 93
        1
 72
     4
 94
        3
 73
     0
 74
     1
 95
       62
 96
       58
 40
0.0
 40
0.0
 40
0.0
 40
0.0
 40
1.0
 40
1.0
 40
1.0
 40
2.0
 40
2.0
 40
2.0
 40
3.0
 40
3.0
 40
3.0
 40
4.0
 40
4.0
 40
4.0
 40
5.0
 40
5.0
 40
5.0
 40
6.0
 40
6.0
 40
6.0
 40
7.0
 40
7.0
 40
7.0
 40
8.0
 40
8.0
 40
8.0
 40
9.0
 40
9.0
 40
9.0
 40
10.0
 40
10.0
 40
10.0
 40
11.0
 40
11.0
 40
11.0
 40
12.0
 40
12.0
 40
12.0
 40
13.0
 40
13.0
 40
13.0
 40
14.0
 40
14.0
 40
14.0
 40
15.0
 40
15.0
 40
15.0
 40
16.0
 40
16.0
 40
16.0
 40
17.0
 40
17.0
 40
17.0
 40
18.0
 40
18.0
 40
18.0
 40
19.0
 40
19.0
 40
19.0
 40
19.0
 10
106.7535183109852
 20
-133.2214979050627
 10
106.7535183109852
 20
-133.3169270500041
 10
106.7325032285252
 20
-133.5346570846719
 10
106.5464680723217
 20
-133.6597140507865
 10
106.4341579595026
 20
-133.7337836037193
 10
106.3349392095274
 20
-133.7379177183016
 10
106.2501898605902
 20
-133.7420518328839
 10
106.2501898605902
 20
-133.7420518328839
 10
106.2501898605902
 20
-133.5219102313765
 10
106.2501898605902
 20
-133.5219102313765
 10
106.3242594135231
 20
-133.5198431740853
 10
106.5588704160686
 20
-133.5095078876296
 10
106.5588704160686
 20
-133.2259765291935
 10
106.5588704160686
 20
-133.088517219332
 10
106.4892794872666
 20
-132.9358994893355
 10
106.2608696565945
 20
-132.9358994893355
 10
106.1444254291931
 20
-132.9358994893355
 10
106.095849582851
 20
-132.9741400492217
 10
106.0641547043867
 20
-133.005834927686
 10
105.9900851514539
 20
-133.0799044806189
 10
105.9773382981584
 20
-133.1963487080204
 10
105.9773382981584
 20
-133.2511257262358
 10
105.9773382981584
 20
-133.2704182609532
 10
105.9794053554496
 20
-133.3062472539998
 10
105.9835394700319
 20
-133.3338080178818
 10
105.9835394700319
 20
-133.3338080178818
 10
105.7888915751153
 20
-133.3338080178818
 10
105.7888915751153
 20
-133.3338080178818
 10
105.7954372565373
 20
-133.2955674579956
 10
105.7975043138284
 20
-133.2535372930755
 10
105.7975043138284
 20
-133.2469916116535
 10
105.7975043138284
 20
-133.1815347974338
 10
105.7761447218199
 20
-132.9827527879349
 10
105.5394666619832
 20
-132.9827527879349
 10
105.3616997349443
 20
-132.9827527879349
 10
105.3065782071803
 20
-133.1136664163744
 10
105.3065782071803
 20
-133.2239094719024
 10
105.3065782071803
 20
-133.488148295621
 10
105.5394666619832
 20
-133.4967610343342
 10
105.6111246480764
 20
-133.5008951489164
 10
105.6111246480764
 20
-133.5008951489164
 10
105.6111246480764
 20
-133.7041557825462
 10
105.6111246480764
 20
-133.7041557825462
 10
105.4864121915103
 20
-133.6955430438331
 10
105.1098632549725
 20
-133.6679822799511
 10
105.1098632549725
 20
-133.2111626186069
 10
105.1098632549725
 20
-132.9868869025172
 10
105.2369872783783
 20
-132.7457302185497
 10
105.5329209805612
 20
-132.7457302185497
 10
105.7193006463132
 20
-132.7457302185497
 10
105.8016384284107
 20
-132.8408148539426
 10
105.8629611280482
 20
-132.9403781134663
 10
105.8905218919301
 20
-132.8790554138289
 10
105.9707926167365
 20
-132.6971543722076
 10
106.2481228032991
 20
-132.6971543722076
 10
106.5864311799506
 20
-132.6971543722076
 10
106.7535183109852
 20
-132.9445122280486
 10
106.7535183109852
 20
-133.2214979050627
 97
        0
 97
        0
 75
     2
 76
     1
 98
        0
  0
ENDBLK
  5
A4
330
A1
100
AcDbEntity
  8
0
100
AcDbBlockEnd
  0
BLOCK
  5
B5
330
B3
100
AcDbEntity
  8
0
100
AcDbBlockBegin
  2
block 4
 70
     0
 10
0.0
 20
0.0
 30
0.0
  3
block 4
  1

  0
SPLINE
  5
B7
330
B3
100
AcDbEntity
  8
_U+30EC_U+30A4_U+30E4_U+30FC 1
370
     0
100
AcDbSpline
210
0.0
220
0.0
230
1.0
 70
    11
 71
     3
 72
    26
 73
    22
 74
     0
 42
0.0000000001
 43
0.0000000001
 12
1.0
 22
0.0
 32
0.0
 13
1.0
 23
0.0
 33
0.0
 40
0.0
 40
0.0
 40
0.0
 40
0.0
 40
1.0
 40
1.0
 40
1.0
 40
2.0
 40
2.0
 40
2.0
 40
3.0
 40
3.0
 40
3.0
 40
4.0
 40
4.0
 40
4.0
 40
5.0
 40
5.0
 40
5.0
 40
6.0
 40
6.0
 40
6.0
 40
7.0
 40
7.0
 40
7.0
 40
7.0
 10
97.71117619084998
 20
-138.0680582337122
 30
0.0
 10
97.71117619084998
 20
-138.0680582337122
 30
0.0
 10
97.71117619084998
 20
-136.9639051306896
 30
0.0
 10
97.71117619084998
 20
-136.9639051306896
 30
0.0
 10
97.71117619084998
 20
-136.9639051306896
 30
0.0
 10
97.38113604336306
 20
-136.9639051306896
 30
0.0
 10
97.38113604336306
 20
-136.9639051306896
 30
0.0
 10
97.38113604336306
 20
-136.9639051306896
 30
0.0
 10
97.38113604336306
 20
-136.8157660248238
 30
0.0
 10
97.38113604336306
 20
-136.8157660248238
 30
0.0
 10
97.71324324814114
 20
-136.8009521142373
 30
0.0
 10
97.75975203719202
 20
-136.637999097785
 30
0.0
 10
97.78937985836517
 20
-136.5236219276747
 30
0.0
 10
97.78937985836517
 20
-136.5236219276747
 30
0.0
 10
97.93545190693975
 20
-136.5236219276747
 30
0.0
 10
97.93545190693975
 20
-136.5236219276747
 30
0.0
 10
97.93545190693975
 20
-136.5236219276747
 30
0.0
 10
97.93545190693975
 20
-138.0680582337122
 30
0.0
 10
97.93545190693975
 20
-138.0680582337122
 30
0.0
 10
97.93545190693975
 20
-138.0680582337122
 30
0.0
 10
97.71117619084998
 20
-138.0680582337122
 30
0.0
 10
97.71117619084998
 20
-138.0680582337122
 30
0.0
  0
HATCH
  5
B8
330
B3
100
AcDbEntity
  8
_U+30EC_U+30A4_U+30E4_U+30FC 1
 62
   179
420
  2234388
100
AcDbHatch
 10
0.0
 20
0.0
 30
0.0
210
0.0
220
0.0
230
1.0
  2
SOLID
 70
     1
 71
     0
 91
        1
 92
        1
 93
        1
 72
     4
 94
        3
 73
     0
 74
     1
 95
       26
 96
       22
 40
0.0
 40
0.0
 40
0.0
 40
0.0
 40
1.0
 40
1.0
 40
1.0
 40
2.0
 40
2.0
 40
2.0
 40
3.0
 40
3.0
 40
3.0
 40
4.0
 40
4.0
 40
4.0
 40
5.0
 40
5.0
 40
5.0
 40
6.0
 40
6.0
 40
6.0
 40
7.0
 40
7.0
 40
7.0
 40
7.0
 10
97.71117619084998
 20
-138.0680582337122
 10
97.71117619084998
 20
-138.0680582337122
 10
97.71117619084998
 20
-136.9639051306896
 10
97.71117619084998
 20
-136.9639051306896
 10
97.71117619084998
 20
-136.9639051306896
 10
97.38113604336306
 20
-136.9639051306896
 10
97.38113604336306
 20
-136.9639051306896
 10
97.38113604336306
 20
-136.9639051306896
 10
97.38113604336306
 20
-136.8157660248238
 10
97.38113604336306
 20
-136.8157660248238
 10
97.71324324814114
 20
-136.8009521142373
 10
97.75975203719202
 20
-136.637999097785
 10
97.78937985836517
 20
-136.5236219276747
 10
97.78937985836517
 20
-136.5236219276747
 10
97.93545190693975
 20
-136.5236219276747
 10
97.93545190693975
 20
-136.5236219276747
 10
97.93545190693975
 20
-136.5236219276747
 10
97.93545190693975
 20
-138.0680582337122
 10
97.93545190693975
 20
-138.0680582337122
 10
97.93545190693975
 20
-138.0680582337122
 10
97.71117619084998
 20
-138.0680582337122
 10
97.71117619084998
 20
-138.0680582337122
 97
        0
 97
        0
 75
     2
 76
     1
 98
        0
  0
SPLINE
  5
B9
330
B3
100
AcDbEntity
  8
_U+30EC_U+30A4_U+30E4_U+30FC 1
370
     0
100
AcDbSpline
210
0.0
220
0.0
230
1.0
 70
    11
 71
     3
 72
    29
 73
    25
 74
     0
 42
0.0000000001
 43
0.0000000001
 12
1.0
 22
0.0
 32
0.0
 13
1.0
 23
0.0
 33
0.0
 40
0.0
 40
0.0
 40
0.0
 40
0.0
 40
1.0
 40
1.0
 40
1.0
 40
2.0
 40
2.0
 40
2.0
 40
3.0
 40
3.0
 40
3.0
 40
4.0
 40
4.0
 40
4.0
 40
5.0
 40
5.0
 40
5.0
 40
6.0
 40
6.0
 40
6.0
 40
7.0
 40
7.0
 40
7.0
 40
8.0
 40
8.0
 40
8.0
 40
8.0
 10
99.33450518349972
 20
-137.8902913066733
 30
0.0
 10
99.22632918526287
 20
-138.0997531121764
 30
0.0
 10
99.0530408823548
 20
-138.1187011373453
 30
0.0
 10
98.93659665495336
 20
-138.1187011373453
 30
0.0
 10
98.77571069579218
 20
-138.1187011373453
 30
0.0
 10
98.63411727134842
 20
-138.0721923482945
 30
0.0
 10
98.53903263595552
 20
-137.8902913066733
 30
0.0
 10
98.4353352618495
 20
-137.6956434117567
 30
0.0
 10
98.41638723668063
 20
-137.45896535192
 30
0.0
 10
98.41638723668063
 20
-137.2960123354677
 30
0.0
 10
98.41638723668063
 20
-137.1520073441842
 30
0.0
 10
98.43326820455836
 20
-136.9001708642125
 30
0.0
 10
98.53903263595552
 20
-136.7013888547135
 30
0.0
 10
98.64686412464384
 20
-136.4984727306323
 30
0.0
 10
98.80775008380502
 20
-136.4750460813326
 30
0.0
 10
98.93659665495336
 20
-136.4750460813326
 30
0.0
 10
99.09541555682337
 20
-136.4750460813326
 30
0.0
 10
99.2390760385583
 20
-136.5194878130924
 30
0.0
 10
99.33450518349972
 20
-136.7013888547135
 30
0.0
 10
99.43372393347491
 20
-136.893969692339
 30
0.0
 10
99.4571505827746
 20
-137.1223795230111
 30
0.0
 10
99.4571505827746
 20
-137.2960123354677
 30
0.0
 10
99.4571505827746
 20
-137.4672335810846
 30
0.0
 10
99.43579099076605
 20
-137.6977104690478
 30
0.0
 10
99.33450518349972
 20
-137.8902913066733
 30
0.0
  0
SPLINE
  5
BA
330
B3
100
AcDbEntity
  8
_U+30EC_U+30A4_U+30E4_U+30FC 1
370
     0
100
AcDbSpline
210
0.0
220
0.0
230
1.0
 70
    11
 71
     3
 72
    17
 73
    13
 74
     0
 42
0.0000000001
 43
0.0000000001
 12
1.0
 22
0.0
 32
0.0
 13
1.0
 23
0.0
 33
0.0
 40
0.0
 40
0.0
 40
0.0
 40
0.0
 40
1.0
 40
1.0
 40
1.0
 40
2.0
 40
2.0
 40
2.0
 40
3.0
 40
3.0
 40
3.0
 40
4.0
 40
4.0
 40
4.0
 40
4.0
 10
98.93659665495336
 20
-136.6676269189581
 30
0.0
 10
98.68717174182127
 20
-136.6676269189581
 30
0.0
 10
98.64031844322187
 20
-136.9511582773942
 30
0.0
 10
98.64031844322187
 20
-137.2960123354677
 30
0.0
 10
98.64031844322187
 20
-137.6153726869503
 30
0.0
 10
98.67649194581699
 20
-137.9240532424287
 30
0.0
 10
98.93659665495336
 20
-137.9240532424287
 30
0.0
 10
99.18429902034282
 20
-137.9240532424287
 30
0.0
 10
99.23287486668484
 20
-137.6429334508323
 30
0.0
 10
99.23287486668484
 20
-137.2960123354677
 30
0.0
 10
99.23287486668484
 20
-136.9763074744365
 30
0.0
 10
99.19463430679856
 20
-136.6676269189581
 30
0.0
 10
98.93659665495336
 20
-136.6676269189581
 30
0.0
  0
HATCH
  5
BB
330
B3
100
AcDbEntity
  8
_U+30EC_U+30A4_U+30E4_U+30FC 1
 62
   179
420
  2234388
100
AcDbHatch
 10
0.0
 20
0.0
 30
0.0
210
0.0
220
0.0
230
1.0
  2
SOLID
 70
     1
 71
     0
 91
        2
 92
        1
 93
        1
 72
     4
 94
        3
 73
     0
 74
     1
 95
       29
 96
       25
 40
0.0
 40
0.0
 40
0.0
 40
0.0
 40
1.0
 40
1.0
 40
1.0
 40
2.0
 40
2.0
 40
2.0
 40
3.0
 40
3.0
 40
3.0
 40
4.0
 40
4.0
 40
4.0
 40
5.0
 40
5.0
 40
5.0
 40
6.0
 40
6.0
 40
6.0
 40
7.0
 40
7.0
 40
7.0
 40
8.0
 40
8.0
 40
8.0
 40
8.0
 10
99.33450518349972
 20
-137.8902913066733
 10
99.22632918526287
 20
-138.0997531121764
 10
99.0530408823548
 20
-138.1187011373453
 10
98.93659665495336
 20
-138.1187011373453
 10
98.77571069579218
 20
-138.1187011373453
 10
98.63411727134842
 20
-138.0721923482945
 10
98.53903263595552
 20
-137.8902913066733
 10
98.4353352618495
 20
-137.6956434117567
 10
98.41638723668063
 20
-137.45896535192
 10
98.41638723668063
 20
-137.2960123354677
 10
98.41638723668063
 20
-137.1520073441842
 10
98.43326820455836
 20
-136.9001708642125
 10
98.53903263595552
 20
-136.7013888547135
 10
98.64686412464384
 20
-136.4984727306323
 10
98.80775008380502
 20
-136.4750460813326
 10
98.93659665495336
 20
-136.4750460813326
 10
99.09541555682337
 20
-136.4750460813326
 10
99.2390760385583
 20
-136.5194878130924
 10
99.33450518349972
 20
-136.7013888547135
 10
99.43372393347491
 20
-136.893969692339
 10
99.4571505827746
 20
-137.1223795230111
 10
99.4571505827746
 20
-137.2960123354677
 10
99.4571505827746
 20
-137.4672335810846
 10
99.43579099076605
 20
-137.6977104690478
 10
99.33450518349972
 20
-137.8902913066733
 97
        0
 97
        0
 92
        1
 93
        1
 72
     4
 94
        3
 73
     0
 74
     1
 95
       17
 96
       13
 40
0.0
 40
0.0
 40
0.0
 40
0.0
 40
1.0
 40
1.0
 40
1.0
 40
2.0
 40
2.0
 40
2.0
 40
3.0
 40
3.0
 40
3.0
 40
4.0
 40
4.0
 40
4.0
 40
4.0
 10
98.93659665495336
 20
-136.6676269189581
 10
98.68717174182127
 20
-136.6676269189581
 10
98.64031844322187
 20
-136.9511582773942
 10
98.64031844322187
 20
-137.2960123354677
 10
98.64031844322187
 20
-137.6153726869503
 10
98.67649194581699
 20
-137.9240532424287
 10
98.93659665495336
 20
-137.9240532424287
 10
99.18429902034282
 20
-137.9240532424287
 10
99.23287486668484
 20
-137.6429334508323
 10
99.23287486668484
 20
-137.2960123354677
 10
99.23287486668484
 20
-136.9763074744365
 10
99.19463430679856
 20
-136.6676269189581
 10
98.93659665495336
 20
-136.6676269189581
 97
        0
 97
        0
 75
     2
 76
     1
 98
        0
  0
ENDBLK
  5
B6
330
B3
100
AcDbEntity
  8
0
100
AcDbBlockEnd
  0
BLOCK
  5
C6
330
C4
100
AcDbEntity
  8
0
100
AcDbBlockBegin
  2
block 5
 70
     0
 10
0.0
 20
0.0
 30
0.0
  3
block 5
  1

  0
SPLINE
  5
C8
330
C4
100
AcDbEntity
  8
_U+30EC_U+30A4_U+30E4_U+30FC 1
370
     0
100
AcDbSpline
210
0.0
220
0.0
230
1.0
 70
    11
 71
     3
 72
    26
 73
    22
 74
     0
 42
0.0000000001
 43
0.0000000001
 12
1.0
 22
0.0
 32
0.0
 13
1.0
 23
0.0
 33
0.0
 40
0.0
 40
0.0
 40
0.0
 40
0.0
 40
1.0
 40
1.0
 40
1.0
 40
2.0
 40
2.0
 40
2.0
 40
3.0
 40
3.0
 40
3.0
 40
4.0
 40
4.0
 40
4.0
 40
5.0
 40
5.0
 40
5.0
 40
6.0
 40
6.0
 40
6.0
 40
7.0
 40
7.0
 40
7.0
 40
7.0
 10
86.71115856122152
 20
-138.0680582337122
 30
0.0
 10
86.71115856122152
 20
-138.0680582337122
 30
0.0
 10
86.71115856122152
 20
-136.9639051306896
 30
0.0
 10
86.71115856122152
 20
-136.9639051306896
 30
0.0
 10
86.71115856122152
 20
-136.9639051306896
 30
0.0
 10
86.38111841373458
 20
-136.9639051306896
 30
0.0
 10
86.38111841373458
 20
-136.9639051306896
 30
0.0
 10
86.38111841373458
 20
-136.9639051306896
 30
0.0
 10
86.38111841373458
 20
-136.8157660248238
 30
0.0
 10
86.38111841373458
 20
-136.8157660248238
 30
0.0
 10
86.71322561851267
 20
-136.8009521142373
 30
0.0
 10
86.75973440756354
 20
-136.637999097785
 30
0.0
 10
86.78936222873669
 20
-136.5236219276747
 30
0.0
 10
86.78936222873669
 20
-136.5236219276747
 30
0.0
 10
86.93543427731129
 20
-136.5236219276747
 30
0.0
 10
86.93543427731129
 20
-136.5236219276747
 30
0.0
 10
86.93543427731129
 20
-136.5236219276747
 30
0.0
 10
86.93543427731129
 20
-138.0680582337122
 30
0.0
 10
86.93543427731129
 20
-138.0680582337122
 30
0.0
 10
86.93543427731129
 20
-138.0680582337122
 30
0.0
 10
86.71115856122152
 20
-138.0680582337122
 30
0.0
 10
86.71115856122152
 20
-138.0680582337122
 30
0.0
  0
HATCH
  5
C9
330
C4
100
AcDbEntity
  8
_U+30EC_U+30A4_U+30E4_U+30FC 1
 62
   179
420
  2234388
100
AcDbHatch
 10
0.0
 20
0.0
 30
0.0
210
0.0
220
0.0
230
1.0
  2
SOLID
 70
     1
 71
     0
 91
        1
 92
        1
 93
        1
 72
     4
 94
        3
 73
     0
 74
     1
 95
       26
 96
       22
 40
0.0
 40
0.0
 40
0.0
 40
0.0
 40
1.0
 40
1.0
 40
1.0
 40
2.0
 40
2.0
 40
2.0
 40
3.0
 40
3.0
 40
3.0
 40
4.0
 40
4.0
 40
4.0
 40
5.0
 40
5.0
 40
5.0
 40
6.0
 40
6.0
 40
6.0
 40
7.0
 40
7.0
 40
7.0
 40
7.0
 10
86.71115856122152
 20
-138.0680582337122
 10
86.71115856122152
 20
-138.0680582337122
 10
86.71115856122152
 20
-136.9639051306896
 10
86.71115856122152
 20
-136.9639051306896
 10
86.71115856122152
 20
-136.9639051306896
 10
86.38111841373458
 20
-136.9639051306896
 10
86.38111841373458
 20
-136.9639051306896
 10
86.38111841373458
 20
-136.9639051306896
 10
86.38111841373458
 20
-136.8157660248238
 10
86.38111841373458
 20
-136.8157660248238
 10
86.71322561851267
 20
-136.8009521142373
 10
86.75973440756354
 20
-136.637999097785
 10
86.78936222873669
 20
-136.5236219276747
 10
86.78936222873669
 20
-136.5236219276747
 10
86.93543427731129
 20
-136.5236219276747
 10
86.93543427731129
 20
-136.5236219276747
 10
86.93543427731129
 20
-136.5236219276747
 10
86.93543427731129
 20
-138.0680582337122
 10
86.93543427731129
 20
-138.0680582337122
 10
86.93543427731129
 20
-138.0680582337122
 10
86.71115856122152
 20
-138.0680582337122
 10
86.71115856122152
 20
-138.0680582337122
 97
        0
 97
        0
 75
     2
 76
     1
 98
        0
  0
SPLINE
  5
CA
330
C4
100
AcDbEntity
  8
_U+30EC_U+30A4_U+30E4_U+30FC 1
370
     0
100
AcDbSpline
210
0.0
220
0.0
230
1.0
 70
    11
 71
     3
 72
    44
 73
    40
 74
     0
 42
0.0000000001
 43
0.0000000001
 12
1.0
 22
0.0
 32
0.0
 13
1.0
 23
0.0
 33
0.0
 40
0.0
 40
0.0
 40
0.0
 40
0.0
 40
1.0
 40
1.0
 40
1.0
 40
2.0
 40
2.0
 40
2.0
 40
3.0
 40
3.0
 40
3.0
 40
4.0
 40
4.0
 40
4.0
 40
5.0
 40
5.0
 40
5.0
 40
6.0
 40
6.0
 40
6.0
 40
7.0
 40
7.0
 40
7.0
 40
8.0
 40
8.0
 40
8.0
 40
9.0
 40
9.0
 40
9.0
 40
10.0
 40
10.0
 40
10.0
 40
11.0
 40
11.0
 40
11.0
 40
12.0
 40
12.0
 40
12.0
 40
13.0
 40
13.0
 40
13.0
 40
13.0
 10
88.0297688582009
 20
-137.4861816062535
 30
0.0
 10
87.81186656875884
 20
-137.6450005081235
 30
0.0
 10
87.71867673588284
 20
-137.7190700610564
 30
0.0
 10
87.6701008895408
 20
-137.8627305427913
 30
0.0
 10
87.6701008895408
 20
-137.8627305427913
 30
0.0
 10
88.44852021443302
 20
-137.8627305427913
 30
0.0
 10
88.44852021443302
 20
-137.8627305427913
 30
0.0
 10
88.44852021443302
 20
-137.8627305427913
 30
0.0
 10
88.44852021443302
 20
-138.0680582337122
 30
0.0
 10
88.44852021443302
 20
-138.0680582337122
 30
0.0
 10
88.44852021443302
 20
-138.0680582337122
 30
0.0
 10
87.42050372163446
 20
-138.0680582337122
 30
0.0
 10
87.42050372163446
 20
-138.0680582337122
 30
0.0
 10
87.45219860009875
 20
-137.7104573223432
 30
0.0
 10
87.51782766909277
 20
-137.632253654828
 30
0.0
 10
87.90281708956944
 20
-137.3339083858054
 30
0.0
 10
88.1587876841235
 20
-137.1351263763065
 30
0.0
 10
88.22424449834325
 20
-137.0672579952471
 30
0.0
 10
88.22424449834325
 20
-136.9297986853856
 30
0.0
 10
88.22424449834325
 20
-136.811287400693
 30
0.0
 10
88.15241425747578
 20
-136.6803737722535
 30
0.0
 10
87.95569930526803
 20
-136.6803737722535
 30
0.0
 10
87.6954223413574
 20
-136.6803737722535
 30
0.0
 10
87.68698185741853
 20
-136.9108506602167
 30
0.0
 10
87.68267548806197
 20
-137.0272948876182
 30
0.0
 10
87.68267548806197
 20
-137.0272948876182
 30
0.0
 10
87.45857202674647
 20
-137.0272948876182
 30
0.0
 10
87.45857202674647
 20
-137.0272948876182
 30
0.0
 10
87.46701251068534
 20
-136.9001708642125
 30
0.0
 10
87.47752005191535
 20
-136.7882052609419
 30
0.0
 10
87.55796303149593
 20
-136.6696939762492
 30
0.0
 10
87.6678615774754
 20
-136.5088080170881
 30
0.0
 10
87.85406898845315
 20
-136.4750460813326
 30
0.0
 10
87.9705132158546
 20
-136.4750460813326
 30
0.0
 10
88.24767114764295
 20
-136.4750460813326
 30
0.0
 10
88.45489364108073
 20
-136.659014180245
 30
0.0
 10
88.45489364108073
 20
-136.9318657426768
 30
0.0
 10
88.45489364108073
 20
-137.1606200828973
 30
0.0
 10
88.33862166845354
 20
-137.2598388328726
 30
0.0
 10
88.0297688582009
 20
-137.4861816062535
 30
0.0
  0
HATCH
  5
CB
330
C4
100
AcDbEntity
  8
_U+30EC_U+30A4_U+30E4_U+30FC 1
 62
   179
420
  2234388
100
AcDbHatch
 10
0.0
 20
0.0
 30
0.0
210
0.0
220
0.0
230
1.0
  2
SOLID
 70
     1
 71
     0
 91
        1
 92
        1
 93
        1
 72
     4
 94
        3
 73
     0
 74
     1
 95
       44
 96
       40
 40
0.0
 40
0.0
 40
0.0
 40
0.0
 40
1.0
 40
1.0
 40
1.0
 40
2.0
 40
2.0
 40
2.0
 40
3.0
 40
3.0
 40
3.0
 40
4.0
 40
4.0
 40
4.0
 40
5.0
 40
5.0
 40
5.0
 40
6.0
 40
6.0
 40
6.0
 40
7.0
 40
7.0
 40
7.0
 40
8.0
 40
8.0
 40
8.0
 40
9.0
 40
9.0
 40
9.0
 40
10.0
 40
10.0
 40
10.0
 40
11.0
 40
11.0
 40
11.0
 40
12.0
 40
12.0
 40
12.0
 40
13.0
 40
13.0
 40
13.0
 40
13.0
 10
88.0297688582009
 20
-137.4861816062535
 10
87.81186656875884
 20
-137.6450005081235
 10
87.71867673588284
 20
-137.7190700610564
 10
87.6701008895408
 20
-137.8627305427913
 10
87.6701008895408
 20
-137.8627305427913
 10
88.44852021443302
 20
-137.8627305427913
 10
88.44852021443302
 20
-137.8627305427913
 10
88.44852021443302
 20
-137.8627305427913
 10
88.44852021443302
 20
-138.0680582337122
 10
88.44852021443302
 20
-138.0680582337122
 10
88.44852021443302
 20
-138.0680582337122
 10
87.42050372163446
 20
-138.0680582337122
 10
87.42050372163446
 20
-138.0680582337122
 10
87.45219860009875
 20
-137.7104573223432
 10
87.51782766909277
 20
-137.632253654828
 10
87.90281708956944
 20
-137.3339083858054
 10
88.1587876841235
 20
-137.1351263763065
 10
88.22424449834325
 20
-137.0672579952471
 10
88.22424449834325
 20
-136.9297986853856
 10
88.22424449834325
 20
-136.811287400693
 10
88.15241425747578
 20
-136.6803737722535
 10
87.95569930526803
 20
-136.6803737722535
 10
87.6954223413574
 20
-136.6803737722535
 10
87.68698185741853
 20
-136.9108506602167
 10
87.68267548806197
 20
-137.0272948876182
 10
87.68267548806197
 20
-137.0272948876182
 10
87.45857202674647
 20
-137.0272948876182
 10
87.45857202674647
 20
-137.0272948876182
 10
87.46701251068534
 20
-136.9001708642125
 10
87.47752005191535
 20
-136.7882052609419
 10
87.55796303149593
 20
-136.6696939762492
 10
87.6678615774754
 20
-136.5088080170881
 10
87.85406898845315
 20
-136.4750460813326
 10
87.9705132158546
 20
-136.4750460813326
 10
88.24767114764295
 20
-136.4750460813326
 10
88.45489364108073
 20
-136.659014180245
 10
88.45489364108073
 20
-136.9318657426768
 10
88.45489364108073
 20
-137.1606200828973
 10
88.33862166845354
 20
-137.2598388328726
 10
88.0297688582009
 20
-137.4861816062535
 97
        0
 97
        0
 75
     2
 76
     1
 98
        0
  0
ENDBLK
  5
C7
330
C4
100
AcDbEntity
  8
0
100
AcDbBlockEnd
  0
BLOCK
  5
D6
330
D4
100
AcDbEntity
  8
0
100
AcDbBlockBegin
  2
block 6
 70
     0
 10
0.0
 20
0.0
 30
0.0
  3
block 6
  1

  0
SPLINE
  5
D8
330
D4
100
AcDbEntity
  8
_U+30EC_U+30A4_U+30E4_U+30FC 1
370
     0
100
AcDbSpline
210
0.0
220
0.0
230
1.0
 70
    11
 71
     3
 72
    26
 73
    22
 74
     0
 42
0.0000000001
 43
0.0000000001
 12
1.0
 22
0.0
 32
0.0
 13
1.0
 23
0.0
 33
0.0
 40
0.0
 40
0.0
 40
0.0
 40
0.0
 40
1.0
 40
1.0
 40
1.0
 40
2.0
 40
2.0
 40
2.0
 40
3.0
 40
3.0
 40
3.0
 40
4.0
 40
4.0
 40
4.0
 40
5.0
 40
5.0
 40
5.0
 40
6.0
 40
6.0
 40
6.0
 40
7.0
 40
7.0
 40
7.0
 40
7.0
 10
106.7028754073521
 20
-126.9627929370093
 30
0.0
 10
106.7028754073521
 20
-126.9627929370093
 30
0.0
 10
105.5987223043295
 20
-126.9627929370093
 30
0.0
 10
105.5987223043295
 20
-126.9627929370093
 30
0.0
 10
105.5987223043295
 20
-126.9627929370093
 30
0.0
 10
105.5987223043295
 20
-127.2928330844962
 30
0.0
 10
105.5987223043295
 20
-127.2928330844962
 30
0.0
 10
105.5987223043295
 20
-127.2928330844962
 30
0.0
 10
105.4505831984637
 20
-127.2928330844962
 30
0.0
 10
105.4505831984637
 20
-127.2928330844962
 30
0.0
 10
105.4357692878772
 20
-126.9607258797182
 30
0.0
 10
105.2728162714249
 20
-126.9142170906673
 30
0.0
 10
105.1584391013146
 20
-126.8845892694941
 30
0.0
 10
105.1584391013146
 20
-126.8845892694941
 30
0.0
 10
105.1584391013146
 20
-126.7385172209195
 30
0.0
 10
105.1584391013146
 20
-126.7385172209195
 30
0.0
 10
105.1584391013146
 20
-126.7385172209195
 30
0.0
 10
106.7028754073521
 20
-126.7385172209195
 30
0.0
 10
106.7028754073521
 20
-126.7385172209195
 30
0.0
 10
106.7028754073521
 20
-126.7385172209195
 30
0.0
 10
106.7028754073521
 20
-126.9627929370093
 30
0.0
 10
106.7028754073521
 20
-126.9627929370093
 30
0.0
  0
HATCH
  5
D9
330
D4
100
AcDbEntity
  8
_U+30EC_U+30A4_U+30E4_U+30FC 1
 62
   179
420
  2234388
100
AcDbHatch
 10
0.0
 20
0.0
 30
0.0
210
0.0
220
0.0
230
1.0
  2
SOLID
 70
     1
 71
     0
 91
        1
 92
        1
 93
        1
 72
     4
 94
        3
 73
     0
 74
     1
 95
       26
 96
       22
 40
0.0
 40
0.0
 40
0.0
 40
0.0
 40
1.0
 40
1.0
 40
1.0
 40
2.0
 40
2.0
 40
2.0
 40
3.0
 40
3.0
 40
3.0
 40
4.0
 40
4.0
 40
4.0
 40
5.0
 40
5.0
 40
5.0
 40
6.0
 40
6.0
 40
6.0
 40
7.0
 40
7.0
 40
7.0
 40
7.0
 10
106.7028754073521
 20
-126.9627929370093
 10
106.7028754073521
 20
-126.9627929370093
 10
105.5987223043295
 20
-126.9627929370093
 10
105.5987223043295
 20
-126.9627929370093
 10
105.5987223043295
 20
-126.9627929370093
 10
105.5987223043295
 20
-127.2928330844962
 10
105.5987223043295
 20
-127.2928330844962
 10
105.5987223043295
 20
-127.2928330844962
 10
105.4505831984637
 20
-127.2928330844962
 10
105.4505831984637
 20
-127.2928330844962
 10
105.4357692878772
 20
-126.9607258797182
 10
105.2728162714249
 20
-126.9142170906673
 10
105.1584391013146
 20
-126.8845892694941
 10
105.1584391013146
 20
-126.8845892694941
 10
105.1584391013146
 20
-126.7385172209195
 10
105.1584391013146
 20
-126.7385172209195
 10
105.1584391013146
 20
-126.7385172209195
 10
106.7028754073521
 20
-126.7385172209195
 10
106.7028754073521
 20
-126.7385172209195
 10
106.7028754073521
 20
-126.7385172209195
 10
106.7028754073521
 20
-126.9627929370093
 10
106.7028754073521
 20
-126.9627929370093
 97
        0
 97
        0
 75
     2
 76
     1
 98
        0
  0
SPLINE
  5
DA
330
D4
100
AcDbEntity
  8
_U+30EC_U+30A4_U+30E4_U+30FC 1
370
     0
100
AcDbSpline
210
0.0
220
0.0
230
1.0
 70
    11
 71
     3
 72
    44
 73
    40
 74
     0
 42
0.0000000001
 43
0.0000000001
 12
1.0
 22
0.0
 32
0.0
 13
1.0
 23
0.0
 33
0.0
 40
0.0
 40
0.0
 40
0.0
 40
0.0
 40
1.0
 40
1.0
 40
1.0
 40
2.0
 40
2.0
 40
2.0
 40
3.0
 40
3.0
 40
3.0
 40
4.0
 40
4.0
 40
4.0
 40
5.0
 40
5.0
 40
5.0
 40
6.0
 40
6.0
 40
6.0
 40
7.0
 40
7.0
 40
7.0
 40
8.0
 40
8.0
 40
8.0
 40
9.0
 40
9.0
 40
9.0
 40
10.0
 40
10.0
 40
10.0
 40
11.0
 40
11.0
 40
11.0
 40
12.0
 40
12.0
 40
12.0
 40
13.0
 40
13.0
 40
13.0
 40
13.0
 10
106.1209987798934
 20
-125.6443548948042
 30
0.0
 10
106.2798176817634
 20
-125.862084929472
 30
0.0
 10
106.3538872346963
 20
-125.9551025075737
 30
0.0
 10
106.4975477164312
 20
-126.0040228634643
 30
0.0
 10
106.4975477164312
 20
-126.0040228634643
 30
0.0
 10
106.4975477164312
 20
-125.2254312837978
 30
0.0
 10
106.4975477164312
 20
-125.2254312837978
 30
0.0
 10
106.4975477164312
 20
-125.2254312837978
 30
0.0
 10
106.7028754073521
 20
-125.2254312837978
 30
0.0
 10
106.7028754073521
 20
-125.2254312837978
 30
0.0
 10
106.7028754073521
 20
-125.2254312837978
 30
0.0
 10
106.7028754073521
 20
-126.2534477765964
 30
0.0
 10
106.7028754073521
 20
-126.2534477765964
 30
0.0
 10
106.3452744959831
 20
-126.2217528981321
 30
0.0
 10
106.267070828468
 20
-126.1562960839123
 30
0.0
 10
105.9687255594453
 20
-125.7711344086614
 30
0.0
 10
105.7699435499464
 20
-125.5151638141073
 30
0.0
 10
105.702075168887
 20
-125.4497069998876
 30
0.0
 10
105.5646158590255
 20
-125.4497069998876
 30
0.0
 10
105.4461045743329
 20
-125.4497069998876
 30
0.0
 10
105.3151909458934
 20
-125.5217094955293
 30
0.0
 10
105.3151909458934
 20
-125.7184244477371
 30
0.0
 10
105.3151909458934
 20
-125.9785291568734
 30
0.0
 10
105.5456678338566
 20
-125.9871418955865
 30
0.0
 10
105.6621120612581
 20
-125.9912760101689
 30
0.0
 10
105.6621120612581
 20
-125.9912760101689
 30
0.0
 10
105.6621120612581
 20
-126.2155517262586
 30
0.0
 10
105.6621120612581
 20
-126.2155517262586
 30
0.0
 10
105.5349880378524
 20
-126.2069389875455
 30
0.0
 10
105.4230224345818
 20
-126.1962591915412
 30
0.0
 10
105.3045111498892
 20
-126.1159884667349
 30
0.0
 10
105.143625190728
 20
-126.0060899207554
 30
0.0
 10
105.1098632549725
 20
-125.8197102550034
 30
0.0
 10
105.1098632549725
 20
-125.7036105371505
 30
0.0
 10
105.1098632549725
 20
-125.4262803505879
 30
0.0
 10
105.2938313538849
 20
-125.2188856023758
 30
0.0
 10
105.5666829163167
 20
-125.2188856023758
 30
0.0
 10
105.7954372565373
 20
-125.2188856023758
 30
0.0
 10
105.8946560065124
 20
-125.3353298297773
 30
0.0
 10
106.1209987798934
 20
-125.6443548948042
 30
0.0
  0
HATCH
  5
DB
330
D4
100
AcDbEntity
  8
_U+30EC_U+30A4_U+30E4_U+30FC 1
 62
   179
420
  2234388
100
AcDbHatch
 10
0.0
 20
0.0
 30
0.0
210
0.0
220
0.0
230
1.0
  2
SOLID
 70
     1
 71
     0
 91
        1
 92
        1
 93
        1
 72
     4
 94
        3
 73
     0
 74
     1
 95
       44
 96
       40
 40
0.0
 40
0.0
 40
0.0
 40
0.0
 40
1.0
 40
1.0
 40
1.0
 40
2.0
 40
2.0
 40
2.0
 40
3.0
 40
3.0
 40
3.0
 40
4.0
 40
4.0
 40
4.0
 40
5.0
 40
5.0
 40
5.0
 40
6.0
 40
6.0
 40
6.0
 40
7.0
 40
7.0
 40
7.0
 40
8.0
 40
8.0
 40
8.0
 40
9.0
 40
9.0
 40
9.0
 40
10.0
 40
10.0
 40
10.0
 40
11.0
 40
11.0
 40
11.0
 40
12.0
 40
12.0
 40
12.0
 40
13.0
 40
13.0
 40
13.0
 40
13.0
 10
106.1209987798934
 20
-125.6443548948042
 10
106.2798176817634
 20
-125.862084929472
 10
106.3538872346963
 20
-125.9551025075737
 10
106.4975477164312
 20
-126.0040228634643
 10
106.4975477164312
 20
-126.0040228634643
 10
106.4975477164312
 20
-125.2254312837978
 10
106.4975477164312
 20
-125.2254312837978
 10
106.4975477164312
 20
-125.2254312837978
 10
106.7028754073521
 20
-125.2254312837978
 10
106.7028754073521
 20
-125.2254312837978
 10
106.7028754073521
 20
-125.2254312837978
 10
106.7028754073521
 20
-126.2534477765964
 10
106.7028754073521
 20
-126.2534477765964
 10
106.3452744959831
 20
-126.2217528981321
 10
106.267070828468
 20
-126.1562960839123
 10
105.9687255594453
 20
-125.7711344086614
 10
105.7699435499464
 20
-125.5151638141073
 10
105.702075168887
 20
-125.4497069998876
 10
105.5646158590255
 20
-125.4497069998876
 10
105.4461045743329
 20
-125.4497069998876
 10
105.3151909458934
 20
-125.5217094955293
 10
105.3151909458934
 20
-125.7184244477371
 10
105.3151909458934
 20
-125.9785291568734
 10
105.5456678338566
 20
-125.9871418955865
 10
105.6621120612581
 20
-125.9912760101689
 10
105.6621120612581
 20
-125.9912760101689
 10
105.6621120612581
 20
-126.2155517262586
 10
105.6621120612581
 20
-126.2155517262586
 10
105.5349880378524
 20
-126.2069389875455
 10
105.4230224345818
 20
-126.1962591915412
 10
105.3045111498892
 20
-126.1159884667349
 10
105.143625190728
 20
-126.0060899207554
 10
105.1098632549725
 20
-125.8197102550034
 10
105.1098632549725
 20
-125.7036105371505
 10
105.1098632549725
 20
-125.4262803505879
 10
105.2938313538849
 20
-125.2188856023758
 10
105.5666829163167
 20
-125.2188856023758
 10
105.7954372565373
 20
-125.2188856023758
 10
105.8946560065124
 20
-125.3353298297773
 10
106.1209987798934
 20
-125.6443548948042
 97
        0
 97
        0
 75
     2
 76
     1
 98
        0
  0
POLYLINE
  5
DC
330
D4
100
AcDbEntity
  8
_U+30EC_U+30A4_U+30E4_U+30FC 1
370
     0
100
AcDb2dPolyline
 66
     1
 10
0.0
 20
0.0
 30
0.0
  0
VERTEX
  5
DD
330
DC
100
AcDbEntity
  8
_U+30EC_U+30A4_U+30E4_U+30FC 1
370
     0
100
AcDbVertex
100
AcDb2dVertex
 10
106.7028754073521
 20
-125.000466548611
 30
0.0
  0
VERTEX
  5
DE
330
DC
100
AcDbEntity
  8
_U+30EC_U+30A4_U+30E4_U+30FC 1
370
     0
100
AcDbVertex
100
AcDb2dVertex
 10
106.4510389273803
 20
-125.000466548611
 30
0.0
  0
VERTEX
  5
DF
330
DC
100
AcDbEntity
  8
_U+30EC_U+30A4_U+30E4_U+30FC 1
370
     0
100
AcDbVertex
100
AcDb2dVertex
 10
106.4510389273803
 20
-124.7486300686392
 30
0.0
  0
VERTEX
  5
E0
330
DC
100
AcDbEntity
  8
_U+30EC_U+30A4_U+30E4_U+30FC 1
370
     0
100
AcDbVertex
100
AcDb2dVertex
 10
106.7028754073521
 20
-124.7486300686392
 30
0.0
  0
VERTEX
  5
E1
330
DC
100
AcDbEntity
  8
_U+30EC_U+30A4_U+30E4_U+30FC 1
370
     0
100
AcDbVertex
100
AcDb2dVertex
 10
106.7028754073521
 20
-125.000466548611
 30
0.0
  0
SEQEND
  5
E2
330
DC
100
AcDbEntity
  8
_U+30EC_U+30A4_U+30E4_U+30FC 1
370
     0
  0
HATCH
  5
E3
330
D4
100
AcDbEntity
  8
_U+30EC_U+30A4_U+30E4_U+30FC 1
 62
   179
420
  2234388
100
AcDbHatch
 10
0.0
 20
0.0
 30
0.0
210
0.0
220
0.0
230
1.0
  2
SOLID
 70
     1
 71
     0
 91
        1
 92
        1
 93
        4
 72
     1
 10
106.7028754073521
 20
-125.000466548611
 11
106.4510389273803
 21
-125.000466548611
 72
     1
 10
106.4510389273803
 20
-125.000466548611
 11
106.4510389273803
 21
-124.7486300686392
 72
     1
 10
106.4510389273803
 20
-124.7486300686392
 11
106.7028754073521
 21
-124.7486300686392
 72
     1
 10
106.7028754073521
 20
-124.7486300686392
 11
106.7028754073521
 21
-125.000466548611
 97
        0
 75
     2
 76
     1
 98
        0
  0
SPLINE
  5
E4
330
D4
100
AcDbEntity
  8
_U+30EC_U+30A4_U+30E4_U+30FC 1
370
     0
100
AcDbSpline
210
0.0
220
0.0
230
1.0
 70
    11
 71
     3
 72
    53
 73
    49
 74
     0
 42
0.0000000001
 43
0.0000000001
 12
1.0
 22
0.0
 32
0.0
 13
1.0
 23
0.0
 33
0.0
 40
0.0
 40
0.0
 40
0.0
 40
0.0
 40
1.0
 40
1.0
 40
1.0
 40
2.0
 40
2.0
 40
2.0
 40
3.0
 40
3.0
 40
3.0
 40
4.0
 40
4.0
 40
4.0
 40
5.0
 40
5.0
 40
5.0
 40
6.0
 40
6.0
 40
6.0
 40
7.0
 40
7.0
 40
7.0
 40
8.0
 40
8.0
 40
8.0
 40
9.0
 40
9.0
 40
9.0
 40
10.0
 40
10.0
 40
10.0
 40
11.0
 40
11.0
 40
11.0
 40
12.0
 40
12.0
 40
12.0
 40
13.0
 40
13.0
 40
13.0
 40
14.0
 40
14.0
 40
14.0
 40
15.0
 40
15.0
 40
15.0
 40
16.0
 40
16.0
 40
16.0
 40
16.0
 10
106.7535183109852
 20
-124.0313611886102
 30
0.0
 10
106.7535183109852
 20
-124.1095648561254
 30
0.0
 10
106.7366373431075
 20
-124.2111951729403
 30
0.0
 10
106.6732475861789
 20
-124.3128254897551
 30
0.0
 10
106.5633490401994
 20
-124.4861137926632
 30
0.0
 10
106.4320909022114
 20
-124.5074733846718
 30
0.0
 10
106.3242594135231
 20
-124.5264214098406
 30
0.0
 10
106.3242594135231
 20
-124.5264214098406
 30
0.0
 10
106.3242594135231
 20
-124.304212751042
 30
0.0
 10
106.3242594135231
 20
-124.304212751042
 30
0.0
 10
106.523041423022
 20
-124.2494357328265
 30
0.0
 10
106.5526692441952
 20
-124.1223117094208
 30
0.0
 10
106.5526692441952
 20
-124.0292941313191
 30
0.0
 10
106.5526692441952
 20
-123.8897677641665
 30
0.0
 10
106.4531059846715
 20
-123.7374945437184
 30
0.0
 10
106.2205620394171
 20
-123.7374945437184
 30
0.0
 10
105.964591444863
 20
-123.7374945437184
 30
0.0
 10
105.8946560065124
 20
-123.9173285280485
 30
0.0
 10
105.8946560065124
 20
-124.0379068700322
 30
0.0
 10
105.8946560065124
 20
-124.0696017484965
 30
0.0
 10
105.8946560065124
 20
-124.2111951729403
 30
0.0
 10
106.0238470872093
 20
-124.3000786364597
 30
0.0
 10
106.0238470872093
 20
-124.3000786364597
 30
0.0
 10
106.0048990620405
 20
-124.4757785062074
 30
0.0
 10
106.0048990620405
 20
-124.4757785062074
 30
0.0
 10
106.0048990620405
 20
-124.4757785062074
 30
0.0
 10
105.1584391013146
 20
-124.3552001642237
 30
0.0
 10
105.1584391013146
 20
-124.3552001642237
 30
0.0
 10
105.1584391013146
 20
-124.3552001642237
 30
0.0
 10
105.1584391013146
 20
-123.5766085845572
 30
0.0
 10
105.1584391013146
 20
-123.5766085845572
 30
0.0
 10
105.1584391013146
 20
-123.5766085845572
 30
0.0
 10
105.3530869962312
 20
-123.5766085845572
 30
0.0
 10
105.3530869962312
 20
-123.5766085845572
 30
0.0
 10
105.3530869962312
 20
-123.5766085845572
 30
0.0
 10
105.3530869962312
 20
-124.1922471477714
 30
0.0
 10
105.3530869962312
 20
-124.1922471477714
 30
0.0
 10
105.3530869962312
 20
-124.1922471477714
 30
0.0
 10
105.7761447218199
 20
-124.2577039619911
 30
0.0
 10
105.7761447218199
 20
-124.2577039619911
 30
0.0
 10
105.7423827860644
 20
-124.1963812623537
 30
0.0
 10
105.702075168887
 20
-124.1140434802562
 30
0.0
 10
105.702075168887
 20
-123.9955321955636
 30
0.0
 10
105.702075168887
 20
-123.7416286583007
 30
0.0
 10
105.888454834639
 20
-123.5046060889155
 30
0.0
 10
106.2016140142482
 20
-123.5046060889155
 30
0.0
 10
106.5189073084397
 20
-123.5046060889155
 30
0.0
 10
106.7535183109852
 20
-123.7288818050053
 30
0.0
 10
106.7535183109852
 20
-124.0313611886102
 30
0.0
  0
HATCH
  5
E5
330
D4
100
AcDbEntity
  8
_U+30EC_U+30A4_U+30E4_U+30FC 1
 62
   179
420
  2234388
100
AcDbHatch
 10
0.0
 20
0.0
 30
0.0
210
0.0
220
0.0
230
1.0
  2
SOLID
 70
     1
 71
     0
 91
        1
 92
        1
 93
        1
 72
     4
 94
        3
 73
     0
 74
     1
 95
       53
 96
       49
 40
0.0
 40
0.0
 40
0.0
 40
0.0
 40
1.0
 40
1.0
 40
1.0
 40
2.0
 40
2.0
 40
2.0
 40
3.0
 40
3.0
 40
3.0
 40
4.0
 40
4.0
 40
4.0
 40
5.0
 40
5.0
 40
5.0
 40
6.0
 40
6.0
 40
6.0
 40
7.0
 40
7.0
 40
7.0
 40
8.0
 40
8.0
 40
8.0
 40
9.0
 40
9.0
 40
9.0
 40
10.0
 40
10.0
 40
10.0
 40
11.0
 40
11.0
 40
11.0
 40
12.0
 40
12.0
 40
12.0
 40
13.0
 40
13.0
 40
13.0
 40
14.0
 40
14.0
 40
14.0
 40
15.0
 40
15.0
 40
15.0
 40
16.0
 40
16.0
 40
16.0
 40
16.0
 10
106.7535183109852
 20
-124.0313611886102
 10
106.7535183109852
 20
-124.1095648561254
 10
106.7366373431075
 20
-124.2111951729403
 10
106.6732475861789
 20
-124.3128254897551
 10
106.5633490401994
 20
-124.4861137926632
 10
106.4320909022114
 20
-124.5074733846718
 10
106.3242594135231
 20
-124.5264214098406
 10
106.3242594135231
 20
-124.5264214098406
 10
106.3242594135231
 20
-124.304212751042
 10
106.3242594135231
 20
-124.304212751042
 10
106.523041423022
 20
-124.2494357328265
 10
106.5526692441952
 20
-124.1223117094208
 10
106.5526692441952
 20
-124.0292941313191
 10
106.5526692441952
 20
-123.8897677641665
 10
106.4531059846715
 20
-123.7374945437184
 10
106.2205620394171
 20
-123.7374945437184
 10
105.964591444863
 20
-123.7374945437184
 10
105.8946560065124
 20
-123.9173285280485
 10
105.8946560065124
 20
-124.0379068700322
 10
105.8946560065124
 20
-124.0696017484965
 10
105.8946560065124
 20
-124.2111951729403
 10
106.0238470872093
 20
-124.3000786364597
 10
106.0238470872093
 20
-124.3000786364597
 10
106.0048990620405
 20
-124.4757785062074
 10
106.0048990620405
 20
-124.4757785062074
 10
106.0048990620405
 20
-124.4757785062074
 10
105.1584391013146
 20
-124.3552001642237
 10
105.1584391013146
 20
-124.3552001642237
 10
105.1584391013146
 20
-124.3552001642237
 10
105.1584391013146
 20
-123.5766085845572
 10
105.1584391013146
 20
-123.5766085845572
 10
105.1584391013146
 20
-123.5766085845572
 10
105.3530869962312
 20
-123.5766085845572
 10
105.3530869962312
 20
-123.5766085845572
 10
105.3530869962312
 20
-123.5766085845572
 10
105.3530869962312
 20
-124.1922471477714
 10
105.3530869962312
 20
-124.1922471477714
 10
105.3530869962312
 20
-124.1922471477714
 10
105.7761447218199
 20
-124.2577039619911
 10
105.7761447218199
 20
-124.2577039619911
 10
105.7423827860644
 20
-124.1963812623537
 10
105.702075168887
 20
-124.1140434802562
 10
105.702075168887
 20
-123.9955321955636
 10
105.702075168887
 20
-123.7416286583007
 10
105.888454834639
 20
-123.5046060889155
 10
106.2016140142482
 20
-123.5046060889155
 10
106.5189073084397
 20
-123.5046060889155
 10
106.7535183109852
 20
-123.7288818050053
 10
106.7535183109852
 20
-124.0313611886102
 97
        0
 97
        0
 75
     2
 76
     1
 98
        0
  0
ENDBLK
  5
D7
330
D4
100
AcDbEntity
  8
0
100
AcDbBlockEnd
  0
ENDSEC
  0
SECTION
  2
ENTITIES
  0
POLYLINE
  5
41
330
1F
100
AcDbEntity
  8
_U+30EC_U+30A4_U+30E4_U+30FC 1
370
     0
100
AcDb2dPolyline
 66
     1
 10
0.0
 20
0.0
 30
0.0
  0
VERTEX
  5
42
330
41
100
AcDbEntity
  8
_U+30EC_U+30A4_U+30E4_U+30FC 1
370
     0
100
AcDbVertex
100
AcDb2dVertex
 10
102.3524018332171
 20
-133.7131141332384
 30
0.0
  0
VERTEX
  5
43
330
41
100
AcDbEntity
  8
_U+30EC_U+30A4_U+30E4_U+30FC 1
370
     0
100
AcDbVertex
100
AcDb2dVertex
 10
94.3508375929096
 20
-133.7131141332384
 30
0.0
  0
VERTEX
  5
44
330
41
100
AcDbEntity
  8
_U+30EC_U+30A4_U+30E4_U+30FC 1
370
     0
100
AcDbVertex
100
AcDb2dVertex
 10
94.3508375929096
 20
-119.2130655257524
 30
0.0
  0
VERTEX
  5
45
330
41
100
AcDbEntity
  8
_U+30EC_U+30A4_U+30E4_U+30FC 1
370
     0
100
AcDbVertex
100
AcDb2dVertex
 10
81.34868375795551
 20
-119.2130655257524
 30
0.0
  0
VERTEX
  5
46
330
41
100
AcDbEntity
  8
_U+30EC_U+30A4_U+30E4_U+30FC 1
370
     0
100
AcDbVertex
100
AcDb2dVertex
 10
81.34868375795551
 20
-120.2131552477245
 30
0.0
  0
VERTEX
  5
47
330
41
100
AcDbEntity
  8
_U+30EC_U+30A4_U+30E4_U+30FC 1
370
     0
100
AcDbVertex
100
AcDb2dVertex
 10
93.35071261842491
 20
-120.2131552477245
 30
0.0
  0
VERTEX
  5
48
330
41
100
AcDbEntity
  8
_U+30EC_U+30A4_U+30E4_U+30FC 1
370
     0
100
AcDbVertex
100
AcDb2dVertex
 10
93.35071261842491
 20
-134.7132391329881
 30
0.0
  0
VERTEX
  5
49
330
41
100
AcDbEntity
  8
_U+30EC_U+30A4_U+30E4_U+30FC 1
370
     0
100
AcDbVertex
100
AcDb2dVertex
 10
103.3528795854706
 20
-134.7132391329881
 30
0.0
  0
VERTEX
  5
4A
330
41
100
AcDbEntity
  8
_U+30EC_U+30A4_U+30E4_U+30FC 1
370
     0
100
AcDbVertex
100
AcDb2dVertex
 10
103.3528795854706
 20
-131.7132521892938
 30
0.0
  0
VERTEX
  5
4B
330
41
100
AcDbEntity
  8
_U+30EC_U+30A4_U+30E4_U+30FC 1
370
     0
100
AcDbVertex
100
AcDb2dVertex
 10
102.3524018332171
 20
-131.7132521892938
 30
0.0
  0
VERTEX
  5
4C
330
41
100
AcDbEntity
  8
_U+30EC_U+30A4_U+30E4_U+30FC 1
370
     0
100
AcDbVertex
100
AcDb2dVertex
 10
102.3524018332171
 20
-133.7131141332384
 30
0.0
  0
SEQEND
  5
4E
330
41
100
AcDbEntity
  8
_U+30EC_U+30A4_U+30E4_U+30FC 1
370
     0
  0
HATCH
  5
4D
330
1F
100
AcDbEntity
  8
_U+30EC_U+30A4_U+30E4_U+30FC 1
 62
   253
420
 11711154
100
AcDbHatch
 10
0.0
 20
0.0
 30
0.0
210
0.0
220
0.0
230
1.0
  2
SOLID
 70
     1
 71
     0
 91
        1
 92
        1
 93
       10
 72
     1
 10
102.3524018332171
 20
-133.7131141332384
 11
94.3508375929096
 21
-133.7131141332384
 72
     1
 10
94.3508375929096
 20
-133.7131141332384
 11
94.3508375929096
 21
-119.2130655257524
 72
     1
 10
94.3508375929096
 20
-119.2130655257524
 11
81.34868375795551
 21
-119.2130655257524
 72
     1
 10
81.34868375795551
 20
-119.2130655257524
 11
81.34868375795551
 21
-120.2131552477245
 72
     1
 10
81.34868375795551
 20
-120.2131552477245
 11
93.35071261842491
 21
-120.2131552477245
 72
     1
 10
93.35071261842491
 20
-120.2131552477245
 11
93.35071261842491
 21
-134.7132391329881
 72
     1
 10
93.35071261842491
 20
-134.7132391329881
 11
103.3528795854706
 21
-134.7132391329881
 72
     1
 10
103.3528795854706
 20
-134.7132391329881
 11
103.3528795854706
 21
-131.7132521892938
 72
     1
 10
103.3528795854706
 20
-131.7132521892938
 11
102.3524018332171
 21
-131.7132521892938
 72
     1
 10
102.3524018332171
 20
-131.7132521892938
 11
102.3524018332171
 21
-133.7131141332384
 97
        0
 75
     2
 76
     1
 98
        0
  0
POLYLINE
  5
4F
330
1F
100
AcDbEntity
  8
_U+30EC_U+30A4_U+30E4_U+30FC 1
 62
   179
420
  2234388
370
    25
100
AcDb2dPolyline
 66
     1
 10
0.0
 20
0.0
 30
0.0
  0
VERTEX
  5
50
330
4F
100
AcDbEntity
  8
_U+30EC_U+30A4_U+30E4_U+30FC 1
 62
   179
420
  2234388
370
    25
100
AcDbVertex
100
AcDb2dVertex
 10
81.34868375795551
 20
-120.2131552477245
 30
0.0
  0
VERTEX
  5
51
330
4F
100
AcDbEntity
  8
_U+30EC_U+30A4_U+30E4_U+30FC 1
 62
   179
420
  2234388
370
    25
100
AcDbVertex
100
AcDb2dVertex
 10
81.34868375795551
 20
-119.2130655257524
 30
0.0
  0
SEQEND
  5
52
330
4F
100
AcDbEntity
  8
_U+30EC_U+30A4_U+30E4_U+30FC 1
 62
   179
420
  2234388
370
    25
  0
POLYLINE
  5
53
330
1F
100
AcDbEntity
  8
_U+30EC_U+30A4_U+30E4_U+30FC 1
 62
   179
420
  2234388
370
    25
100
AcDb2dPolyline
 66
     1
 10
0.0
 20
0.0
 30
0.0
  0
VERTEX
  5
54
330
53
100
AcDbEntity
  8
_U+30EC_U+30A4_U+30E4_U+30FC 1
 62
   179
420
  2234388
370
    25
100
AcDbVertex
100
AcDb2dVertex
 10
103.3528795854706
 20
-134.7132391329881
 30
0.0
  0
VERTEX
  5
55
330
53
100
AcDbEntity
  8
_U+30EC_U+30A4_U+30E4_U+30FC 1
 62
   179
420
  2234388
370
    25
100
AcDbVertex
100
AcDb2dVertex
 10
103.3528795854706
 20
-131.7132521892938
 30
0.0
  0
SEQEND
  5
56
330
53
100
AcDbEntity
  8
_U+30EC_U+30A4_U+30E4_U+30FC 1
 62
   179
420
  2234388
370
    25
  0
POLYLINE
  5
57
330
1F
100
AcDbEntity
  8
_U+30EC_U+30A4_U+30E4_U+30FC 1
 62
   179
420
  2234388
370
    25
100
AcDb2dPolyline
 66
     1
 10
0.0
 20
0.0
 30
0.0
  0
VERTEX
  5
58
330
57
100
AcDbEntity
  8
_U+30EC_U+30A4_U+30E4_U+30FC 1
 62
   179
420
  2234388
370
    25
100
AcDbVertex
100
AcDb2dVertex
 10
81.34868375795551
 20
-119.2130655257524
 30
0.0
  0
VERTEX
  5
59
330
57
100
AcDbEntity
  8
_U+30EC_U+30A4_U+30E4_U+30FC 1
 62
   179
420
  2234388
370
    25
100
AcDbVertex
100
AcDb2dVertex
 10
94.3508375929096
 20
-119.2130655257524
 30
0.0
  0
SEQEND
  5
5A
330
57
100
AcDbEntity
  8
_U+30EC_U+30A4_U+30E4_U+30FC 1
 62
   179
420
  2234388
370
    25
  0
POLYLINE
  5
5B
330
1F
100
AcDbEntity
  8
_U+30EC_U+30A4_U+30E4_U+30FC 1
 62
   179
420
  2234388
370
    25
100
AcDb2dPolyline
 66
     1
 10
0.0
 20
0.0
 30
0.0
  0
VERTEX
  5
5C
330
5B
100
AcDbEntity
  8
_U+30EC_U+30A4_U+30E4_U+30FC 1
 62
   179
420
  2234388
370
    25
100
AcDbVertex
100
AcDb2dVertex
 10
102.3524018332171
 20
-131.7132521892938
 30
0.0
  0
VERTEX
  5
5D
330
5B
100
AcDbEntity
  8
_U+30EC_U+30A4_U+30E4_U+30FC 1
 62
   179
420
  2234388
370
    25
100
AcDbVertex
100
AcDb2dVertex
 10
103.3528795854706
 20
-131.7132521892938
 30
0.0
  0
SEQEND
  5
5E
330
5B
100
AcDbEntity
  8
_U+30EC_U+30A4_U+30E4_U+30FC 1
 62
   179
420
  2234388
370
    25
  0
POLYLINE
  5
5F
330
1F
100
AcDbEntity
  8
_U+30EC_U+30A4_U+30E4_U+30FC 1
 62
   179
420
  2234388
370
    25
100
AcDb2dPolyline
 66
     1
 10
0.0
 20
0.0
 30
0.0
  0
VERTEX
  5
60
330
5F
100
AcDbEntity
  8
_U+30EC_U+30A4_U+30E4_U+30FC 1
 62
   179
420
  2234388
370
    25
100
AcDbVertex
100
AcDb2dVertex
 10
93.35071261842491
 20
-134.7132391329881
 30
0.0
  0
VERTEX
  5
61
330
5F
100
AcDbEntity
  8
_U+30EC_U+30A4_U+30E4_U+30FC 1
 62
   179
420
  2234388
370
    25
100
AcDbVertex
100
AcDb2dVertex
 10
103.3528795854706
 20
-134.7132391329881
 30
0.0
  0
SEQEND
  5
62
330
5F
100
AcDbEntity
  8
_U+30EC_U+30A4_U+30E4_U+30FC 1
 62
   179
420
  2234388
370
    25
  0
POLYLINE
  5
63
330
1F
100
AcDbEntity
  8
_U+30EC_U+30A4_U+30E4_U+30FC 1
 62
   179
420
  2234388
370
    25
100
AcDb2dPolyline
 66
     1
 10
0.0
 20
0.0
 30
0.0
  0
VERTEX
  5
64
330
63
100
AcDbEntity
  8
_U+30EC_U+30A4_U+30E4_U+30FC 1
 62
   179
420
  2234388
370
    25
100
AcDbVertex
100
AcDb2dVertex
 10
81.34868375795551
 20
-120.2131552477245
 30
0.0
  0
VERTEX
  5
65
330
63
100
AcDbEntity
  8
_U+30EC_U+30A4_U+30E4_U+30FC 1
 62
   179
420
  2234388
370
    25
100
AcDbVertex
100
AcDb2dVertex
 10
93.35071261842491
 20
-120.2131552477245
 30
0.0
  0
SEQEND
  5
66
330
63
100
AcDbEntity
  8
_U+30EC_U+30A4_U+30E4_U+30FC 1
 62
   179
420
  2234388
370
    25
  0
POLYLINE
  5
67
330
1F
100
AcDbEntity
  8
_U+30EC_U+30A4_U+30E4_U+30FC 1
 62
   179
420
  2234388
370
    25
100
AcDb2dPolyline
 66
     1
 10
0.0
 20
0.0
 30
0.0
  0
VERTEX
  5
68
330
67
100
AcDbEntity
  8
_U+30EC_U+30A4_U+30E4_U+30FC 1
 62
   179
420
  2234388
370
    25
100
AcDbVertex
100
AcDb2dVertex
 10
93.35071261842491
 20
-134.7132391329881
 30
0.0
  0
VERTEX
  5
69
330
67
100
AcDbEntity
  8
_U+30EC_U+30A4_U+30E4_U+30FC 1
 62
   179
420
  2234388
370
    25
100
AcDbVertex
100
AcDb2dVertex
 10
93.35071261842491
 20
-120.2131552477245
 30
0.0
  0
SEQEND
  5
6A
330
67
100
AcDbEntity
  8
_U+30EC_U+30A4_U+30E4_U+30FC 1
 62
   179
420
  2234388
370
    25
  0
POLYLINE
  5
6B
330
1F
100
AcDbEntity
  8
_U+30EC_U+30A4_U+30E4_U+30FC 1
 62
   179
420
  2234388
370
    25
100
AcDb2dPolyline
 66
     1
 10
0.0
 20
0.0
 30
0.0
  0
VERTEX
  5
6C
330
6B
100
AcDbEntity
  8
_U+30EC_U+30A4_U+30E4_U+30FC 1
 62
   179
420
  2234388
370
    25
100
AcDbVertex
100
AcDb2dVertex
 10
94.3508375929096
 20
-133.7131141332384
 30
0.0
  0
VERTEX
  5
6D
330
6B
100
AcDbEntity
  8
_U+30EC_U+30A4_U+30E4_U+30FC 1
 62
   179
420
  2234388
370
    25
100
AcDbVertex
100
AcDb2dVertex
 10
94.3508375929096
 20
-119.2130655257524
 30
0.0
  0
SEQEND
  5
6E
330
6B
100
AcDbEntity
  8
_U+30EC_U+30A4_U+30E4_U+30FC 1
 62
   179
420
  2234388
370
    25
  0
POLYLINE
  5
6F
330
1F
100
AcDbEntity
  8
_U+30EC_U+30A4_U+30E4_U+30FC 1
 62
   179
420
  2234388
370
    25
100
AcDb2dPolyline
 66
     1
 10
0.0
 20
0.0
 30
0.0
  0
VERTEX
  5
70
330
6F
100
AcDbEntity
  8
_U+30EC_U+30A4_U+30E4_U+30FC 1
 62
   179
420
  2234388
370
    25
100
AcDbVertex
100
AcDb2dVertex
 10
94.3508375929096
 20
-133.7131141332384
 30
0.0
  0
VERTEX
  5
71
330
6F
100
AcDbEntity
  8
_U+30EC_U+30A4_U+30E4_U+30FC 1
 62
   179
420
  2234388
370
    25
100
AcDbVertex
100
AcDb2dVertex
 10
102.3524018332171
 20
-133.7131141332384
 30
0.0
  0
SEQEND
  5
72
330
6F
100
AcDbEntity
  8
_U+30EC_U+30A4_U+30E4_U+30FC 1
 62
   179
420
  2234388
370
    25
  0
POLYLINE
  5
73
330
1F
100
AcDbEntity
  8
_U+30EC_U+30A4_U+30E4_U+30FC 1
 62
   179
420
  2234388
370
    25
100
AcDb2dPolyline
 66
     1
 10
0.0
 20
0.0
 30
0.0
  0
VERTEX
  5
74
330
73
100
AcDbEntity
  8
_U+30EC_U+30A4_U+30E4_U+30FC 1
 62
   179
420
  2234388
370
    25
100
AcDbVertex
100
AcDb2dVertex
 10
102.3524018332171
 20
-133.7131141332384
 30
0.0
  0
VERTEX
  5
75
330
73
100
AcDbEntity
  8
_U+30EC_U+30A4_U+30E4_U+30FC 1
 62
   179
420
  2234388
370
    25
100
AcDbVertex
100
AcDb2dVertex
 10
102.3524018332171
 20
-131.7132521892938
 30
0.0
  0
SEQEND
  5
76
330
73
100
AcDbEntity
  8
_U+30EC_U+30A4_U+30E4_U+30FC 1
 62
   179
420
  2234388
370
    25
  0
SPLINE
  5
77
330
1F
100
AcDbEntity
  8
_U+30EC_U+30A4_U+30E4_U+30FC 1
 62
   179
420
  2234388
370
     9
100
AcDbSpline
210
0.0
220
0.0
230
1.0
 70
    11
 71
     3
 72
    17
 73
    13
 74
     0
 42
0.0000000001
 43
0.0000000001
 12
1.0
 22
0.0
 32
0.0
 13
1.0
 23
0.0
 33
0.0
 40
0.0
 40
0.0
 40
0.0
 40
0.0
 40
1.0
 40
1.0
 40
1.0
 40
2.0
 40
2.0
 40
2.0
 40
3.0
 40
3.0
 40
3.0
 40
4.0
 40
4.0
 40
4.0
 40
4.0
 10
107.4525100364359
 20
-119.2130655257524
 30
0.0
 10
107.4525100364359
 20
-119.1579263590993
 30
0.0
 10
107.407742537578
 20
-119.1131588591107
 30
0.0
 10
107.352603372318
 20
-119.1131588591107
 30
0.0
 10
107.297499484835
 20
-119.1131588591107
 30
0.0
 10
107.2526967082002
 20
-119.1579263590993
 30
0.0
 10
107.2526967082002
 20
-119.2130655257524
 30
0.0
 10
107.2526967082002
 20
-119.2681694146273
 30
0.0
 10
107.297499484835
 20
-119.312972192394
 30
0.0
 10
107.352603372318
 20
-119.312972192394
 30
0.0
 10
107.407742537578
 20
-119.312972192394
 30
0.0
 10
107.4525100364359
 20
-119.2681694146273
 30
0.0
 10
107.4525100364359
 20
-119.2130655257524
 30
0.0
  0
SPLINE
  5
78
330
1F
100
AcDbEntity
  8
_U+30EC_U+30A4_U+30E4_U+30FC 1
 62
   179
420
  2234388
370
     9
100
AcDbSpline
210
0.0
220
0.0
230
1.0
 70
    11
 71
     3
 72
    17
 73
    13
 74
     0
 42
0.0000000001
 43
0.0000000001
 12
1.0
 22
0.0
 32
0.0
 13
1.0
 23
0.0
 33
0.0
 40
0.0
 40
0.0
 40
0.0
 40
0.0
 40
1.0
 40
1.0
 40
1.0
 40
2.0
 40
2.0
 40
2.0
 40
3.0
 40
3.0
 40
3.0
 40
4.0
 40
4.0
 40
4.0
 40
4.0
 10
107.4525100364359
 20
-131.7132521892938
 30
0.0
 10
107.4525100364359
 20
-131.6581130226413
 30
0.0
 10
107.407742537578
 20
-131.6133102448746
 30
0.0
 10
107.352603372318
 20
-131.6133102448746
 30
0.0
 10
107.297499484835
 20
-131.6133102448746
 30
0.0
 10
107.2526967082002
 20
-131.6581130226413
 30
0.0
 10
107.2526967082002
 20
-131.7132521892938
 30
0.0
 10
107.2526967082002
 20
-131.7683560781693
 30
0.0
 10
107.297499484835
 20
-131.8131588559354
 30
0.0
 10
107.352603372318
 20
-131.8131588559354
 30
0.0
 10
107.407742537578
 20
-131.8131588559354
 30
0.0
 10
107.4525100364359
 20
-131.7683560781693
 30
0.0
 10
107.4525100364359
 20
-131.7132521892938
 30
0.0
  0
SPLINE
  5
79
330
1F
100
AcDbEntity
  8
_U+30EC_U+30A4_U+30E4_U+30FC 1
 62
   179
420
  2234388
370
     9
100
AcDbSpline
210
0.0
220
0.0
230
1.0
 70
    11
 71
     3
 72
    17
 73
    13
 74
     0
 42
0.0000000001
 43
0.0000000001
 12
1.0
 22
0.0
 32
0.0
 13
1.0
 23
0.0
 33
0.0
 40
0.0
 40
0.0
 40
0.0
 40
0.0
 40
1.0
 40
1.0
 40
1.0
 40
2.0
 40
2.0
 40
2.0
 40
3.0
 40
3.0
 40
3.0
 40
4.0
 40
4.0
 40
4.0
 40
4.0
 10
107.4525100364359
 20
-134.7132391329881
 30
0.0
 10
107.4525100364359
 20
-134.6580999663357
 30
0.0
 10
107.407742537578
 20
-134.6133324663465
 30
0.0
 10
107.352603372318
 20
-134.6133324663465
 30
0.0
 10
107.297499484835
 20
-134.6133324663465
 30
0.0
 10
107.2526967082002
 20
-134.6580999663357
 30
0.0
 10
107.2526967082002
 20
-134.7132391329881
 30
0.0
 10
107.2526967082002
 20
-134.7683430218637
 30
0.0
 10
107.297499484835
 20
-134.8131457996298
 30
0.0
 10
107.352603372318
 20
-134.8131457996298
 30
0.0
 10
107.407742537578
 20
-134.8131457996298
 30
0.0
 10
107.4525100364359
 20
-134.7683430218637
 30
0.0
 10
107.4525100364359
 20
-134.7132391329881
 30
0.0
  0
SPLINE
  5
7A
330
1F
100
AcDbEntity
  8
_U+30EC_U+30A4_U+30E4_U+30FC 1
 62
   179
420
  2234388
370
     9
100
AcDbSpline
210
0.0
220
0.0
230
1.0
 70
    11
 71
     3
 72
    17
 73
    13
 74
     0
 42
0.0000000001
 43
0.0000000001
 12
1.0
 22
0.0
 32
0.0
 13
1.0
 23
0.0
 33
0.0
 40
0.0
 40
0.0
 40
0.0
 40
0.0
 40
1.0
 40
1.0
 40
1.0
 40
2.0
 40
2.0
 40
2.0
 40
3.0
 40
3.0
 40
3.0
 40
4.0
 40
4.0
 40
4.0
 40
4.0
 10
103.4527888630258
 20
-138.7133157986552
 30
0.0
 10
103.4527888630258
 20
-138.6578591320019
 30
0.0
 10
103.4079860852591
 20
-138.6130563542358
 30
0.0
 10
103.3528795854706
 20
-138.6130563542358
 30
0.0
 10
103.2970348646731
 20
-138.6130563542358
 30
0.0
 10
103.2522673658152
 20
-138.6578591320019
 30
0.0
 10
103.2522673658152
 20
-138.7133157986552
 30
0.0
 10
103.2522673658152
 20
-138.7684549653077
 30
0.0
 10
103.2970348646731
 20
-138.8132224652969
 30
0.0
 10
103.3528795854706
 20
-138.8132224652969
 30
0.0
 10
103.4079860852591
 20
-138.8132224652969
 30
0.0
 10
103.4527888630258
 20
-138.7684549653077
 30
0.0
 10
103.4527888630258
 20
-138.7133157986552
 30
0.0
  0
SPLINE
  5
7B
330
1F
100
AcDbEntity
  8
_U+30EC_U+30A4_U+30E4_U+30FC 1
 62
   179
420
  2234388
370
     9
100
AcDbSpline
210
0.0
220
0.0
230
1.0
 70
    11
 71
     3
 72
    17
 73
    13
 74
     0
 42
0.0000000001
 43
0.0000000001
 12
1.0
 22
0.0
 32
0.0
 13
1.0
 23
0.0
 33
0.0
 40
0.0
 40
0.0
 40
0.0
 40
0.0
 40
1.0
 40
1.0
 40
1.0
 40
2.0
 40
2.0
 40
2.0
 40
3.0
 40
3.0
 40
3.0
 40
4.0
 40
4.0
 40
4.0
 40
4.0
 10
93.45061928254275
 20
-138.7133157986552
 30
0.0
 10
93.45061928254275
 20
-138.6578591320019
 30
0.0
 10
93.40585178368487
 20
-138.6130563542358
 30
0.0
 10
93.35071261842491
 20
-138.6130563542358
 30
0.0
 10
93.29561108778691
 20
-138.6130563542358
 30
0.0
 10
93.25080831002083
 20
-138.6578591320019
 30
0.0
 10
93.25080831002083
 20
-138.7133157986552
 30
0.0
 10
93.25080831002083
 20
-138.7684549653077
 30
0.0
 10
93.29561108778691
 20
-138.8132224652969
 30
0.0
 10
93.35071261842491
 20
-138.8132224652969
 30
0.0
 10
93.40585178368487
 20
-138.8132224652969
 30
0.0
 10
93.45061928254275
 20
-138.7684549653077
 30
0.0
 10
93.45061928254275
 20
-138.7133157986552
 30
0.0
  0
SPLINE
  5
7C
330
1F
100
AcDbEntity
  8
_U+30EC_U+30A4_U+30E4_U+30FC 1
 62
   179
420
  2234388
370
     9
100
AcDbSpline
210
0.0
220
0.0
230
1.0
 70
    11
 71
     3
 72
    17
 73
    13
 74
     0
 42
0.0000000001
 43
0.0000000001
 12
1.0
 22
0.0
 32
0.0
 13
1.0
 23
0.0
 33
0.0
 40
0.0
 40
0.0
 40
0.0
 40
0.0
 40
1.0
 40
1.0
 40
1.0
 40
2.0
 40
2.0
 40
2.0
 40
3.0
 40
3.0
 40
3.0
 40
4.0
 40
4.0
 40
4.0
 40
4.0
 10
81.44859042207335
 20
-138.7133157986552
 30
0.0
 10
81.44859042207335
 20
-138.6578591320019
 30
0.0
 10
81.40382497964912
 20
-138.6130563542358
 30
0.0
 10
81.34868375795551
 20
-138.6130563542358
 30
0.0
 10
81.29357987047244
 20
-138.6130563542358
 30
0.0
 10
81.24877709383767
 20
-138.6578591320019
 30
0.0
 10
81.24877709383767
 20
-138.7133157986552
 30
0.0
 10
81.24877709383767
 20
-138.7684549653077
 30
0.0
 10
81.29357987047244
 20
-138.8132224652969
 30
0.0
 10
81.34868375795551
 20
-138.8132224652969
 30
0.0
 10
81.40382497964912
 20
-138.8132224652969
 30
0.0
 10
81.44859042207335
 20
-138.7684549653077
 30
0.0
 10
81.44859042207335
 20
-138.7133157986552
 30
0.0
  0
SPLINE
  5
7D
330
1F
100
AcDbEntity
  8
_U+30EC_U+30A4_U+30E4_U+30FC 1
 62
   179
420
  2234388
370
     9
100
AcDbSpline
210
0.0
220
0.0
230
1.0
 70
    11
 71
     3
 72
    17
 73
    13
 74
     0
 42
0.0000000001
 43
0.0000000001
 12
1.0
 22
0.0
 32
0.0
 13
1.0
 23
0.0
 33
0.0
 40
0.0
 40
0.0
 40
0.0
 40
0.0
 40
1.0
 40
1.0
 40
1.0
 40
2.0
 40
2.0
 40
2.0
 40
3.0
 40
3.0
 40
3.0
 40
4.0
 40
4.0
 40
4.0
 40
4.0
 10
77.44816107968836
 20
-120.2131552477245
 30
0.0
 10
77.44816107968836
 20
-120.1580513588493
 30
0.0
 10
77.4033583030536
 20
-120.1132485810829
 30
0.0
 10
77.34825441557052
 20
-120.1132485810829
 30
0.0
 10
77.29311525031056
 20
-120.1132485810829
 30
0.0
 10
77.24834775145268
 20
-120.1580513588493
 30
0.0
 10
77.24834775145268
 20
-120.2131552477245
 30
0.0
 10
77.24834775145268
 20
-120.2686119143772
 30
0.0
 10
77.29311525031056
 20
-120.3134146921439
 30
0.0
 10
77.34825441557052
 20
-120.3134146921439
 30
0.0
 10
77.4033583030536
 20
-120.3134146921439
 30
0.0
 10
77.44816107968836
 20
-120.2686119143772
 30
0.0
 10
77.44816107968836
 20
-120.2131552477245
 30
0.0
  0
SPLINE
  5
7E
330
1F
100
AcDbEntity
  8
_U+30EC_U+30A4_U+30E4_U+30FC 1
 62
   179
420
  2234388
370
     9
100
AcDbSpline
210
0.0
220
0.0
230
1.0
 70
    11
 71
     3
 72
    17
 73
    13
 74
     0
 42
0.0000000001
 43
0.0000000001
 12
1.0
 22
0.0
 32
0.0
 13
1.0
 23
0.0
 33
0.0
 40
0.0
 40
0.0
 40
0.0
 40
0.0
 40
1.0
 40
1.0
 40
1.0
 40
2.0
 40
2.0
 40
2.0
 40
3.0
 40
3.0
 40
3.0
 40
4.0
 40
4.0
 40
4.0
 40
4.0
 10
77.44816107968836
 20
-119.2130655257524
 30
0.0
 10
77.44816107968836
 20
-119.1579263590993
 30
0.0
 10
77.4033583030536
 20
-119.1131588591107
 30
0.0
 10
77.34825441557052
 20
-119.1131588591107
 30
0.0
 10
77.29311525031056
 20
-119.1131588591107
 30
0.0
 10
77.24834775145268
 20
-119.1579263590993
 30
0.0
 10
77.24834775145268
 20
-119.2130655257524
 30
0.0
 10
77.24834775145268
 20
-119.2681694146273
 30
0.0
 10
77.29311525031056
 20
-119.312972192394
 30
0.0
 10
77.34825441557052
 20
-119.312972192394
 30
0.0
 10
77.4033583030536
 20
-119.312972192394
 30
0.0
 10
77.44816107968836
 20
-119.2681694146273
 30
0.0
 10
77.44816107968836
 20
-119.2130655257524
 30
0.0
  0
POLYLINE
  5
7F
330
1F
100
AcDbEntity
  8
_U+30EC_U+30A4_U+30E4_U+30FC 1
 62
   179
420
  2234388
370
     9
100
AcDb2dPolyline
 66
     1
 10
0.0
 20
0.0
 30
0.0
  0
VERTEX
  5
80
330
7F
100
AcDbEntity
  8
_U+30EC_U+30A4_U+30E4_U+30FC 1
 62
   179
420
  2234388
370
     9
100
AcDbVertex
100
AcDb2dVertex
 10
77.34825441557052
 20
-120.2131552477245
 30
0.0
  0
VERTEX
  5
81
330
7F
100
AcDbEntity
  8
_U+30EC_U+30A4_U+30E4_U+30FC 1
 62
   179
420
  2234388
370
     9
100
AcDbVertex
100
AcDb2dVertex
 10
77.34825441557052
 20
-123.9834677467819
 30
0.0
  0
SEQEND
  5
82
330
7F
100
AcDbEntity
  8
_U+30EC_U+30A4_U+30E4_U+30FC 1
 62
   179
420
  2234388
370
     9
  0
POLYLINE
  5
83
330
1F
100
AcDbEntity
  8
_U+30EC_U+30A4_U+30E4_U+30FC 1
 62
   179
420
  2234388
370
     9
100
AcDb2dPolyline
 66
     1
 10
0.0
 20
0.0
 30
0.0
  0
VERTEX
  5
84
330
83
100
AcDbEntity
  8
_U+30EC_U+30A4_U+30E4_U+30FC 1
 62
   179
420
  2234388
370
     9
100
AcDbVertex
100
AcDb2dVertex
 10
77.34825441557052
 20
-118.2132933037801
 30
0.0
  0
VERTEX
  5
85
330
83
100
AcDbEntity
  8
_U+30EC_U+30A4_U+30E4_U+30FC 1
 62
   179
420
  2234388
370
     9
100
AcDbVertex
100
AcDb2dVertex
 10
77.34825441557052
 20
-120.2131552477245
 30
0.0
  0
SEQEND
  5
86
330
83
100
AcDbEntity
  8
_U+30EC_U+30A4_U+30E4_U+30FC 1
 62
   179
420
  2234388
370
     9
  0
POLYLINE
  5
87
330
1F
100
AcDbEntity
  8
_U+30EC_U+30A4_U+30E4_U+30FC 1
 62
   179
420
  2234388
370
     9
100
AcDb2dPolyline
 66
     1
 10
0.0
 20
0.0
 30
0.0
  0
VERTEX
  5
88
330
87
100
AcDbEntity
  8
_U+30EC_U+30A4_U+30E4_U+30FC 1
 62
   179
420
  2234388
370
     9
100
AcDbVertex
100
AcDb2dVertex
 10
78.80861326720255
 20
-119.2130655257524
 30
0.0
  0
VERTEX
  5
89
330
87
100
AcDbEntity
  8
_U+30EC_U+30A4_U+30E4_U+30FC 1
 62
   179
420
  2234388
370
     9
100
AcDbVertex
100
AcDb2dVertex
 10
76.34777666331706
 20
-119.2130655257524
 30
0.0
  0
SEQEND
  5
8A
330
87
100
AcDbEntity
  8
_U+30EC_U+30A4_U+30E4_U+30FC 1
 62
   179
420
  2234388
370
     9
  0
POLYLINE
  5
8B
330
1F
100
AcDbEntity
  8
_U+30EC_U+30A4_U+30E4_U+30FC 1
 62
   179
420
  2234388
370
     9
100
AcDb2dPolyline
 66
     1
 10
0.0
 20
0.0
 30
0.0
  0
VERTEX
  5
8C
330
8B
100
AcDbEntity
  8
_U+30EC_U+30A4_U+30E4_U+30FC 1
 62
   179
420
  2234388
370
     9
100
AcDbVertex
100
AcDb2dVertex
 10
78.80861326720255
 20
-120.2131552477245
 30
0.0
  0
VERTEX
  5
8D
330
8B
100
AcDbEntity
  8
_U+30EC_U+30A4_U+30E4_U+30FC 1
 62
   179
420
  2234388
370
     9
100
AcDbVertex
100
AcDb2dVertex
 10
76.34777666331706
 20
-120.2131552477245
 30
0.0
  0
SEQEND
  5
8E
330
8B
100
AcDbEntity
  8
_U+30EC_U+30A4_U+30E4_U+30FC 1
 62
   179
420
  2234388
370
     9
  0
INSERT
  5
90
330
1F
100
AcDbEntity
  8
_U+30EC_U+30A4_U+30E4_U+30FC 1
100
AcDbBlockReference
  2
block 2
 10
0.0
 20
0.0
 30
0.0
  0
POLYLINE
  5
95
330
1F
100
AcDbEntity
  8
_U+30EC_U+30A4_U+30E4_U+30FC 1
 62
   179
420
  2234388
370
     9
100
AcDb2dPolyline
 66
     1
 10
0.0
 20
0.0
 30
0.0
  0
VERTEX
  5
96
330
95
100
AcDbEntity
  8
_U+30EC_U+30A4_U+30E4_U+30FC 1
 62
   179
420
  2234388
370
     9
100
AcDbVertex
100
AcDb2dVertex
 10
107.352603372318
 20
-134.7132391329881
 30
0.0
  0
VERTEX
  5
97
330
95
100
AcDbEntity
  8
_U+30EC_U+30A4_U+30E4_U+30FC 1
 62
   179
420
  2234388
370
     9
100
AcDbVertex
100
AcDb2dVertex
 10
107.352603372318
 20
-131.7132521892938
 30
0.0
  0
SEQEND
  5
98
330
95
100
AcDbEntity
  8
_U+30EC_U+30A4_U+30E4_U+30FC 1
 62
   179
420
  2234388
370
     9
  0
POLYLINE
  5
99
330
1F
100
AcDbEntity
  8
_U+30EC_U+30A4_U+30E4_U+30FC 1
 62
   179
420
  2234388
370
     9
100
AcDb2dPolyline
 66
     1
 10
0.0
 20
0.0
 30
0.0
  0
VERTEX
  5
9A
330
99
100
AcDbEntity
  8
_U+30EC_U+30A4_U+30E4_U+30FC 1
 62
   179
420
  2234388
370
     9
100
AcDbVertex
100
AcDb2dVertex
 10
105.8925999735267
 20
-134.7132391329881
 30
0.0
  0
VERTEX
  5
9B
330
99
100
AcDbEntity
  8
_U+30EC_U+30A4_U+30E4_U+30FC 1
 62
   179
420
  2234388
370
     9
100
AcDbVertex
100
AcDb2dVertex
 10
108.3523755690339
 20
-134.7132391329881
 30
0.0
  0
SEQEND
  5
9C
330
99
100
AcDbEntity
  8
_U+30EC_U+30A4_U+30E4_U+30FC 1
 62
   179
420
  2234388
370
     9
  0
POLYLINE
  5
9D
330
1F
100
AcDbEntity
  8
_U+30EC_U+30A4_U+30E4_U+30FC 1
 62
   179
420
  2234388
370
     9
100
AcDb2dPolyline
 66
     1
 10
0.0
 20
0.0
 30
0.0
  0
VERTEX
  5
9E
330
9D
100
AcDbEntity
  8
_U+30EC_U+30A4_U+30E4_U+30FC 1
 62
   179
420
  2234388
370
     9
100
AcDbVertex
100
AcDb2dVertex
 10
105.8925999735267
 20
-131.7132521892938
 30
0.0
  0
VERTEX
  5
9F
330
9D
100
AcDbEntity
  8
_U+30EC_U+30A4_U+30E4_U+30FC 1
 62
   179
420
  2234388
370
     9
100
AcDbVertex
100
AcDb2dVertex
 10
108.3523755690339
 20
-131.7132521892938
 30
0.0
  0
SEQEND
  5
A0
330
9D
100
AcDbEntity
  8
_U+30EC_U+30A4_U+30E4_U+30FC 1
 62
   179
420
  2234388
370
     9
  0
INSERT
  5
A2
330
1F
100
AcDbEntity
  8
_U+30EC_U+30A4_U+30E4_U+30FC 1
100
AcDbBlockReference
  2
block 3
 10
0.0
 20
0.0
 30
0.0
  0
POLYLINE
  5
A7
330
1F
100
AcDbEntity
  8
_U+30EC_U+30A4_U+30E4_U+30FC 1
 62
   179
420
  2234388
370
     9
100
AcDb2dPolyline
 66
     1
 10
0.0
 20
0.0
 30
0.0
  0
VERTEX
  5
A8
330
A7
100
AcDbEntity
  8
_U+30EC_U+30A4_U+30E4_U+30FC 1
 62
   179
420
  2234388
370
     9
100
AcDbVertex
100
AcDb2dVertex
 10
93.35071261842491
 20
-138.7133157986552
 30
0.0
  0
VERTEX
  5
A9
330
A7
100
AcDbEntity
  8
_U+30EC_U+30A4_U+30E4_U+30FC 1
 62
   179
420
  2234388
370
     9
100
AcDbVertex
100
AcDb2dVertex
 10
103.3528795854706
 20
-138.7133157986552
 30
0.0
  0
SEQEND
  5
AA
330
A7
100
AcDbEntity
  8
_U+30EC_U+30A4_U+30E4_U+30FC 1
 62
   179
420
  2234388
370
     9
  0
POLYLINE
  5
AB
330
1F
100
AcDbEntity
  8
_U+30EC_U+30A4_U+30E4_U+30FC 1
 62
   179
420
  2234388
370
     9
100
AcDb2dPolyline
 66
     1
 10
0.0
 20
0.0
 30
0.0
  0
VERTEX
  5
AC
330
AB
100
AcDbEntity
  8
_U+30EC_U+30A4_U+30E4_U+30FC 1
 62
   179
420
  2234388
370
     9
100
AcDbVertex
100
AcDb2dVertex
 10
93.35071261842491
 20
-137.2533096879091
 30
0.0
  0
VERTEX
  5
AD
330
AB
100
AcDbEntity
  8
_U+30EC_U+30A4_U+30E4_U+30FC 1
 62
   179
420
  2234388
370
     9
100
AcDbVertex
100
AcDb2dVertex
 10
93.35071261842491
 20
-139.7130880206271
 30
0.0
  0
SEQEND
  5
AE
330
AB
100
AcDbEntity
  8
_U+30EC_U+30A4_U+30E4_U+30FC 1
 62
   179
420
  2234388
370
     9
  0
POLYLINE
  5
AF
330
1F
100
AcDbEntity
  8
_U+30EC_U+30A4_U+30E4_U+30FC 1
 62
   179
420
  2234388
370
     9
100
AcDb2dPolyline
 66
     1
 10
0.0
 20
0.0
 30
0.0
  0
VERTEX
  5
B0
330
AF
100
AcDbEntity
  8
_U+30EC_U+30A4_U+30E4_U+30FC 1
 62
   179
420
  2234388
370
     9
100
AcDbVertex
100
AcDb2dVertex
 10
103.3528795854706
 20
-137.2533096879091
 30
0.0
  0
VERTEX
  5
B1
330
AF
100
AcDbEntity
  8
_U+30EC_U+30A4_U+30E4_U+30FC 1
 62
   179
420
  2234388
370
     9
100
AcDbVertex
100
AcDb2dVertex
 10
103.3528795854706
 20
-139.7130880206271
 30
0.0
  0
SEQEND
  5
B2
330
AF
100
AcDbEntity
  8
_U+30EC_U+30A4_U+30E4_U+30FC 1
 62
   179
420
  2234388
370
     9
  0
INSERT
  5
B4
330
1F
100
AcDbEntity
  8
_U+30EC_U+30A4_U+30E4_U+30FC 1
100
AcDbBlockReference
  2
block 4
 10
0.0
 20
0.0
 30
0.0
  0
POLYLINE
  5
BC
330
1F
100
AcDbEntity
  8
_U+30EC_U+30A4_U+30E4_U+30FC 1
 62
   179
420
  2234388
370
     9
100
AcDb2dPolyline
 66
     1
 10
0.0
 20
0.0
 30
0.0
  0
VERTEX
  5
BD
330
BC
100
AcDbEntity
  8
_U+30EC_U+30A4_U+30E4_U+30FC 1
 62
   179
420
  2234388
370
     9
100
AcDbVertex
100
AcDb2dVertex
 10
81.34868375795551
 20
-138.7133157986552
 30
0.0
  0
VERTEX
  5
BE
330
BC
100
AcDbEntity
  8
_U+30EC_U+30A4_U+30E4_U+30FC 1
 62
   179
420
  2234388
370
     9
100
AcDbVertex
100
AcDb2dVertex
 10
93.35071261842491
 20
-138.7133157986552
 30
0.0
  0
SEQEND
  5
BF
330
BC
100
AcDbEntity
  8
_U+30EC_U+30A4_U+30E4_U+30FC 1
 62
   179
420
  2234388
370
     9
  0
POLYLINE
  5
C0
330
1F
100
AcDbEntity
  8
_U+30EC_U+30A4_U+30E4_U+30FC 1
 62
   179
420
  2234388
370
     9
100
AcDb2dPolyline
 66
     1
 10
0.0
 20
0.0
 30
0.0
  0
VERTEX
  5
C1
330
C0
100
AcDbEntity
  8
_U+30EC_U+30A4_U+30E4_U+30FC 1
 62
   179
420
  2234388
370
     9
100
AcDbVertex
100
AcDb2dVertex
 10
81.34868375795551
 20
-122.7532258026451
 30
0.0
  0
VERTEX
  5
C2
330
C0
100
AcDbEntity
  8
_U+30EC_U+30A4_U+30E4_U+30FC 1
 62
   179
420
  2234388
370
     9
100
AcDbVertex
100
AcDb2dVertex
 10
81.34868375795551
 20
-139.7130880206271
 30
0.0
  0
SEQEND
  5
C3
330
C0
100
AcDbEntity
  8
_U+30EC_U+30A4_U+30E4_U+30FC 1
 62
   179
420
  2234388
370
     9
  0
INSERT
  5
C5
330
1F
100
AcDbEntity
  8
_U+30EC_U+30A4_U+30E4_U+30FC 1
100
AcDbBlockReference
  2
block 5
 10
0.0
 20
0.0
 30
0.0
  0
POLYLINE
  5
CC
330
1F
100
AcDbEntity
  8
_U+30EC_U+30A4_U+30E4_U+30FC 1
 62
   179
420
  2234388
370
     9
100
AcDb2dPolyline
 66
     1
 10
0.0
 20
0.0
 30
0.0
  0
VERTEX
  5
CD
330
CC
100
AcDbEntity
  8
_U+30EC_U+30A4_U+30E4_U+30FC 1
 62
   179
420
  2234388
370
     9
100
AcDbVertex
100
AcDb2dVertex
 10
107.352603372318
 20
-119.2130655257524
 30
0.0
  0
VERTEX
  5
CE
330
CC
100
AcDbEntity
  8
_U+30EC_U+30A4_U+30E4_U+30FC 1
 62
   179
420
  2234388
370
     9
100
AcDbVertex
100
AcDb2dVertex
 10
107.352603372318
 20
-131.7132521892938
 30
0.0
  0
SEQEND
  5
CF
330
CC
100
AcDbEntity
  8
_U+30EC_U+30A4_U+30E4_U+30FC 1
 62
   179
420
  2234388
370
     9
  0
POLYLINE
  5
D0
330
1F
100
AcDbEntity
  8
_U+30EC_U+30A4_U+30E4_U+30FC 1
 62
   179
420
  2234388
370
     9
100
AcDb2dPolyline
 66
     1
 10
0.0
 20
0.0
 30
0.0
  0
VERTEX
  5
D1
330
D0
100
AcDbEntity
  8
_U+30EC_U+30A4_U+30E4_U+30FC 1
 62
   179
420
  2234388
370
     9
100
AcDbVertex
100
AcDb2dVertex
 10
96.89157836142323
 20
-119.2130655257524
 30
0.0
  0
VERTEX
  5
D2
330
D0
100
AcDbEntity
  8
_U+30EC_U+30A4_U+30E4_U+30FC 1
 62
   179
420
  2234388
370
     9
100
AcDbVertex
100
AcDb2dVertex
 10
108.3523755690339
 20
-119.2130655257524
 30
0.0
  0
SEQEND
  5
D3
330
D0
100
AcDbEntity
  8
_U+30EC_U+30A4_U+30E4_U+30FC 1
 62
   179
420
  2234388
370
     9
  0
INSERT
  5
D5
330
1F
100
AcDbEntity
  8
_U+30EC_U+30A4_U+30E4_U+30FC 1
100
AcDbBlockReference
  2
block 6
 10
0.0
 20
0.0
 30
0.0
  0
ENDSEC
  0
SECTION
  2
OBJECTS
  0
DICTIONARY
  5
C
330
0
100
AcDbDictionary
281
     1
  3
ACAD_GROUP
350
D
  3
ACAD_LAYOUT
350
1A
  3
ACAD_MATERIAL
350
3B
  3
ACAD_MLEADERSTYLE
350
E7
  3
ACAD_MLINESTYLE
350
17
  3
ACAD_PLOTSETTINGS
350
19
  3
ACAD_PLOTSTYLENAME
350
E
  3
ACAD_TABLESTYLE
350
E6
  3
ACAD_VISUALSTYLE
350
2A
  0
SUN
  5
3F
330
29
100
AcDbSun
 90
        1
290
     0
 63
     7
421
 16777215
 40
1.0
291
     1
 91
  2455826
 92
 54000000
292
     0
 70
     2
 71
   256
280
     1
  0
DICTIONARY
  5
D
102
{ACAD_REACTORS
330
C
102
}
330
C
100
AcDbDictionary
281
     1
  0
DICTIONARY
  5
1A
102
{ACAD_REACTORS
330
C
102
}
330
C
100
AcDbDictionary
281
     1
  3
Layout1
350
1E
  3
Layout2
350
26
  3
Model
350
22
  0
DICTIONARY
  5
3B
102
{ACAD_REACTORS
330
C
102
}
330
C
100
AcDbDictionary
281
     1
  3
ByBlock
350
3D
  3
ByLayer
350
3C
  3
Global
350
3E
  0
DICTIONARY
  5
E7
102
{ACAD_REACTORS
330
C
102
}
330
C
100
AcDbDictionary
281
     1
  0
DICTIONARY
  5
17
102
{ACAD_REACTORS
330
C
102
}
330
C
100
AcDbDictionary
281
     1
  3
Standard
350
18
  0
DICTIONARY
  5
19
102
{ACAD_REACTORS
330
C
102
}
330
C
100
AcDbDictionary
281
     1
  0
ACDBDICTIONARYWDFLT
  5
E
102
{ACAD_REACTORS
330
C
102
}
330
C
100
AcDbDictionary
281
     1
  3
Normal
350
F
100
AcDbDictionaryWithDefault
340
F
  0
DICTIONARY
  5
E6
102
{ACAD_REACTORS
330
C
102
}
330
C
100
AcDbDictionary
281
     1
  0
DICTIONARY
  5
2A
102
{ACAD_REACTORS
330
C
102
}
330
C
100
AcDbDictionary
281
     1
  3
2dWireframe
350
2F
  3
3D Hidden
350
31
  3
3dWireframe
350
30
  3
Basic
350
32
  3
Brighten
350
36
  3
ColorChange
350
3A
  3
Conceptual
350
34
  3
Dim
350
35
  3
Facepattern
350
39
  3
Flat
350
2B
  3
FlatWithEdges
350
2C
  3
Gouraud
350
2D
  3
GouraudWithEdges
350
2E
  3
Linepattern
350
38
  3
Realistic
350
33
  3
Thicken
350
37
  0
LAYOUT
  5
1E
102
{ACAD_REACTORS
330
1A
102
}
330
1A
100
AcDbPlotSettings
  1

  2
none_device
  4

  6

 40
0.0
 41
0.0
 42
0.0
 43
0.0
 44
0.0
 45
0.0
 46
0.0
 47
0.0
 48
0.0
 49
0.0
140
0.0
141
0.0
142
1.0
143
1.0
 70
   688
 72
     0
 73
     0
 74
     5
  7

 75
    16
 76
     0
 77
     2
 78
   300
147
1.0
148
0.0
149
0.0
100
AcDbLayout
  1
Layout1
 70
     1
 71
     1
 10
0.0
 20
0.0
 11
12.0
 21
9.0
 12
0.0
 22
0.0
 32
0.0
 14
1.000000000000000E+20
 24
1.000000000000000E+20
 34
1.000000000000000E+20
 15
-1.000000000000000E+20
 25
-1.000000000000000E+20
 35
-1.000000000000000E+20
146
0.0
 13
0.0
 23
0.0
 33
0.0
 16
1.0
 26
0.0
 36
0.0
 17
0.0
 27
1.0
 37
0.0
 76
     0
330
1B
  0
LAYOUT
  5
26
102
{ACAD_REACTORS
330
1A
102
}
330
1A
100
AcDbPlotSettings
  1

  2
none_device
  4

  6

 40
0.0
 41
0.0
 42
0.0
 43
0.0
 44
0.0
 45
0.0
 46
0.0
 47
0.0
 48
0.0
 49
0.0
140
0.0
141
0.0
142
1.0
143
1.0
 70
   688
 72
     0
 73
     0
 74
     5
  7

 75
    16
 76
     0
 77
     2
 78
   300
147
1.0
148
0.0
149
0.0
100
AcDbLayout
  1
Layout2
 70
     1
 71
     2
 10
0.0
 20
0.0
 11
0.0
 21
0.0
 12
0.0
 22
0.0
 32
0.0
 14
0.0
 24
0.0
 34
0.0
 15
0.0
 25
0.0
 35
0.0
146
0.0
 13
0.0
 23
0.0
 33
0.0
 16
1.0
 26
0.0
 36
0.0
 17
0.0
 27
1.0
 37
0.0
 76
     0
330
23
  0
LAYOUT
  5
22
102
{ACAD_REACTORS
330
1A
102
}
330
1A
100
AcDbPlotSettings
  1

  2
none_device
  4

  6

 40
0.0
 41
0.0
 42
0.0
 43
0.0
 44
0.0
 45
0.0
 46
0.0
 47
0.0
 48
0.0
 49
0.0
140
0.0
141
0.0
142
1.0
143
1.0
 70
  1712
 72
     0
 73
     0
 74
     0
  7

 75
     0
 76
     0
 77
     2
 78
   300
147
1.0
148
0.0
149
0.0
100
AcDbLayout
  1
Model
 70
     1
 71
     0
 10
0.0
 20
0.0
 11
12.0
 21
9.0
 12
0.0
 22
0.0
 32
0.0
 14
1.000000000000000E+20
 24
1.000000000000000E+20
 34
1.000000000000000E+20
 15
-1.000000000000000E+20
 25
-1.000000000000000E+20
 35
-1.000000000000000E+20
146
0.0
 13
0.0
 23
0.0
 33
0.0
 16
1.0
 26
0.0
 36
0.0
 17
0.0
 27
1.0
 37
0.0
 76
     0
330
1F
331
29
  0
MATERIAL
  5
3D
102
{ACAD_REACTORS
330
3B
102
}
330
3B
100
AcDbMaterial
  1
ByBlock
 72
     1
 94
      127
  0
MATERIAL
  5
3C
102
{ACAD_REACTORS
330
3B
102
}
330
3B
100
AcDbMaterial
  1
ByLayer
 72
     1
 94
      127
  0
MATERIAL
  5
3E
102
{ACAD_REACTORS
330
3B
102
}
330
3B
100
AcDbMaterial
  1
Global
 72
     1
 94
      127
  0
MLINESTYLE
  5
18
102
{ACAD_REACTORS
330
17
102
}
330
17
100
AcDbMlineStyle
  2
Standard
 70
     0
  3

 62
   256
 51
90.0
 52
90.0
 71
     2
 49
0.5
 62
   256
  6
BYLAYER
 49
-0.5
 62
   256
  6
BYLAYER
  0
ACDBPLACEHOLDER
  5
F
102
{ACAD_REACTORS
330
E
102
}
330
E
  0
VISUALSTYLE
  5
2F
102
{ACAD_REACTORS
330
2A
102
}
330
2A
100
AcDbVisualStyle
  2
2dWireframe
 70
     4
177
     2
291
     0
 71
     0
176
     1
 72
     2
176
     1
 73
     0
176
     1
 90
        0
176
     1
 40
-0.6
176
     1
 41
-30.0
176
     1
 62
     5
 63
     7
421
 16777215
176
     1
 74
     1
176
     1
 91
        4
176
     1
 64
     7
176
     1
 65
   257
176
     1
 75
     1
176
     1
175
     1
176
     1
 42
1.0
176
     1
 92
        0
176
     1
 66
   257
176
     1
 43
1.0
176
     1
 76
     1
176
     1
 77
     6
176
     1
 78
     2
176
     1
 67
     7
176
     1
 79
     5
176
     1
170
     0
176
     1
171
     0
176
     1
290
     0
176
     1
 93
        1
176
     1
 44
0.0
176
     1
173
     0
176
     1
  0
VISUALSTYLE
  5
31
102
{ACAD_REACTORS
330
2A
102
}
330
2A
100
AcDbVisualStyle
  2
3D Hidden
 70
     6
177
     2
291
     0
 71
     1
176
     1
 72
     2
176
     1
 73
     2
176
     1
 90
        0
176
     1
 40
-0.6
176
     1
 41
-30.0
176
     1
 62
     5
 63
     7
421
 16777215
176
     1
 74
     2
176
     1
 91
        2
176
     1
 64
     7
176
     1
 65
   257
176
     1
 75
     2
176
     1
175
     1
176
     1
 42
40.0
176
     1
 92
        0
176
     1
 66
   257
176
     1
 43
1.0
176
     1
 76
     1
176
     1
 77
     6
176
     1
 78
     2
176
     1
 67
     7
176
     1
 79
     3
176
     1
170
     0
176
     1
171
     0
176
     1
290
     0
176
     1
 93
        1
176
     1
 44
0.0
176
     1
173
     0
176
     1
  0
VISUALSTYLE
  5
30
102
{ACAD_REACTORS
330
2A
102
}
330
2A
100
AcDbVisualStyle
  2
3dWireframe
 70
     5
177
     2
291
     0
 71
     0
176
     1
 72
     2
176
     1
 73
     0
176
     1
 90
        0
176
     1
 40
-0.6
176
     1
 41
-30.0
176
     1
 62
     5
 63
     7
421
 16777215
176
     1
 74
     1
176
     1
 91
        4
176
     1
 64
     7
176
     1
 65
   257
176
     1
 75
     1
176
     1
175
     1
176
     1
 42
1.0
176
     1
 92
        0
176
     1
 66
   257
176
     1
 43
1.0
176
     1
 76
     1
176
     1
 77
     6
176
     1
 78
     2
176
     1
 67
     7
176
     1
 79
     5
176
     1
170
     0
176
     1
171
     0
176
     1
290
     0
176
     1
 93
        1
176
     1
 44
0.0
176
     1
173
     0
176
     1
  0
VISUALSTYLE
  5
32
102
{ACAD_REACTORS
330
2A
102
}
330
2A
100
AcDbVisualStyle
  2
Basic
 70
     7
177
     2
291
     1
 71
     1
176
     1
 72
     0
176
     1
 73
     1
176
     1
 90
        0
176
     1
 40
-0.6
176
     1
 41
-30.0
176
     1
 62
     5
 63
     7
421
 16777215
176
     1
 74
     0
176
     1
 91
        4
176
     1
 64
     7
176
     1
 65
   257
176
     1
 75
     1
176
     1
175
     1
176
     1
 42
1.0
176
     1
 92
        8
176
     1
 66
     7
176
     1
 43
1.0
176
     1
 76
     1
176
     1
 77
     6
176
     1
 78
     2
176
     1
 67
     7
176
     1
 79
     5
176
     1
170
     0
176
     1
171
     0
176
     1
290
     0
176
     1
 93
        1
176
     1
 44
0.0
176
     1
173
     0
176
     1
  0
VISUALSTYLE
  5
36
102
{ACAD_REACTORS
330
2A
102
}
330
2A
100
AcDbVisualStyle
  2
Brighten
 70
    12
177
     2
291
     1
 71
     2
176
     1
 72
     2
176
     1
 73
     0
176
     1
 90
        0
176
     1
 40
-0.6
176
     1
 41
-30.0
176
     1
 62
     5
 63
     7
421
 16777215
176
     1
 74
     1
176
     1
 91
        4
176
     1
 64
     7
176
     1
 65
   257
176
     1
 75
     1
176
     1
175
     1
176
     1
 42
1.0
176
     1
 92
        8
176
     1
 66
     7
176
     1
 43
1.0
176
     1
 76
     1
176
     1
 77
     6
176
     1
 78
     2
176
     1
 67
     7
176
     1
 79
     5
176
     1
170
     0
176
     1
171
     0
176
     1
290
     0
176
     1
 93
        1
176
     1
 44
50.0
176
     1
173
     0
176
     1
  0
VISUALSTYLE
  5
3A
102
{ACAD_REACTORS
330
2A
102
}
330
2A
100
AcDbVisualStyle
  2
ColorChange
 70
    16
177
     2
291
     1
 71
     2
176
     1
 72
     2
176
     1
 73
     3
176
     1
 90
        0
176
     1
 40
-0.6
176
     1
 41
-30.0
176
     1
 62
     5
 63
     8
421
  8421504
176
     1
 74
     1
176
     1
 91
        4
176
     1
 64
     7
176
     1
 65
   257
176
     1
 75
     1
176
     1
175
     1
176
     1
 42
1.0
176
     1
 92
        8
176
     1
 66
     8
424
  8421504
176
     1
 43
1.0
176
     1
 76
     1
176
     1
 77
     6
176
     1
 78
     2
176
     1
 67
     7
176
     1
 79
     5
176
     1
170
     0
176
     1
171
     0
176
     1
290
     0
176
     1
 93
        1
176
     1
 44
0.0
176
     1
173
     0
176
     1
  0
VISUALSTYLE
  5
34
102
{ACAD_REACTORS
330
2A
102
}
330
2A
100
AcDbVisualStyle
  2
Conceptual
 70
     9
177
     2
291
     0
 71
     3
176
     1
 72
     2
176
     1
 73
     0
176
     1
 90
        0
176
     1
 40
-0.6
176
     1
 41
-30.0
176
     1
 62
     5
 63
     7
421
 16777215
176
     1
 74
     2
176
     1
 91
        2
176
     1
 64
     7
176
     1
 65
   257
176
     1
 75
     1
176
     1
175
     1
176
     1
 42
40.0
176
     1
 92
        8
176
     1
 66
     7
176
     1
 43
1.0
176
     1
 76
     1
176
     1
 77
     6
176
     1
 78
     2
176
     1
 67
     7
176
     1
 79
     3
176
     1
170
     0
176
     1
171
     0
176
     1
290
     0
176
     1
 93
        1
176
     1
 44
0.0
176
     1
173
     0
176
     1
  0
VISUALSTYLE
  5
35
102
{ACAD_REACTORS
330
2A
102
}
330
2A
100
AcDbVisualStyle
  2
Dim
 70
    11
177
     2
291
     1
 71
     2
176
     1
 72
     2
176
     1
 73
     0
176
     1
 90
        0
176
     1
 40
-0.6
176
     1
 41
-30.0
176
     1
 62
     5
 63
     7
421
 16777215
176
     1
 74
     1
176
     1
 91
        4
176
     1
 64
     7
176
     1
 65
   257
176
     1
 75
     1
176
     1
175
     1
176
     1
 42
1.0
176
     1
 92
        8
176
     1
 66
     7
176
     1
 43
1.0
176
     1
 76
     1
176
     1
 77
     6
176
     1
 78
     2
176
     1
 67
     7
176
     1
 79
     5
176
     1
170
     0
176
     1
171
     0
176
     1
290
     0
176
     1
 93
        1
176
     1
 44
-50.0
176
     1
173
     0
176
     1
  0
VISUALSTYLE
  5
39
102
{ACAD_REACTORS
330
2A
102
}
330
2A
100
AcDbVisualStyle
  2
Facepattern
 70
    15
177
     2
291
     1
 71
     2
176
     1
 72
     2
176
     1
 73
     0
176
     1
 90
        0
176
     1
 40
-0.6
176
     1
 41
-30.0
176
     1
 62
     5
 63
     7
421
 16777215
176
     1
 74
     1
176
     1
 91
        4
176
     1
 64
     7
176
     1
 65
   257
176
     1
 75
     1
176
     1
175
     1
176
     1
 42
1.0
176
     1
 92
        8
176
     1
 66
     7
176
     1
 43
1.0
176
     1
 76
     1
176
     1
 77
     6
176
     1
 78
     2
176
     1
 67
     7
176
     1
 79
     5
176
     1
170
     0
176
     1
171
     0
176
     1
290
     0
176
     1
 93
        1
176
     1
 44
0.0
176
     1
173
     0
176
     1
  0
VISUALSTYLE
  5
2B
102
{ACAD_REACTORS
330
2A
102
}
330
2A
100
AcDbVisualStyle
  2
Flat
 70
     0
177
     2
291
     1
 71
     2
176
     1
 72
     1
176
     1
 73
     1
176
     1
 90
        2
176
     1
 40
-0.6
176
     1
 41
30.0
176
     1
 62
     5
 63
     7
421
 16777215
176
     1
 74
     0
176
     1
 91
        4
176
     1
 64
     7
176
     1
 65
   257
176
     1
 75
     1
176
     1
175
     1
176
     1
 42
1.0
176
     1
 92
        8
176
     1
 66
     7
176
     1
 43
1.0
176
     1
 76
     1
176
     1
 77
     6
176
     1
 78
     2
176
     1
 67
     7
176
     1
 79
     5
176
     1
170
     0
176
     1
171
     0
176
     1
290
     0
176
     1
 93
       13
176
     1
 44
0.0
176
     1
173
     0
176
     1
  0
VISUALSTYLE
  5
2C
102
{ACAD_REACTORS
330
2A
102
}
330
2A
100
AcDbVisualStyle
  2
FlatWithEdges
 70
     1
177
     2
291
     1
 71
     2
176
     1
 72
     1
176
     1
 73
     1
176
     1
 90
        2
176
     1
 40
-0.6
176
     1
 41
30.0
176
     1
 62
     5
 63
     7
421
 16777215
176
     1
 74
     1
176
     1
 91
        4
176
     1
 64
     7
176
     1
 65
   257
176
     1
 75
     1
176
     1
175
     1
176
     1
 42
1.0
176
     1
 92
        0
176
     1
 66
   257
176
     1
 43
1.0
176
     1
 76
     1
176
     1
 77
     6
176
     1
 78
     2
176
     1
 67
     7
176
     1
 79
     5
176
     1
170
     0
176
     1
171
     0
176
     1
290
     0
176
     1
 93
       13
176
     1
 44
0.0
176
     1
173
     0
176
     1
  0
VISUALSTYLE
  5
2D
102
{ACAD_REACTORS
330
2A
102
}
330
2A
100
AcDbVisualStyle
  2
Gouraud
 70
     2
177
     2
291
     1
 71
     2
176
     1
 72
     2
176
     1
 73
     1
176
     1
 90
        2
176
     1
 40
-0.6
176
     1
 41
30.0
176
     1
 62
     5
 63
     7
421
 16777215
176
     1
 74
     0
176
     1
 91
        4
176
     1
 64
     7
176
     1
 65
   257
176
     1
 75
     1
176
     1
175
     1
176
     1
 42
1.0
176
     1
 92
        0
176
     1
 66
     7
176
     1
 43
1.0
176
     1
 76
     1
176
     1
 77
     6
176
     1
 78
     2
176
     1
 67
     7
176
     1
 79
     5
176
     1
170
     0
176
     1
171
     0
176
     1
290
     0
176
     1
 93
       13
176
     1
 44
0.0
176
     1
173
     0
176
     1
  0
VISUALSTYLE
  5
2E
102
{ACAD_REACTORS
330
2A
102
}
330
2A
100
AcDbVisualStyle
  2
GouraudWithEdges
 70
     3
177
     2
291
     1
 71
     2
176
     1
 72
     2
176
     1
 73
     1
176
     1
 90
        2
176
     1
 40
-0.6
176
     1
 41
30.0
176
     1
 62
     5
 63
     7
421
 16777215
176
     1
 74
     1
176
     1
 91
        4
176
     1
 64
     7
176
     1
 65
   257
176
     1
 75
     1
176
     1
175
     1
176
     1
 42
1.0
176
     1
 92
        0
176
     1
 66
   257
176
     1
 43
1.0
176
     1
 76
     1
176
     1
 77
     6
176
     1
 78
     2
176
     1
 67
     7
176
     1
 79
     5
176
     1
170
     0
176
     1
171
     0
176
     1
290
     0
176
     1
 93
       13
176
     1
 44
0.0
176
     1
173
     0
176
     1
  0
VISUALSTYLE
  5
38
102
{ACAD_REACTORS
330
2A
102
}
330
2A
100
AcDbVisualStyle
  2
Linepattern
 70
    14
177
     2
291
     1
 71
     2
176
     1
 72
     2
176
     1
 73
     0
176
     1
 90
        0
176
     1
 40
-0.6
176
     1
 41
-30.0
176
     1
 62
     5
 63
     7
421
 16777215
176
     1
 74
     1
176
     1
 91
        4
176
     1
 64
     7
176
     1
 65
   257
176
     1
 75
     7
176
     1
175
     7
176
     1
 42
1.0
176
     1
 92
        8
176
     1
 66
     7
176
     1
 43
1.0
176
     1
 76
     1
176
     1
 77
     6
176
     1
 78
     2
176
     1
 67
     7
176
     1
 79
     5
176
     1
170
     0
176
     1
171
     0
176
     1
290
     0
176
     1
 93
        1
176
     1
 44
0.0
176
     1
173
     0
176
     1
  0
VISUALSTYLE
  5
33
102
{ACAD_REACTORS
330
2A
102
}
330
2A
100
AcDbVisualStyle
  2
Realistic
 70
     8
177
     2
291
     0
 71
     2
176
     1
 72
     2
176
     1
 73
     0
176
     1
 90
        0
176
     1
 40
-0.6
176
     1
 41
-30.0
176
     1
 62
     5
 63
     7
421
 16777215
176
     1
 74
     1
176
     1
 91
        0
176
     1
 64
     7
176
     1
 65
   257
176
     1
 75
     1
176
     1
175
     1
176
     1
 42
1.0
176
     1
 92
        8
176
     1
 66
     8
424
  7895160
176
     1
 43
1.0
176
     1
 76
     1
176
     1
 77
     6
176
     1
 78
     2
176
     1
 67
     7
176
     1
 79
     5
176
     1
170
     0
176
     1
171
     0
176
     1
290
     0
176
     1
 93
       13
176
     1
 44
0.0
176
     1
173
     0
176
     1
  0
VISUALSTYLE
  5
37
102
{ACAD_REACTORS
330
2A
102
}
330
2A
100
AcDbVisualStyle
  2
Thicken
 70
    13
177
     2
291
     1
 71
     2
176
     1
 72
     2
176
     1
 73
     0
176
     1
 90
        0
176
     1
 40
-0.6
176
     1
 41
-30.0
176
     1
 62
     5
 63
     7
421
 16777215
176
     1
 74
     1
176
     1
 91
        4
176
     1
 64
     7
176
     1
 65
   257
176
     1
 75
     1
176
     1
175
     1
176
     1
 42
1.0
176
     1
 92
       12
176
     1
 66
     7
176
     1
 43
1.0
176
     1
 76
     1
176
     1
 77
     6
176
     1
 78
     2
176
     1
 67
     7
176
     1
 79
     5
176
     1
170
     0
176
     1
171
     0
176
     1
290
     0
176
     1
 93
        1
176
     1
 44
0.0
176
     1
173
     0
176
     1
  0
ENDSEC
  0
EOF
