  0
SECTION
  2
HEADER
  9
$ACADVER
  1
AC1024
  9
$ACADMAINTVER
 70
     6
  9
$DWGCODEPAGE
  3
UNDEFINED
  9
$INSBASE
 10
0.0
 20
0.0
 30
0.0
  9
$EXTMIN
 10
1.000000000000000E+20
 20
1.000000000000000E+20
 30
1.000000000000000E+20
  9
$EXTMAX
 10
-1.000000000000000E+20
 20
-1.000000000000000E+20
 30
-1.000000000000000E+20
  9
$LIMMIN
 10
0.0
 20
0.0
  9
$LIMMAX
 10
12.0
 20
9.0
  9
$ORTHOMODE
 70
     0
  9
$REGENMODE
 70
     1
  9
$FILLMODE
 70
     1
  9
$QTEXTMODE
 70
     0
  9
$MIRRTEXT
 70
     1
  9
$LTSCALE
 40
1.0
  9
$ATTMODE
 70
     1
  9
$TEXTSIZE
 40
0.2
  9
$TRACEWID
 40
0.05
  9
$TEXTSTYLE
  7
Standard
  9
$CLAYER
  8
0
  9
$CELTYPE
  6
ByLayer
  9
$CECOLOR
 62
   256
  9
$CELTSCALE
 40
1.0
  9
$DISPSILH
 70
     0
  9
$DIMSCALE
 40
1.0
  9
$DIMASZ
 40
0.18
  9
$DIMEXO
 40
0.0625
  9
$DIMDLI
 40
0.38
  9
$DIMRND
 40
0.0
  9
$DIMDLE
 40
0.0
  9
$DIMEXE
 40
0.18
  9
$DIMTP
 40
0.0
  9
$DIMTM
 40
0.0
  9
$DIMTXT
 40
0.18
  9
$DIMCEN
 40
0.09
  9
$DIMTSZ
 40
0.0
  9
$DIMTOL
 70
     0
  9
$DIMLIM
 70
     0
  9
$DIMTIH
 70
     1
  9
$DIMTOH
 70
     1
  9
$DIMSE1
 70
     0
  9
$DIMSE2
 70
     0
  9
$DIMTAD
 70
     0
  9
$DIMZIN
 70
     0
  9
$DIMBLK
  1

  9
$DIMASO
 70
     1
  9
$DIMSHO
 70
     1
  9
$DIMPOST
  1

  9
$DIMAPOST
  1

  9
$DIMALT
 70
     0
  9
$DIMALTD
 70
     2
  9
$DIMALTF
 40
25.4
  9
$DIMLFAC
 40
1.0
  9
$DIMTOFL
 70
     0
  9
$DIMTVP
 40
0.0
  9
$DIMTIX
 70
     0
  9
$DIMSOXD
 70
     0
  9
$DIMSAH
 70
     0
  9
$DIMBLK1
  1

  9
$DIMBLK2
  1

  9
$DIMSTYLE
  2
Standard
  9
$DIMCLRD
 70
     0
  9
$DIMCLRE
 70
     0
  9
$DIMCLRT
 70
     0
  9
$DIMTFAC
 40
1.0
  9
$DIMGAP
 40
0.09
  9
$DIMJUST
 70
     0
  9
$DIMSD1
 70
     0
  9
$DIMSD2
 70
     0
  9
$DIMTOLJ
 70
     1
  9
$DIMTZIN
 70
     0
  9
$DIMALTZ
 70
     0
  9
$DIMALTTZ
 70
     0
  9
$DIMUPT
 70
     0
  9
$DIMDEC
 70
     4
  9
$DIMTDEC
 70
     4
  9
$DIMALTU
 70
     2
  9
$DIMALTTD
 70
     2
  9
$DIMTXSTY
  7
Standard
  9
$DIMAUNIT
 70
     0
  9
$DIMADEC
 70
     0
  9
$DIMALTRND
 40
0.0
  9
$DIMAZIN
 70
     0
  9
$DIMDSEP
 70
    46
  9
$DIMATFIT
 70
     3
  9
$DIMFRAC
 70
     0
  9
$DIMLDRBLK
  1

  9
$DIMLUNIT
 70
     2
  9
$DIMLWD
 70
    -2
  9
$DIMLWE
 70
    -2
  9
$DIMTMOVE
 70
     0
  9
$DIMFXL
 40
1.0
  9
$DIMFXLON
 70
     0
  9
$DIMJOGANG
 40
0.7853981633974483
  9
$DIMTFILL
 70
     0
  9
$DIMTFILLCLR
 70
     0
  9
$DIMARCSYM
 70
     0
  9
$DIMLTYPE
  6

  9
$DIMLTEX1
  6

  9
$DIMLTEX2
  6

  9
$DIMTXTDIRECTION
 70
     0
  9
$LUNITS
 70
     2
  9
$LUPREC
 70
     4
  9
$SKETCHINC
 40
0.1
  9
$FILLETRAD
 40
0.5
  9
$AUNITS
 70
     0
  9
$AUPREC
 70
     0
  9
$MENU
  1
.
  9
$ELEVATION
 40
0.0
  9
$PELEVATION
 40
0.0
  9
$THICKNESS
 40
0.0
  9
$LIMCHECK
 70
     0
  9
$CHAMFERA
 40
0.5
  9
$CHAMFERB
 40
0.5
  9
$CHAMFERC
 40
1.0
  9
$CHAMFERD
 40
0.0
  9
$SKPOLY
 70
     0
  9
$TDCREATE
 40
2457917.617037025
  9
$TDUCREATE
 40
2457917.242037037
  9
$TDUPDATE
 40
2457917.617037025
  9
$TDUUPDATE
 40
2457917.242037037
  9
$TDINDWG
 40
0.0000000116
  9
$TDUSRTIMER
 40
0.0000000116
  9
$USRTIMER
 70
     1
  9
$ANGBASE
 50
0.0
  9
$ANGDIR
 70
     0
  9
$PDMODE
 70
     0
  9
$PDSIZE
 40
0.0
  9
$PLINEWID
 40
0.0
  9
$SPLFRAME
 70
     0
  9
$SPLINETYPE
 70
     6
  9
$SPLINESEGS
 70
     8
  9
$HANDSEED
  5
E7
  9
$SURFTAB1
 70
     6
  9
$SURFTAB2
 70
     6
  9
$SURFTYPE
 70
     6
  9
$SURFU
 70
     6
  9
$SURFV
 70
     6
  9
$UCSBASE
  2

  9
$UCSNAME
  2

  9
$UCSORG
 10
0.0
 20
0.0
 30
0.0
  9
$UCSXDIR
 10
1.0
 20
0.0
 30
0.0
  9
$UCSYDIR
 10
0.0
 20
1.0
 30
0.0
  9
$UCSORTHOREF
  2

  9
$UCSORTHOVIEW
 70
     0
  9
$UCSORGTOP
 10
0.0
 20
0.0
 30
0.0
  9
$UCSORGBOTTOM
 10
0.0
 20
0.0
 30
0.0
  9
$UCSORGLEFT
 10
0.0
 20
0.0
 30
0.0
  9
$UCSORGRIGHT
 10
0.0
 20
0.0
 30
0.0
  9
$UCSORGFRONT
 10
0.0
 20
0.0
 30
0.0
  9
$UCSORGBACK
 10
0.0
 20
0.0
 30
0.0
  9
$PUCSBASE
  2

  9
$PUCSNAME
  2

  9
$PUCSORG
 10
0.0
 20
0.0
 30
0.0
  9
$PUCSXDIR
 10
1.0
 20
0.0
 30
0.0
  9
$PUCSYDIR
 10
0.0
 20
1.0
 30
0.0
  9
$PUCSORTHOREF
  2

  9
$PUCSORTHOVIEW
 70
     0
  9
$PUCSORGTOP
 10
0.0
 20
0.0
 30
0.0
  9
$PUCSORGBOTTOM
 10
0.0
 20
0.0
 30
0.0
  9
$PUCSORGLEFT
 10
0.0
 20
0.0
 30
0.0
  9
$PUCSORGRIGHT
 10
0.0
 20
0.0
 30
0.0
  9
$PUCSORGFRONT
 10
0.0
 20
0.0
 30
0.0
  9
$PUCSORGBACK
 10
0.0
 20
0.0
 30
0.0
  9
$USERI1
 70
     0
  9
$USERI2
 70
     0
  9
$USERI3
 70
     0
  9
$USERI4
 70
     0
  9
$USERI5
 70
     0
  9
$USERR1
 40
0.0
  9
$USERR2
 40
0.0
  9
$USERR3
 40
0.0
  9
$USERR4
 40
0.0
  9
$USERR5
 40
0.0
  9
$WORLDVIEW
 70
     1
  9
$SHADEDGE
 70
     3
  9
$SHADEDIF
 70
    70
  9
$TILEMODE
 70
     1
  9
$MAXACTVP
 70
    64
  9
$PINSBASE
 10
0.0
 20
0.0
 30
0.0
  9
$PLIMCHECK
 70
     0
  9
$PEXTMIN
 10
1.000000000000000E+20
 20
1.000000000000000E+20
 30
1.000000000000000E+20
  9
$PEXTMAX
 10
-1.000000000000000E+20
 20
-1.000000000000000E+20
 30
-1.000000000000000E+20
  9
$PLIMMIN
 10
0.0
 20
0.0
  9
$PLIMMAX
 10
12.0
 20
9.0
  9
$UNITMODE
 70
     0
  9
$VISRETAIN
 70
     1
  9
$PLINEGEN
 70
     0
  9
$PSLTSCALE
 70
     1
  9
$TREEDEPTH
 70
  3020
  9
$CMLSTYLE
  2
Standard
  9
$CMLJUST
 70
     0
  9
$CMLSCALE
 40
1.0
  9
$PROXYGRAPHICS
 70
     1
  9
$MEASUREMENT
 70
     0
  9
$CELWEIGHT
370
    -1
  9
$ENDCAPS
280
     0
  9
$JOINSTYLE
280
     0
  9
$LWDISPLAY
290
     1
  9
$INSUNITS
 70
     1
  9
$HYPERLINKBASE
  1

  9
$STYLESHEET
  1

  9
$XEDIT
290
     1
  9
$CEPSNTYPE
380
     0
  9
$PSTYLEMODE
290
     1
  9
$FINGERPRINTGUID
  2
{3119B605-2E3D-BF66-9F12-34C9637AD271}
  9
$VERSIONGUID
  2
{FAEB1C32-E019-11D5-929B-00C0DF256EC4}
  9
$EXTNAMES
290
     1
  9
$PSVPSCALE
 40
0.0
  9
$OLESTARTUP
290
     0
  9
$SORTENTS
280
   127
  9
$INDEXCTL
280
     0
  9
$HIDETEXT
280
     1
  9
$XCLIPFRAME
280
     2
  9
$HALOGAP
280
     0
  9
$OBSCOLOR
 70
   257
  9
$OBSLTYPE
280
     0
  9
$INTERSECTIONDISPLAY
280
     0
  9
$INTERSECTIONCOLOR
 70
   257
  9
$DIMASSOC
280
     2
  9
$PROJECTNAME
  1

  9
$CAMERADISPLAY
290
     0
  9
$LENSLENGTH
 40
50.0
  9
$CAMERAHEIGHT
 40
0.0
  9
$STEPSPERSEC
 40
2.0
  9
$STEPSIZE
 40
6.0
  9
$3DDWFPREC
 40
2.0
  9
$PSOLWIDTH
 40
0.25
  9
$PSOLHEIGHT
 40
4.0
  9
$LOFTANG1
 40
1.570796326794897
  9
$LOFTANG2
 40
1.570796326794897
  9
$LOFTMAG1
 40
0.0
  9
$LOFTMAG2
 40
0.0
  9
$LOFTPARAM
 70
     7
  9
$LOFTNORMALS
280
     1
  9
$LATITUDE
 40
37.795
  9
$LONGITUDE
 40
-122.394
  9
$NORTHDIRECTION
 40
0.0
  9
$TIMEZONE
 70
 -8000
  9
$LIGHTGLYPHDISPLAY
280
     1
  9
$TILEMODELIGHTSYNCH
280
     1
  9
$CMATERIAL
347
3C
  9
$SOLIDHIST
280
     1
  9
$SHOWHIST
280
     1
  9
$DWFFRAME
280
     2
  9
$DGNFRAME
280
     2
  9
$REALWORLDSCALE
290
     1
  9
$INTERFERECOLOR
 62
   256
  9
$CSHADOW
280
     0
  9
$SHADOWPLANELOCATION
 40
0.0
  0
ENDSEC
  0
SECTION
  2
CLASSES
  0
CLASS
  1
ACDBDICTIONARYWDFLT
  2
AcDbDictionaryWithDefault
  3
ObjectDBX Classes
 90
        0
 91
        4
280
     0
281
     0
  0
CLASS
  1
VISUALSTYLE
  2
AcDbVisualStyle
  3
ObjectDBX Classes
 90
     4095
 91
        4
280
     0
281
     0
  0
CLASS
  1
MATERIAL
  2
AcDbMaterial
  3
ObjectDBX Classes
 90
     1153
 91
        4
280
     0
281
     0
  0
CLASS
  1
SUN
  2
AcDbSun
  3
SCENEOE
 90
     1024
 91
        4
280
     0
281
     0
  0
ENDSEC
  0
SECTION
  2
TABLES
  0
TABLE
  2
VPORT
  5
8
330
0
100
AcDbSymbolTable
 70
     1
  0
VPORT
  5
29
330
8
100
AcDbSymbolTableRecord
100
AcDbViewportTableRecord
  2
*Active
 70
     0
 10
0.0
 20
0.0
 11
1.0
 21
1.0
 12
0.0
 22
0.0
 13
0.0
 23
0.0
 14
0.5
 24
0.5
 15
0.5
 25
0.5
 16
0.0
 26
0.0
 36
1.0
 17
91.00082462281999
 27
-128.4993055234307
 37
0.0
 40
256.9986110468615
 41
0.7081814508812795
 42
50.0
 43
0.0
 44
0.0
 50
0.0
 51
0.0
 71
     0
 72
   100
 73
     1
 74
     3
 75
     0
 76
     0
 77
     0
 78
     0
281
     0
 65
     1
110
0.0
120
0.0
130
0.0
111
1.0
121
0.0
131
0.0
112
0.0
122
1.0
132
0.0
 79
     0
146
0.0
 60
     3
 61
     5
292
     1
282
     1
141
0.0
142
0.0
 63
   250
361
3F
  0
ENDTAB
  0
TABLE
  2
LTYPE
  5
5
330
0
100
AcDbSymbolTable
 70
     1
  0
LTYPE
  5
14
330
5
100
AcDbSymbolTableRecord
100
AcDbLinetypeTableRecord
  2
ByBlock
 70
     0
  3

 72
    65
 73
     0
 40
0.0
  0
LTYPE
  5
15
330
5
100
AcDbSymbolTableRecord
100
AcDbLinetypeTableRecord
  2
ByLayer
 70
     0
  3

 72
    65
 73
     0
 40
0.0
  0
LTYPE
  5
16
330
5
100
AcDbSymbolTableRecord
100
AcDbLinetypeTableRecord
  2
Continuous
 70
     0
  3
Solid line
 72
    65
 73
     0
 40
0.0
  0
ENDTAB
  0
TABLE
  2
LAYER
  5
2
330
0
100
AcDbSymbolTable
 70
     2
  0
LAYER
  5
10
330
2
100
AcDbSymbolTableRecord
100
AcDbLayerTableRecord
  2
0
 70
     0
 62
     7
  6
Continuous
370
    -3
390
F
347
3E
  0
LAYER
  5
40
330
2
100
AcDbSymbolTableRecord
100
AcDbLayerTableRecord
  2
_U+30EC_U+30A4_U+30E4_U+30FC 1
 70
     0
 62
     7
  6
Continuous
370
    -3
390
F
347
3E
  0
ENDTAB
  0
TABLE
  2
STYLE
  5
3
330
0
100
AcDbSymbolTable
 70
     1
  0
STYLE
  5
11
330
3
100
AcDbSymbolTableRecord
100
AcDbTextStyleTableRecord
  2
Standard
 70
     0
 40
0.0
 41
1.0
 50
0.0
 71
     0
 42
0.2
  3
txt
  4

  0
ENDTAB
  0
TABLE
  2
VIEW
  5
6
330
0
100
AcDbSymbolTable
 70
     0
  0
ENDTAB
  0
TABLE
  2
UCS
  5
7
330
0
100
AcDbSymbolTable
 70
     0
  0
ENDTAB
  0
TABLE
  2
APPID
  5
9
330
0
100
AcDbSymbolTable
 70
     1
  0
APPID
  5
12
330
9
100
AcDbSymbolTableRecord
100
AcDbRegAppTableRecord
  2
ACAD
 70
     0
  0
ENDTAB
  0
TABLE
  2
DIMSTYLE
  5
A
330
0
100
AcDbSymbolTable
 70
     1
100
AcDbDimStyleTable
  0
DIMSTYLE
105
27
330
A
100
AcDbSymbolTableRecord
100
AcDbDimStyleTableRecord
  2
Standard
 70
     0
178
     0
340
11
  0
ENDTAB
  0
TABLE
  2
BLOCK_RECORD
  5
1
330
0
100
AcDbSymbolTable
 70
     6
  0
BLOCK_RECORD
  5
1F
330
1
100
AcDbSymbolTableRecord
100
AcDbBlockTableRecord
  2
*Model_Space
340
22
 70
     0
280
     1
281
     0
  0
BLOCK_RECORD
  5
1B
330
1
100
AcDbSymbolTableRecord
100
AcDbBlockTableRecord
  2
*Paper_Space
340
1E
 70
     0
280
     1
281
     0
  0
BLOCK_RECORD
  5
23
330
1
100
AcDbSymbolTableRecord
100
AcDbBlockTableRecord
  2
*Paper_Space0
340
26
 70
     0
280
     1
281
     0
  0
BLOCK_RECORD
  5
8F
330
1
100
AcDbSymbolTableRecord
100
AcDbBlockTableRecord
  2
block 2
340
0
102
{BLKREFS
331
90
102
}
 70
     0
280
     1
281
     0
  0
BLOCK_RECORD
  5
A1
330
1
100
AcDbSymbolTableRecord
100
AcDbBlockTableRecord
  2
block 3
340
0
102
{BLKREFS
331
A2
102
}
 70
     0
280
     1
281
     0
  0
BLOCK_RECORD
  5
AF
330
1
100
AcDbSymbolTableRecord
100
AcDbBlockTableRecord
  2
block 4
340
0
102
{BLKREFS
331
B0
102
}
 70
     0
280
     1
281
     0
  0
BLOCK_RECORD
  5
CC
330
1
100
AcDbSymbolTableRecord
100
AcDbBlockTableRecord
  2
block 5
340
0
102
{BLKREFS
331
CD
102
}
 70
     0
280
     1
281
     0
  0
BLOCK_RECORD
  5
DD
330
1
100
AcDbSymbolTableRecord
100
AcDbBlockTableRecord
  2
block 6
340
0
102
{BLKREFS
331
DE
102
}
 70
     0
280
     1
281
     0
  0
ENDTAB
  0
ENDSEC
  0
SECTION
  2
BLOCKS
  0
BLOCK
  5
20
330
1F
100
AcDbEntity
  8
0
100
AcDbBlockBegin
  2
*Model_Space
 70
     0
 10
0.0
 20
0.0
 30
0.0
  3
*Model_Space
  1

  0
ENDBLK
  5
21
330
1F
100
AcDbEntity
  8
0
100
AcDbBlockEnd
  0
BLOCK
  5
1C
330
1B
100
AcDbEntity
 67
     1
  8
0
100
AcDbBlockBegin
  2
*Paper_Space
 70
     0
 10
0.0
 20
0.0
 30
0.0
  3
*Paper_Space
  1

  0
ENDBLK
  5
1D
330
1B
100
AcDbEntity
 67
     1
  8
0
100
AcDbBlockEnd
  0
BLOCK
  5
24
330
23
100
AcDbEntity
  8
0
100
AcDbBlockBegin
  2
*Paper_Space0
 70
     0
 10
0.0
 20
0.0
 30
0.0
  3
*Paper_Space0
  1

  0
ENDBLK
  5
25
330
23
100
AcDbEntity
  8
0
100
AcDbBlockEnd
  0
BLOCK
  5
91
330
8F
100
AcDbEntity
  8
0
100
AcDbBlockBegin
  2
block 2
 70
     0
 10
0.0
 20
0.0
 30
0.0
  3
block 2
  1

  0
SPLINE
  5
93
330
8F
100
AcDbEntity
  8
_U+30EC_U+30A4_U+30E4_U+30FC 1
370
     0
100
AcDbSpline
210
0.0
220
0.0
230
1.0
 70
    11
 71
     3
 72
    26
 73
    22
 74
     0
 42
0.0000000001
 43
0.0000000001
 12
1.0
 22
0.0
 32
0.0
 13
1.0
 23
0.0
 33
0.0
 40
0.0
 40
0.0
 40
0.0
 40
0.0
 40
1.0
 40
1.0
 40
1.0
 40
2.0
 40
2.0
 40
2.0
 40
3.0
 40
3.0
 40
3.0
 40
4.0
 40
4.0
 40
4.0
 40
5.0
 40
5.0
 40
5.0
 40
6.0
 40
6.0
 40
6.0
 40
7.0
 40
7.0
 40
7.0
 40
7.0
 10
76.72744409974176
 20
-122.8407361889079
 30
0.0
 10
76.72744409974176
 20
-122.8407361889079
 30
0.0
 10
75.62329099671918
 20
-122.8407361889079
 30
0.0
 10
75.62329099671918
 20
-122.8407361889079
 30
0.0
 10
75.62329099671918
 20
-122.8407361889079
 30
0.0
 10
75.62329099671918
 20
-123.1707763363948
 30
0.0
 10
75.62329099671918
 20
-123.1707763363948
 30
0.0
 10
75.62329099671918
 20
-123.1707763363948
 30
0.0
 10
75.47515189085344
 20
-123.1707763363948
 30
0.0
 10
75.47515189085344
 20
-123.1707763363948
 30
0.0
 10
75.46033798026686
 20
-122.8386691316167
 30
0.0
 10
75.29738496381455
 20
-122.7921603425659
 30
0.0
 10
75.18300779370425
 20
-122.7625325213927
 30
0.0
 10
75.18300779370425
 20
-122.7625325213927
 30
0.0
 10
75.18300779370425
 20
-122.6164604728181
 30
0.0
 10
75.18300779370425
 20
-122.6164604728181
 30
0.0
 10
75.18300779370425
 20
-122.6164604728181
 30
0.0
 10
76.72744409974176
 20
-122.6164604728181
 30
0.0
 10
76.72744409974176
 20
-122.6164604728181
 30
0.0
 10
76.72744409974176
 20
-122.6164604728181
 30
0.0
 10
76.72744409974176
 20
-122.8407361889079
 30
0.0
 10
76.72744409974176
 20
-122.8407361889079
 30
0.0
  0
HATCH
  5
94
330
8F
100
AcDbEntity
  8
_U+30EC_U+30A4_U+30E4_U+30FC 1
 62
   179
420
  2234388
100
AcDbHatch
 10
0.0
 20
0.0
 30
0.0
210
0.0
220
0.0
230
1.0
  2
SOLID
 70
     1
 71
     0
 91
        1
 92
        1
 93
        1
 72
     4
 94
        3
 73
     0
 74
     1
 95
       26
 96
       22
 40
0.0
 40
0.0
 40
0.0
 40
0.0
 40
1.0
 40
1.0
 40
1.0
 40
2.0
 40
2.0
 40
2.0
 40
3.0
 40
3.0
 40
3.0
 40
4.0
 40
4.0
 40
4.0
 40
5.0
 40
5.0
 40
5.0
 40
6.0
 40
6.0
 40
6.0
 40
7.0
 40
7.0
 40
7.0
 40
7.0
 10
76.72744409974176
 20
-122.8407361889079
 10
76.72744409974176
 20
-122.8407361889079
 10
75.62329099671918
 20
-122.8407361889079
 10
75.62329099671918
 20
-122.8407361889079
 10
75.62329099671918
 20
-122.8407361889079
 10
75.62329099671918
 20
-123.1707763363948
 10
75.62329099671918
 20
-123.1707763363948
 10
75.62329099671918
 20
-123.1707763363948
 10
75.47515189085344
 20
-123.1707763363948
 10
75.47515189085344
 20
-123.1707763363948
 10
75.46033798026686
 20
-122.8386691316167
 10
75.29738496381455
 20
-122.7921603425659
 10
75.18300779370425
 20
-122.7625325213927
 10
75.18300779370425
 20
-122.7625325213927
 10
75.18300779370425
 20
-122.6164604728181
 10
75.18300779370425
 20
-122.6164604728181
 10
75.18300779370425
 20
-122.6164604728181
 10
76.72744409974176
 20
-122.6164604728181
 10
76.72744409974176
 20
-122.6164604728181
 10
76.72744409974176
 20
-122.6164604728181
 10
76.72744409974176
 20
-122.8407361889079
 10
76.72744409974176
 20
-122.8407361889079
 97
        0
 97
        0
 75
     2
 76
     1
 98
        0
  0
ENDBLK
  5
92
330
8F
100
AcDbEntity
  8
0
100
AcDbBlockEnd
  0
BLOCK
  5
A3
330
A1
100
AcDbEntity
  8
0
100
AcDbBlockBegin
  2
block 3
 70
     0
 10
0.0
 20
0.0
 30
0.0
  3
block 3
  1

  0
SPLINE
  5
A5
330
A1
100
AcDbEntity
  8
_U+30EC_U+30A4_U+30E4_U+30FC 1
370
     0
100
AcDbSpline
210
0.0
220
0.0
230
1.0
 70
    11
 71
     3
 72
    62
 73
    58
 74
     0
 42
0.0000000001
 43
0.0000000001
 12
1.0
 22
0.0
 32
0.0
 13
1.0
 23
0.0
 33
0.0
 40
0.0
 40
0.0
 40
0.0
 40
0.0
 40
1.0
 40
1.0
 40
1.0
 40
2.0
 40
2.0
 40
2.0
 40
3.0
 40
3.0
 40
3.0
 40
4.0
 40
4.0
 40
4.0
 40
5.0
 40
5.0
 40
5.0
 40
6.0
 40
6.0
 40
6.0
 40
7.0
 40
7.0
 40
7.0
 40
8.0
 40
8.0
 40
8.0
 40
9.0
 40
9.0
 40
9.0
 40
10.0
 40
10.0
 40
10.0
 40
11.0
 40
11.0
 40
11.0
 40
12.0
 40
12.0
 40
12.0
 40
13.0
 40
13.0
 40
13.0
 40
14.0
 40
14.0
 40
14.0
 40
15.0
 40
15.0
 40
15.0
 40
16.0
 40
16.0
 40
16.0
 40
17.0
 40
17.0
 40
17.0
 40
18.0
 40
18.0
 40
18.0
 40
19.0
 40
19.0
 40
19.0
 40
19.0
 10
106.7779784889305
 20
-130.3283067165499
 30
0.0
 10
106.7779784889305
 20
-130.4237358614913
 30
0.0
 10
106.7569634064705
 20
-130.6414658961591
 30
0.0
 10
106.570928250267
 20
-130.7665228622737
 30
0.0
 10
106.4586181374479
 20
-130.8405924152065
 30
0.0
 10
106.3593993874726
 20
-130.8447265297888
 30
0.0
 10
106.2746500385355
 20
-130.8488606443711
 30
0.0
 10
106.2746500385355
 20
-130.8488606443711
 30
0.0
 10
106.2746500385355
 20
-130.6287190428637
 30
0.0
 10
106.2746500385355
 20
-130.6287190428637
 30
0.0
 10
106.3487195914684
 20
-130.6266519855725
 30
0.0
 10
106.5833305940139
 20
-130.6163166991168
 30
0.0
 10
106.5833305940139
 20
-130.3327853406807
 30
0.0
 10
106.5833305940139
 20
-130.1953260308192
 30
0.0
 10
106.5137396652118
 20
-130.0427083008227
 30
0.0
 10
106.2853298345398
 20
-130.0427083008227
 30
0.0
 10
106.1688856071383
 20
-130.0427083008227
 30
0.0
 10
106.1203097607963
 20
-130.0809488607089
 30
0.0
 10
106.088614882332
 20
-130.1126437391732
 30
0.0
 10
106.0145453293991
 20
-130.1867132921061
 30
0.0
 10
106.0017984761037
 20
-130.3031575195076
 30
0.0
 10
106.0017984761037
 20
-130.357934537723
 30
0.0
 10
106.0017984761037
 20
-130.3772270724404
 30
0.0
 10
106.0038655333949
 20
-130.413056065487
 30
0.0
 10
106.0079996479772
 20
-130.440616829369
 30
0.0
 10
106.0079996479772
 20
-130.440616829369
 30
0.0
 10
105.8133517530606
 20
-130.440616829369
 30
0.0
 10
105.8133517530606
 20
-130.440616829369
 30
0.0
 10
105.8198974344825
 20
-130.4023762694827
 30
0.0
 10
105.8219644917737
 20
-130.3603461045627
 30
0.0
 10
105.8219644917737
 20
-130.3538004231407
 30
0.0
 10
105.8219644917737
 20
-130.288343608921
 30
0.0
 10
105.8006048997651
 20
-130.0895615994221
 30
0.0
 10
105.5639268399285
 20
-130.0895615994221
 30
0.0
 10
105.3861599128896
 20
-130.0895615994221
 30
0.0
 10
105.3310383851256
 20
-130.2204752278616
 30
0.0
 10
105.3310383851256
 20
-130.3307182833896
 30
0.0
 10
105.3310383851256
 20
-130.5949571071082
 30
0.0
 10
105.5639268399285
 20
-130.6035698458213
 30
0.0
 10
105.6355848260217
 20
-130.6077039604036
 30
0.0
 10
105.6355848260217
 20
-130.6077039604036
 30
0.0
 10
105.6355848260217
 20
-130.8109645940334
 30
0.0
 10
105.6355848260217
 20
-130.8109645940334
 30
0.0
 10
105.5108723694556
 20
-130.8023518553202
 30
0.0
 10
105.1343234329178
 20
-130.7747910914383
 30
0.0
 10
105.1343234329178
 20
-130.3179714300941
 30
0.0
 10
105.1343234329178
 20
-130.0936957140044
 30
0.0
 10
105.2614474563235
 20
-129.8525390300369
 30
0.0
 10
105.5573811585065
 20
-129.8525390300369
 30
0.0
 10
105.7437608242585
 20
-129.8525390300369
 30
0.0
 10
105.826098606356
 20
-129.9476236654298
 30
0.0
 10
105.8874213059934
 20
-130.0471869249535
 30
0.0
 10
105.9149820698754
 20
-129.985864225316
 30
0.0
 10
105.9952527946817
 20
-129.8039631836949
 30
0.0
 10
106.2725829812444
 20
-129.8039631836949
 30
0.0
 10
106.6108913578959
 20
-129.8039631836949
 30
0.0
 10
106.7779784889305
 20
-130.0513210395358
 30
0.0
 10
106.7779784889305
 20
-130.3283067165499
 30
0.0
  0
HATCH
  5
A6
330
A1
100
AcDbEntity
  8
_U+30EC_U+30A4_U+30E4_U+30FC 1
 62
   179
420
  2234388
100
AcDbHatch
 10
0.0
 20
0.0
 30
0.0
210
0.0
220
0.0
230
1.0
  2
SOLID
 70
     1
 71
     0
 91
        1
 92
        1
 93
        1
 72
     4
 94
        3
 73
     0
 74
     1
 95
       62
 96
       58
 40
0.0
 40
0.0
 40
0.0
 40
0.0
 40
1.0
 40
1.0
 40
1.0
 40
2.0
 40
2.0
 40
2.0
 40
3.0
 40
3.0
 40
3.0
 40
4.0
 40
4.0
 40
4.0
 40
5.0
 40
5.0
 40
5.0
 40
6.0
 40
6.0
 40
6.0
 40
7.0
 40
7.0
 40
7.0
 40
8.0
 40
8.0
 40
8.0
 40
9.0
 40
9.0
 40
9.0
 40
10.0
 40
10.0
 40
10.0
 40
11.0
 40
11.0
 40
11.0
 40
12.0
 40
12.0
 40
12.0
 40
13.0
 40
13.0
 40
13.0
 40
14.0
 40
14.0
 40
14.0
 40
15.0
 40
15.0
 40
15.0
 40
16.0
 40
16.0
 40
16.0
 40
17.0
 40
17.0
 40
17.0
 40
18.0
 40
18.0
 40
18.0
 40
19.0
 40
19.0
 40
19.0
 40
19.0
 10
106.7779784889305
 20
-130.3283067165499
 10
106.7779784889305
 20
-130.4237358614913
 10
106.7569634064705
 20
-130.6414658961591
 10
106.570928250267
 20
-130.7665228622737
 10
106.4586181374479
 20
-130.8405924152065
 10
106.3593993874726
 20
-130.8447265297888
 10
106.2746500385355
 20
-130.8488606443711
 10
106.2746500385355
 20
-130.8488606443711
 10
106.2746500385355
 20
-130.6287190428637
 10
106.2746500385355
 20
-130.6287190428637
 10
106.3487195914684
 20
-130.6266519855725
 10
106.5833305940139
 20
-130.6163166991168
 10
106.5833305940139
 20
-130.3327853406807
 10
106.5833305940139
 20
-130.1953260308192
 10
106.5137396652118
 20
-130.0427083008227
 10
106.2853298345398
 20
-130.0427083008227
 10
106.1688856071383
 20
-130.0427083008227
 10
106.1203097607963
 20
-130.0809488607089
 10
106.088614882332
 20
-130.1126437391732
 10
106.0145453293991
 20
-130.1867132921061
 10
106.0017984761037
 20
-130.3031575195076
 10
106.0017984761037
 20
-130.357934537723
 10
106.0017984761037
 20
-130.3772270724404
 10
106.0038655333949
 20
-130.413056065487
 10
106.0079996479772
 20
-130.440616829369
 10
106.0079996479772
 20
-130.440616829369
 10
105.8133517530606
 20
-130.440616829369
 10
105.8133517530606
 20
-130.440616829369
 10
105.8198974344825
 20
-130.4023762694827
 10
105.8219644917737
 20
-130.3603461045627
 10
105.8219644917737
 20
-130.3538004231407
 10
105.8219644917737
 20
-130.288343608921
 10
105.8006048997651
 20
-130.0895615994221
 10
105.5639268399285
 20
-130.0895615994221
 10
105.3861599128896
 20
-130.0895615994221
 10
105.3310383851256
 20
-130.2204752278616
 10
105.3310383851256
 20
-130.3307182833896
 10
105.3310383851256
 20
-130.5949571071082
 10
105.5639268399285
 20
-130.6035698458213
 10
105.6355848260217
 20
-130.6077039604036
 10
105.6355848260217
 20
-130.6077039604036
 10
105.6355848260217
 20
-130.8109645940334
 10
105.6355848260217
 20
-130.8109645940334
 10
105.5108723694556
 20
-130.8023518553202
 10
105.1343234329178
 20
-130.7747910914383
 10
105.1343234329178
 20
-130.3179714300941
 10
105.1343234329178
 20
-130.0936957140044
 10
105.2614474563235
 20
-129.8525390300369
 10
105.5573811585065
 20
-129.8525390300369
 10
105.7437608242585
 20
-129.8525390300369
 10
105.826098606356
 20
-129.9476236654298
 10
105.8874213059934
 20
-130.0471869249535
 10
105.9149820698754
 20
-129.985864225316
 10
105.9952527946817
 20
-129.8039631836949
 10
106.2725829812444
 20
-129.8039631836949
 10
106.6108913578959
 20
-129.8039631836949
 10
106.7779784889305
 20
-130.0513210395358
 10
106.7779784889305
 20
-130.3283067165499
 97
        0
 97
        0
 75
     2
 76
     1
 98
        0
  0
ENDBLK
  5
A4
330
A1
100
AcDbEntity
  8
0
100
AcDbBlockEnd
  0
BLOCK
  5
B1
330
AF
100
AcDbEntity
  8
0
100
AcDbBlockBegin
  2
block 4
 70
     0
 10
0.0
 20
0.0
 30
0.0
  3
block 4
  1

  0
SPLINE
  5
B3
330
AF
100
AcDbEntity
  8
_U+30EC_U+30A4_U+30E4_U+30FC 1
370
     0
100
AcDbSpline
210
0.0
220
0.0
230
1.0
 70
    11
 71
     3
 72
    32
 73
    28
 74
     0
 42
0.0000000001
 43
0.0000000001
 12
1.0
 22
0.0
 32
0.0
 13
1.0
 23
0.0
 33
0.0
 40
0.0
 40
0.0
 40
0.0
 40
0.0
 40
1.0
 40
1.0
 40
1.0
 40
2.0
 40
2.0
 40
2.0
 40
3.0
 40
3.0
 40
3.0
 40
4.0
 40
4.0
 40
4.0
 40
5.0
 40
5.0
 40
5.0
 40
6.0
 40
6.0
 40
6.0
 40
7.0
 40
7.0
 40
7.0
 40
8.0
 40
8.0
 40
8.0
 40
9.0
 40
9.0
 40
9.0
 40
9.0
 10
106.7779784889305
 20
-126.4281141176985
 30
0.0
 10
106.7779784889305
 20
-126.944189421389
 30
0.0
 10
106.2240071349023
 20
-126.9524576505536
 30
0.0
 10
106.0100667052683
 20
-126.9524576505536
 30
0.0
 10
105.7795898173051
 20
-126.9524576505536
 30
0.0
 10
105.1322563756267
 20
-126.9335096253847
 30
0.0
 10
105.1322563756267
 20
-126.3898735578123
 30
0.0
 10
105.1322563756267
 20
-126.2165852549042
 30
0.0
 10
105.2021918139772
 20
-125.9709499468059
 30
0.0
 10
105.5342990187553
 20
-125.9330538964681
 30
0.0
 10
105.5342990187553
 20
-125.9330538964681
 30
0.0
 10
105.5342990187553
 20
-126.1466498165536
 30
0.0
 10
105.5342990187553
 20
-126.1466498165536
 30
0.0
 10
105.4771104337002
 20
-126.1573296125579
 30
0.0
 10
105.3289713278344
 20
-126.1890244910222
 30
0.0
 10
105.3289713278344
 20
-126.3919406151034
 30
0.0
 10
105.3289713278344
 20
-126.6840847122526
 30
0.0
 10
105.6569444180302
 20
-126.7240478198815
 30
0.0
 10
105.8619275994026
 20
-126.7367946731769
 30
0.0
 10
105.7837239318874
 20
-126.6437770950752
 30
0.0
 10
105.7244682895411
 20
-126.5759087140158
 30
0.0
 10
105.7244682895411
 20
-126.3940076723946
 30
0.0
 10
105.7244682895411
 20
-126.2141736880645
 30
0.0
 10
105.832644287778
 20
-125.9116943044596
 30
0.0
 10
106.2388210454889
 20
-125.9116943044596
 30
0.0
 10
106.5581813969716
 20
-125.9116943044596
 30
0.0
 10
106.7779784889305
 20
-126.110820823507
 30
0.0
 10
106.7779784889305
 20
-126.4281141176985
 30
0.0
  0
SPLINE
  5
B4
330
AF
100
AcDbEntity
  8
_U+30EC_U+30A4_U+30E4_U+30FC 1
370
     0
100
AcDbSpline
210
0.0
220
0.0
230
1.0
 70
    11
 71
     3
 72
    17
 73
    13
 74
     0
 42
0.0000000001
 43
0.0000000001
 12
1.0
 22
0.0
 32
0.0
 13
1.0
 23
0.0
 33
0.0
 40
0.0
 40
0.0
 40
0.0
 40
0.0
 40
1.0
 40
1.0
 40
1.0
 40
2.0
 40
2.0
 40
2.0
 40
3.0
 40
3.0
 40
3.0
 40
4.0
 40
4.0
 40
4.0
 40
4.0
 10
105.9191161844577
 20
-126.4108886402723
 30
0.0
 10
105.9191161844577
 20
-126.6734049162483
 30
0.0
 10
106.1306450472521
 20
-126.7113009665861
 30
0.0
 10
106.2470892746535
 20
-126.7113009665861
 30
0.0
 10
106.4227891444012
 20
-126.7113009665861
 30
0.0
 10
106.5857421608536
 20
-126.6162163311932
 30
0.0
 10
106.5857421608536
 20
-126.4322482322808
 30
0.0
 10
106.5857421608536
 20
-126.3116698902971
 30
0.0
 10
106.5264865185073
 20
-126.1359700205494
 30
0.0
 10
106.2408881027801
 20
-126.1359700205494
 30
0.0
 10
106.0166123866903
 20
-126.1359700205494
 30
0.0
 10
105.9191161844577
 20
-126.2758408972505
 30
0.0
 10
105.9191161844577
 20
-126.4108886402723
 30
0.0
  0
HATCH
  5
B5
330
AF
100
AcDbEntity
  8
_U+30EC_U+30A4_U+30E4_U+30FC 1
 62
   179
420
  2234388
100
AcDbHatch
 10
0.0
 20
0.0
 30
0.0
210
0.0
220
0.0
230
1.0
  2
SOLID
 70
     1
 71
     0
 91
        2
 92
        1
 93
        1
 72
     4
 94
        3
 73
     0
 74
     1
 95
       32
 96
       28
 40
0.0
 40
0.0
 40
0.0
 40
0.0
 40
1.0
 40
1.0
 40
1.0
 40
2.0
 40
2.0
 40
2.0
 40
3.0
 40
3.0
 40
3.0
 40
4.0
 40
4.0
 40
4.0
 40
5.0
 40
5.0
 40
5.0
 40
6.0
 40
6.0
 40
6.0
 40
7.0
 40
7.0
 40
7.0
 40
8.0
 40
8.0
 40
8.0
 40
9.0
 40
9.0
 40
9.0
 40
9.0
 10
106.7779784889305
 20
-126.4281141176985
 10
106.7779784889305
 20
-126.944189421389
 10
106.2240071349023
 20
-126.9524576505536
 10
106.0100667052683
 20
-126.9524576505536
 10
105.7795898173051
 20
-126.9524576505536
 10
105.1322563756267
 20
-126.9335096253847
 10
105.1322563756267
 20
-126.3898735578123
 10
105.1322563756267
 20
-126.2165852549042
 10
105.2021918139772
 20
-125.9709499468059
 10
105.5342990187553
 20
-125.9330538964681
 10
105.5342990187553
 20
-125.9330538964681
 10
105.5342990187553
 20
-126.1466498165536
 10
105.5342990187553
 20
-126.1466498165536
 10
105.4771104337002
 20
-126.1573296125579
 10
105.3289713278344
 20
-126.1890244910222
 10
105.3289713278344
 20
-126.3919406151034
 10
105.3289713278344
 20
-126.6840847122526
 10
105.6569444180302
 20
-126.7240478198815
 10
105.8619275994026
 20
-126.7367946731769
 10
105.7837239318874
 20
-126.6437770950752
 10
105.7244682895411
 20
-126.5759087140158
 10
105.7244682895411
 20
-126.3940076723946
 10
105.7244682895411
 20
-126.2141736880645
 10
105.832644287778
 20
-125.9116943044596
 10
106.2388210454889
 20
-125.9116943044596
 10
106.5581813969716
 20
-125.9116943044596
 10
106.7779784889305
 20
-126.110820823507
 10
106.7779784889305
 20
-126.4281141176985
 97
        0
 97
        0
 92
        1
 93
        1
 72
     4
 94
        3
 73
     0
 74
     1
 95
       17
 96
       13
 40
0.0
 40
0.0
 40
0.0
 40
0.0
 40
1.0
 40
1.0
 40
1.0
 40
2.0
 40
2.0
 40
2.0
 40
3.0
 40
3.0
 40
3.0
 40
4.0
 40
4.0
 40
4.0
 40
4.0
 10
105.9191161844577
 20
-126.4108886402723
 10
105.9191161844577
 20
-126.6734049162483
 10
106.1306450472521
 20
-126.7113009665861
 10
106.2470892746535
 20
-126.7113009665861
 10
106.4227891444012
 20
-126.7113009665861
 10
106.5857421608536
 20
-126.6162163311932
 10
106.5857421608536
 20
-126.4322482322808
 10
106.5857421608536
 20
-126.3116698902971
 10
106.5264865185073
 20
-126.1359700205494
 10
106.2408881027801
 20
-126.1359700205494
 10
106.0166123866903
 20
-126.1359700205494
 10
105.9191161844577
 20
-126.2758408972505
 10
105.9191161844577
 20
-126.4108886402723
 97
        0
 97
        0
 75
     2
 76
     1
 98
        0
  0
POLYLINE
  5
B6
330
AF
100
AcDbEntity
  8
_U+30EC_U+30A4_U+30E4_U+30FC 1
370
     0
100
AcDb2dPolyline
 66
     1
 10
0.0
 20
0.0
 30
0.0
  0
VERTEX
  5
B7
330
B6
100
AcDbEntity
  8
_U+30EC_U+30A4_U+30E4_U+30FC 1
370
     0
100
AcDbVertex
100
AcDb2dVertex
 10
106.7273355852973
 20
-125.6953423079859
 30
0.0
  0
VERTEX
  5
B8
330
B6
100
AcDbEntity
  8
_U+30EC_U+30A4_U+30E4_U+30FC 1
370
     0
100
AcDbVertex
100
AcDb2dVertex
 10
106.4754991053256
 20
-125.6953423079859
 30
0.0
  0
VERTEX
  5
B9
330
B6
100
AcDbEntity
  8
_U+30EC_U+30A4_U+30E4_U+30FC 1
370
     0
100
AcDbVertex
100
AcDb2dVertex
 10
106.4754991053256
 20
-125.4435058280141
 30
0.0
  0
VERTEX
  5
BA
330
B6
100
AcDbEntity
  8
_U+30EC_U+30A4_U+30E4_U+30FC 1
370
     0
100
AcDbVertex
100
AcDb2dVertex
 10
106.7273355852973
 20
-125.4435058280141
 30
0.0
  0
VERTEX
  5
BB
330
B6
100
AcDbEntity
  8
_U+30EC_U+30A4_U+30E4_U+30FC 1
370
     0
100
AcDbVertex
100
AcDb2dVertex
 10
106.7273355852973
 20
-125.6953423079859
 30
0.0
  0
SEQEND
  5
BC
330
B6
100
AcDbEntity
  8
_U+30EC_U+30A4_U+30E4_U+30FC 1
370
     0
  0
HATCH
  5
BD
330
AF
100
AcDbEntity
  8
_U+30EC_U+30A4_U+30E4_U+30FC 1
 62
   179
420
  2234388
100
AcDbHatch
 10
0.0
 20
0.0
 30
0.0
210
0.0
220
0.0
230
1.0
  2
SOLID
 70
     1
 71
     0
 91
        1
 92
        1
 93
        4
 72
     1
 10
106.7273355852973
 20
-125.6953423079859
 11
106.4754991053256
 21
-125.6953423079859
 72
     1
 10
106.4754991053256
 20
-125.6953423079859
 11
106.4754991053256
 21
-125.4435058280141
 72
     1
 10
106.4754991053256
 20
-125.4435058280141
 11
106.7273355852973
 21
-125.4435058280141
 72
     1
 10
106.7273355852973
 20
-125.4435058280141
 11
106.7273355852973
 21
-125.6953423079859
 97
        0
 75
     2
 76
     1
 98
        0
  0
SPLINE
  5
BE
330
AF
100
AcDbEntity
  8
_U+30EC_U+30A4_U+30E4_U+30FC 1
370
     0
100
AcDbSpline
210
0.0
220
0.0
230
1.0
 70
    11
 71
     3
 72
    53
 73
    49
 74
     0
 42
0.0000000001
 43
0.0000000001
 12
1.0
 22
0.0
 32
0.0
 13
1.0
 23
0.0
 33
0.0
 40
0.0
 40
0.0
 40
0.0
 40
0.0
 40
1.0
 40
1.0
 40
1.0
 40
2.0
 40
2.0
 40
2.0
 40
3.0
 40
3.0
 40
3.0
 40
4.0
 40
4.0
 40
4.0
 40
5.0
 40
5.0
 40
5.0
 40
6.0
 40
6.0
 40
6.0
 40
7.0
 40
7.0
 40
7.0
 40
8.0
 40
8.0
 40
8.0
 40
9.0
 40
9.0
 40
9.0
 40
10.0
 40
10.0
 40
10.0
 40
11.0
 40
11.0
 40
11.0
 40
12.0
 40
12.0
 40
12.0
 40
13.0
 40
13.0
 40
13.0
 40
14.0
 40
14.0
 40
14.0
 40
15.0
 40
15.0
 40
15.0
 40
16.0
 40
16.0
 40
16.0
 40
16.0
 10
106.7779784889305
 20
-124.7262369479851
 30
0.0
 10
106.7779784889305
 20
-124.8044406155003
 30
0.0
 10
106.7610975210528
 20
-124.9060709323152
 30
0.0
 10
106.6977077641242
 20
-125.00770124913
 30
0.0
 10
106.5878092181447
 20
-125.1809895520381
 30
0.0
 10
106.4565510801567
 20
-125.2023491440466
 30
0.0
 10
106.3487195914684
 20
-125.2212971692155
 30
0.0
 10
106.3487195914684
 20
-125.2212971692155
 30
0.0
 10
106.3487195914684
 20
-124.9990885104169
 30
0.0
 10
106.3487195914684
 20
-124.9990885104169
 30
0.0
 10
106.5475016009673
 20
-124.9443114922014
 30
0.0
 10
106.5771294221404
 20
-124.8171874687957
 30
0.0
 10
106.5771294221404
 20
-124.724169890694
 30
0.0
 10
106.5771294221404
 20
-124.5846435235413
 30
0.0
 10
106.4775661626167
 20
-124.4323703030933
 30
0.0
 10
106.2450222173624
 20
-124.4323703030933
 30
0.0
 10
105.9890516228083
 20
-124.4323703030933
 30
0.0
 10
105.9191161844577
 20
-124.6122042874233
 30
0.0
 10
105.9191161844577
 20
-124.7327826294071
 30
0.0
 10
105.9191161844577
 20
-124.7644775078714
 30
0.0
 10
105.9191161844577
 20
-124.9060709323152
 30
0.0
 10
106.0483072651546
 20
-124.9949543958346
 30
0.0
 10
106.0483072651546
 20
-124.9949543958346
 30
0.0
 10
106.0293592399857
 20
-125.1706542655823
 30
0.0
 10
106.0293592399857
 20
-125.1706542655823
 30
0.0
 10
106.0293592399857
 20
-125.1706542655823
 30
0.0
 10
105.1828992792598
 20
-125.0500759235986
 30
0.0
 10
105.1828992792598
 20
-125.0500759235986
 30
0.0
 10
105.1828992792598
 20
-125.0500759235986
 30
0.0
 10
105.1828992792598
 20
-124.2714843439321
 30
0.0
 10
105.1828992792598
 20
-124.2714843439321
 30
0.0
 10
105.1828992792598
 20
-124.2714843439321
 30
0.0
 10
105.3775471741765
 20
-124.2714843439321
 30
0.0
 10
105.3775471741765
 20
-124.2714843439321
 30
0.0
 10
105.3775471741765
 20
-124.2714843439321
 30
0.0
 10
105.3775471741765
 20
-124.8871229071463
 30
0.0
 10
105.3775471741765
 20
-124.8871229071463
 30
0.0
 10
105.3775471741765
 20
-124.8871229071463
 30
0.0
 10
105.8006048997651
 20
-124.952579721366
 30
0.0
 10
105.8006048997651
 20
-124.952579721366
 30
0.0
 10
105.7668429640097
 20
-124.8912570217286
 30
0.0
 10
105.7265353468323
 20
-124.8089192396311
 30
0.0
 10
105.7265353468323
 20
-124.6904079549385
 30
0.0
 10
105.7265353468323
 20
-124.4365044176756
 30
0.0
 10
105.9129150125843
 20
-124.1994818482904
 30
0.0
 10
106.2260741921935
 20
-124.1994818482904
 30
0.0
 10
106.543367486385
 20
-124.1994818482904
 30
0.0
 10
106.7779784889305
 20
-124.4237575643802
 30
0.0
 10
106.7779784889305
 20
-124.7262369479851
 30
0.0
  0
HATCH
  5
BF
330
AF
100
AcDbEntity
  8
_U+30EC_U+30A4_U+30E4_U+30FC 1
 62
   179
420
  2234388
100
AcDbHatch
 10
0.0
 20
0.0
 30
0.0
210
0.0
220
0.0
230
1.0
  2
SOLID
 70
     1
 71
     0
 91
        1
 92
        1
 93
        1
 72
     4
 94
        3
 73
     0
 74
     1
 95
       53
 96
       49
 40
0.0
 40
0.0
 40
0.0
 40
0.0
 40
1.0
 40
1.0
 40
1.0
 40
2.0
 40
2.0
 40
2.0
 40
3.0
 40
3.0
 40
3.0
 40
4.0
 40
4.0
 40
4.0
 40
5.0
 40
5.0
 40
5.0
 40
6.0
 40
6.0
 40
6.0
 40
7.0
 40
7.0
 40
7.0
 40
8.0
 40
8.0
 40
8.0
 40
9.0
 40
9.0
 40
9.0
 40
10.0
 40
10.0
 40
10.0
 40
11.0
 40
11.0
 40
11.0
 40
12.0
 40
12.0
 40
12.0
 40
13.0
 40
13.0
 40
13.0
 40
14.0
 40
14.0
 40
14.0
 40
15.0
 40
15.0
 40
15.0
 40
16.0
 40
16.0
 40
16.0
 40
16.0
 10
106.7779784889305
 20
-124.7262369479851
 10
106.7779784889305
 20
-124.8044406155003
 10
106.7610975210528
 20
-124.9060709323152
 10
106.6977077641242
 20
-125.00770124913
 10
106.5878092181447
 20
-125.1809895520381
 10
106.4565510801567
 20
-125.2023491440466
 10
106.3487195914684
 20
-125.2212971692155
 10
106.3487195914684
 20
-125.2212971692155
 10
106.3487195914684
 20
-124.9990885104169
 10
106.3487195914684
 20
-124.9990885104169
 10
106.5475016009673
 20
-124.9443114922014
 10
106.5771294221404
 20
-124.8171874687957
 10
106.5771294221404
 20
-124.724169890694
 10
106.5771294221404
 20
-124.5846435235413
 10
106.4775661626167
 20
-124.4323703030933
 10
106.2450222173624
 20
-124.4323703030933
 10
105.9890516228083
 20
-124.4323703030933
 10
105.9191161844577
 20
-124.6122042874233
 10
105.9191161844577
 20
-124.7327826294071
 10
105.9191161844577
 20
-124.7644775078714
 10
105.9191161844577
 20
-124.9060709323152
 10
106.0483072651546
 20
-124.9949543958346
 10
106.0483072651546
 20
-124.9949543958346
 10
106.0293592399857
 20
-125.1706542655823
 10
106.0293592399857
 20
-125.1706542655823
 10
106.0293592399857
 20
-125.1706542655823
 10
105.1828992792598
 20
-125.0500759235986
 10
105.1828992792598
 20
-125.0500759235986
 10
105.1828992792598
 20
-125.0500759235986
 10
105.1828992792598
 20
-124.2714843439321
 10
105.1828992792598
 20
-124.2714843439321
 10
105.1828992792598
 20
-124.2714843439321
 10
105.3775471741765
 20
-124.2714843439321
 10
105.3775471741765
 20
-124.2714843439321
 10
105.3775471741765
 20
-124.2714843439321
 10
105.3775471741765
 20
-124.8871229071463
 10
105.3775471741765
 20
-124.8871229071463
 10
105.3775471741765
 20
-124.8871229071463
 10
105.8006048997651
 20
-124.952579721366
 10
105.8006048997651
 20
-124.952579721366
 10
105.7668429640097
 20
-124.8912570217286
 10
105.7265353468323
 20
-124.8089192396311
 10
105.7265353468323
 20
-124.6904079549385
 10
105.7265353468323
 20
-124.4365044176756
 10
105.9129150125843
 20
-124.1994818482904
 10
106.2260741921935
 20
-124.1994818482904
 10
106.543367486385
 20
-124.1994818482904
 10
106.7779784889305
 20
-124.4237575643802
 10
106.7779784889305
 20
-124.7262369479851
 97
        0
 97
        0
 75
     2
 76
     1
 98
        0
  0
ENDBLK
  5
B2
330
AF
100
AcDbEntity
  8
0
100
AcDbBlockEnd
  0
BLOCK
  5
CE
330
CC
100
AcDbEntity
  8
0
100
AcDbBlockBegin
  2
block 5
 70
     0
 10
0.0
 20
0.0
 30
0.0
  3
block 5
  1

  0
SPLINE
  5
D0
330
CC
100
AcDbEntity
  8
_U+30EC_U+30A4_U+30E4_U+30FC 1
370
     0
100
AcDbSpline
210
0.0
220
0.0
230
1.0
 70
    11
 71
     3
 72
    26
 73
    22
 74
     0
 42
0.0000000001
 43
0.0000000001
 12
1.0
 22
0.0
 32
0.0
 13
1.0
 23
0.0
 33
0.0
 40
0.0
 40
0.0
 40
0.0
 40
0.0
 40
1.0
 40
1.0
 40
1.0
 40
2.0
 40
2.0
 40
2.0
 40
3.0
 40
3.0
 40
3.0
 40
4.0
 40
4.0
 40
4.0
 40
5.0
 40
5.0
 40
5.0
 40
6.0
 40
6.0
 40
6.0
 40
7.0
 40
7.0
 40
7.0
 40
7.0
 10
97.73598087834378
 20
-135.1738335165538
 30
0.0
 10
97.73598087834378
 20
-135.1738335165538
 30
0.0
 10
97.73598087834378
 20
-134.0696804135312
 30
0.0
 10
97.73598087834378
 20
-134.0696804135312
 30
0.0
 10
97.73598087834378
 20
-134.0696804135312
 30
0.0
 10
97.40594073085686
 20
-134.0696804135312
 30
0.0
 10
97.40594073085686
 20
-134.0696804135312
 30
0.0
 10
97.40594073085686
 20
-134.0696804135312
 30
0.0
 10
97.40594073085686
 20
-133.9215413076654
 30
0.0
 10
97.40594073085686
 20
-133.9215413076654
 30
0.0
 10
97.73804793563494
 20
-133.9067273970789
 30
0.0
 10
97.78455672468581
 20
-133.7437743806266
 30
0.0
 10
97.81418454585896
 20
-133.6293972105163
 30
0.0
 10
97.81418454585896
 20
-133.6293972105163
 30
0.0
 10
97.96025659443355
 20
-133.6293972105163
 30
0.0
 10
97.96025659443355
 20
-133.6293972105163
 30
0.0
 10
97.96025659443355
 20
-133.6293972105163
 30
0.0
 10
97.96025659443355
 20
-135.1738335165538
 30
0.0
 10
97.96025659443355
 20
-135.1738335165538
 30
0.0
 10
97.96025659443355
 20
-135.1738335165538
 30
0.0
 10
97.73598087834378
 20
-135.1738335165538
 30
0.0
 10
97.73598087834378
 20
-135.1738335165538
 30
0.0
  0
HATCH
  5
D1
330
CC
100
AcDbEntity
  8
_U+30EC_U+30A4_U+30E4_U+30FC 1
 62
   179
420
  2234388
100
AcDbHatch
 10
0.0
 20
0.0
 30
0.0
210
0.0
220
0.0
230
1.0
  2
SOLID
 70
     1
 71
     0
 91
        1
 92
        1
 93
        1
 72
     4
 94
        3
 73
     0
 74
     1
 95
       26
 96
       22
 40
0.0
 40
0.0
 40
0.0
 40
0.0
 40
1.0
 40
1.0
 40
1.0
 40
2.0
 40
2.0
 40
2.0
 40
3.0
 40
3.0
 40
3.0
 40
4.0
 40
4.0
 40
4.0
 40
5.0
 40
5.0
 40
5.0
 40
6.0
 40
6.0
 40
6.0
 40
7.0
 40
7.0
 40
7.0
 40
7.0
 10
97.73598087834378
 20
-135.1738335165538
 10
97.73598087834378
 20
-135.1738335165538
 10
97.73598087834378
 20
-134.0696804135312
 10
97.73598087834378
 20
-134.0696804135312
 10
97.73598087834378
 20
-134.0696804135312
 10
97.40594073085686
 20
-134.0696804135312
 10
97.40594073085686
 20
-134.0696804135312
 10
97.40594073085686
 20
-134.0696804135312
 10
97.40594073085686
 20
-133.9215413076654
 10
97.40594073085686
 20
-133.9215413076654
 10
97.73804793563494
 20
-133.9067273970789
 10
97.78455672468581
 20
-133.7437743806266
 10
97.81418454585896
 20
-133.6293972105163
 10
97.81418454585896
 20
-133.6293972105163
 10
97.96025659443355
 20
-133.6293972105163
 10
97.96025659443355
 20
-133.6293972105163
 10
97.96025659443355
 20
-133.6293972105163
 10
97.96025659443355
 20
-135.1738335165538
 10
97.96025659443355
 20
-135.1738335165538
 10
97.96025659443355
 20
-135.1738335165538
 10
97.73598087834378
 20
-135.1738335165538
 10
97.73598087834378
 20
-135.1738335165538
 97
        0
 97
        0
 75
     2
 76
     1
 98
        0
  0
SPLINE
  5
D2
330
CC
100
AcDbEntity
  8
_U+30EC_U+30A4_U+30E4_U+30FC 1
370
     0
100
AcDbSpline
210
0.0
220
0.0
230
1.0
 70
    11
 71
     3
 72
    29
 73
    25
 74
     0
 42
0.0000000001
 43
0.0000000001
 12
1.0
 22
0.0
 32
0.0
 13
1.0
 23
0.0
 33
0.0
 40
0.0
 40
0.0
 40
0.0
 40
0.0
 40
1.0
 40
1.0
 40
1.0
 40
2.0
 40
2.0
 40
2.0
 40
3.0
 40
3.0
 40
3.0
 40
4.0
 40
4.0
 40
4.0
 40
5.0
 40
5.0
 40
5.0
 40
6.0
 40
6.0
 40
6.0
 40
7.0
 40
7.0
 40
7.0
 40
8.0
 40
8.0
 40
8.0
 40
8.0
 10
99.35930987099351
 20
-134.9960665895149
 30
0.0
 10
99.25113387275667
 20
-135.2055283950181
 30
0.0
 10
99.0778455698486
 20
-135.2244764201869
 30
0.0
 10
98.96140134244716
 20
-135.2244764201869
 30
0.0
 10
98.80051538328598
 20
-135.2244764201869
 30
0.0
 10
98.65892195884221
 20
-135.1779676311361
 30
0.0
 10
98.56383732344932
 20
-134.9960665895149
 30
0.0
 10
98.4601399493433
 20
-134.8014186945983
 30
0.0
 10
98.44119192417443
 20
-134.5647406347616
 30
0.0
 10
98.44119192417443
 20
-134.4017876183093
 30
0.0
 10
98.44119192417443
 20
-134.2577826270258
 30
0.0
 10
98.45807289205216
 20
-134.0059461470541
 30
0.0
 10
98.56383732344932
 20
-133.8071641375552
 30
0.0
 10
98.67166881213764
 20
-133.6042480134739
 30
0.0
 10
98.83255477129882
 20
-133.5808213641743
 30
0.0
 10
98.96140134244716
 20
-133.5808213641743
 30
0.0
 10
99.12022024431717
 20
-133.5808213641743
 30
0.0
 10
99.2638807260521
 20
-133.625263095934
 30
0.0
 10
99.35930987099351
 20
-133.8071641375552
 30
0.0
 10
99.4585286209687
 20
-133.9997449751806
 30
0.0
 10
99.4819552702684
 20
-134.2281548058527
 30
0.0
 10
99.4819552702684
 20
-134.4017876183093
 30
0.0
 10
99.4819552702684
 20
-134.5730088639262
 30
0.0
 10
99.46059567825985
 20
-134.8034857518894
 30
0.0
 10
99.35930987099351
 20
-134.9960665895149
 30
0.0
  0
SPLINE
  5
D3
330
CC
100
AcDbEntity
  8
_U+30EC_U+30A4_U+30E4_U+30FC 1
370
     0
100
AcDbSpline
210
0.0
220
0.0
230
1.0
 70
    11
 71
     3
 72
    17
 73
    13
 74
     0
 42
0.0000000001
 43
0.0000000001
 12
1.0
 22
0.0
 32
0.0
 13
1.0
 23
0.0
 33
0.0
 40
0.0
 40
0.0
 40
0.0
 40
0.0
 40
1.0
 40
1.0
 40
1.0
 40
2.0
 40
2.0
 40
2.0
 40
3.0
 40
3.0
 40
3.0
 40
4.0
 40
4.0
 40
4.0
 40
4.0
 10
98.96140134244716
 20
-133.7734022017997
 30
0.0
 10
98.71197642931507
 20
-133.7734022017997
 30
0.0
 10
98.66512313071567
 20
-134.0569335602358
 30
0.0
 10
98.66512313071567
 20
-134.4017876183093
 30
0.0
 10
98.66512313071567
 20
-134.7211479697919
 30
0.0
 10
98.70129663331079
 20
-135.0298285252703
 30
0.0
 10
98.96140134244716
 20
-135.0298285252703
 30
0.0
 10
99.20910370783662
 20
-135.0298285252703
 30
0.0
 10
99.25767955417864
 20
-134.7487087336739
 30
0.0
 10
99.25767955417864
 20
-134.4017876183093
 30
0.0
 10
99.25767955417864
 20
-134.0820827572781
 30
0.0
 10
99.21943899429236
 20
-133.7734022017997
 30
0.0
 10
98.96140134244716
 20
-133.7734022017997
 30
0.0
  0
HATCH
  5
D4
330
CC
100
AcDbEntity
  8
_U+30EC_U+30A4_U+30E4_U+30FC 1
 62
   179
420
  2234388
100
AcDbHatch
 10
0.0
 20
0.0
 30
0.0
210
0.0
220
0.0
230
1.0
  2
SOLID
 70
     1
 71
     0
 91
        2
 92
        1
 93
        1
 72
     4
 94
        3
 73
     0
 74
     1
 95
       29
 96
       25
 40
0.0
 40
0.0
 40
0.0
 40
0.0
 40
1.0
 40
1.0
 40
1.0
 40
2.0
 40
2.0
 40
2.0
 40
3.0
 40
3.0
 40
3.0
 40
4.0
 40
4.0
 40
4.0
 40
5.0
 40
5.0
 40
5.0
 40
6.0
 40
6.0
 40
6.0
 40
7.0
 40
7.0
 40
7.0
 40
8.0
 40
8.0
 40
8.0
 40
8.0
 10
99.35930987099351
 20
-134.9960665895149
 10
99.25113387275667
 20
-135.2055283950181
 10
99.0778455698486
 20
-135.2244764201869
 10
98.96140134244716
 20
-135.2244764201869
 10
98.80051538328598
 20
-135.2244764201869
 10
98.65892195884221
 20
-135.1779676311361
 10
98.56383732344932
 20
-134.9960665895149
 10
98.4601399493433
 20
-134.8014186945983
 10
98.44119192417443
 20
-134.5647406347616
 10
98.44119192417443
 20
-134.4017876183093
 10
98.44119192417443
 20
-134.2577826270258
 10
98.45807289205216
 20
-134.0059461470541
 10
98.56383732344932
 20
-133.8071641375552
 10
98.67166881213764
 20
-133.6042480134739
 10
98.83255477129882
 20
-133.5808213641743
 10
98.96140134244716
 20
-133.5808213641743
 10
99.12022024431717
 20
-133.5808213641743
 10
99.2638807260521
 20
-133.625263095934
 10
99.35930987099351
 20
-133.8071641375552
 10
99.4585286209687
 20
-133.9997449751806
 10
99.4819552702684
 20
-134.2281548058527
 10
99.4819552702684
 20
-134.4017876183093
 10
99.4819552702684
 20
-134.5730088639262
 10
99.46059567825985
 20
-134.8034857518894
 10
99.35930987099351
 20
-134.9960665895149
 97
        0
 97
        0
 92
        1
 93
        1
 72
     4
 94
        3
 73
     0
 74
     1
 95
       17
 96
       13
 40
0.0
 40
0.0
 40
0.0
 40
0.0
 40
1.0
 40
1.0
 40
1.0
 40
2.0
 40
2.0
 40
2.0
 40
3.0
 40
3.0
 40
3.0
 40
4.0
 40
4.0
 40
4.0
 40
4.0
 10
98.96140134244716
 20
-133.7734022017997
 10
98.71197642931507
 20
-133.7734022017997
 10
98.66512313071567
 20
-134.0569335602358
 10
98.66512313071567
 20
-134.4017876183093
 10
98.66512313071567
 20
-134.7211479697919
 10
98.70129663331079
 20
-135.0298285252703
 10
98.96140134244716
 20
-135.0298285252703
 10
99.20910370783662
 20
-135.0298285252703
 10
99.25767955417864
 20
-134.7487087336739
 10
99.25767955417864
 20
-134.4017876183093
 10
99.25767955417864
 20
-134.0820827572781
 10
99.21943899429236
 20
-133.7734022017997
 10
98.96140134244716
 20
-133.7734022017997
 97
        0
 97
        0
 75
     2
 76
     1
 98
        0
  0
ENDBLK
  5
CF
330
CC
100
AcDbEntity
  8
0
100
AcDbBlockEnd
  0
BLOCK
  5
DF
330
DD
100
AcDbEntity
  8
0
100
AcDbBlockBegin
  2
block 6
 70
     0
 10
0.0
 20
0.0
 30
0.0
  3
block 6
  1

  0
SPLINE
  5
E1
330
DD
100
AcDbEntity
  8
_U+30EC_U+30A4_U+30E4_U+30FC 1
370
     0
100
AcDbSpline
210
0.0
220
0.0
230
1.0
 70
    11
 71
     3
 72
    26
 73
    22
 74
     0
 42
0.0000000001
 43
0.0000000001
 12
1.0
 22
0.0
 32
0.0
 13
1.0
 23
0.0
 33
0.0
 40
0.0
 40
0.0
 40
0.0
 40
0.0
 40
1.0
 40
1.0
 40
1.0
 40
2.0
 40
2.0
 40
2.0
 40
3.0
 40
3.0
 40
3.0
 40
4.0
 40
4.0
 40
4.0
 40
5.0
 40
5.0
 40
5.0
 40
6.0
 40
6.0
 40
6.0
 40
7.0
 40
7.0
 40
7.0
 40
7.0
 10
86.73579099394105
 20
-135.1738335165538
 30
0.0
 10
86.73579099394105
 20
-135.1738335165538
 30
0.0
 10
86.73579099394105
 20
-134.0696804135312
 30
0.0
 10
86.73579099394105
 20
-134.0696804135312
 30
0.0
 10
86.73579099394105
 20
-134.0696804135312
 30
0.0
 10
86.40575084645413
 20
-134.0696804135312
 30
0.0
 10
86.40575084645413
 20
-134.0696804135312
 30
0.0
 10
86.40575084645413
 20
-134.0696804135312
 30
0.0
 10
86.40575084645413
 20
-133.9215413076654
 30
0.0
 10
86.40575084645413
 20
-133.9215413076654
 30
0.0
 10
86.73785805123221
 20
-133.9067273970789
 30
0.0
 10
86.78436684028308
 20
-133.7437743806266
 30
0.0
 10
86.81399466145622
 20
-133.6293972105163
 30
0.0
 10
86.81399466145622
 20
-133.6293972105163
 30
0.0
 10
86.96006671003082
 20
-133.6293972105163
 30
0.0
 10
86.96006671003082
 20
-133.6293972105163
 30
0.0
 10
86.96006671003082
 20
-133.6293972105163
 30
0.0
 10
86.96006671003082
 20
-135.1738335165538
 30
0.0
 10
86.96006671003082
 20
-135.1738335165538
 30
0.0
 10
86.96006671003082
 20
-135.1738335165538
 30
0.0
 10
86.73579099394105
 20
-135.1738335165538
 30
0.0
 10
86.73579099394105
 20
-135.1738335165538
 30
0.0
  0
HATCH
  5
E2
330
DD
100
AcDbEntity
  8
_U+30EC_U+30A4_U+30E4_U+30FC 1
 62
   179
420
  2234388
100
AcDbHatch
 10
0.0
 20
0.0
 30
0.0
210
0.0
220
0.0
230
1.0
  2
SOLID
 70
     1
 71
     0
 91
        1
 92
        1
 93
        1
 72
     4
 94
        3
 73
     0
 74
     1
 95
       26
 96
       22
 40
0.0
 40
0.0
 40
0.0
 40
0.0
 40
1.0
 40
1.0
 40
1.0
 40
2.0
 40
2.0
 40
2.0
 40
3.0
 40
3.0
 40
3.0
 40
4.0
 40
4.0
 40
4.0
 40
5.0
 40
5.0
 40
5.0
 40
6.0
 40
6.0
 40
6.0
 40
7.0
 40
7.0
 40
7.0
 40
7.0
 10
86.73579099394105
 20
-135.1738335165538
 10
86.73579099394105
 20
-135.1738335165538
 10
86.73579099394105
 20
-134.0696804135312
 10
86.73579099394105
 20
-134.0696804135312
 10
86.73579099394105
 20
-134.0696804135312
 10
86.40575084645413
 20
-134.0696804135312
 10
86.40575084645413
 20
-134.0696804135312
 10
86.40575084645413
 20
-134.0696804135312
 10
86.40575084645413
 20
-133.9215413076654
 10
86.40575084645413
 20
-133.9215413076654
 10
86.73785805123221
 20
-133.9067273970789
 10
86.78436684028308
 20
-133.7437743806266
 10
86.81399466145622
 20
-133.6293972105163
 10
86.81399466145622
 20
-133.6293972105163
 10
86.96006671003082
 20
-133.6293972105163
 10
86.96006671003082
 20
-133.6293972105163
 10
86.96006671003082
 20
-133.6293972105163
 10
86.96006671003082
 20
-135.1738335165538
 10
86.96006671003082
 20
-135.1738335165538
 10
86.96006671003082
 20
-135.1738335165538
 10
86.73579099394105
 20
-135.1738335165538
 10
86.73579099394105
 20
-135.1738335165538
 97
        0
 97
        0
 75
     2
 76
     1
 98
        0
  0
SPLINE
  5
E3
330
DD
100
AcDbEntity
  8
_U+30EC_U+30A4_U+30E4_U+30FC 1
370
     0
100
AcDbSpline
210
0.0
220
0.0
230
1.0
 70
    11
 71
     3
 72
    44
 73
    40
 74
     0
 42
0.0000000001
 43
0.0000000001
 12
1.0
 22
0.0
 32
0.0
 13
1.0
 23
0.0
 33
0.0
 40
0.0
 40
0.0
 40
0.0
 40
0.0
 40
1.0
 40
1.0
 40
1.0
 40
2.0
 40
2.0
 40
2.0
 40
3.0
 40
3.0
 40
3.0
 40
4.0
 40
4.0
 40
4.0
 40
5.0
 40
5.0
 40
5.0
 40
6.0
 40
6.0
 40
6.0
 40
7.0
 40
7.0
 40
7.0
 40
8.0
 40
8.0
 40
8.0
 40
9.0
 40
9.0
 40
9.0
 40
10.0
 40
10.0
 40
10.0
 40
11.0
 40
11.0
 40
11.0
 40
12.0
 40
12.0
 40
12.0
 40
13.0
 40
13.0
 40
13.0
 40
13.0
 10
88.05440129092044
 20
-134.5919568890951
 30
0.0
 10
87.83649900147837
 20
-134.7507757909651
 30
0.0
 10
87.74330916860237
 20
-134.8248453438979
 30
0.0
 10
87.69473332226035
 20
-134.9685058256329
 30
0.0
 10
87.69473332226035
 20
-134.9685058256329
 30
0.0
 10
88.47315264715255
 20
-134.9685058256329
 30
0.0
 10
88.47315264715255
 20
-134.9685058256329
 30
0.0
 10
88.47315264715255
 20
-134.9685058256329
 30
0.0
 10
88.47315264715255
 20
-135.1738335165538
 30
0.0
 10
88.47315264715255
 20
-135.1738335165538
 30
0.0
 10
88.47315264715255
 20
-135.1738335165538
 30
0.0
 10
87.445136154354
 20
-135.1738335165538
 30
0.0
 10
87.445136154354
 20
-135.1738335165538
 30
0.0
 10
87.4768310328183
 20
-134.8162326051848
 30
0.0
 10
87.54246010181231
 20
-134.7380289376697
 30
0.0
 10
87.92744952228898
 20
-134.439683668647
 30
0.0
 10
88.18342011684304
 20
-134.2409016591481
 30
0.0
 10
88.24887693106278
 20
-134.1730332780887
 30
0.0
 10
88.24887693106278
 20
-134.0355739682272
 30
0.0
 10
88.24887693106278
 20
-133.9170626835346
 30
0.0
 10
88.17704669019533
 20
-133.7861490550951
 30
0.0
 10
87.98033173798756
 20
-133.7861490550951
 30
0.0
 10
87.72005477407693
 20
-133.7861490550951
 30
0.0
 10
87.71161429013807
 20
-134.0166259430584
 30
0.0
 10
87.70730792078152
 20
-134.1330701704598
 30
0.0
 10
87.70730792078152
 20
-134.1330701704598
 30
0.0
 10
87.48320445946601
 20
-134.1330701704598
 30
0.0
 10
87.48320445946601
 20
-134.1330701704598
 30
0.0
 10
87.49164494340486
 20
-134.0059461470541
 30
0.0
 10
87.50215248463488
 20
-133.8939805437834
 30
0.0
 10
87.58259546421547
 20
-133.7754692590909
 30
0.0
 10
87.69249401019493
 20
-133.6145832999297
 30
0.0
 10
87.87870142117269
 20
-133.5808213641743
 30
0.0
 10
87.99514564857414
 20
-133.5808213641743
 30
0.0
 10
88.27230358036249
 20
-133.5808213641743
 30
0.0
 10
88.47952607380026
 20
-133.7647894630866
 30
0.0
 10
88.47952607380026
 20
-134.0376410255184
 30
0.0
 10
88.47952607380026
 20
-134.266395365739
 30
0.0
 10
88.36325410117308
 20
-134.3656141157142
 30
0.0
 10
88.05440129092044
 20
-134.5919568890951
 30
0.0
  0
HATCH
  5
E4
330
DD
100
AcDbEntity
  8
_U+30EC_U+30A4_U+30E4_U+30FC 1
 62
   179
420
  2234388
100
AcDbHatch
 10
0.0
 20
0.0
 30
0.0
210
0.0
220
0.0
230
1.0
  2
SOLID
 70
     1
 71
     0
 91
        1
 92
        1
 93
        1
 72
     4
 94
        3
 73
     0
 74
     1
 95
       44
 96
       40
 40
0.0
 40
0.0
 40
0.0
 40
0.0
 40
1.0
 40
1.0
 40
1.0
 40
2.0
 40
2.0
 40
2.0
 40
3.0
 40
3.0
 40
3.0
 40
4.0
 40
4.0
 40
4.0
 40
5.0
 40
5.0
 40
5.0
 40
6.0
 40
6.0
 40
6.0
 40
7.0
 40
7.0
 40
7.0
 40
8.0
 40
8.0
 40
8.0
 40
9.0
 40
9.0
 40
9.0
 40
10.0
 40
10.0
 40
10.0
 40
11.0
 40
11.0
 40
11.0
 40
12.0
 40
12.0
 40
12.0
 40
13.0
 40
13.0
 40
13.0
 40
13.0
 10
88.05440129092044
 20
-134.5919568890951
 10
87.83649900147837
 20
-134.7507757909651
 10
87.74330916860237
 20
-134.8248453438979
 10
87.69473332226035
 20
-134.9685058256329
 10
87.69473332226035
 20
-134.9685058256329
 10
88.47315264715255
 20
-134.9685058256329
 10
88.47315264715255
 20
-134.9685058256329
 10
88.47315264715255
 20
-134.9685058256329
 10
88.47315264715255
 20
-135.1738335165538
 10
88.47315264715255
 20
-135.1738335165538
 10
88.47315264715255
 20
-135.1738335165538
 10
87.445136154354
 20
-135.1738335165538
 10
87.445136154354
 20
-135.1738335165538
 10
87.4768310328183
 20
-134.8162326051848
 10
87.54246010181231
 20
-134.7380289376697
 10
87.92744952228898
 20
-134.439683668647
 10
88.18342011684304
 20
-134.2409016591481
 10
88.24887693106278
 20
-134.1730332780887
 10
88.24887693106278
 20
-134.0355739682272
 10
88.24887693106278
 20
-133.9170626835346
 10
88.17704669019533
 20
-133.7861490550951
 10
87.98033173798756
 20
-133.7861490550951
 10
87.72005477407693
 20
-133.7861490550951
 10
87.71161429013807
 20
-134.0166259430584
 10
87.70730792078152
 20
-134.1330701704598
 10
87.70730792078152
 20
-134.1330701704598
 10
87.48320445946601
 20
-134.1330701704598
 10
87.48320445946601
 20
-134.1330701704598
 10
87.49164494340486
 20
-134.0059461470541
 10
87.50215248463488
 20
-133.8939805437834
 10
87.58259546421547
 20
-133.7754692590909
 10
87.69249401019493
 20
-133.6145832999297
 10
87.87870142117269
 20
-133.5808213641743
 10
87.99514564857414
 20
-133.5808213641743
 10
88.27230358036249
 20
-133.5808213641743
 10
88.47952607380026
 20
-133.7647894630866
 10
88.47952607380026
 20
-134.0376410255184
 10
88.47952607380026
 20
-134.266395365739
 10
88.36325410117308
 20
-134.3656141157142
 10
88.05440129092044
 20
-134.5919568890951
 97
        0
 97
        0
 75
     2
 76
     1
 98
        0
  0
ENDBLK
  5
E0
330
DD
100
AcDbEntity
  8
0
100
AcDbBlockEnd
  0
ENDSEC
  0
SECTION
  2
ENTITIES
  0
POLYLINE
  5
41
330
1F
100
AcDbEntity
  8
_U+30EC_U+30A4_U+30E4_U+30FC 1
370
     0
100
AcDb2dPolyline
 66
     1
 10
0.0
 20
0.0
 30
0.0
  0
VERTEX
  5
42
330
41
100
AcDbEntity
  8
_U+30EC_U+30A4_U+30E4_U+30FC 1
370
     0
100
AcDbVertex
100
AcDb2dVertex
 10
102.4405962754116
 20
-130.819560245073
 30
0.0
  0
VERTEX
  5
43
330
41
100
AcDbEntity
  8
_U+30EC_U+30A4_U+30E4_U+30FC 1
370
     0
100
AcDbVertex
100
AcDb2dVertex
 10
94.44040786840225
 20
-130.819560245073
 30
0.0
  0
VERTEX
  5
44
330
41
100
AcDbEntity
  8
_U+30EC_U+30A4_U+30E4_U+30FC 1
370
     0
100
AcDbVertex
100
AcDb2dVertex
 10
94.44040786840225
 20
-122.3194855249756
 30
0.0
  0
VERTEX
  5
45
330
41
100
AcDbEntity
  8
_U+30EC_U+30A4_U+30E4_U+30FC 1
370
     0
100
AcDbVertex
100
AcDb2dVertex
 10
81.44033542228395
 20
-122.3194855249756
 30
0.0
  0
VERTEX
  5
46
330
41
100
AcDbEntity
  8
_U+30EC_U+30A4_U+30E4_U+30FC 1
370
     0
100
AcDbVertex
100
AcDb2dVertex
 10
81.44033542228395
 20
-123.3196105247256
 30
0.0
  0
VERTEX
  5
47
330
41
100
AcDbEntity
  8
_U+30EC_U+30A4_U+30E4_U+30FC 1
370
     0
100
AcDbVertex
100
AcDb2dVertex
 10
93.44063567168634
 20
-123.3196105247256
 30
0.0
  0
VERTEX
  5
48
330
41
100
AcDbEntity
  8
_U+30EC_U+30A4_U+30E4_U+30FC 1
370
     0
100
AcDbVertex
100
AcDb2dVertex
 10
93.44063567168634
 20
-131.8193324670449
 30
0.0
  0
VERTEX
  5
49
330
41
100
AcDbEntity
  8
_U+30EC_U+30A4_U+30E4_U+30FC 1
370
     0
100
AcDbVertex
100
AcDb2dVertex
 10
103.4403684721275
 20
-131.8193324670449
 30
0.0
  0
VERTEX
  5
4A
330
41
100
AcDbEntity
  8
_U+30EC_U+30A4_U+30E4_U+30FC 1
370
     0
100
AcDbVertex
100
AcDb2dVertex
 10
103.4403684721275
 20
-128.8193455233506
 30
0.0
  0
VERTEX
  5
4B
330
41
100
AcDbEntity
  8
_U+30EC_U+30A4_U+30E4_U+30FC 1
370
     0
100
AcDbVertex
100
AcDb2dVertex
 10
102.4405962754116
 20
-128.8193455233506
 30
0.0
  0
VERTEX
  5
4C
330
41
100
AcDbEntity
  8
_U+30EC_U+30A4_U+30E4_U+30FC 1
370
     0
100
AcDbVertex
100
AcDb2dVertex
 10
102.4405962754116
 20
-130.819560245073
 30
0.0
  0
SEQEND
  5
4E
330
41
100
AcDbEntity
  8
_U+30EC_U+30A4_U+30E4_U+30FC 1
370
     0
  0
HATCH
  5
4D
330
1F
100
AcDbEntity
  8
_U+30EC_U+30A4_U+30E4_U+30FC 1
 62
   253
420
 11711154
100
AcDbHatch
 10
0.0
 20
0.0
 30
0.0
210
0.0
220
0.0
230
1.0
  2
SOLID
 70
     1
 71
     0
 91
        1
 92
        1
 93
       10
 72
     1
 10
102.4405962754116
 20
-130.819560245073
 11
94.44040786840225
 21
-130.819560245073
 72
     1
 10
94.44040786840225
 20
-130.819560245073
 11
94.44040786840225
 21
-122.3194855249756
 72
     1
 10
94.44040786840225
 20
-122.3194855249756
 11
81.44033542228395
 21
-122.3194855249756
 72
     1
 10
81.44033542228395
 20
-122.3194855249756
 11
81.44033542228395
 21
-123.3196105247256
 72
     1
 10
81.44033542228395
 20
-123.3196105247256
 11
93.44063567168634
 21
-123.3196105247256
 72
     1
 10
93.44063567168634
 20
-123.3196105247256
 11
93.44063567168634
 21
-131.8193324670449
 72
     1
 10
93.44063567168634
 20
-131.8193324670449
 11
103.4403684721275
 21
-131.8193324670449
 72
     1
 10
103.4403684721275
 20
-131.8193324670449
 11
103.4403684721275
 21
-128.8193455233506
 72
     1
 10
103.4403684721275
 20
-128.8193455233506
 11
102.4405962754116
 21
-128.8193455233506
 72
     1
 10
102.4405962754116
 20
-128.8193455233506
 11
102.4405962754116
 21
-130.819560245073
 97
        0
 75
     2
 76
     1
 98
        0
  0
POLYLINE
  5
4F
330
1F
100
AcDbEntity
  8
_U+30EC_U+30A4_U+30E4_U+30FC 1
 62
   179
420
  2234388
370
    25
100
AcDb2dPolyline
 66
     1
 10
0.0
 20
0.0
 30
0.0
  0
VERTEX
  5
50
330
4F
100
AcDbEntity
  8
_U+30EC_U+30A4_U+30E4_U+30FC 1
 62
   179
420
  2234388
370
    25
100
AcDbVertex
100
AcDb2dVertex
 10
81.37316653510868
 20
-123.3196105247256
 30
0.0
  0
VERTEX
  5
51
330
4F
100
AcDbEntity
  8
_U+30EC_U+30A4_U+30E4_U+30FC 1
 62
   179
420
  2234388
370
    25
100
AcDbVertex
100
AcDb2dVertex
 10
81.37316653510868
 20
-122.3194855249756
 30
0.0
  0
SEQEND
  5
52
330
4F
100
AcDbEntity
  8
_U+30EC_U+30A4_U+30E4_U+30FC 1
 62
   179
420
  2234388
370
    25
  0
POLYLINE
  5
53
330
1F
100
AcDbEntity
  8
_U+30EC_U+30A4_U+30E4_U+30FC 1
 62
   179
420
  2234388
370
    25
100
AcDb2dPolyline
 66
     1
 10
0.0
 20
0.0
 30
0.0
  0
VERTEX
  5
54
330
53
100
AcDbEntity
  8
_U+30EC_U+30A4_U+30E4_U+30FC 1
 62
   179
420
  2234388
370
    25
100
AcDbVertex
100
AcDb2dVertex
 10
103.3735170849441
 20
-131.8193324670449
 30
0.0
  0
VERTEX
  5
55
330
53
100
AcDbEntity
  8
_U+30EC_U+30A4_U+30E4_U+30FC 1
 62
   179
420
  2234388
370
    25
100
AcDbVertex
100
AcDb2dVertex
 10
103.3735170849441
 20
-128.8193455233506
 30
0.0
  0
SEQEND
  5
56
330
53
100
AcDbEntity
  8
_U+30EC_U+30A4_U+30E4_U+30FC 1
 62
   179
420
  2234388
370
    25
  0
POLYLINE
  5
57
330
1F
100
AcDbEntity
  8
_U+30EC_U+30A4_U+30E4_U+30FC 1
 62
   179
420
  2234388
370
    25
100
AcDb2dPolyline
 66
     1
 10
0.0
 20
0.0
 30
0.0
  0
VERTEX
  5
58
330
57
100
AcDbEntity
  8
_U+30EC_U+30A4_U+30E4_U+30FC 1
 62
   179
420
  2234388
370
    25
100
AcDbVertex
100
AcDb2dVertex
 10
81.37316653510868
 20
-122.3194855249756
 30
0.0
  0
VERTEX
  5
59
330
57
100
AcDbEntity
  8
_U+30EC_U+30A4_U+30E4_U+30FC 1
 62
   179
420
  2234388
370
    25
100
AcDbVertex
100
AcDb2dVertex
 10
94.3728862034582
 20
-122.3194855249756
 30
0.0
  0
SEQEND
  5
5A
330
57
100
AcDbEntity
  8
_U+30EC_U+30A4_U+30E4_U+30FC 1
 62
   179
420
  2234388
370
    25
  0
POLYLINE
  5
5B
330
1F
100
AcDbEntity
  8
_U+30EC_U+30A4_U+30E4_U+30FC 1
 62
   179
420
  2234388
370
    25
100
AcDb2dPolyline
 66
     1
 10
0.0
 20
0.0
 30
0.0
  0
VERTEX
  5
5C
330
5B
100
AcDbEntity
  8
_U+30EC_U+30A4_U+30E4_U+30FC 1
 62
   179
420
  2234388
370
    25
100
AcDbVertex
100
AcDb2dVertex
 10
102.3730746104675
 20
-128.8193455233506
 30
0.0
  0
VERTEX
  5
5D
330
5B
100
AcDbEntity
  8
_U+30EC_U+30A4_U+30E4_U+30FC 1
 62
   179
420
  2234388
370
    25
100
AcDbVertex
100
AcDb2dVertex
 10
103.3735170849441
 20
-128.8193455233506
 30
0.0
  0
SEQEND
  5
5E
330
5B
100
AcDbEntity
  8
_U+30EC_U+30A4_U+30E4_U+30FC 1
 62
   179
420
  2234388
370
    25
  0
POLYLINE
  5
5F
330
1F
100
AcDbEntity
  8
_U+30EC_U+30A4_U+30E4_U+30FC 1
 62
   179
420
  2234388
370
    25
100
AcDb2dPolyline
 66
     1
 10
0.0
 20
0.0
 30
0.0
  0
VERTEX
  5
60
330
5F
100
AcDbEntity
  8
_U+30EC_U+30A4_U+30E4_U+30FC 1
 62
   179
420
  2234388
370
    25
100
AcDbVertex
100
AcDb2dVertex
 10
93.3731140067423
 20
-131.8193324670449
 30
0.0
  0
VERTEX
  5
61
330
5F
100
AcDbEntity
  8
_U+30EC_U+30A4_U+30E4_U+30FC 1
 62
   179
420
  2234388
370
    25
100
AcDbVertex
100
AcDb2dVertex
 10
103.3735170849441
 20
-131.8193324670449
 30
0.0
  0
SEQEND
  5
62
330
5F
100
AcDbEntity
  8
_U+30EC_U+30A4_U+30E4_U+30FC 1
 62
   179
420
  2234388
370
    25
  0
POLYLINE
  5
63
330
1F
100
AcDbEntity
  8
_U+30EC_U+30A4_U+30E4_U+30FC 1
 62
   179
420
  2234388
370
    25
100
AcDb2dPolyline
 66
     1
 10
0.0
 20
0.0
 30
0.0
  0
VERTEX
  5
64
330
63
100
AcDbEntity
  8
_U+30EC_U+30A4_U+30E4_U+30FC 1
 62
   179
420
  2234388
370
    25
100
AcDbVertex
100
AcDb2dVertex
 10
81.37316653510868
 20
-123.3196105247256
 30
0.0
  0
VERTEX
  5
65
330
63
100
AcDbEntity
  8
_U+30EC_U+30A4_U+30E4_U+30FC 1
 62
   179
420
  2234388
370
    25
100
AcDbVertex
100
AcDb2dVertex
 10
93.3731140067423
 20
-123.3196105247256
 30
0.0
  0
SEQEND
  5
66
330
63
100
AcDbEntity
  8
_U+30EC_U+30A4_U+30E4_U+30FC 1
 62
   179
420
  2234388
370
    25
  0
POLYLINE
  5
67
330
1F
100
AcDbEntity
  8
_U+30EC_U+30A4_U+30E4_U+30FC 1
 62
   179
420
  2234388
370
    25
100
AcDb2dPolyline
 66
     1
 10
0.0
 20
0.0
 30
0.0
  0
VERTEX
  5
68
330
67
100
AcDbEntity
  8
_U+30EC_U+30A4_U+30E4_U+30FC 1
 62
   179
420
  2234388
370
    25
100
AcDbVertex
100
AcDb2dVertex
 10
93.3731140067423
 20
-131.8193324670449
 30
0.0
  0
VERTEX
  5
69
330
67
100
AcDbEntity
  8
_U+30EC_U+30A4_U+30E4_U+30FC 1
 62
   179
420
  2234388
370
    25
100
AcDbVertex
100
AcDb2dVertex
 10
93.3731140067423
 20
-123.3196105247256
 30
0.0
  0
SEQEND
  5
6A
330
67
100
AcDbEntity
  8
_U+30EC_U+30A4_U+30E4_U+30FC 1
 62
   179
420
  2234388
370
    25
  0
POLYLINE
  5
6B
330
1F
100
AcDbEntity
  8
_U+30EC_U+30A4_U+30E4_U+30FC 1
 62
   179
420
  2234388
370
    25
100
AcDb2dPolyline
 66
     1
 10
0.0
 20
0.0
 30
0.0
  0
VERTEX
  5
6C
330
6B
100
AcDbEntity
  8
_U+30EC_U+30A4_U+30E4_U+30FC 1
 62
   179
420
  2234388
370
    25
100
AcDbVertex
100
AcDb2dVertex
 10
94.3728862034582
 20
-130.819560245073
 30
0.0
  0
VERTEX
  5
6D
330
6B
100
AcDbEntity
  8
_U+30EC_U+30A4_U+30E4_U+30FC 1
 62
   179
420
  2234388
370
    25
100
AcDbVertex
100
AcDb2dVertex
 10
94.3728862034582
 20
-122.3194855249756
 30
0.0
  0
SEQEND
  5
6E
330
6B
100
AcDbEntity
  8
_U+30EC_U+30A4_U+30E4_U+30FC 1
 62
   179
420
  2234388
370
    25
  0
POLYLINE
  5
6F
330
1F
100
AcDbEntity
  8
_U+30EC_U+30A4_U+30E4_U+30FC 1
 62
   179
420
  2234388
370
    25
100
AcDb2dPolyline
 66
     1
 10
0.0
 20
0.0
 30
0.0
  0
VERTEX
  5
70
330
6F
100
AcDbEntity
  8
_U+30EC_U+30A4_U+30E4_U+30FC 1
 62
   179
420
  2234388
370
    25
100
AcDbVertex
100
AcDb2dVertex
 10
94.3728862034582
 20
-130.819560245073
 30
0.0
  0
VERTEX
  5
71
330
6F
100
AcDbEntity
  8
_U+30EC_U+30A4_U+30E4_U+30FC 1
 62
   179
420
  2234388
370
    25
100
AcDbVertex
100
AcDb2dVertex
 10
102.3730746104675
 20
-130.819560245073
 30
0.0
  0
SEQEND
  5
72
330
6F
100
AcDbEntity
  8
_U+30EC_U+30A4_U+30E4_U+30FC 1
 62
   179
420
  2234388
370
    25
  0
POLYLINE
  5
73
330
1F
100
AcDbEntity
  8
_U+30EC_U+30A4_U+30E4_U+30FC 1
 62
   179
420
  2234388
370
    25
100
AcDb2dPolyline
 66
     1
 10
0.0
 20
0.0
 30
0.0
  0
VERTEX
  5
74
330
73
100
AcDbEntity
  8
_U+30EC_U+30A4_U+30E4_U+30FC 1
 62
   179
420
  2234388
370
    25
100
AcDbVertex
100
AcDb2dVertex
 10
102.3730746104675
 20
-130.819560245073
 30
0.0
  0
VERTEX
  5
75
330
73
100
AcDbEntity
  8
_U+30EC_U+30A4_U+30E4_U+30FC 1
 62
   179
420
  2234388
370
    25
100
AcDbVertex
100
AcDb2dVertex
 10
102.3730746104675
 20
-128.8193455233506
 30
0.0
  0
SEQEND
  5
76
330
73
100
AcDbEntity
  8
_U+30EC_U+30A4_U+30E4_U+30FC 1
 62
   179
420
  2234388
370
    25
  0
SPLINE
  5
77
330
1F
100
AcDbEntity
  8
_U+30EC_U+30A4_U+30E4_U+30FC 1
 62
   179
420
  2234388
370
     9
100
AcDbSpline
210
0.0
220
0.0
230
1.0
 70
    11
 71
     3
 72
    17
 73
    13
 74
     0
 42
0.0000000001
 43
0.0000000001
 12
1.0
 22
0.0
 32
0.0
 13
1.0
 23
0.0
 33
0.0
 40
0.0
 40
0.0
 40
0.0
 40
0.0
 40
1.0
 40
1.0
 40
1.0
 40
2.0
 40
2.0
 40
2.0
 40
3.0
 40
3.0
 40
3.0
 40
4.0
 40
4.0
 40
4.0
 40
4.0
 10
107.4731828136862
 20
-122.3194855249756
 30
0.0
 10
107.4731828136862
 20
-122.264028858323
 30
0.0
 10
107.4284153148283
 20
-122.2192260805562
 30
0.0
 10
107.3732761495684
 20
-122.2192260805562
 30
0.0
 10
107.3181749731707
 20
-122.2192260805562
 30
0.0
 10
107.273372195404
 20
-122.264028858323
 30
0.0
 10
107.273372195404
 20
-122.3194855249756
 30
0.0
 10
107.273372195404
 20
-122.3749421916286
 30
0.0
 10
107.3181749731707
 20
-122.4193921916173
 30
0.0
 10
107.3732761495684
 20
-122.4193921916173
 30
0.0
 10
107.4284153148283
 20
-122.4193921916173
 30
0.0
 10
107.4731828136862
 20
-122.3749421916286
 30
0.0
 10
107.4731828136862
 20
-122.3194855249756
 30
0.0
  0
SPLINE
  5
78
330
1F
100
AcDbEntity
  8
_U+30EC_U+30A4_U+30E4_U+30FC 1
 62
   179
420
  2234388
370
     9
100
AcDbSpline
210
0.0
220
0.0
230
1.0
 70
    11
 71
     3
 72
    17
 73
    13
 74
     0
 42
0.0000000001
 43
0.0000000001
 12
1.0
 22
0.0
 32
0.0
 13
1.0
 23
0.0
 33
0.0
 40
0.0
 40
0.0
 40
0.0
 40
0.0
 40
1.0
 40
1.0
 40
1.0
 40
2.0
 40
2.0
 40
2.0
 40
3.0
 40
3.0
 40
3.0
 40
4.0
 40
4.0
 40
4.0
 40
4.0
 10
107.4731828136862
 20
-128.8193455233506
 30
0.0
 10
107.4731828136862
 20
-128.7642416344757
 30
0.0
 10
107.4284153148283
 20
-128.719438856709
 30
0.0
 10
107.3732761495684
 20
-128.719438856709
 30
0.0
 10
107.3181749731707
 20
-128.719438856709
 30
0.0
 10
107.273372195404
 20
-128.7642416344757
 30
0.0
 10
107.273372195404
 20
-128.8193455233506
 30
0.0
 10
107.273372195404
 20
-128.8744846900037
 30
0.0
 10
107.3181749731707
 20
-128.9192521899922
 30
0.0
 10
107.3732761495684
 20
-128.9192521899922
 30
0.0
 10
107.4284153148283
 20
-128.9192521899922
 30
0.0
 10
107.4731828136862
 20
-128.8744846900037
 30
0.0
 10
107.4731828136862
 20
-128.8193455233506
 30
0.0
  0
SPLINE
  5
79
330
1F
100
AcDbEntity
  8
_U+30EC_U+30A4_U+30E4_U+30FC 1
 62
   179
420
  2234388
370
     9
100
AcDbSpline
210
0.0
220
0.0
230
1.0
 70
    11
 71
     3
 72
    17
 73
    13
 74
     0
 42
0.0000000001
 43
0.0000000001
 12
1.0
 22
0.0
 32
0.0
 13
1.0
 23
0.0
 33
0.0
 40
0.0
 40
0.0
 40
0.0
 40
0.0
 40
1.0
 40
1.0
 40
1.0
 40
2.0
 40
2.0
 40
2.0
 40
3.0
 40
3.0
 40
3.0
 40
4.0
 40
4.0
 40
4.0
 40
4.0
 10
107.4731828136862
 20
-131.8193324670449
 30
0.0
 10
107.4731828136862
 20
-131.76422857817
 30
0.0
 10
107.4284153148283
 20
-131.7194258004033
 30
0.0
 10
107.3732761495684
 20
-131.7194258004033
 30
0.0
 10
107.3181749731707
 20
-131.7194258004033
 30
0.0
 10
107.273372195404
 20
-131.76422857817
 30
0.0
 10
107.273372195404
 20
-131.8193324670449
 30
0.0
 10
107.273372195404
 20
-131.874471633698
 30
0.0
 10
107.3181749731707
 20
-131.9192391336866
 30
0.0
 10
107.3732761495684
 20
-131.9192391336866
 30
0.0
 10
107.4284153148283
 20
-131.9192391336866
 30
0.0
 10
107.4731828136862
 20
-131.874471633698
 30
0.0
 10
107.4731828136862
 20
-131.8193324670449
 30
0.0
  0
SPLINE
  5
7A
330
1F
100
AcDbEntity
  8
_U+30EC_U+30A4_U+30E4_U+30FC 1
 62
   179
420
  2234388
370
     9
100
AcDbSpline
210
0.0
220
0.0
230
1.0
 70
    11
 71
     3
 72
    17
 73
    13
 74
     0
 42
0.0000000001
 43
0.0000000001
 12
1.0
 22
0.0
 32
0.0
 13
1.0
 23
0.0
 33
0.0
 40
0.0
 40
0.0
 40
0.0
 40
0.0
 40
1.0
 40
1.0
 40
1.0
 40
2.0
 40
2.0
 40
2.0
 40
3.0
 40
3.0
 40
3.0
 40
4.0
 40
4.0
 40
4.0
 40
4.0
 10
103.4734237490619
 20
-135.8197971882674
 30
0.0
 10
103.4734237490619
 20
-135.7639877438369
 30
0.0
 10
103.428656250204
 20
-135.7191849660702
 30
0.0
 10
103.3735170849441
 20
-135.7191849660702
 30
0.0
 10
103.3177076419235
 20
-135.7191849660702
 30
0.0
 10
103.2729401430656
 20
-135.7639877438369
 30
0.0
 10
103.2729401430656
 20
-135.8197971882674
 30
0.0
 10
103.2729401430656
 20
-135.8749010771423
 30
0.0
 10
103.3177076419235
 20
-135.919703854909
 30
0.0
 10
103.3735170849441
 20
-135.919703854909
 30
0.0
 10
103.428656250204
 20
-135.919703854909
 30
0.0
 10
103.4734237490619
 20
-135.8749010771423
 30
0.0
 10
103.4734237490619
 20
-135.8197971882674
 30
0.0
  0
SPLINE
  5
7B
330
1F
100
AcDbEntity
  8
_U+30EC_U+30A4_U+30E4_U+30FC 1
 62
   179
420
  2234388
370
     9
100
AcDbSpline
210
0.0
220
0.0
230
1.0
 70
    11
 71
     3
 72
    17
 73
    13
 74
     0
 42
0.0000000001
 43
0.0000000001
 12
1.0
 22
0.0
 32
0.0
 13
1.0
 23
0.0
 33
0.0
 40
0.0
 40
0.0
 40
0.0
 40
0.0
 40
1.0
 40
1.0
 40
1.0
 40
2.0
 40
2.0
 40
2.0
 40
3.0
 40
3.0
 40
3.0
 40
4.0
 40
4.0
 40
4.0
 40
4.0
 10
93.47302067086012
 20
-135.8197971882674
 30
0.0
 10
93.47302067086012
 20
-135.7639877438369
 30
0.0
 10
93.42821789422537
 20
-135.7191849660702
 30
0.0
 10
93.3731140067423
 20
-135.7191849660702
 30
0.0
 10
93.31797484148234
 20
-135.7191849660702
 30
0.0
 10
93.27320734262446
 20
-135.7639877438369
 30
0.0
 10
93.27320734262446
 20
-135.8197971882674
 30
0.0
 10
93.27320734262446
 20
-135.8749010771423
 30
0.0
 10
93.31797484148234
 20
-135.919703854909
 30
0.0
 10
93.3731140067423
 20
-135.919703854909
 30
0.0
 10
93.42821789422537
 20
-135.919703854909
 30
0.0
 10
93.47302067086012
 20
-135.8749010771423
 30
0.0
 10
93.47302067086012
 20
-135.8197971882674
 30
0.0
  0
SPLINE
  5
7C
330
1F
100
AcDbEntity
  8
_U+30EC_U+30A4_U+30E4_U+30FC 1
 62
   179
420
  2234388
370
     9
100
AcDbSpline
210
0.0
220
0.0
230
1.0
 70
    11
 71
     3
 72
    17
 73
    13
 74
     0
 42
0.0000000001
 43
0.0000000001
 12
1.0
 22
0.0
 32
0.0
 13
1.0
 23
0.0
 33
0.0
 40
0.0
 40
0.0
 40
0.0
 40
0.0
 40
1.0
 40
1.0
 40
1.0
 40
2.0
 40
2.0
 40
2.0
 40
3.0
 40
3.0
 40
3.0
 40
4.0
 40
4.0
 40
4.0
 40
4.0
 10
81.4732495881109
 20
-135.8197971882674
 30
0.0
 10
81.4732495881109
 20
-135.7639877438369
 30
0.0
 10
81.42844681147614
 20
-135.7191849660702
 30
0.0
 10
81.37316653510868
 20
-135.7191849660702
 30
0.0
 10
81.31802736984874
 20
-135.7191849660702
 30
0.0
 10
81.27325987099084
 20
-135.7639877438369
 30
0.0
 10
81.27325987099084
 20
-135.8197971882674
 30
0.0
 10
81.27325987099084
 20
-135.8749010771423
 30
0.0
 10
81.31802736984874
 20
-135.919703854909
 30
0.0
 10
81.37316653510868
 20
-135.919703854909
 30
0.0
 10
81.42844681147614
 20
-135.919703854909
 30
0.0
 10
81.4732495881109
 20
-135.8749010771423
 30
0.0
 10
81.4732495881109
 20
-135.8197971882674
 30
0.0
  0
SPLINE
  5
7D
330
1F
100
AcDbEntity
  8
_U+30EC_U+30A4_U+30E4_U+30FC 1
 62
   179
420
  2234388
370
     9
100
AcDbSpline
210
0.0
220
0.0
230
1.0
 70
    11
 71
     3
 72
    17
 73
    13
 74
     0
 42
0.0000000001
 43
0.0000000001
 12
1.0
 22
0.0
 32
0.0
 13
1.0
 23
0.0
 33
0.0
 40
0.0
 40
0.0
 40
0.0
 40
0.0
 40
1.0
 40
1.0
 40
1.0
 40
2.0
 40
2.0
 40
2.0
 40
3.0
 40
3.0
 40
3.0
 40
4.0
 40
4.0
 40
4.0
 40
4.0
 10
77.47313774571782
 20
-123.3196105247256
 30
0.0
 10
77.47313774571782
 20
-123.2644713580729
 30
0.0
 10
77.42833496908305
 20
-123.219703858084
 30
0.0
 10
77.37323108159998
 20
-123.219703858084
 30
0.0
 10
77.31791552745564
 20
-123.219703858084
 30
0.0
 10
77.27314998068185
 20
-123.2644713580729
 30
0.0
 10
77.27314998068185
 20
-123.3196105247256
 30
0.0
 10
77.27314998068185
 20
-123.3747144136009
 30
0.0
 10
77.31791552745564
 20
-123.4195171913673
 30
0.0
 10
77.37323108159998
 20
-123.4195171913673
 30
0.0
 10
77.42833496908305
 20
-123.4195171913673
 30
0.0
 10
77.47313774571782
 20
-123.3747144136009
 30
0.0
 10
77.47313774571782
 20
-123.3196105247256
 30
0.0
  0
SPLINE
  5
7E
330
1F
100
AcDbEntity
  8
_U+30EC_U+30A4_U+30E4_U+30FC 1
 62
   179
420
  2234388
370
     9
100
AcDbSpline
210
0.0
220
0.0
230
1.0
 70
    11
 71
     3
 72
    17
 73
    13
 74
     0
 42
0.0000000001
 43
0.0000000001
 12
1.0
 22
0.0
 32
0.0
 13
1.0
 23
0.0
 33
0.0
 40
0.0
 40
0.0
 40
0.0
 40
0.0
 40
1.0
 40
1.0
 40
1.0
 40
2.0
 40
2.0
 40
2.0
 40
3.0
 40
3.0
 40
3.0
 40
4.0
 40
4.0
 40
4.0
 40
4.0
 10
77.47313774571782
 20
-122.3194855249756
 30
0.0
 10
77.47313774571782
 20
-122.264028858323
 30
0.0
 10
77.42833496908305
 20
-122.2192260805562
 30
0.0
 10
77.37323108159998
 20
-122.2192260805562
 30
0.0
 10
77.31791552745564
 20
-122.2192260805562
 30
0.0
 10
77.27314998068185
 20
-122.264028858323
 30
0.0
 10
77.27314998068185
 20
-122.3194855249756
 30
0.0
 10
77.27314998068185
 20
-122.3749421916286
 30
0.0
 10
77.31791552745564
 20
-122.4193921916173
 30
0.0
 10
77.37323108159998
 20
-122.4193921916173
 30
0.0
 10
77.42833496908305
 20
-122.4193921916173
 30
0.0
 10
77.47313774571782
 20
-122.3749421916286
 30
0.0
 10
77.47313774571782
 20
-122.3194855249756
 30
0.0
  0
POLYLINE
  5
7F
330
1F
100
AcDbEntity
  8
_U+30EC_U+30A4_U+30E4_U+30FC 1
 62
   179
420
  2234388
370
     9
100
AcDb2dPolyline
 66
     1
 10
0.0
 20
0.0
 30
0.0
  0
VERTEX
  5
80
330
7F
100
AcDbEntity
  8
_U+30EC_U+30A4_U+30E4_U+30FC 1
 62
   179
420
  2234388
370
     9
100
AcDbVertex
100
AcDb2dVertex
 10
77.37323108159998
 20
-123.3196105247256
 30
0.0
  0
VERTEX
  5
81
330
7F
100
AcDbEntity
  8
_U+30EC_U+30A4_U+30E4_U+30FC 1
 62
   179
420
  2234388
370
     9
100
AcDbVertex
100
AcDb2dVertex
 10
77.37323108159998
 20
-127.089923023783
 30
0.0
  0
SEQEND
  5
82
330
7F
100
AcDbEntity
  8
_U+30EC_U+30A4_U+30E4_U+30FC 1
 62
   179
420
  2234388
370
     9
  0
POLYLINE
  5
83
330
1F
100
AcDbEntity
  8
_U+30EC_U+30A4_U+30E4_U+30FC 1
 62
   179
420
  2234388
370
     9
100
AcDb2dPolyline
 66
     1
 10
0.0
 20
0.0
 30
0.0
  0
VERTEX
  5
84
330
83
100
AcDbEntity
  8
_U+30EC_U+30A4_U+30E4_U+30FC 1
 62
   179
420
  2234388
370
     9
100
AcDbVertex
100
AcDb2dVertex
 10
77.37323108159998
 20
-121.3193958030035
 30
0.0
  0
VERTEX
  5
85
330
83
100
AcDbEntity
  8
_U+30EC_U+30A4_U+30E4_U+30FC 1
 62
   179
420
  2234388
370
     9
100
AcDbVertex
100
AcDb2dVertex
 10
77.37323108159998
 20
-123.3196105247256
 30
0.0
  0
SEQEND
  5
86
330
83
100
AcDbEntity
  8
_U+30EC_U+30A4_U+30E4_U+30FC 1
 62
   179
420
  2234388
370
     9
  0
POLYLINE
  5
87
330
1F
100
AcDbEntity
  8
_U+30EC_U+30A4_U+30E4_U+30FC 1
 62
   179
420
  2234388
370
     9
100
AcDb2dPolyline
 66
     1
 10
0.0
 20
0.0
 30
0.0
  0
VERTEX
  5
88
330
87
100
AcDbEntity
  8
_U+30EC_U+30A4_U+30E4_U+30FC 1
 62
   179
420
  2234388
370
     9
100
AcDbVertex
100
AcDb2dVertex
 10
78.83327243324011
 20
-122.3194855249756
 30
0.0
  0
VERTEX
  5
89
330
87
100
AcDbEntity
  8
_U+30EC_U+30A4_U+30E4_U+30FC 1
 62
   179
420
  2234388
370
     9
100
AcDbVertex
100
AcDb2dVertex
 10
76.37310610711529
 20
-122.3194855249756
 30
0.0
  0
SEQEND
  5
8A
330
87
100
AcDbEntity
  8
_U+30EC_U+30A4_U+30E4_U+30FC 1
 62
   179
420
  2234388
370
     9
  0
POLYLINE
  5
8B
330
1F
100
AcDbEntity
  8
_U+30EC_U+30A4_U+30E4_U+30FC 1
 62
   179
420
  2234388
370
     9
100
AcDb2dPolyline
 66
     1
 10
0.0
 20
0.0
 30
0.0
  0
VERTEX
  5
8C
330
8B
100
AcDbEntity
  8
_U+30EC_U+30A4_U+30E4_U+30FC 1
 62
   179
420
  2234388
370
     9
100
AcDbVertex
100
AcDb2dVertex
 10
78.83327243324011
 20
-123.3196105247256
 30
0.0
  0
VERTEX
  5
8D
330
8B
100
AcDbEntity
  8
_U+30EC_U+30A4_U+30E4_U+30FC 1
 62
   179
420
  2234388
370
     9
100
AcDbVertex
100
AcDb2dVertex
 10
76.37310610711529
 20
-123.3196105247256
 30
0.0
  0
SEQEND
  5
8E
330
8B
100
AcDbEntity
  8
_U+30EC_U+30A4_U+30E4_U+30FC 1
 62
   179
420
  2234388
370
     9
  0
INSERT
  5
90
330
1F
100
AcDbEntity
  8
_U+30EC_U+30A4_U+30E4_U+30FC 1
100
AcDbBlockReference
  2
block 2
 10
0.0
 20
0.0
 30
0.0
  0
POLYLINE
  5
95
330
1F
100
AcDbEntity
  8
_U+30EC_U+30A4_U+30E4_U+30FC 1
 62
   179
420
  2234388
370
     9
100
AcDb2dPolyline
 66
     1
 10
0.0
 20
0.0
 30
0.0
  0
VERTEX
  5
96
330
95
100
AcDbEntity
  8
_U+30EC_U+30A4_U+30E4_U+30FC 1
 62
   179
420
  2234388
370
     9
100
AcDbVertex
100
AcDb2dVertex
 10
107.3732761495684
 20
-131.8193324670449
 30
0.0
  0
VERTEX
  5
97
330
95
100
AcDbEntity
  8
_U+30EC_U+30A4_U+30E4_U+30FC 1
 62
   179
420
  2234388
370
     9
100
AcDbVertex
100
AcDb2dVertex
 10
107.3732761495684
 20
-128.8193455233506
 30
0.0
  0
SEQEND
  5
98
330
95
100
AcDbEntity
  8
_U+30EC_U+30A4_U+30E4_U+30FC 1
 62
   179
420
  2234388
370
     9
  0
POLYLINE
  5
99
330
1F
100
AcDbEntity
  8
_U+30EC_U+30A4_U+30E4_U+30FC 1
 62
   179
420
  2234388
370
     9
100
AcDb2dPolyline
 66
     1
 10
0.0
 20
0.0
 30
0.0
  0
VERTEX
  5
9A
330
99
100
AcDbEntity
  8
_U+30EC_U+30A4_U+30E4_U+30FC 1
 62
   179
420
  2234388
370
     9
100
AcDbVertex
100
AcDb2dVertex
 10
105.9132700757051
 20
-131.8193324670449
 30
0.0
  0
VERTEX
  5
9B
330
99
100
AcDbEntity
  8
_U+30EC_U+30A4_U+30E4_U+30FC 1
 62
   179
420
  2234388
370
     9
100
AcDbVertex
100
AcDb2dVertex
 10
108.3730483462843
 20
-131.8193324670449
 30
0.0
  0
SEQEND
  5
9C
330
99
100
AcDbEntity
  8
_U+30EC_U+30A4_U+30E4_U+30FC 1
 62
   179
420
  2234388
370
     9
  0
POLYLINE
  5
9D
330
1F
100
AcDbEntity
  8
_U+30EC_U+30A4_U+30E4_U+30FC 1
 62
   179
420
  2234388
370
     9
100
AcDb2dPolyline
 66
     1
 10
0.0
 20
0.0
 30
0.0
  0
VERTEX
  5
9E
330
9D
100
AcDbEntity
  8
_U+30EC_U+30A4_U+30E4_U+30FC 1
 62
   179
420
  2234388
370
     9
100
AcDbVertex
100
AcDb2dVertex
 10
105.9132700757051
 20
-128.8193455233506
 30
0.0
  0
VERTEX
  5
9F
330
9D
100
AcDbEntity
  8
_U+30EC_U+30A4_U+30E4_U+30FC 1
 62
   179
420
  2234388
370
     9
100
AcDbVertex
100
AcDb2dVertex
 10
108.3730483462843
 20
-128.8193455233506
 30
0.0
  0
SEQEND
  5
A0
330
9D
100
AcDbEntity
  8
_U+30EC_U+30A4_U+30E4_U+30FC 1
 62
   179
420
  2234388
370
     9
  0
INSERT
  5
A2
330
1F
100
AcDbEntity
  8
_U+30EC_U+30A4_U+30E4_U+30FC 1
100
AcDbBlockReference
  2
block 3
 10
0.0
 20
0.0
 30
0.0
  0
POLYLINE
  5
A7
330
1F
100
AcDbEntity
  8
_U+30EC_U+30A4_U+30E4_U+30FC 1
 62
   179
420
  2234388
370
     9
100
AcDb2dPolyline
 66
     1
 10
0.0
 20
0.0
 30
0.0
  0
VERTEX
  5
A8
330
A7
100
AcDbEntity
  8
_U+30EC_U+30A4_U+30E4_U+30FC 1
 62
   179
420
  2234388
370
     9
100
AcDbVertex
100
AcDb2dVertex
 10
107.3732761495684
 20
-128.8193455233506
 30
0.0
  0
VERTEX
  5
A9
330
A7
100
AcDbEntity
  8
_U+30EC_U+30A4_U+30E4_U+30FC 1
 62
   179
420
  2234388
370
     9
100
AcDbVertex
100
AcDb2dVertex
 10
107.3732761495684
 20
-122.3194855249756
 30
0.0
  0
SEQEND
  5
AA
330
A7
100
AcDbEntity
  8
_U+30EC_U+30A4_U+30E4_U+30FC 1
 62
   179
420
  2234388
370
     9
  0
POLYLINE
  5
AB
330
1F
100
AcDbEntity
  8
_U+30EC_U+30A4_U+30E4_U+30FC 1
 62
   179
420
  2234388
370
     9
100
AcDb2dPolyline
 66
     1
 10
0.0
 20
0.0
 30
0.0
  0
VERTEX
  5
AC
330
AB
100
AcDbEntity
  8
_U+30EC_U+30A4_U+30E4_U+30FC 1
 62
   179
420
  2234388
370
     9
100
AcDbVertex
100
AcDb2dVertex
 10
96.91327419420305
 20
-122.3194855249756
 30
0.0
  0
VERTEX
  5
AD
330
AB
100
AcDbEntity
  8
_U+30EC_U+30A4_U+30E4_U+30FC 1
 62
   179
420
  2234388
370
     9
100
AcDbVertex
100
AcDb2dVertex
 10
108.3730483462843
 20
-122.3194855249756
 30
0.0
  0
SEQEND
  5
AE
330
AB
100
AcDbEntity
  8
_U+30EC_U+30A4_U+30E4_U+30FC 1
 62
   179
420
  2234388
370
     9
  0
INSERT
  5
B0
330
1F
100
AcDbEntity
  8
_U+30EC_U+30A4_U+30E4_U+30FC 1
100
AcDbBlockReference
  2
block 4
 10
0.0
 20
0.0
 30
0.0
  0
POLYLINE
  5
C0
330
1F
100
AcDbEntity
  8
_U+30EC_U+30A4_U+30E4_U+30FC 1
 62
   179
420
  2234388
370
     9
100
AcDb2dPolyline
 66
     1
 10
0.0
 20
0.0
 30
0.0
  0
VERTEX
  5
C1
330
C0
100
AcDbEntity
  8
_U+30EC_U+30A4_U+30E4_U+30FC 1
 62
   179
420
  2234388
370
     9
100
AcDbVertex
100
AcDb2dVertex
 10
93.3731140067423
 20
-135.8197971882674
 30
0.0
  0
VERTEX
  5
C2
330
C0
100
AcDbEntity
  8
_U+30EC_U+30A4_U+30E4_U+30FC 1
 62
   179
420
  2234388
370
     9
100
AcDbVertex
100
AcDb2dVertex
 10
103.3735170849441
 20
-135.8197971882674
 30
0.0
  0
SEQEND
  5
C3
330
C0
100
AcDbEntity
  8
_U+30EC_U+30A4_U+30E4_U+30FC 1
 62
   179
420
  2234388
370
     9
  0
POLYLINE
  5
C4
330
1F
100
AcDbEntity
  8
_U+30EC_U+30A4_U+30E4_U+30FC 1
 62
   179
420
  2234388
370
     9
100
AcDb2dPolyline
 66
     1
 10
0.0
 20
0.0
 30
0.0
  0
VERTEX
  5
C5
330
C4
100
AcDbEntity
  8
_U+30EC_U+30A4_U+30E4_U+30FC 1
 62
   179
420
  2234388
370
     9
100
AcDbVertex
100
AcDb2dVertex
 10
93.3731140067423
 20
-134.3597557997437
 30
0.0
  0
VERTEX
  5
C6
330
C4
100
AcDbEntity
  8
_U+30EC_U+30A4_U+30E4_U+30FC 1
 62
   179
420
  2234388
370
     9
100
AcDbVertex
100
AcDb2dVertex
 10
93.3731140067423
 20
-136.8195694102392
 30
0.0
  0
SEQEND
  5
C7
330
C4
100
AcDbEntity
  8
_U+30EC_U+30A4_U+30E4_U+30FC 1
 62
   179
420
  2234388
370
     9
  0
POLYLINE
  5
C8
330
1F
100
AcDbEntity
  8
_U+30EC_U+30A4_U+30E4_U+30FC 1
 62
   179
420
  2234388
370
     9
100
AcDb2dPolyline
 66
     1
 10
0.0
 20
0.0
 30
0.0
  0
VERTEX
  5
C9
330
C8
100
AcDbEntity
  8
_U+30EC_U+30A4_U+30E4_U+30FC 1
 62
   179
420
  2234388
370
     9
100
AcDbVertex
100
AcDb2dVertex
 10
103.3735170849441
 20
-134.3597557997437
 30
0.0
  0
VERTEX
  5
CA
330
C8
100
AcDbEntity
  8
_U+30EC_U+30A4_U+30E4_U+30FC 1
 62
   179
420
  2234388
370
     9
100
AcDbVertex
100
AcDb2dVertex
 10
103.3735170849441
 20
-136.8195694102392
 30
0.0
  0
SEQEND
  5
CB
330
C8
100
AcDbEntity
  8
_U+30EC_U+30A4_U+30E4_U+30FC 1
 62
   179
420
  2234388
370
     9
  0
INSERT
  5
CD
330
1F
100
AcDbEntity
  8
_U+30EC_U+30A4_U+30E4_U+30FC 1
100
AcDbBlockReference
  2
block 5
 10
0.0
 20
0.0
 30
0.0
  0
POLYLINE
  5
D5
330
1F
100
AcDbEntity
  8
_U+30EC_U+30A4_U+30E4_U+30FC 1
 62
   179
420
  2234388
370
     9
100
AcDb2dPolyline
 66
     1
 10
0.0
 20
0.0
 30
0.0
  0
VERTEX
  5
D6
330
D5
100
AcDbEntity
  8
_U+30EC_U+30A4_U+30E4_U+30FC 1
 62
   179
420
  2234388
370
     9
100
AcDbVertex
100
AcDb2dVertex
 10
93.3731140067423
 20
-135.8197971882674
 30
0.0
  0
VERTEX
  5
D7
330
D5
100
AcDbEntity
  8
_U+30EC_U+30A4_U+30E4_U+30FC 1
 62
   179
420
  2234388
370
     9
100
AcDbVertex
100
AcDb2dVertex
 10
81.37316653510868
 20
-135.8197971882674
 30
0.0
  0
SEQEND
  5
D8
330
D5
100
AcDbEntity
  8
_U+30EC_U+30A4_U+30E4_U+30FC 1
 62
   179
420
  2234388
370
     9
  0
POLYLINE
  5
D9
330
1F
100
AcDbEntity
  8
_U+30EC_U+30A4_U+30E4_U+30FC 1
 62
   179
420
  2234388
370
     9
100
AcDb2dPolyline
 66
     1
 10
0.0
 20
0.0
 30
0.0
  0
VERTEX
  5
DA
330
D9
100
AcDbEntity
  8
_U+30EC_U+30A4_U+30E4_U+30FC 1
 62
   179
420
  2234388
370
     9
100
AcDbVertex
100
AcDb2dVertex
 10
81.37316653510868
 20
-125.8593283018685
 30
0.0
  0
VERTEX
  5
DB
330
D9
100
AcDbEntity
  8
_U+30EC_U+30A4_U+30E4_U+30FC 1
 62
   179
420
  2234388
370
     9
100
AcDbVertex
100
AcDb2dVertex
 10
81.37316653510868
 20
-136.8195694102392
 30
0.0
  0
SEQEND
  5
DC
330
D9
100
AcDbEntity
  8
_U+30EC_U+30A4_U+30E4_U+30FC 1
 62
   179
420
  2234388
370
     9
  0
INSERT
  5
DE
330
1F
100
AcDbEntity
  8
_U+30EC_U+30A4_U+30E4_U+30FC 1
100
AcDbBlockReference
  2
block 6
 10
0.0
 20
0.0
 30
0.0
  0
ENDSEC
  0
SECTION
  2
OBJECTS
  0
DICTIONARY
  5
C
330
0
100
AcDbDictionary
281
     1
  3
ACAD_GROUP
350
D
  3
ACAD_LAYOUT
350
1A
  3
ACAD_MATERIAL
350
3B
  3
ACAD_MLEADERSTYLE
350
E6
  3
ACAD_MLINESTYLE
350
17
  3
ACAD_PLOTSETTINGS
350
19
  3
ACAD_PLOTSTYLENAME
350
E
  3
ACAD_TABLESTYLE
350
E5
  3
ACAD_VISUALSTYLE
350
2A
  0
SUN
  5
3F
330
29
100
AcDbSun
 90
        1
290
     0
 63
     7
421
 16777215
 40
1.0
291
     1
 91
  2455826
 92
 54000000
292
     0
 70
     2
 71
   256
280
     1
  0
DICTIONARY
  5
D
102
{ACAD_REACTORS
330
C
102
}
330
C
100
AcDbDictionary
281
     1
  0
DICTIONARY
  5
1A
102
{ACAD_REACTORS
330
C
102
}
330
C
100
AcDbDictionary
281
     1
  3
Layout1
350
1E
  3
Layout2
350
26
  3
Model
350
22
  0
DICTIONARY
  5
3B
102
{ACAD_REACTORS
330
C
102
}
330
C
100
AcDbDictionary
281
     1
  3
ByBlock
350
3D
  3
ByLayer
350
3C
  3
Global
350
3E
  0
DICTIONARY
  5
E6
102
{ACAD_REACTORS
330
C
102
}
330
C
100
AcDbDictionary
281
     1
  0
DICTIONARY
  5
17
102
{ACAD_REACTORS
330
C
102
}
330
C
100
AcDbDictionary
281
     1
  3
Standard
350
18
  0
DICTIONARY
  5
19
102
{ACAD_REACTORS
330
C
102
}
330
C
100
AcDbDictionary
281
     1
  0
ACDBDICTIONARYWDFLT
  5
E
102
{ACAD_REACTORS
330
C
102
}
330
C
100
AcDbDictionary
281
     1
  3
Normal
350
F
100
AcDbDictionaryWithDefault
340
F
  0
DICTIONARY
  5
E5
102
{ACAD_REACTORS
330
C
102
}
330
C
100
AcDbDictionary
281
     1
  0
DICTIONARY
  5
2A
102
{ACAD_REACTORS
330
C
102
}
330
C
100
AcDbDictionary
281
     1
  3
2dWireframe
350
2F
  3
3D Hidden
350
31
  3
3dWireframe
350
30
  3
Basic
350
32
  3
Brighten
350
36
  3
ColorChange
350
3A
  3
Conceptual
350
34
  3
Dim
350
35
  3
Facepattern
350
39
  3
Flat
350
2B
  3
FlatWithEdges
350
2C
  3
Gouraud
350
2D
  3
GouraudWithEdges
350
2E
  3
Linepattern
350
38
  3
Realistic
350
33
  3
Thicken
350
37
  0
LAYOUT
  5
1E
102
{ACAD_REACTORS
330
1A
102
}
330
1A
100
AcDbPlotSettings
  1

  2
none_device
  4

  6

 40
0.0
 41
0.0
 42
0.0
 43
0.0
 44
0.0
 45
0.0
 46
0.0
 47
0.0
 48
0.0
 49
0.0
140
0.0
141
0.0
142
1.0
143
1.0
 70
   688
 72
     0
 73
     0
 74
     5
  7

 75
    16
 76
     0
 77
     2
 78
   300
147
1.0
148
0.0
149
0.0
100
AcDbLayout
  1
Layout1
 70
     1
 71
     1
 10
0.0
 20
0.0
 11
12.0
 21
9.0
 12
0.0
 22
0.0
 32
0.0
 14
1.000000000000000E+20
 24
1.000000000000000E+20
 34
1.000000000000000E+20
 15
-1.000000000000000E+20
 25
-1.000000000000000E+20
 35
-1.000000000000000E+20
146
0.0
 13
0.0
 23
0.0
 33
0.0
 16
1.0
 26
0.0
 36
0.0
 17
0.0
 27
1.0
 37
0.0
 76
     0
330
1B
  0
LAYOUT
  5
26
102
{ACAD_REACTORS
330
1A
102
}
330
1A
100
AcDbPlotSettings
  1

  2
none_device
  4

  6

 40
0.0
 41
0.0
 42
0.0
 43
0.0
 44
0.0
 45
0.0
 46
0.0
 47
0.0
 48
0.0
 49
0.0
140
0.0
141
0.0
142
1.0
143
1.0
 70
   688
 72
     0
 73
     0
 74
     5
  7

 75
    16
 76
     0
 77
     2
 78
   300
147
1.0
148
0.0
149
0.0
100
AcDbLayout
  1
Layout2
 70
     1
 71
     2
 10
0.0
 20
0.0
 11
0.0
 21
0.0
 12
0.0
 22
0.0
 32
0.0
 14
0.0
 24
0.0
 34
0.0
 15
0.0
 25
0.0
 35
0.0
146
0.0
 13
0.0
 23
0.0
 33
0.0
 16
1.0
 26
0.0
 36
0.0
 17
0.0
 27
1.0
 37
0.0
 76
     0
330
23
  0
LAYOUT
  5
22
102
{ACAD_REACTORS
330
1A
102
}
330
1A
100
AcDbPlotSettings
  1

  2
none_device
  4

  6

 40
0.0
 41
0.0
 42
0.0
 43
0.0
 44
0.0
 45
0.0
 46
0.0
 47
0.0
 48
0.0
 49
0.0
140
0.0
141
0.0
142
1.0
143
1.0
 70
  1712
 72
     0
 73
     0
 74
     0
  7

 75
     0
 76
     0
 77
     2
 78
   300
147
1.0
148
0.0
149
0.0
100
AcDbLayout
  1
Model
 70
     1
 71
     0
 10
0.0
 20
0.0
 11
12.0
 21
9.0
 12
0.0
 22
0.0
 32
0.0
 14
1.000000000000000E+20
 24
1.000000000000000E+20
 34
1.000000000000000E+20
 15
-1.000000000000000E+20
 25
-1.000000000000000E+20
 35
-1.000000000000000E+20
146
0.0
 13
0.0
 23
0.0
 33
0.0
 16
1.0
 26
0.0
 36
0.0
 17
0.0
 27
1.0
 37
0.0
 76
     0
330
1F
331
29
  0
MATERIAL
  5
3D
102
{ACAD_REACTORS
330
3B
102
}
330
3B
100
AcDbMaterial
  1
ByBlock
 72
     1
 94
      127
  0
MATERIAL
  5
3C
102
{ACAD_REACTORS
330
3B
102
}
330
3B
100
AcDbMaterial
  1
ByLayer
 72
     1
 94
      127
  0
MATERIAL
  5
3E
102
{ACAD_REACTORS
330
3B
102
}
330
3B
100
AcDbMaterial
  1
Global
 72
     1
 94
      127
  0
MLINESTYLE
  5
18
102
{ACAD_REACTORS
330
17
102
}
330
17
100
AcDbMlineStyle
  2
Standard
 70
     0
  3

 62
   256
 51
90.0
 52
90.0
 71
     2
 49
0.5
 62
   256
  6
BYLAYER
 49
-0.5
 62
   256
  6
BYLAYER
  0
ACDBPLACEHOLDER
  5
F
102
{ACAD_REACTORS
330
E
102
}
330
E
  0
VISUALSTYLE
  5
2F
102
{ACAD_REACTORS
330
2A
102
}
330
2A
100
AcDbVisualStyle
  2
2dWireframe
 70
     4
177
     2
291
     0
 71
     0
176
     1
 72
     2
176
     1
 73
     0
176
     1
 90
        0
176
     1
 40
-0.6
176
     1
 41
-30.0
176
     1
 62
     5
 63
     7
421
 16777215
176
     1
 74
     1
176
     1
 91
        4
176
     1
 64
     7
176
     1
 65
   257
176
     1
 75
     1
176
     1
175
     1
176
     1
 42
1.0
176
     1
 92
        0
176
     1
 66
   257
176
     1
 43
1.0
176
     1
 76
     1
176
     1
 77
     6
176
     1
 78
     2
176
     1
 67
     7
176
     1
 79
     5
176
     1
170
     0
176
     1
171
     0
176
     1
290
     0
176
     1
 93
        1
176
     1
 44
0.0
176
     1
173
     0
176
     1
  0
VISUALSTYLE
  5
31
102
{ACAD_REACTORS
330
2A
102
}
330
2A
100
AcDbVisualStyle
  2
3D Hidden
 70
     6
177
     2
291
     0
 71
     1
176
     1
 72
     2
176
     1
 73
     2
176
     1
 90
        0
176
     1
 40
-0.6
176
     1
 41
-30.0
176
     1
 62
     5
 63
     7
421
 16777215
176
     1
 74
     2
176
     1
 91
        2
176
     1
 64
     7
176
     1
 65
   257
176
     1
 75
     2
176
     1
175
     1
176
     1
 42
40.0
176
     1
 92
        0
176
     1
 66
   257
176
     1
 43
1.0
176
     1
 76
     1
176
     1
 77
     6
176
     1
 78
     2
176
     1
 67
     7
176
     1
 79
     3
176
     1
170
     0
176
     1
171
     0
176
     1
290
     0
176
     1
 93
        1
176
     1
 44
0.0
176
     1
173
     0
176
     1
  0
VISUALSTYLE
  5
30
102
{ACAD_REACTORS
330
2A
102
}
330
2A
100
AcDbVisualStyle
  2
3dWireframe
 70
     5
177
     2
291
     0
 71
     0
176
     1
 72
     2
176
     1
 73
     0
176
     1
 90
        0
176
     1
 40
-0.6
176
     1
 41
-30.0
176
     1
 62
     5
 63
     7
421
 16777215
176
     1
 74
     1
176
     1
 91
        4
176
     1
 64
     7
176
     1
 65
   257
176
     1
 75
     1
176
     1
175
     1
176
     1
 42
1.0
176
     1
 92
        0
176
     1
 66
   257
176
     1
 43
1.0
176
     1
 76
     1
176
     1
 77
     6
176
     1
 78
     2
176
     1
 67
     7
176
     1
 79
     5
176
     1
170
     0
176
     1
171
     0
176
     1
290
     0
176
     1
 93
        1
176
     1
 44
0.0
176
     1
173
     0
176
     1
  0
VISUALSTYLE
  5
32
102
{ACAD_REACTORS
330
2A
102
}
330
2A
100
AcDbVisualStyle
  2
Basic
 70
     7
177
     2
291
     1
 71
     1
176
     1
 72
     0
176
     1
 73
     1
176
     1
 90
        0
176
     1
 40
-0.6
176
     1
 41
-30.0
176
     1
 62
     5
 63
     7
421
 16777215
176
     1
 74
     0
176
     1
 91
        4
176
     1
 64
     7
176
     1
 65
   257
176
     1
 75
     1
176
     1
175
     1
176
     1
 42
1.0
176
     1
 92
        8
176
     1
 66
     7
176
     1
 43
1.0
176
     1
 76
     1
176
     1
 77
     6
176
     1
 78
     2
176
     1
 67
     7
176
     1
 79
     5
176
     1
170
     0
176
     1
171
     0
176
     1
290
     0
176
     1
 93
        1
176
     1
 44
0.0
176
     1
173
     0
176
     1
  0
VISUALSTYLE
  5
36
102
{ACAD_REACTORS
330
2A
102
}
330
2A
100
AcDbVisualStyle
  2
Brighten
 70
    12
177
     2
291
     1
 71
     2
176
     1
 72
     2
176
     1
 73
     0
176
     1
 90
        0
176
     1
 40
-0.6
176
     1
 41
-30.0
176
     1
 62
     5
 63
     7
421
 16777215
176
     1
 74
     1
176
     1
 91
        4
176
     1
 64
     7
176
     1
 65
   257
176
     1
 75
     1
176
     1
175
     1
176
     1
 42
1.0
176
     1
 92
        8
176
     1
 66
     7
176
     1
 43
1.0
176
     1
 76
     1
176
     1
 77
     6
176
     1
 78
     2
176
     1
 67
     7
176
     1
 79
     5
176
     1
170
     0
176
     1
171
     0
176
     1
290
     0
176
     1
 93
        1
176
     1
 44
50.0
176
     1
173
     0
176
     1
  0
VISUALSTYLE
  5
3A
102
{ACAD_REACTORS
330
2A
102
}
330
2A
100
AcDbVisualStyle
  2
ColorChange
 70
    16
177
     2
291
     1
 71
     2
176
     1
 72
     2
176
     1
 73
     3
176
     1
 90
        0
176
     1
 40
-0.6
176
     1
 41
-30.0
176
     1
 62
     5
 63
     8
421
  8421504
176
     1
 74
     1
176
     1
 91
        4
176
     1
 64
     7
176
     1
 65
   257
176
     1
 75
     1
176
     1
175
     1
176
     1
 42
1.0
176
     1
 92
        8
176
     1
 66
     8
424
  8421504
176
     1
 43
1.0
176
     1
 76
     1
176
     1
 77
     6
176
     1
 78
     2
176
     1
 67
     7
176
     1
 79
     5
176
     1
170
     0
176
     1
171
     0
176
     1
290
     0
176
     1
 93
        1
176
     1
 44
0.0
176
     1
173
     0
176
     1
  0
VISUALSTYLE
  5
34
102
{ACAD_REACTORS
330
2A
102
}
330
2A
100
AcDbVisualStyle
  2
Conceptual
 70
     9
177
     2
291
     0
 71
     3
176
     1
 72
     2
176
     1
 73
     0
176
     1
 90
        0
176
     1
 40
-0.6
176
     1
 41
-30.0
176
     1
 62
     5
 63
     7
421
 16777215
176
     1
 74
     2
176
     1
 91
        2
176
     1
 64
     7
176
     1
 65
   257
176
     1
 75
     1
176
     1
175
     1
176
     1
 42
40.0
176
     1
 92
        8
176
     1
 66
     7
176
     1
 43
1.0
176
     1
 76
     1
176
     1
 77
     6
176
     1
 78
     2
176
     1
 67
     7
176
     1
 79
     3
176
     1
170
     0
176
     1
171
     0
176
     1
290
     0
176
     1
 93
        1
176
     1
 44
0.0
176
     1
173
     0
176
     1
  0
VISUALSTYLE
  5
35
102
{ACAD_REACTORS
330
2A
102
}
330
2A
100
AcDbVisualStyle
  2
Dim
 70
    11
177
     2
291
     1
 71
     2
176
     1
 72
     2
176
     1
 73
     0
176
     1
 90
        0
176
     1
 40
-0.6
176
     1
 41
-30.0
176
     1
 62
     5
 63
     7
421
 16777215
176
     1
 74
     1
176
     1
 91
        4
176
     1
 64
     7
176
     1
 65
   257
176
     1
 75
     1
176
     1
175
     1
176
     1
 42
1.0
176
     1
 92
        8
176
     1
 66
     7
176
     1
 43
1.0
176
     1
 76
     1
176
     1
 77
     6
176
     1
 78
     2
176
     1
 67
     7
176
     1
 79
     5
176
     1
170
     0
176
     1
171
     0
176
     1
290
     0
176
     1
 93
        1
176
     1
 44
-50.0
176
     1
173
     0
176
     1
  0
VISUALSTYLE
  5
39
102
{ACAD_REACTORS
330
2A
102
}
330
2A
100
AcDbVisualStyle
  2
Facepattern
 70
    15
177
     2
291
     1
 71
     2
176
     1
 72
     2
176
     1
 73
     0
176
     1
 90
        0
176
     1
 40
-0.6
176
     1
 41
-30.0
176
     1
 62
     5
 63
     7
421
 16777215
176
     1
 74
     1
176
     1
 91
        4
176
     1
 64
     7
176
     1
 65
   257
176
     1
 75
     1
176
     1
175
     1
176
     1
 42
1.0
176
     1
 92
        8
176
     1
 66
     7
176
     1
 43
1.0
176
     1
 76
     1
176
     1
 77
     6
176
     1
 78
     2
176
     1
 67
     7
176
     1
 79
     5
176
     1
170
     0
176
     1
171
     0
176
     1
290
     0
176
     1
 93
        1
176
     1
 44
0.0
176
     1
173
     0
176
     1
  0
VISUALSTYLE
  5
2B
102
{ACAD_REACTORS
330
2A
102
}
330
2A
100
AcDbVisualStyle
  2
Flat
 70
     0
177
     2
291
     1
 71
     2
176
     1
 72
     1
176
     1
 73
     1
176
     1
 90
        2
176
     1
 40
-0.6
176
     1
 41
30.0
176
     1
 62
     5
 63
     7
421
 16777215
176
     1
 74
     0
176
     1
 91
        4
176
     1
 64
     7
176
     1
 65
   257
176
     1
 75
     1
176
     1
175
     1
176
     1
 42
1.0
176
     1
 92
        8
176
     1
 66
     7
176
     1
 43
1.0
176
     1
 76
     1
176
     1
 77
     6
176
     1
 78
     2
176
     1
 67
     7
176
     1
 79
     5
176
     1
170
     0
176
     1
171
     0
176
     1
290
     0
176
     1
 93
       13
176
     1
 44
0.0
176
     1
173
     0
176
     1
  0
VISUALSTYLE
  5
2C
102
{ACAD_REACTORS
330
2A
102
}
330
2A
100
AcDbVisualStyle
  2
FlatWithEdges
 70
     1
177
     2
291
     1
 71
     2
176
     1
 72
     1
176
     1
 73
     1
176
     1
 90
        2
176
     1
 40
-0.6
176
     1
 41
30.0
176
     1
 62
     5
 63
     7
421
 16777215
176
     1
 74
     1
176
     1
 91
        4
176
     1
 64
     7
176
     1
 65
   257
176
     1
 75
     1
176
     1
175
     1
176
     1
 42
1.0
176
     1
 92
        0
176
     1
 66
   257
176
     1
 43
1.0
176
     1
 76
     1
176
     1
 77
     6
176
     1
 78
     2
176
     1
 67
     7
176
     1
 79
     5
176
     1
170
     0
176
     1
171
     0
176
     1
290
     0
176
     1
 93
       13
176
     1
 44
0.0
176
     1
173
     0
176
     1
  0
VISUALSTYLE
  5
2D
102
{ACAD_REACTORS
330
2A
102
}
330
2A
100
AcDbVisualStyle
  2
Gouraud
 70
     2
177
     2
291
     1
 71
     2
176
     1
 72
     2
176
     1
 73
     1
176
     1
 90
        2
176
     1
 40
-0.6
176
     1
 41
30.0
176
     1
 62
     5
 63
     7
421
 16777215
176
     1
 74
     0
176
     1
 91
        4
176
     1
 64
     7
176
     1
 65
   257
176
     1
 75
     1
176
     1
175
     1
176
     1
 42
1.0
176
     1
 92
        0
176
     1
 66
     7
176
     1
 43
1.0
176
     1
 76
     1
176
     1
 77
     6
176
     1
 78
     2
176
     1
 67
     7
176
     1
 79
     5
176
     1
170
     0
176
     1
171
     0
176
     1
290
     0
176
     1
 93
       13
176
     1
 44
0.0
176
     1
173
     0
176
     1
  0
VISUALSTYLE
  5
2E
102
{ACAD_REACTORS
330
2A
102
}
330
2A
100
AcDbVisualStyle
  2
GouraudWithEdges
 70
     3
177
     2
291
     1
 71
     2
176
     1
 72
     2
176
     1
 73
     1
176
     1
 90
        2
176
     1
 40
-0.6
176
     1
 41
30.0
176
     1
 62
     5
 63
     7
421
 16777215
176
     1
 74
     1
176
     1
 91
        4
176
     1
 64
     7
176
     1
 65
   257
176
     1
 75
     1
176
     1
175
     1
176
     1
 42
1.0
176
     1
 92
        0
176
     1
 66
   257
176
     1
 43
1.0
176
     1
 76
     1
176
     1
 77
     6
176
     1
 78
     2
176
     1
 67
     7
176
     1
 79
     5
176
     1
170
     0
176
     1
171
     0
176
     1
290
     0
176
     1
 93
       13
176
     1
 44
0.0
176
     1
173
     0
176
     1
  0
VISUALSTYLE
  5
38
102
{ACAD_REACTORS
330
2A
102
}
330
2A
100
AcDbVisualStyle
  2
Linepattern
 70
    14
177
     2
291
     1
 71
     2
176
     1
 72
     2
176
     1
 73
     0
176
     1
 90
        0
176
     1
 40
-0.6
176
     1
 41
-30.0
176
     1
 62
     5
 63
     7
421
 16777215
176
     1
 74
     1
176
     1
 91
        4
176
     1
 64
     7
176
     1
 65
   257
176
     1
 75
     7
176
     1
175
     7
176
     1
 42
1.0
176
     1
 92
        8
176
     1
 66
     7
176
     1
 43
1.0
176
     1
 76
     1
176
     1
 77
     6
176
     1
 78
     2
176
     1
 67
     7
176
     1
 79
     5
176
     1
170
     0
176
     1
171
     0
176
     1
290
     0
176
     1
 93
        1
176
     1
 44
0.0
176
     1
173
     0
176
     1
  0
VISUALSTYLE
  5
33
102
{ACAD_REACTORS
330
2A
102
}
330
2A
100
AcDbVisualStyle
  2
Realistic
 70
     8
177
     2
291
     0
 71
     2
176
     1
 72
     2
176
     1
 73
     0
176
     1
 90
        0
176
     1
 40
-0.6
176
     1
 41
-30.0
176
     1
 62
     5
 63
     7
421
 16777215
176
     1
 74
     1
176
     1
 91
        0
176
     1
 64
     7
176
     1
 65
   257
176
     1
 75
     1
176
     1
175
     1
176
     1
 42
1.0
176
     1
 92
        8
176
     1
 66
     8
424
  7895160
176
     1
 43
1.0
176
     1
 76
     1
176
     1
 77
     6
176
     1
 78
     2
176
     1
 67
     7
176
     1
 79
     5
176
     1
170
     0
176
     1
171
     0
176
     1
290
     0
176
     1
 93
       13
176
     1
 44
0.0
176
     1
173
     0
176
     1
  0
VISUALSTYLE
  5
37
102
{ACAD_REACTORS
330
2A
102
}
330
2A
100
AcDbVisualStyle
  2
Thicken
 70
    13
177
     2
291
     1
 71
     2
176
     1
 72
     2
176
     1
 73
     0
176
     1
 90
        0
176
     1
 40
-0.6
176
     1
 41
-30.0
176
     1
 62
     5
 63
     7
421
 16777215
176
     1
 74
     1
176
     1
 91
        4
176
     1
 64
     7
176
     1
 65
   257
176
     1
 75
     1
176
     1
175
     1
176
     1
 42
1.0
176
     1
 92
       12
176
     1
 66
     7
176
     1
 43
1.0
176
     1
 76
     1
176
     1
 77
     6
176
     1
 78
     2
176
     1
 67
     7
176
     1
 79
     5
176
     1
170
     0
176
     1
171
     0
176
     1
290
     0
176
     1
 93
        1
176
     1
 44
0.0
176
     1
173
     0
176
     1
  0
ENDSEC
  0
EOF
