  0
SECTION
  2
HEADER
  9
$ACADVER
  1
AC1024
  9
$ACADMAINTVER
 70
     6
  9
$DWGCODEPAGE
  3
UNDEFINED
  9
$INSBASE
 10
0.0
 20
0.0
 30
0.0
  9
$EXTMIN
 10
1.000000000000000E+20
 20
1.000000000000000E+20
 30
1.000000000000000E+20
  9
$EXTMAX
 10
-1.000000000000000E+20
 20
-1.000000000000000E+20
 30
-1.000000000000000E+20
  9
$LIMMIN
 10
0.0
 20
0.0
  9
$LIMMAX
 10
12.0
 20
9.0
  9
$ORTHOMODE
 70
     0
  9
$REGENMODE
 70
     1
  9
$FILLMODE
 70
     1
  9
$QTEXTMODE
 70
     0
  9
$MIRRTEXT
 70
     1
  9
$LTSCALE
 40
1.0
  9
$ATTMODE
 70
     1
  9
$TEXTSIZE
 40
0.2
  9
$TRACEWID
 40
0.05
  9
$TEXTSTYLE
  7
Standard
  9
$CLAYER
  8
0
  9
$CELTYPE
  6
ByLayer
  9
$CECOLOR
 62
   256
  9
$CELTSCALE
 40
1.0
  9
$DISPSILH
 70
     0
  9
$DIMSCALE
 40
1.0
  9
$DIMASZ
 40
0.18
  9
$DIMEXO
 40
0.0625
  9
$DIMDLI
 40
0.38
  9
$DIMRND
 40
0.0
  9
$DIMDLE
 40
0.0
  9
$DIMEXE
 40
0.18
  9
$DIMTP
 40
0.0
  9
$DIMTM
 40
0.0
  9
$DIMTXT
 40
0.18
  9
$DIMCEN
 40
0.09
  9
$DIMTSZ
 40
0.0
  9
$DIMTOL
 70
     0
  9
$DIMLIM
 70
     0
  9
$DIMTIH
 70
     1
  9
$DIMTOH
 70
     1
  9
$DIMSE1
 70
     0
  9
$DIMSE2
 70
     0
  9
$DIMTAD
 70
     0
  9
$DIMZIN
 70
     0
  9
$DIMBLK
  1

  9
$DIMASO
 70
     1
  9
$DIMSHO
 70
     1
  9
$DIMPOST
  1

  9
$DIMAPOST
  1

  9
$DIMALT
 70
     0
  9
$DIMALTD
 70
     2
  9
$DIMALTF
 40
25.4
  9
$DIMLFAC
 40
1.0
  9
$DIMTOFL
 70
     0
  9
$DIMTVP
 40
0.0
  9
$DIMTIX
 70
     0
  9
$DIMSOXD
 70
     0
  9
$DIMSAH
 70
     0
  9
$DIMBLK1
  1

  9
$DIMBLK2
  1

  9
$DIMSTYLE
  2
Standard
  9
$DIMCLRD
 70
     0
  9
$DIMCLRE
 70
     0
  9
$DIMCLRT
 70
     0
  9
$DIMTFAC
 40
1.0
  9
$DIMGAP
 40
0.09
  9
$DIMJUST
 70
     0
  9
$DIMSD1
 70
     0
  9
$DIMSD2
 70
     0
  9
$DIMTOLJ
 70
     1
  9
$DIMTZIN
 70
     0
  9
$DIMALTZ
 70
     0
  9
$DIMALTTZ
 70
     0
  9
$DIMUPT
 70
     0
  9
$DIMDEC
 70
     4
  9
$DIMTDEC
 70
     4
  9
$DIMALTU
 70
     2
  9
$DIMALTTD
 70
     2
  9
$DIMTXSTY
  7
Standard
  9
$DIMAUNIT
 70
     0
  9
$DIMADEC
 70
     0
  9
$DIMALTRND
 40
0.0
  9
$DIMAZIN
 70
     0
  9
$DIMDSEP
 70
    46
  9
$DIMATFIT
 70
     3
  9
$DIMFRAC
 70
     0
  9
$DIMLDRBLK
  1

  9
$DIMLUNIT
 70
     2
  9
$DIMLWD
 70
    -2
  9
$DIMLWE
 70
    -2
  9
$DIMTMOVE
 70
     0
  9
$DIMFXL
 40
1.0
  9
$DIMFXLON
 70
     0
  9
$DIMJOGANG
 40
0.7853981633974483
  9
$DIMTFILL
 70
     0
  9
$DIMTFILLCLR
 70
     0
  9
$DIMARCSYM
 70
     0
  9
$DIMLTYPE
  6

  9
$DIMLTEX1
  6

  9
$DIMLTEX2
  6

  9
$DIMTXTDIRECTION
 70
     0
  9
$LUNITS
 70
     2
  9
$LUPREC
 70
     4
  9
$SKETCHINC
 40
0.1
  9
$FILLETRAD
 40
0.5
  9
$AUNITS
 70
     0
  9
$AUPREC
 70
     0
  9
$MENU
  1
.
  9
$ELEVATION
 40
0.0
  9
$PELEVATION
 40
0.0
  9
$THICKNESS
 40
0.0
  9
$LIMCHECK
 70
     0
  9
$CHAMFERA
 40
0.5
  9
$CHAMFERB
 40
0.5
  9
$CHAMFERC
 40
1.0
  9
$CHAMFERD
 40
0.0
  9
$SKPOLY
 70
     0
  9
$TDCREATE
 40
2457917.616944433
  9
$TDUCREATE
 40
2457917.241944444
  9
$TDUPDATE
 40
2457917.616944433
  9
$TDUUPDATE
 40
2457917.241944444
  9
$TDINDWG
 40
0.0000000116
  9
$TDUSRTIMER
 40
0.0000000116
  9
$USRTIMER
 70
     1
  9
$ANGBASE
 50
0.0
  9
$ANGDIR
 70
     0
  9
$PDMODE
 70
     0
  9
$PDSIZE
 40
0.0
  9
$PLINEWID
 40
0.0
  9
$SPLFRAME
 70
     0
  9
$SPLINETYPE
 70
     6
  9
$SPLINESEGS
 70
     8
  9
$HANDSEED
  5
CB
  9
$SURFTAB1
 70
     6
  9
$SURFTAB2
 70
     6
  9
$SURFTYPE
 70
     6
  9
$SURFU
 70
     6
  9
$SURFV
 70
     6
  9
$UCSBASE
  2

  9
$UCSNAME
  2

  9
$UCSORG
 10
0.0
 20
0.0
 30
0.0
  9
$UCSXDIR
 10
1.0
 20
0.0
 30
0.0
  9
$UCSYDIR
 10
0.0
 20
1.0
 30
0.0
  9
$UCSORTHOREF
  2

  9
$UCSORTHOVIEW
 70
     0
  9
$UCSORGTOP
 10
0.0
 20
0.0
 30
0.0
  9
$UCSORGBOTTOM
 10
0.0
 20
0.0
 30
0.0
  9
$UCSORGLEFT
 10
0.0
 20
0.0
 30
0.0
  9
$UCSORGRIGHT
 10
0.0
 20
0.0
 30
0.0
  9
$UCSORGFRONT
 10
0.0
 20
0.0
 30
0.0
  9
$UCSORGBACK
 10
0.0
 20
0.0
 30
0.0
  9
$PUCSBASE
  2

  9
$PUCSNAME
  2

  9
$PUCSORG
 10
0.0
 20
0.0
 30
0.0
  9
$PUCSXDIR
 10
1.0
 20
0.0
 30
0.0
  9
$PUCSYDIR
 10
0.0
 20
1.0
 30
0.0
  9
$PUCSORTHOREF
  2

  9
$PUCSORTHOVIEW
 70
     0
  9
$PUCSORGTOP
 10
0.0
 20
0.0
 30
0.0
  9
$PUCSORGBOTTOM
 10
0.0
 20
0.0
 30
0.0
  9
$PUCSORGLEFT
 10
0.0
 20
0.0
 30
0.0
  9
$PUCSORGRIGHT
 10
0.0
 20
0.0
 30
0.0
  9
$PUCSORGFRONT
 10
0.0
 20
0.0
 30
0.0
  9
$PUCSORGBACK
 10
0.0
 20
0.0
 30
0.0
  9
$USERI1
 70
     0
  9
$USERI2
 70
     0
  9
$USERI3
 70
     0
  9
$USERI4
 70
     0
  9
$USERI5
 70
     0
  9
$USERR1
 40
0.0
  9
$USERR2
 40
0.0
  9
$USERR3
 40
0.0
  9
$USERR4
 40
0.0
  9
$USERR5
 40
0.0
  9
$WORLDVIEW
 70
     1
  9
$SHADEDGE
 70
     3
  9
$SHADEDIF
 70
    70
  9
$TILEMODE
 70
     1
  9
$MAXACTVP
 70
    64
  9
$PINSBASE
 10
0.0
 20
0.0
 30
0.0
  9
$PLIMCHECK
 70
     0
  9
$PEXTMIN
 10
1.000000000000000E+20
 20
1.000000000000000E+20
 30
1.000000000000000E+20
  9
$PEXTMAX
 10
-1.000000000000000E+20
 20
-1.000000000000000E+20
 30
-1.000000000000000E+20
  9
$PLIMMIN
 10
0.0
 20
0.0
  9
$PLIMMAX
 10
12.0
 20
9.0
  9
$UNITMODE
 70
     0
  9
$VISRETAIN
 70
     1
  9
$PLINEGEN
 70
     0
  9
$PSLTSCALE
 70
     1
  9
$TREEDEPTH
 70
  3020
  9
$CMLSTYLE
  2
Standard
  9
$CMLJUST
 70
     0
  9
$CMLSCALE
 40
1.0
  9
$PROXYGRAPHICS
 70
     1
  9
$MEASUREMENT
 70
     0
  9
$CELWEIGHT
370
    -1
  9
$ENDCAPS
280
     0
  9
$JOINSTYLE
280
     0
  9
$LWDISPLAY
290
     1
  9
$INSUNITS
 70
     1
  9
$HYPERLINKBASE
  1

  9
$STYLESHEET
  1

  9
$XEDIT
290
     1
  9
$CEPSNTYPE
380
     0
  9
$PSTYLEMODE
290
     1
  9
$FINGERPRINTGUID
  2
{1CE15AB4-BA0B-6D38-3F24-6B0D1BC5AA65}
  9
$VERSIONGUID
  2
{FAEB1C32-E019-11D5-929B-00C0DF256EC4}
  9
$EXTNAMES
290
     1
  9
$PSVPSCALE
 40
0.0
  9
$OLESTARTUP
290
     0
  9
$SORTENTS
280
   127
  9
$INDEXCTL
280
     0
  9
$HIDETEXT
280
     1
  9
$XCLIPFRAME
280
     2
  9
$HALOGAP
280
     0
  9
$OBSCOLOR
 70
   257
  9
$OBSLTYPE
280
     0
  9
$INTERSECTIONDISPLAY
280
     0
  9
$INTERSECTIONCOLOR
 70
   257
  9
$DIMASSOC
280
     2
  9
$PROJECTNAME
  1

  9
$CAMERADISPLAY
290
     0
  9
$LENSLENGTH
 40
50.0
  9
$CAMERAHEIGHT
 40
0.0
  9
$STEPSPERSEC
 40
2.0
  9
$STEPSIZE
 40
6.0
  9
$3DDWFPREC
 40
2.0
  9
$PSOLWIDTH
 40
0.25
  9
$PSOLHEIGHT
 40
4.0
  9
$LOFTANG1
 40
1.570796326794897
  9
$LOFTANG2
 40
1.570796326794897
  9
$LOFTMAG1
 40
0.0
  9
$LOFTMAG2
 40
0.0
  9
$LOFTPARAM
 70
     7
  9
$LOFTNORMALS
280
     1
  9
$LATITUDE
 40
37.795
  9
$LONGITUDE
 40
-122.394
  9
$NORTHDIRECTION
 40
0.0
  9
$TIMEZONE
 70
 -8000
  9
$LIGHTGLYPHDISPLAY
280
     1
  9
$TILEMODELIGHTSYNCH
280
     1
  9
$CMATERIAL
347
3C
  9
$SOLIDHIST
280
     1
  9
$SHOWHIST
280
     1
  9
$DWFFRAME
280
     2
  9
$DGNFRAME
280
     2
  9
$REALWORLDSCALE
290
     1
  9
$INTERFERECOLOR
 62
   256
  9
$CSHADOW
280
     0
  9
$SHADOWPLANELOCATION
 40
0.0
  0
ENDSEC
  0
SECTION
  2
CLASSES
  0
CLASS
  1
ACDBDICTIONARYWDFLT
  2
AcDbDictionaryWithDefault
  3
ObjectDBX Classes
 90
        0
 91
        4
280
     0
281
     0
  0
CLASS
  1
VISUALSTYLE
  2
AcDbVisualStyle
  3
ObjectDBX Classes
 90
     4095
 91
        4
280
     0
281
     0
  0
CLASS
  1
MATERIAL
  2
AcDbMaterial
  3
ObjectDBX Classes
 90
     1153
 91
        4
280
     0
281
     0
  0
CLASS
  1
SUN
  2
AcDbSun
  3
SCENEOE
 90
     1024
 91
        4
280
     0
281
     0
  0
ENDSEC
  0
SECTION
  2
TABLES
  0
TABLE
  2
VPORT
  5
8
330
0
100
AcDbSymbolTable
 70
     1
  0
VPORT
  5
29
330
8
100
AcDbSymbolTableRecord
100
AcDbViewportTableRecord
  2
*Active
 70
     0
 10
0.0
 20
0.0
 11
1.0
 21
1.0
 12
0.0
 22
0.0
 13
0.0
 23
0.0
 14
0.5
 24
0.5
 15
0.5
 25
0.5
 16
0.0
 26
0.0
 36
1.0
 17
91.00082462281999
 27
-128.4993055234307
 37
0.0
 40
256.9986110468615
 41
0.7081814508812795
 42
50.0
 43
0.0
 44
0.0
 50
0.0
 51
0.0
 71
     0
 72
   100
 73
     1
 74
     3
 75
     0
 76
     0
 77
     0
 78
     0
281
     0
 65
     1
110
0.0
120
0.0
130
0.0
111
1.0
121
0.0
131
0.0
112
0.0
122
1.0
132
0.0
 79
     0
146
0.0
 60
     3
 61
     5
292
     1
282
     1
141
0.0
142
0.0
 63
   250
361
3F
  0
ENDTAB
  0
TABLE
  2
LTYPE
  5
5
330
0
100
AcDbSymbolTable
 70
     1
  0
LTYPE
  5
14
330
5
100
AcDbSymbolTableRecord
100
AcDbLinetypeTableRecord
  2
ByBlock
 70
     0
  3

 72
    65
 73
     0
 40
0.0
  0
LTYPE
  5
15
330
5
100
AcDbSymbolTableRecord
100
AcDbLinetypeTableRecord
  2
ByLayer
 70
     0
  3

 72
    65
 73
     0
 40
0.0
  0
LTYPE
  5
16
330
5
100
AcDbSymbolTableRecord
100
AcDbLinetypeTableRecord
  2
Continuous
 70
     0
  3
Solid line
 72
    65
 73
     0
 40
0.0
  0
ENDTAB
  0
TABLE
  2
LAYER
  5
2
330
0
100
AcDbSymbolTable
 70
     2
  0
LAYER
  5
10
330
2
100
AcDbSymbolTableRecord
100
AcDbLayerTableRecord
  2
0
 70
     0
 62
     7
  6
Continuous
370
    -3
390
F
347
3E
  0
LAYER
  5
40
330
2
100
AcDbSymbolTableRecord
100
AcDbLayerTableRecord
  2
_U+30EC_U+30A4_U+30E4_U+30FC 1
 70
     0
 62
     7
  6
Continuous
370
    -3
390
F
347
3E
  0
ENDTAB
  0
TABLE
  2
STYLE
  5
3
330
0
100
AcDbSymbolTable
 70
     1
  0
STYLE
  5
11
330
3
100
AcDbSymbolTableRecord
100
AcDbTextStyleTableRecord
  2
Standard
 70
     0
 40
0.0
 41
1.0
 50
0.0
 71
     0
 42
0.2
  3
txt
  4

  0
ENDTAB
  0
TABLE
  2
VIEW
  5
6
330
0
100
AcDbSymbolTable
 70
     0
  0
ENDTAB
  0
TABLE
  2
UCS
  5
7
330
0
100
AcDbSymbolTable
 70
     0
  0
ENDTAB
  0
TABLE
  2
APPID
  5
9
330
0
100
AcDbSymbolTable
 70
     1
  0
APPID
  5
12
330
9
100
AcDbSymbolTableRecord
100
AcDbRegAppTableRecord
  2
ACAD
 70
     0
  0
ENDTAB
  0
TABLE
  2
DIMSTYLE
  5
A
330
0
100
AcDbSymbolTable
 70
     1
100
AcDbDimStyleTable
  0
DIMSTYLE
105
27
330
A
100
AcDbSymbolTableRecord
100
AcDbDimStyleTableRecord
  2
Standard
 70
     0
178
     0
340
11
  0
ENDTAB
  0
TABLE
  2
BLOCK_RECORD
  5
1
330
0
100
AcDbSymbolTable
 70
     8
  0
BLOCK_RECORD
  5
1F
330
1
100
AcDbSymbolTableRecord
100
AcDbBlockTableRecord
  2
*Model_Space
340
22
 70
     0
280
     1
281
     0
  0
BLOCK_RECORD
  5
1B
330
1
100
AcDbSymbolTableRecord
100
AcDbBlockTableRecord
  2
*Paper_Space
340
1E
 70
     0
280
     1
281
     0
  0
BLOCK_RECORD
  5
23
330
1
100
AcDbSymbolTableRecord
100
AcDbBlockTableRecord
  2
*Paper_Space0
340
26
 70
     0
280
     1
281
     0
  0
BLOCK_RECORD
  5
41
330
1
100
AcDbSymbolTableRecord
100
AcDbBlockTableRecord
  2
block 2
340
0
102
{BLKREFS
331
42
102
}
 70
     0
280
     1
281
     0
  0
BLOCK_RECORD
  5
6D
330
1
100
AcDbSymbolTableRecord
100
AcDbBlockTableRecord
  2
block 3
340
0
102
{BLKREFS
331
6E
102
}
 70
     0
280
     1
281
     0
  0
BLOCK_RECORD
  5
75
330
1
100
AcDbSymbolTableRecord
100
AcDbBlockTableRecord
  2
block 4
340
0
102
{BLKREFS
331
76
102
}
 70
     0
280
     1
281
     0
  0
BLOCK_RECORD
  5
7B
330
1
100
AcDbSymbolTableRecord
100
AcDbBlockTableRecord
  2
block 5
340
0
102
{BLKREFS
331
7C
102
}
 70
     0
280
     1
281
     0
  0
BLOCK_RECORD
  5
94
330
1
100
AcDbSymbolTableRecord
100
AcDbBlockTableRecord
  2
block 6
340
0
102
{BLKREFS
331
95
102
}
 70
     0
280
     1
281
     0
  0
BLOCK_RECORD
  5
9D
330
1
100
AcDbSymbolTableRecord
100
AcDbBlockTableRecord
  2
block 7
340
0
102
{BLKREFS
331
9E
102
}
 70
     0
280
     1
281
     0
  0
BLOCK_RECORD
  5
B1
330
1
100
AcDbSymbolTableRecord
100
AcDbBlockTableRecord
  2
block 8
340
0
102
{BLKREFS
331
B2
102
}
 70
     0
280
     1
281
     0
  0
ENDTAB
  0
ENDSEC
  0
SECTION
  2
BLOCKS
  0
BLOCK
  5
20
330
1F
100
AcDbEntity
  8
0
100
AcDbBlockBegin
  2
*Model_Space
 70
     0
 10
0.0
 20
0.0
 30
0.0
  3
*Model_Space
  1

  0
ENDBLK
  5
21
330
1F
100
AcDbEntity
  8
0
100
AcDbBlockEnd
  0
BLOCK
  5
1C
330
1B
100
AcDbEntity
 67
     1
  8
0
100
AcDbBlockBegin
  2
*Paper_Space
 70
     0
 10
0.0
 20
0.0
 30
0.0
  3
*Paper_Space
  1

  0
ENDBLK
  5
1D
330
1B
100
AcDbEntity
 67
     1
  8
0
100
AcDbBlockEnd
  0
BLOCK
  5
24
330
23
100
AcDbEntity
  8
0
100
AcDbBlockBegin
  2
*Paper_Space0
 70
     0
 10
0.0
 20
0.0
 30
0.0
  3
*Paper_Space0
  1

  0
ENDBLK
  5
25
330
23
100
AcDbEntity
  8
0
100
AcDbBlockEnd
  0
BLOCK
  5
43
330
41
100
AcDbEntity
  8
0
100
AcDbBlockBegin
  2
block 2
 70
     0
 10
0.0
 20
0.0
 30
0.0
  3
block 2
  1

  0
POLYLINE
  5
45
330
41
100
AcDbEntity
  8
_U+30EC_U+30A4_U+30E4_U+30FC 1
370
     0
100
AcDb2dPolyline
 66
     1
 10
0.0
 20
0.0
 30
0.0
  0
VERTEX
  5
46
330
45
100
AcDbEntity
  8
_U+30EC_U+30A4_U+30E4_U+30FC 1
370
     0
100
AcDbVertex
100
AcDb2dVertex
 10
79.79462713093614
 20
-136.0185874659955
 30
0.0
  0
VERTEX
  5
47
330
45
100
AcDbEntity
  8
_U+30EC_U+30A4_U+30E4_U+30FC 1
370
     0
100
AcDbVertex
100
AcDb2dVertex
 10
77.06024664514044
 20
-136.0185874659955
 30
0.0
  0
VERTEX
  5
48
330
45
100
AcDbEntity
  8
_U+30EC_U+30A4_U+30E4_U+30FC 1
370
     0
100
AcDbVertex
100
AcDb2dVertex
 10
77.06024664514044
 20
-121.2859524696786
 30
0.0
  0
VERTEX
  5
49
330
45
100
AcDbEntity
  8
_U+30EC_U+30A4_U+30E4_U+30FC 1
370
     0
100
AcDbVertex
100
AcDb2dVertex
 10
106.0600256275167
 20
-121.2859524696786
 30
0.0
  0
VERTEX
  5
4A
330
45
100
AcDbEntity
  8
_U+30EC_U+30A4_U+30E4_U+30FC 1
370
     0
100
AcDbVertex
100
AcDb2dVertex
 10
106.0596728497479
 20
-120.0216321922167
 30
0.0
  0
VERTEX
  5
4B
330
45
100
AcDbEntity
  8
_U+30EC_U+30A4_U+30E4_U+30FC 1
370
     0
100
AcDbVertex
100
AcDb2dVertex
 10
75.79518556630372
 20
-120.0216321922167
 30
0.0
  0
VERTEX
  5
4C
330
45
100
AcDbEntity
  8
_U+30EC_U+30A4_U+30E4_U+30FC 1
370
     0
100
AcDbVertex
100
AcDb2dVertex
 10
75.79518556630372
 20
-136.0185874659955
 30
0.0
  0
VERTEX
  5
4D
330
45
100
AcDbEntity
  8
_U+30EC_U+30A4_U+30E4_U+30FC 1
370
     0
100
AcDbVertex
100
AcDb2dVertex
 10
71.87624788850637
 20
-136.0185874659955
 30
0.0
  0
VERTEX
  5
4E
330
45
100
AcDbEntity
  8
_U+30EC_U+30A4_U+30E4_U+30FC 1
370
     0
100
AcDbVertex
100
AcDb2dVertex
 10
70.60653014312179
 20
-137.2829077434571
 30
0.0
  0
VERTEX
  5
4F
330
45
100
AcDbEntity
  8
_U+30EC_U+30A4_U+30E4_U+30FC 1
370
     0
100
AcDbVertex
100
AcDb2dVertex
 10
81.05930015422719
 20
-137.2829077434571
 30
0.0
  0
VERTEX
  5
50
330
45
100
AcDbEntity
  8
_U+30EC_U+30A4_U+30E4_U+30FC 1
370
     0
100
AcDbVertex
100
AcDb2dVertex
 10
81.05930015422719
 20
-134.0183374664956
 30
0.0
  0
VERTEX
  5
51
330
45
100
AcDbEntity
  8
_U+30EC_U+30A4_U+30E4_U+30FC 1
370
     0
100
AcDbVertex
100
AcDb2dVertex
 10
79.79462713093614
 20
-134.0183374664956
 30
0.0
  0
VERTEX
  5
52
330
45
100
AcDbEntity
  8
_U+30EC_U+30A4_U+30E4_U+30FC 1
370
     0
100
AcDbVertex
100
AcDb2dVertex
 10
79.79462713093614
 20
-136.0185874659955
 30
0.0
  0
SEQEND
  5
53
330
45
100
AcDbEntity
  8
_U+30EC_U+30A4_U+30E4_U+30FC 1
370
     0
  0
HATCH
  5
54
330
41
100
AcDbEntity
  8
_U+30EC_U+30A4_U+30E4_U+30FC 1
 62
     9
420
 13224394
100
AcDbHatch
 10
0.0
 20
0.0
 30
0.0
210
0.0
220
0.0
230
1.0
  2
SOLID
 70
     1
 71
     0
 91
        1
 92
        1
 93
       12
 72
     1
 10
79.79462713093614
 20
-136.0185874659955
 11
77.06024664514044
 21
-136.0185874659955
 72
     1
 10
77.06024664514044
 20
-136.0185874659955
 11
77.06024664514044
 21
-121.2859524696786
 72
     1
 10
77.06024664514044
 20
-121.2859524696786
 11
106.0600256275167
 21
-121.2859524696786
 72
     1
 10
106.0600256275167
 20
-121.2859524696786
 11
106.0596728497479
 21
-120.0216321922167
 72
     1
 10
106.0596728497479
 20
-120.0216321922167
 11
75.79518556630372
 21
-120.0216321922167
 72
     1
 10
75.79518556630372
 20
-120.0216321922167
 11
75.79518556630372
 21
-136.0185874659955
 72
     1
 10
75.79518556630372
 20
-136.0185874659955
 11
71.87624788850637
 21
-136.0185874659955
 72
     1
 10
71.87624788850637
 20
-136.0185874659955
 11
70.60653014312179
 21
-137.2829077434571
 72
     1
 10
70.60653014312179
 20
-137.2829077434571
 11
81.05930015422719
 21
-137.2829077434571
 72
     1
 10
81.05930015422719
 20
-137.2829077434571
 11
81.05930015422719
 21
-134.0183374664956
 72
     1
 10
81.05930015422719
 20
-134.0183374664956
 11
79.79462713093614
 21
-134.0183374664956
 72
     1
 10
79.79462713093614
 20
-134.0183374664956
 11
79.79462713093614
 21
-136.0185874659955
 97
        0
 75
     2
 76
     1
 98
        0
  0
SPLINE
  5
55
330
41
100
AcDbEntity
  8
_U+30EC_U+30A4_U+30E4_U+30FC 1
 62
   179
420
  2234388
370
     9
100
AcDbSpline
210
0.0
220
0.0
230
1.0
 70
    11
 71
     3
 72
    17
 73
    13
 74
     0
 42
0.0000000001
 43
0.0000000001
 12
1.0
 22
0.0
 32
0.0
 13
1.0
 23
0.0
 33
0.0
 40
0.0
 40
0.0
 40
0.0
 40
0.0
 40
1.0
 40
1.0
 40
1.0
 40
2.0
 40
2.0
 40
2.0
 40
3.0
 40
3.0
 40
3.0
 40
4.0
 40
4.0
 40
4.0
 40
4.0
 10
108.6018247293366
 20
-137.1506160768235
 30
0.0
 10
108.6018247293366
 20
-137.2057552434765
 30
0.0
 10
108.6465922281945
 20
-137.2505227434651
 30
0.0
 10
108.7017313934545
 20
-137.2505227434651
 30
0.0
 10
108.7568352809375
 20
-137.2505227434651
 30
0.0
 10
108.8016380575723
 20
-137.2057552434765
 30
0.0
 10
108.8016380575723
 20
-137.1506160768235
 30
0.0
 10
108.8016380575723
 20
-137.0955121879486
 30
0.0
 10
108.7568352809375
 20
-137.0507094101818
 30
0.0
 10
108.7017313934545
 20
-137.0507094101818
 30
0.0
 10
108.6465922281945
 20
-137.0507094101818
 30
0.0
 10
108.6018247293366
 20
-137.0955121879486
 30
0.0
 10
108.6018247293366
 20
-137.1506160768235
 30
0.0
  0
SPLINE
  5
56
330
41
100
AcDbEntity
  8
_U+30EC_U+30A4_U+30E4_U+30FC 1
 62
   179
420
  2234388
370
     9
100
AcDbSpline
210
0.0
220
0.0
230
1.0
 70
    11
 71
     3
 72
    17
 73
    13
 74
     0
 42
0.0000000001
 43
0.0000000001
 12
1.0
 22
0.0
 32
0.0
 13
1.0
 23
0.0
 33
0.0
 40
0.0
 40
0.0
 40
0.0
 40
0.0
 40
1.0
 40
1.0
 40
1.0
 40
2.0
 40
2.0
 40
2.0
 40
3.0
 40
3.0
 40
3.0
 40
4.0
 40
4.0
 40
4.0
 40
4.0
 10
108.6018247293366
 20
-120.9538474697617
 30
0.0
 10
108.6018247293366
 20
-121.0089866364145
 30
0.0
 10
108.6465922281945
 20
-121.0537541364034
 30
0.0
 10
108.7017313934545
 20
-121.0537541364034
 30
0.0
 10
108.7568352809375
 20
-121.0537541364034
 30
0.0
 10
108.8016380575723
 20
-121.0089866364145
 30
0.0
 10
108.8016380575723
 20
-120.9538474697617
 30
0.0
 10
108.8016380575723
 20
-120.8980380253309
 30
0.0
 10
108.7568352809375
 20
-120.8532705253424
 30
0.0
 10
108.7017313934545
 20
-120.8532705253424
 30
0.0
 10
108.6465922281945
 20
-120.8532705253424
 30
0.0
 10
108.6018247293366
 20
-120.8980380253309
 30
0.0
 10
108.6018247293366
 20
-120.9538474697617
 30
0.0
  0
POLYLINE
  5
57
330
41
100
AcDbEntity
  8
_U+30EC_U+30A4_U+30E4_U+30FC 1
 62
   179
420
  2234388
370
     9
100
AcDb2dPolyline
 66
     1
 10
0.0
 20
0.0
 30
0.0
  0
VERTEX
  5
58
330
57
100
AcDbEntity
  8
_U+30EC_U+30A4_U+30E4_U+30FC 1
 62
   179
420
  2234388
370
     9
100
AcDbVertex
100
AcDb2dVertex
 10
108.7017313934545
 20
-116.3832585820154
 30
0.0
  0
VERTEX
  5
59
330
57
100
AcDbEntity
  8
_U+30EC_U+30A4_U+30E4_U+30FC 1
 62
   179
420
  2234388
370
     9
100
AcDbVertex
100
AcDb2dVertex
 10
108.7017313934545
 20
-137.1506160768235
 30
0.0
  0
SEQEND
  5
5A
330
57
100
AcDbEntity
  8
_U+30EC_U+30A4_U+30E4_U+30FC 1
 62
   179
420
  2234388
370
     9
  0
POLYLINE
  5
5B
330
41
100
AcDbEntity
  8
_U+30EC_U+30A4_U+30E4_U+30FC 1
 62
   179
420
  2234388
370
     9
100
AcDb2dPolyline
 66
     1
 10
0.0
 20
0.0
 30
0.0
  0
VERTEX
  5
5C
330
5B
100
AcDbEntity
  8
_U+30EC_U+30A4_U+30E4_U+30FC 1
 62
   179
420
  2234388
370
     9
100
AcDbVertex
100
AcDb2dVertex
 10
107.0776836571096
 20
-120.9538474697617
 30
0.0
  0
VERTEX
  5
5D
330
5B
100
AcDbEntity
  8
_U+30EC_U+30A4_U+30E4_U+30FC 1
 62
   179
420
  2234388
370
     9
100
AcDbVertex
100
AcDb2dVertex
 10
109.7014683123935
 20
-120.9538474697617
 30
0.0
  0
SEQEND
  5
5E
330
5B
100
AcDbEntity
  8
_U+30EC_U+30A4_U+30E4_U+30FC 1
 62
   179
420
  2234388
370
     9
  0
SPLINE
  5
5F
330
41
100
AcDbEntity
  8
_U+30EC_U+30A4_U+30E4_U+30FC 1
 62
   179
420
  2234388
370
     9
100
AcDbSpline
210
0.0
220
0.0
230
1.0
 70
    11
 71
     3
 72
    17
 73
    13
 74
     0
 42
0.0000000001
 43
0.0000000001
 12
1.0
 22
0.0
 32
0.0
 13
1.0
 23
0.0
 33
0.0
 40
0.0
 40
0.0
 40
0.0
 40
0.0
 40
1.0
 40
1.0
 40
1.0
 40
2.0
 40
2.0
 40
2.0
 40
3.0
 40
3.0
 40
3.0
 40
4.0
 40
4.0
 40
4.0
 40
4.0
 10
108.6018247293366
 20
-120.1539238588503
 30
0.0
 10
108.6018247293366
 20
-120.2090277477255
 30
0.0
 10
108.6465922281945
 20
-120.2538305254922
 30
0.0
 10
108.7017313934545
 20
-120.2538305254922
 30
0.0
 10
108.7568352809375
 20
-120.2538305254922
 30
0.0
 10
108.8016380575723
 20
-120.2090277477255
 30
0.0
 10
108.8016380575723
 20
-120.1539238588503
 30
0.0
 10
108.8016380575723
 20
-120.098079136642
 30
0.0
 10
108.7568352809375
 20
-120.0533116366534
 30
0.0
 10
108.7017313934545
 20
-120.0533116366534
 30
0.0
 10
108.6465922281945
 20
-120.0533116366534
 30
0.0
 10
108.6018247293366
 20
-120.098079136642
 30
0.0
 10
108.6018247293366
 20
-120.1539238588503
 30
0.0
  0
POLYLINE
  5
60
330
41
100
AcDbEntity
  8
_U+30EC_U+30A4_U+30E4_U+30FC 1
 62
   179
420
  2234388
370
     9
100
AcDb2dPolyline
 66
     1
 10
0.0
 20
0.0
 30
0.0
  0
VERTEX
  5
61
330
60
100
AcDbEntity
  8
_U+30EC_U+30A4_U+30E4_U+30FC 1
 62
   179
420
  2234388
370
     9
100
AcDbVertex
100
AcDb2dVertex
 10
107.0776836571096
 20
-120.1539238588503
 30
0.0
  0
VERTEX
  5
62
330
60
100
AcDbEntity
  8
_U+30EC_U+30A4_U+30E4_U+30FC 1
 62
   179
420
  2234388
370
     9
100
AcDbVertex
100
AcDb2dVertex
 10
109.7014683123935
 20
-120.1539238588503
 30
0.0
  0
SEQEND
  5
63
330
60
100
AcDbEntity
  8
_U+30EC_U+30A4_U+30E4_U+30FC 1
 62
   179
420
  2234388
370
     9
  0
POLYLINE
  5
64
330
41
100
AcDbEntity
  8
_U+30EC_U+30A4_U+30E4_U+30FC 1
 62
   179
420
  2234388
370
     9
100
AcDb2dPolyline
 66
     1
 10
0.0
 20
0.0
 30
0.0
  0
VERTEX
  5
65
330
64
100
AcDbEntity
  8
_U+30EC_U+30A4_U+30E4_U+30FC 1
 62
   179
420
  2234388
370
     9
100
AcDbVertex
100
AcDb2dVertex
 10
82.076993461597
 20
-137.1506160768235
 30
0.0
  0
VERTEX
  5
66
330
64
100
AcDbEntity
  8
_U+30EC_U+30A4_U+30E4_U+30FC 1
 62
   179
420
  2234388
370
     9
100
AcDbVertex
100
AcDb2dVertex
 10
109.7014683123935
 20
-137.1506160768235
 30
0.0
  0
SEQEND
  5
67
330
64
100
AcDbEntity
  8
_U+30EC_U+30A4_U+30E4_U+30FC 1
 62
   179
420
  2234388
370
     9
  0
SPLINE
  5
68
330
41
100
AcDbEntity
  8
_U+30EC_U+30A4_U+30E4_U+30FC 1
 62
   179
420
  2234388
370
     9
100
AcDbSpline
210
0.0
220
0.0
230
1.0
 70
    11
 71
     3
 72
    17
 73
    13
 74
     0
 42
0.0000000001
 43
0.0000000001
 12
1.0
 22
0.0
 32
0.0
 13
1.0
 23
0.0
 33
0.0
 40
0.0
 40
0.0
 40
0.0
 40
0.0
 40
1.0
 40
1.0
 40
1.0
 40
2.0
 40
2.0
 40
2.0
 40
3.0
 40
3.0
 40
3.0
 40
4.0
 40
4.0
 40
4.0
 40
4.0
 10
108.6018247293366
 20
-134.1506291331291
 30
0.0
 10
108.6018247293366
 20
-134.2057682997822
 30
0.0
 10
108.6465922281945
 20
-134.2505357997708
 30
0.0
 10
108.7017313934545
 20
-134.2505357997708
 30
0.0
 10
108.7568352809375
 20
-134.2505357997708
 30
0.0
 10
108.8016380575723
 20
-134.2057682997822
 30
0.0
 10
108.8016380575723
 20
-134.1506291331291
 30
0.0
 10
108.8016380575723
 20
-134.0955252442542
 30
0.0
 10
108.7568352809375
 20
-134.0507224664875
 30
0.0
 10
108.7017313934545
 20
-134.0507224664875
 30
0.0
 10
108.6465922281945
 20
-134.0507224664875
 30
0.0
 10
108.6018247293366
 20
-134.0955252442542
 30
0.0
 10
108.6018247293366
 20
-134.1506291331291
 30
0.0
  0
POLYLINE
  5
69
330
41
100
AcDbEntity
  8
_U+30EC_U+30A4_U+30E4_U+30FC 1
 62
   179
420
  2234388
370
     9
100
AcDb2dPolyline
 66
     1
 10
0.0
 20
0.0
 30
0.0
  0
VERTEX
  5
6A
330
69
100
AcDbEntity
  8
_U+30EC_U+30A4_U+30E4_U+30FC 1
 62
   179
420
  2234388
370
     9
100
AcDbVertex
100
AcDb2dVertex
 10
82.076993461597
 20
-134.1506291331291
 30
0.0
  0
VERTEX
  5
6B
330
69
100
AcDbEntity
  8
_U+30EC_U+30A4_U+30E4_U+30FC 1
 62
   179
420
  2234388
370
     9
100
AcDbVertex
100
AcDb2dVertex
 10
109.7014683123935
 20
-134.1506291331291
 30
0.0
  0
SEQEND
  5
6C
330
69
100
AcDbEntity
  8
_U+30EC_U+30A4_U+30E4_U+30FC 1
 62
   179
420
  2234388
370
     9
  0
INSERT
  5
6E
330
41
100
AcDbEntity
  8
_U+30EC_U+30A4_U+30E4_U+30FC 1
100
AcDbBlockReference
  2
block 3
 10
0.0
 20
0.0
 30
0.0
  0
INSERT
  5
76
330
41
100
AcDbEntity
  8
_U+30EC_U+30A4_U+30E4_U+30FC 1
100
AcDbBlockReference
  2
block 4
 10
0.0
 20
0.0
 30
0.0
  0
INSERT
  5
7C
330
41
100
AcDbEntity
  8
_U+30EC_U+30A4_U+30E4_U+30FC 1
100
AcDbBlockReference
  2
block 5
 10
0.0
 20
0.0
 30
0.0
  0
POLYLINE
  5
81
330
41
100
AcDbEntity
  8
_U+30EC_U+30A4_U+30E4_U+30FC 1
 62
   179
420
  2234388
370
     9
100
AcDb2dPolyline
 66
     1
 10
0.0
 20
0.0
 30
0.0
  0
VERTEX
  5
82
330
81
100
AcDbEntity
  8
_U+30EC_U+30A4_U+30E4_U+30FC 1
 62
   179
420
  2234388
370
     9
100
AcDbVertex
100
AcDb2dVertex
 10
105.927733964225
 20
-117.3737174706567
 30
0.0
  0
VERTEX
  5
83
330
81
100
AcDbEntity
  8
_U+30EC_U+30A4_U+30E4_U+30FC 1
 62
   179
420
  2234388
370
     9
100
AcDbVertex
100
AcDb2dVertex
 10
70.90903887116177
 20
-117.3737174706567
 30
0.0
  0
SEQEND
  5
84
330
81
100
AcDbEntity
  8
_U+30EC_U+30A4_U+30E4_U+30FC 1
 62
   179
420
  2234388
370
     9
  0
SPLINE
  5
85
330
41
100
AcDbEntity
  8
_U+30EC_U+30A4_U+30E4_U+30FC 1
 62
   179
420
  2234388
370
     9
100
AcDbSpline
210
0.0
220
0.0
230
1.0
 70
    11
 71
     3
 72
    17
 73
    13
 74
     0
 42
0.0000000001
 43
0.0000000001
 12
1.0
 22
0.0
 32
0.0
 13
1.0
 23
0.0
 33
0.0
 40
0.0
 40
0.0
 40
0.0
 40
0.0
 40
1.0
 40
1.0
 40
1.0
 40
2.0
 40
2.0
 40
2.0
 40
3.0
 40
3.0
 40
3.0
 40
4.0
 40
4.0
 40
4.0
 40
4.0
 10
75.92783000736412
 20
-117.2738108040148
 30
0.0
 10
75.87272611988105
 20
-117.2738108040148
 30
0.0
 10
75.82792334324628
 20
-117.3185783040037
 30
0.0
 10
75.82792334324628
 20
-117.3737174706567
 30
0.0
 10
75.82792334324628
 20
-117.4288213595317
 30
0.0
 10
75.87272611988105
 20
-117.4736241372984
 30
0.0
 10
75.92783000736412
 20
-117.4736241372984
 30
0.0
 10
75.98296917262407
 20
-117.4736241372984
 30
0.0
 10
76.02773667148196
 20
-117.4288213595317
 30
0.0
 10
76.02773667148196
 20
-117.3737174706567
 30
0.0
 10
76.02773667148196
 20
-117.3185783040037
 30
0.0
 10
75.98296917262407
 20
-117.2738108040148
 30
0.0
 10
75.92783000736412
 20
-117.2738108040148
 30
0.0
  0
POLYLINE
  5
86
330
41
100
AcDbEntity
  8
_U+30EC_U+30A4_U+30E4_U+30FC 1
 62
   179
420
  2234388
370
     9
100
AcDb2dPolyline
 66
     1
 10
0.0
 20
0.0
 30
0.0
  0
VERTEX
  5
87
330
86
100
AcDbEntity
  8
_U+30EC_U+30A4_U+30E4_U+30FC 1
 62
   179
420
  2234388
370
     9
100
AcDbVertex
100
AcDb2dVertex
 10
75.92783000736412
 20
-115.9134996932438
 30
0.0
  0
VERTEX
  5
88
330
86
100
AcDbEntity
  8
_U+30EC_U+30A4_U+30E4_U+30FC 1
 62
   179
420
  2234388
370
     9
100
AcDbVertex
100
AcDb2dVertex
 10
75.92783000736412
 20
-118.6539127481144
 30
0.0
  0
SEQEND
  5
89
330
86
100
AcDbEntity
  8
_U+30EC_U+30A4_U+30E4_U+30FC 1
 62
   179
420
  2234388
370
     9
  0
SPLINE
  5
8A
330
41
100
AcDbEntity
  8
_U+30EC_U+30A4_U+30E4_U+30FC 1
 62
   179
420
  2234388
370
     9
100
AcDbSpline
210
0.0
220
0.0
230
1.0
 70
    11
 71
     3
 72
    17
 73
    13
 74
     0
 42
0.0000000001
 43
0.0000000001
 12
1.0
 22
0.0
 32
0.0
 13
1.0
 23
0.0
 33
0.0
 40
0.0
 40
0.0
 40
0.0
 40
0.0
 40
1.0
 40
1.0
 40
1.0
 40
2.0
 40
2.0
 40
2.0
 40
3.0
 40
3.0
 40
3.0
 40
4.0
 40
4.0
 40
4.0
 40
4.0
 10
70.927981246032
 20
-117.2738108040148
 30
0.0
 10
70.87284208077205
 20
-117.2738108040148
 30
0.0
 10
70.82807458191417
 20
-117.3185783040037
 30
0.0
 10
70.82807458191417
 20
-117.3737174706567
 30
0.0
 10
70.82807458191417
 20
-117.4288213595317
 30
0.0
 10
70.87284208077205
 20
-117.4736241372984
 30
0.0
 10
70.927981246032
 20
-117.4736241372984
 30
0.0
 10
70.98308513351508
 20
-117.4736241372984
 30
0.0
 10
71.02788791014984
 20
-117.4288213595317
 30
0.0
 10
71.02788791014984
 20
-117.3737174706567
 30
0.0
 10
71.02788791014984
 20
-117.3185783040037
 30
0.0
 10
70.98308513351508
 20
-117.2738108040148
 30
0.0
 10
70.927981246032
 20
-117.2738108040148
 30
0.0
  0
POLYLINE
  5
8B
330
41
100
AcDbEntity
  8
_U+30EC_U+30A4_U+30E4_U+30FC 1
 62
   179
420
  2234388
370
     9
100
AcDb2dPolyline
 66
     1
 10
0.0
 20
0.0
 30
0.0
  0
VERTEX
  5
8C
330
8B
100
AcDbEntity
  8
_U+30EC_U+30A4_U+30E4_U+30FC 1
 62
   179
420
  2234388
370
     9
100
AcDbVertex
100
AcDb2dVertex
 10
70.927981246032
 20
-115.9134996932438
 30
0.0
  0
VERTEX
  5
8D
330
8B
100
AcDbEntity
  8
_U+30EC_U+30A4_U+30E4_U+30FC 1
 62
   179
420
  2234388
370
     9
100
AcDbVertex
100
AcDb2dVertex
 10
70.927981246032
 20
-118.6539127481144
 30
0.0
  0
SEQEND
  5
8E
330
8B
100
AcDbEntity
  8
_U+30EC_U+30A4_U+30E4_U+30FC 1
 62
   179
420
  2234388
370
     9
  0
SPLINE
  5
8F
330
41
100
AcDbEntity
  8
_U+30EC_U+30A4_U+30E4_U+30FC 1
 62
   179
420
  2234388
370
     9
100
AcDbSpline
210
0.0
220
0.0
230
1.0
 70
    11
 71
     3
 72
    17
 73
    13
 74
     0
 42
0.0000000001
 43
0.0000000001
 12
1.0
 22
0.0
 32
0.0
 13
1.0
 23
0.0
 33
0.0
 40
0.0
 40
0.0
 40
0.0
 40
0.0
 40
1.0
 40
1.0
 40
1.0
 40
2.0
 40
2.0
 40
2.0
 40
3.0
 40
3.0
 40
3.0
 40
4.0
 40
4.0
 40
4.0
 40
4.0
 10
105.927733964225
 20
-117.2738108040148
 30
0.0
 10
105.8725947989651
 20
-117.2738108040148
 30
0.0
 10
105.8278273001072
 20
-117.3185783040037
 30
0.0
 10
105.8278273001072
 20
-117.3737174706567
 30
0.0
 10
105.8278273001072
 20
-117.4288213595317
 30
0.0
 10
105.8725947989651
 20
-117.4736241372984
 30
0.0
 10
105.927733964225
 20
-117.4736241372984
 30
0.0
 10
105.9828378517081
 20
-117.4736241372984
 30
0.0
 10
106.0276406283429
 20
-117.4288213595317
 30
0.0
 10
106.0276406283429
 20
-117.3737174706567
 30
0.0
 10
106.0276406283429
 20
-117.3185783040037
 30
0.0
 10
105.9828378517081
 20
-117.2738108040148
 30
0.0
 10
105.927733964225
 20
-117.2738108040148
 30
0.0
  0
POLYLINE
  5
90
330
41
100
AcDbEntity
  8
_U+30EC_U+30A4_U+30E4_U+30FC 1
 62
   179
420
  2234388
370
     9
100
AcDb2dPolyline
 66
     1
 10
0.0
 20
0.0
 30
0.0
  0
VERTEX
  5
91
330
90
100
AcDbEntity
  8
_U+30EC_U+30A4_U+30E4_U+30FC 1
 62
   179
420
  2234388
370
     9
100
AcDbVertex
100
AcDb2dVertex
 10
105.927733964225
 20
-115.9134996932438
 30
0.0
  0
VERTEX
  5
92
330
90
100
AcDbEntity
  8
_U+30EC_U+30A4_U+30E4_U+30FC 1
 62
   179
420
  2234388
370
     9
100
AcDbVertex
100
AcDb2dVertex
 10
105.927733964225
 20
-118.6539127481144
 30
0.0
  0
SEQEND
  5
93
330
90
100
AcDbEntity
  8
_U+30EC_U+30A4_U+30E4_U+30FC 1
 62
   179
420
  2234388
370
     9
  0
INSERT
  5
95
330
41
100
AcDbEntity
  8
_U+30EC_U+30A4_U+30E4_U+30FC 1
100
AcDbBlockReference
  2
block 6
 10
0.0
 20
0.0
 30
0.0
  0
INSERT
  5
9E
330
41
100
AcDbEntity
  8
_U+30EC_U+30A4_U+30E4_U+30FC 1
100
AcDbBlockReference
  2
block 7
 10
0.0
 20
0.0
 30
0.0
  0
SPLINE
  5
A3
330
41
100
AcDbEntity
  8
_U+30EC_U+30A4_U+30E4_U+30FC 1
 62
   179
420
  2234388
370
     9
100
AcDbSpline
210
0.0
220
0.0
230
1.0
 70
    11
 71
     3
 72
    17
 73
    13
 74
     0
 42
0.0000000001
 43
0.0000000001
 12
1.0
 22
0.0
 32
0.0
 13
1.0
 23
0.0
 33
0.0
 40
0.0
 40
0.0
 40
0.0
 40
0.0
 40
1.0
 40
1.0
 40
1.0
 40
2.0
 40
2.0
 40
2.0
 40
3.0
 40
3.0
 40
3.0
 40
4.0
 40
4.0
 40
4.0
 40
4.0
 10
71.00894374396647
 20
-141.1696721869295
 30
0.0
 10
71.00894374396647
 20
-141.1145682980546
 30
0.0
 10
70.96414096733172
 20
-141.0697655202879
 30
0.0
 10
70.90833331560626
 20
-141.0697655202879
 30
0.0
 10
70.85322763682801
 20
-141.0697655202879
 30
0.0
 10
70.80842486019326
 20
-141.1145682980546
 30
0.0
 10
70.80842486019326
 20
-141.1696721869295
 30
0.0
 10
70.80842486019326
 20
-141.2248113535826
 30
0.0
 10
70.85322763682801
 20
-141.2695788535712
 30
0.0
 10
70.90833331560626
 20
-141.2695788535712
 30
0.0
 10
70.96414096733172
 20
-141.2695788535712
 30
0.0
 10
71.00894374396647
 20
-141.2248113535826
 30
0.0
 10
71.00894374396647
 20
-141.1696721869295
 30
0.0
  0
POLYLINE
  5
A4
330
41
100
AcDbEntity
  8
_U+30EC_U+30A4_U+30E4_U+30FC 1
 62
   179
420
  2234388
370
     9
100
AcDb2dPolyline
 66
     1
 10
0.0
 20
0.0
 30
0.0
  0
VERTEX
  5
A5
330
A4
100
AcDbEntity
  8
_U+30EC_U+30A4_U+30E4_U+30FC 1
 62
   179
420
  2234388
370
     9
100
AcDbVertex
100
AcDb2dVertex
 10
70.90833331560626
 20
-141.1696721869295
 30
0.0
  0
VERTEX
  5
A6
330
A4
100
AcDbEntity
  8
_U+30EC_U+30A4_U+30E4_U+30FC 1
 62
   179
420
  2234388
370
     9
100
AcDbVertex
100
AcDb2dVertex
 10
80.9080643247522
 20
-141.1696721869295
 30
0.0
  0
SEQEND
  5
A7
330
A4
100
AcDbEntity
  8
_U+30EC_U+30A4_U+30E4_U+30FC 1
 62
   179
420
  2234388
370
     9
  0
POLYLINE
  5
A8
330
41
100
AcDbEntity
  8
_U+30EC_U+30A4_U+30E4_U+30FC 1
 62
   179
420
  2234388
370
     9
100
AcDb2dPolyline
 66
     1
 10
0.0
 20
0.0
 30
0.0
  0
VERTEX
  5
A9
330
A8
100
AcDbEntity
  8
_U+30EC_U+30A4_U+30E4_U+30FC 1
 62
   179
420
  2234388
370
     9
100
AcDbVertex
100
AcDb2dVertex
 10
70.90833331560626
 20
-138.7091882986559
 30
0.0
  0
VERTEX
  5
AA
330
A8
100
AcDbEntity
  8
_U+30EC_U+30A4_U+30E4_U+30FC 1
 62
   179
420
  2234388
370
     9
100
AcDbVertex
100
AcDb2dVertex
 10
70.90833331560626
 20
-142.1694444089021
 30
0.0
  0
SEQEND
  5
AB
330
A8
100
AcDbEntity
  8
_U+30EC_U+30A4_U+30E4_U+30FC 1
 62
   179
420
  2234388
370
     9
  0
SPLINE
  5
AC
330
41
100
AcDbEntity
  8
_U+30EC_U+30A4_U+30E4_U+30FC 1
 62
   179
420
  2234388
370
     9
100
AcDbSpline
210
0.0
220
0.0
230
1.0
 70
    11
 71
     3
 72
    17
 73
    13
 74
     0
 42
0.0000000001
 43
0.0000000001
 12
1.0
 22
0.0
 32
0.0
 13
1.0
 23
0.0
 33
0.0
 40
0.0
 40
0.0
 40
0.0
 40
0.0
 40
1.0
 40
1.0
 40
1.0
 40
2.0
 40
2.0
 40
2.0
 40
3.0
 40
3.0
 40
3.0
 40
4.0
 40
4.0
 40
4.0
 40
4.0
 10
81.00867654440759
 20
-141.1696721869295
 30
0.0
 10
81.00867654440759
 20
-141.1145682980546
 30
0.0
 10
80.96387376777282
 20
-141.0697655202879
 30
0.0
 10
80.9080643247522
 20
-141.0697655202879
 30
0.0
 10
80.85296043726913
 20
-141.0697655202879
 30
0.0
 10
80.80815766063436
 20
-141.1145682980546
 30
0.0
 10
80.80815766063436
 20
-141.1696721869295
 30
0.0
 10
80.80815766063436
 20
-141.2248113535826
 30
0.0
 10
80.85296043726913
 20
-141.2695788535712
 30
0.0
 10
80.9080643247522
 20
-141.2695788535712
 30
0.0
 10
80.96387376777282
 20
-141.2695788535712
 30
0.0
 10
81.00867654440759
 20
-141.2248113535826
 30
0.0
 10
81.00867654440759
 20
-141.1696721869295
 30
0.0
  0
POLYLINE
  5
AD
330
41
100
AcDbEntity
  8
_U+30EC_U+30A4_U+30E4_U+30FC 1
 62
   179
420
  2234388
370
     9
100
AcDb2dPolyline
 66
     1
 10
0.0
 20
0.0
 30
0.0
  0
VERTEX
  5
AE
330
AD
100
AcDbEntity
  8
_U+30EC_U+30A4_U+30E4_U+30FC 1
 62
   179
420
  2234388
370
     9
100
AcDbVertex
100
AcDb2dVertex
 10
80.9080643247522
 20
-138.7091882986559
 30
0.0
  0
VERTEX
  5
AF
330
AD
100
AcDbEntity
  8
_U+30EC_U+30A4_U+30E4_U+30FC 1
 62
   179
420
  2234388
370
     9
100
AcDbVertex
100
AcDb2dVertex
 10
80.9080643247522
 20
-142.1694444089021
 30
0.0
  0
SEQEND
  5
B0
330
AD
100
AcDbEntity
  8
_U+30EC_U+30A4_U+30E4_U+30FC 1
 62
   179
420
  2234388
370
     9
  0
INSERT
  5
B2
330
41
100
AcDbEntity
  8
_U+30EC_U+30A4_U+30E4_U+30FC 1
100
AcDbBlockReference
  2
block 8
 10
0.0
 20
0.0
 30
0.0
  0
POLYLINE
  5
BA
330
41
100
AcDbEntity
  8
_U+30EC_U+30A4_U+30E4_U+30FC 1
 62
   179
420
  2234388
370
    25
100
AcDb2dPolyline
 66
     1
 10
0.0
 20
0.0
 30
0.0
  0
VERTEX
  5
BB
330
BA
100
AcDbEntity
  8
_U+30EC_U+30A4_U+30E4_U+30FC 1
 62
   179
420
  2234388
370
    25
100
AcDbVertex
100
AcDb2dVertex
 10
79.92691879422776
 20
-136.1508791326291
 30
0.0
  0
VERTEX
  5
BC
330
BA
100
AcDbEntity
  8
_U+30EC_U+30A4_U+30E4_U+30FC 1
 62
   179
420
  2234388
370
    25
100
AcDbVertex
100
AcDb2dVertex
 10
76.92795498184881
 20
-136.1508791326291
 30
0.0
  0
VERTEX
  5
BD
330
BA
100
AcDbEntity
  8
_U+30EC_U+30A4_U+30E4_U+30FC 1
 62
   179
420
  2234388
370
    25
100
AcDbVertex
100
AcDb2dVertex
 10
76.92795498184881
 20
-121.153660803045
 30
0.0
  0
VERTEX
  5
BE
330
BA
100
AcDbEntity
  8
_U+30EC_U+30A4_U+30E4_U+30FC 1
 62
   179
420
  2234388
370
    25
100
AcDbVertex
100
AcDb2dVertex
 10
105.927733964225
 20
-121.153660803045
 30
0.0
  0
VERTEX
  5
BF
330
BA
100
AcDbEntity
  8
_U+30EC_U+30A4_U+30E4_U+30FC 1
 62
   179
420
  2234388
370
    25
100
AcDbVertex
100
AcDb2dVertex
 10
105.9273811864563
 20
-120.1539238588503
 30
0.0
  0
VERTEX
  5
C0
330
BA
100
AcDbEntity
  8
_U+30EC_U+30A4_U+30E4_U+30FC 1
 62
   179
420
  2234388
370
    25
100
AcDbVertex
100
AcDb2dVertex
 10
75.92747722959534
 20
-120.1539238588503
 30
0.0
  0
VERTEX
  5
C1
330
BA
100
AcDbEntity
  8
_U+30EC_U+30A4_U+30E4_U+30FC 1
 62
   179
420
  2234388
370
    25
100
AcDbVertex
100
AcDb2dVertex
 10
75.92747722959534
 20
-136.1508791326291
 30
0.0
  0
VERTEX
  5
C2
330
BA
100
AcDbEntity
  8
_U+30EC_U+30A4_U+30E4_U+30FC 1
 62
   179
420
  2234388
370
    25
100
AcDbVertex
100
AcDb2dVertex
 10
71.93082260933627
 20
-136.1508791326291
 30
0.0
  0
VERTEX
  5
C3
330
BA
100
AcDbEntity
  8
_U+30EC_U+30A4_U+30E4_U+30FC 1
 62
   179
420
  2234388
370
    25
100
AcDbVertex
100
AcDb2dVertex
 10
70.92692291272567
 20
-137.1506160768235
 30
0.0
  0
VERTEX
  5
C4
330
BA
100
AcDbEntity
  8
_U+30EC_U+30A4_U+30E4_U+30FC 1
 62
   179
420
  2234388
370
    25
100
AcDbVertex
100
AcDb2dVertex
 10
80.92700849093556
 20
-137.1506160768235
 30
0.0
  0
VERTEX
  5
C5
330
BA
100
AcDbEntity
  8
_U+30EC_U+30A4_U+30E4_U+30FC 1
 62
   179
420
  2234388
370
    25
100
AcDbVertex
100
AcDb2dVertex
 10
80.92700849093556
 20
-134.1506291331291
 30
0.0
  0
VERTEX
  5
C6
330
BA
100
AcDbEntity
  8
_U+30EC_U+30A4_U+30E4_U+30FC 1
 62
   179
420
  2234388
370
    25
100
AcDbVertex
100
AcDb2dVertex
 10
79.92691879422776
 20
-134.1506291331291
 30
0.0
  0
VERTEX
  5
C7
330
BA
100
AcDbEntity
  8
_U+30EC_U+30A4_U+30E4_U+30FC 1
 62
   179
420
  2234388
370
    25
100
AcDbVertex
100
AcDb2dVertex
 10
79.92691879422776
 20
-136.1508791326291
 30
0.0
  0
SEQEND
  5
C8
330
BA
100
AcDbEntity
  8
_U+30EC_U+30A4_U+30E4_U+30FC 1
 62
   179
420
  2234388
370
    25
  0
ENDBLK
  5
44
330
41
100
AcDbEntity
  8
0
100
AcDbBlockEnd
  0
BLOCK
  5
6F
330
6D
100
AcDbEntity
  8
0
100
AcDbBlockBegin
  2
block 3
 70
     0
 10
0.0
 20
0.0
 30
0.0
  3
block 3
  1

  0
SPLINE
  5
71
330
6D
100
AcDbEntity
  8
_U+30EC_U+30A4_U+30E4_U+30FC 1
370
     0
100
AcDbSpline
210
0.0
220
0.0
230
1.0
 70
    11
 71
     3
 72
    26
 73
    22
 74
     0
 42
0.0000000001
 43
0.0000000001
 12
1.0
 22
0.0
 32
0.0
 13
1.0
 23
0.0
 33
0.0
 40
0.0
 40
0.0
 40
0.0
 40
0.0
 40
1.0
 40
1.0
 40
1.0
 40
2.0
 40
2.0
 40
2.0
 40
3.0
 40
3.0
 40
3.0
 40
4.0
 40
4.0
 40
4.0
 40
5.0
 40
5.0
 40
5.0
 40
6.0
 40
6.0
 40
6.0
 40
7.0
 40
7.0
 40
7.0
 40
7.0
 10
110.9458550069858
 20
-128.2850205842482
 30
0.0
 10
110.9458550069858
 20
-128.2850205842482
 30
0.0
 10
109.8420464135117
 20
-128.2850205842482
 30
0.0
 10
109.8420464135117
 20
-128.2850205842482
 30
0.0
 10
109.8420464135117
 20
-128.2850205842482
 30
0.0
 10
109.8420464135117
 20
-128.6150607317351
 30
0.0
 10
109.8420464135117
 20
-128.6150607317351
 30
0.0
 10
109.8420464135117
 20
-128.6150607317351
 30
0.0
 10
109.693907307646
 20
-128.6150607317351
 30
0.0
 10
109.693907307646
 20
-128.6150607317351
 30
0.0
 10
109.6787488875109
 20
-128.282953526957
 30
0.0
 10
109.5161403806071
 20
-128.2364447379062
 30
0.0
 10
109.4017632104968
 20
-128.206816916733
 30
0.0
 10
109.4017632104968
 20
-128.206816916733
 30
0.0
 10
109.4017632104968
 20
-128.0607448681584
 30
0.0
 10
109.4017632104968
 20
-128.0607448681584
 30
0.0
 10
109.4017632104968
 20
-128.0607448681584
 30
0.0
 10
110.9458550069858
 20
-128.0607448681584
 30
0.0
 10
110.9458550069858
 20
-128.0607448681584
 30
0.0
 10
110.9458550069858
 20
-128.0607448681584
 30
0.0
 10
110.9458550069858
 20
-128.2850205842482
 30
0.0
 10
110.9458550069858
 20
-128.2850205842482
 30
0.0
  0
HATCH
  5
72
330
6D
100
AcDbEntity
  8
_U+30EC_U+30A4_U+30E4_U+30FC 1
 62
   179
420
  2234388
100
AcDbHatch
 10
0.0
 20
0.0
 30
0.0
210
0.0
220
0.0
230
1.0
  2
SOLID
 70
     1
 71
     0
 91
        1
 92
        1
 93
        1
 72
     4
 94
        3
 73
     0
 74
     1
 95
       26
 96
       22
 40
0.0
 40
0.0
 40
0.0
 40
0.0
 40
1.0
 40
1.0
 40
1.0
 40
2.0
 40
2.0
 40
2.0
 40
3.0
 40
3.0
 40
3.0
 40
4.0
 40
4.0
 40
4.0
 40
5.0
 40
5.0
 40
5.0
 40
6.0
 40
6.0
 40
6.0
 40
7.0
 40
7.0
 40
7.0
 40
7.0
 10
110.9458550069858
 20
-128.2850205842482
 10
110.9458550069858
 20
-128.2850205842482
 10
109.8420464135117
 20
-128.2850205842482
 10
109.8420464135117
 20
-128.2850205842482
 10
109.8420464135117
 20
-128.2850205842482
 10
109.8420464135117
 20
-128.6150607317351
 10
109.8420464135117
 20
-128.6150607317351
 10
109.8420464135117
 20
-128.6150607317351
 10
109.693907307646
 20
-128.6150607317351
 10
109.693907307646
 20
-128.6150607317351
 10
109.6787488875109
 20
-128.282953526957
 10
109.5161403806071
 20
-128.2364447379062
 10
109.4017632104968
 20
-128.206816916733
 10
109.4017632104968
 20
-128.206816916733
 10
109.4017632104968
 20
-128.0607448681584
 10
109.4017632104968
 20
-128.0607448681584
 10
109.4017632104968
 20
-128.0607448681584
 10
110.9458550069858
 20
-128.0607448681584
 10
110.9458550069858
 20
-128.0607448681584
 10
110.9458550069858
 20
-128.0607448681584
 10
110.9458550069858
 20
-128.2850205842482
 10
110.9458550069858
 20
-128.2850205842482
 97
        0
 97
        0
 75
     2
 76
     1
 98
        0
  0
SPLINE
  5
73
330
6D
100
AcDbEntity
  8
_U+30EC_U+30A4_U+30E4_U+30FC 1
370
     0
100
AcDbSpline
210
0.0
220
0.0
230
1.0
 70
    11
 71
     3
 72
    62
 73
    58
 74
     0
 42
0.0000000001
 43
0.0000000001
 12
1.0
 22
0.0
 32
0.0
 13
1.0
 23
0.0
 33
0.0
 40
0.0
 40
0.0
 40
0.0
 40
0.0
 40
1.0
 40
1.0
 40
1.0
 40
2.0
 40
2.0
 40
2.0
 40
3.0
 40
3.0
 40
3.0
 40
4.0
 40
4.0
 40
4.0
 40
5.0
 40
5.0
 40
5.0
 40
6.0
 40
6.0
 40
6.0
 40
7.0
 40
7.0
 40
7.0
 40
8.0
 40
8.0
 40
8.0
 40
9.0
 40
9.0
 40
9.0
 40
10.0
 40
10.0
 40
10.0
 40
11.0
 40
11.0
 40
11.0
 40
12.0
 40
12.0
 40
12.0
 40
13.0
 40
13.0
 40
13.0
 40
14.0
 40
14.0
 40
14.0
 40
15.0
 40
15.0
 40
15.0
 40
16.0
 40
16.0
 40
16.0
 40
17.0
 40
17.0
 40
17.0
 40
18.0
 40
18.0
 40
18.0
 40
19.0
 40
19.0
 40
19.0
 40
19.0
 10
110.9968424201675
 20
-127.0678683493094
 30
0.0
 10
110.9968424201675
 20
-127.1632974942508
 30
0.0
 10
110.9754828281589
 20
-127.3810275289186
 30
0.0
 10
110.7894476719554
 20
-127.5060844950332
 30
0.0
 10
110.6771375591363
 20
-127.5801540479661
 30
0.0
 10
110.5779188091611
 20
-127.5842881625484
 30
0.0
 10
110.4931694602239
 20
-127.5884222771307
 30
0.0
 10
110.4931694602239
 20
-127.5884222771307
 30
0.0
 10
110.4931694602239
 20
-127.3682806756232
 30
0.0
 10
110.4931694602239
 20
-127.3682806756232
 30
0.0
 10
110.5675835227053
 20
-127.3662136183321
 30
0.0
 10
110.8018500157023
 20
-127.3558783318763
 30
0.0
 10
110.8018500157023
 20
-127.0723469734402
 30
0.0
 10
110.8018500157023
 20
-126.9348876635788
 30
0.0
 10
110.7322590869003
 20
-126.7822699335822
 30
0.0
 10
110.5041937657767
 20
-126.7822699335822
 30
0.0
 10
110.3877495383753
 20
-126.7822699335822
 30
0.0
 10
110.3388291824847
 20
-126.8205104934685
 30
0.0
 10
110.3071343040204
 20
-126.8522053719328
 30
0.0
 10
110.2334092606361
 20
-126.9262749248657
 30
0.0
 10
110.2203178977921
 20
-127.0427191522671
 30
0.0
 10
110.2203178977921
 20
-127.0974961704826
 30
0.0
 10
110.2203178977921
 20
-127.1167887052
 30
0.0
 10
110.2223849550833
 20
-127.1526176982466
 30
0.0
 10
110.2265190696656
 20
-127.1801784621286
 30
0.0
 10
110.2265190696656
 20
-127.1801784621286
 30
0.0
 10
110.0322156842975
 20
-127.1801784621286
 30
0.0
 10
110.0322156842975
 20
-127.1801784621286
 30
0.0
 10
110.038416856171
 20
-127.1419379022423
 30
0.0
 10
110.0404839134621
 20
-127.0999077373223
 30
0.0
 10
110.0404839134621
 20
-127.0933620559003
 30
0.0
 10
110.0404839134621
 20
-127.0279052416805
 30
0.0
 10
110.0191243214536
 20
-126.8291232321816
 30
0.0
 10
109.7827907711654
 20
-126.8291232321816
 30
0.0
 10
109.6050238441265
 20
-126.8291232321816
 30
0.0
 10
109.5499023163625
 20
-126.9600368606211
 30
0.0
 10
109.5499023163625
 20
-127.0702799161491
 30
0.0
 10
109.5499023163625
 20
-127.3345187398678
 30
0.0
 10
109.7827907711654
 20
-127.3431314785809
 30
0.0
 10
109.8544487572586
 20
-127.3472655931632
 30
0.0
 10
109.8544487572586
 20
-127.3472655931632
 30
0.0
 10
109.8544487572586
 20
-127.5505262267929
 30
0.0
 10
109.8544487572586
 20
-127.5505262267929
 30
0.0
 10
109.7297363006926
 20
-127.5419134880798
 30
0.0
 10
109.3528428546062
 20
-127.5143527241978
 30
0.0
 10
109.3528428546062
 20
-127.0575330628537
 30
0.0
 10
109.3528428546062
 20
-126.8332573467639
 30
0.0
 10
109.4803113875605
 20
-126.5921006627964
 30
0.0
 10
109.7759005801949
 20
-126.5921006627964
 30
0.0
 10
109.9626247554955
 20
-126.5921006627964
 30
0.0
 10
110.0446180280444
 20
-126.6871852981893
 30
0.0
 10
110.1059407276819
 20
-126.786748557713
 30
0.0
 10
110.1335014915638
 20
-126.7254258580756
 30
0.0
 10
110.2141167259187
 20
-126.5435248164544
 30
0.0
 10
110.4911024029328
 20
-126.5435248164544
 30
0.0
 10
110.8294107795843
 20
-126.5435248164544
 30
0.0
 10
110.9968424201675
 20
-126.7908826722953
 30
0.0
 10
110.9968424201675
 20
-127.0678683493094
 30
0.0
  0
HATCH
  5
74
330
6D
100
AcDbEntity
  8
_U+30EC_U+30A4_U+30E4_U+30FC 1
 62
   179
420
  2234388
100
AcDbHatch
 10
0.0
 20
0.0
 30
0.0
210
0.0
220
0.0
230
1.0
  2
SOLID
 70
     1
 71
     0
 91
        1
 92
        1
 93
        1
 72
     4
 94
        3
 73
     0
 74
     1
 95
       62
 96
       58
 40
0.0
 40
0.0
 40
0.0
 40
0.0
 40
1.0
 40
1.0
 40
1.0
 40
2.0
 40
2.0
 40
2.0
 40
3.0
 40
3.0
 40
3.0
 40
4.0
 40
4.0
 40
4.0
 40
5.0
 40
5.0
 40
5.0
 40
6.0
 40
6.0
 40
6.0
 40
7.0
 40
7.0
 40
7.0
 40
8.0
 40
8.0
 40
8.0
 40
9.0
 40
9.0
 40
9.0
 40
10.0
 40
10.0
 40
10.0
 40
11.0
 40
11.0
 40
11.0
 40
12.0
 40
12.0
 40
12.0
 40
13.0
 40
13.0
 40
13.0
 40
14.0
 40
14.0
 40
14.0
 40
15.0
 40
15.0
 40
15.0
 40
16.0
 40
16.0
 40
16.0
 40
17.0
 40
17.0
 40
17.0
 40
18.0
 40
18.0
 40
18.0
 40
19.0
 40
19.0
 40
19.0
 40
19.0
 10
110.9968424201675
 20
-127.0678683493094
 10
110.9968424201675
 20
-127.1632974942508
 10
110.9754828281589
 20
-127.3810275289186
 10
110.7894476719554
 20
-127.5060844950332
 10
110.6771375591363
 20
-127.5801540479661
 10
110.5779188091611
 20
-127.5842881625484
 10
110.4931694602239
 20
-127.5884222771307
 10
110.4931694602239
 20
-127.5884222771307
 10
110.4931694602239
 20
-127.3682806756232
 10
110.4931694602239
 20
-127.3682806756232
 10
110.5675835227053
 20
-127.3662136183321
 10
110.8018500157023
 20
-127.3558783318763
 10
110.8018500157023
 20
-127.0723469734402
 10
110.8018500157023
 20
-126.9348876635788
 10
110.7322590869003
 20
-126.7822699335822
 10
110.5041937657767
 20
-126.7822699335822
 10
110.3877495383753
 20
-126.7822699335822
 10
110.3388291824847
 20
-126.8205104934685
 10
110.3071343040204
 20
-126.8522053719328
 10
110.2334092606361
 20
-126.9262749248657
 10
110.2203178977921
 20
-127.0427191522671
 10
110.2203178977921
 20
-127.0974961704826
 10
110.2203178977921
 20
-127.1167887052
 10
110.2223849550833
 20
-127.1526176982466
 10
110.2265190696656
 20
-127.1801784621286
 10
110.2265190696656
 20
-127.1801784621286
 10
110.0322156842975
 20
-127.1801784621286
 10
110.0322156842975
 20
-127.1801784621286
 10
110.038416856171
 20
-127.1419379022423
 10
110.0404839134621
 20
-127.0999077373223
 10
110.0404839134621
 20
-127.0933620559003
 10
110.0404839134621
 20
-127.0279052416805
 10
110.0191243214536
 20
-126.8291232321816
 10
109.7827907711654
 20
-126.8291232321816
 10
109.6050238441265
 20
-126.8291232321816
 10
109.5499023163625
 20
-126.9600368606211
 10
109.5499023163625
 20
-127.0702799161491
 10
109.5499023163625
 20
-127.3345187398678
 10
109.7827907711654
 20
-127.3431314785809
 10
109.8544487572586
 20
-127.3472655931632
 10
109.8544487572586
 20
-127.3472655931632
 10
109.8544487572586
 20
-127.5505262267929
 10
109.8544487572586
 20
-127.5505262267929
 10
109.7297363006926
 20
-127.5419134880798
 10
109.3528428546062
 20
-127.5143527241978
 10
109.3528428546062
 20
-127.0575330628537
 10
109.3528428546062
 20
-126.8332573467639
 10
109.4803113875605
 20
-126.5921006627964
 10
109.7759005801949
 20
-126.5921006627964
 10
109.9626247554955
 20
-126.5921006627964
 10
110.0446180280444
 20
-126.6871852981893
 10
110.1059407276819
 20
-126.786748557713
 10
110.1335014915638
 20
-126.7254258580756
 10
110.2141167259187
 20
-126.5435248164544
 10
110.4911024029328
 20
-126.5435248164544
 10
110.8294107795843
 20
-126.5435248164544
 10
110.9968424201675
 20
-126.7908826722953
 10
110.9968424201675
 20
-127.0678683493094
 97
        0
 97
        0
 75
     2
 76
     1
 98
        0
  0
ENDBLK
  5
70
330
6D
100
AcDbEntity
  8
0
100
AcDbBlockEnd
  0
BLOCK
  5
77
330
75
100
AcDbEntity
  8
0
100
AcDbBlockBegin
  2
block 4
 70
     0
 10
0.0
 20
0.0
 30
0.0
  3
block 4
  1

  0
SPLINE
  5
79
330
75
100
AcDbEntity
  8
_U+30EC_U+30A4_U+30E4_U+30FC 1
370
     0
100
AcDbSpline
210
0.0
220
0.0
230
1.0
 70
    11
 71
     3
 72
    26
 73
    22
 74
     0
 42
0.0000000001
 43
0.0000000001
 12
1.0
 22
0.0
 32
0.0
 13
1.0
 23
0.0
 33
0.0
 40
0.0
 40
0.0
 40
0.0
 40
0.0
 40
1.0
 40
1.0
 40
1.0
 40
2.0
 40
2.0
 40
2.0
 40
3.0
 40
3.0
 40
3.0
 40
4.0
 40
4.0
 40
4.0
 40
5.0
 40
5.0
 40
5.0
 40
6.0
 40
6.0
 40
6.0
 40
7.0
 40
7.0
 40
7.0
 40
7.0
 10
110.9458550069858
 20
-117.1504719759207
 30
0.0
 10
110.9458550069858
 20
-117.1504719759207
 30
0.0
 10
109.8420464135117
 20
-117.1504719759207
 30
0.0
 10
109.8420464135117
 20
-117.1504719759207
 30
0.0
 10
109.8420464135117
 20
-117.1504719759207
 30
0.0
 10
109.8420464135117
 20
-117.4805121234076
 30
0.0
 10
109.8420464135117
 20
-117.4805121234076
 30
0.0
 10
109.8420464135117
 20
-117.4805121234076
 30
0.0
 10
109.693907307646
 20
-117.4805121234076
 30
0.0
 10
109.693907307646
 20
-117.4805121234076
 30
0.0
 10
109.6787488875109
 20
-117.1484049186296
 30
0.0
 10
109.5161403806071
 20
-117.1018961295787
 30
0.0
 10
109.4017632104968
 20
-117.0722683084056
 30
0.0
 10
109.4017632104968
 20
-117.0722683084056
 30
0.0
 10
109.4017632104968
 20
-116.926196259831
 30
0.0
 10
109.4017632104968
 20
-116.926196259831
 30
0.0
 10
109.4017632104968
 20
-116.926196259831
 30
0.0
 10
110.9458550069858
 20
-116.926196259831
 30
0.0
 10
110.9458550069858
 20
-116.926196259831
 30
0.0
 10
110.9458550069858
 20
-116.926196259831
 30
0.0
 10
110.9458550069858
 20
-117.1504719759207
 30
0.0
 10
110.9458550069858
 20
-117.1504719759207
 30
0.0
  0
HATCH
  5
7A
330
75
100
AcDbEntity
  8
_U+30EC_U+30A4_U+30E4_U+30FC 1
 62
   179
420
  2234388
100
AcDbHatch
 10
0.0
 20
0.0
 30
0.0
210
0.0
220
0.0
230
1.0
  2
SOLID
 70
     1
 71
     0
 91
        1
 92
        1
 93
        1
 72
     4
 94
        3
 73
     0
 74
     1
 95
       26
 96
       22
 40
0.0
 40
0.0
 40
0.0
 40
0.0
 40
1.0
 40
1.0
 40
1.0
 40
2.0
 40
2.0
 40
2.0
 40
3.0
 40
3.0
 40
3.0
 40
4.0
 40
4.0
 40
4.0
 40
5.0
 40
5.0
 40
5.0
 40
6.0
 40
6.0
 40
6.0
 40
7.0
 40
7.0
 40
7.0
 40
7.0
 10
110.9458550069858
 20
-117.1504719759207
 10
110.9458550069858
 20
-117.1504719759207
 10
109.8420464135117
 20
-117.1504719759207
 10
109.8420464135117
 20
-117.1504719759207
 10
109.8420464135117
 20
-117.1504719759207
 10
109.8420464135117
 20
-117.4805121234076
 10
109.8420464135117
 20
-117.4805121234076
 10
109.8420464135117
 20
-117.4805121234076
 10
109.693907307646
 20
-117.4805121234076
 10
109.693907307646
 20
-117.4805121234076
 10
109.6787488875109
 20
-117.1484049186296
 10
109.5161403806071
 20
-117.1018961295787
 10
109.4017632104968
 20
-117.0722683084056
 10
109.4017632104968
 20
-117.0722683084056
 10
109.4017632104968
 20
-116.926196259831
 10
109.4017632104968
 20
-116.926196259831
 10
109.4017632104968
 20
-116.926196259831
 10
110.9458550069858
 20
-116.926196259831
 10
110.9458550069858
 20
-116.926196259831
 10
110.9458550069858
 20
-116.926196259831
 10
110.9458550069858
 20
-117.1504719759207
 10
110.9458550069858
 20
-117.1504719759207
 97
        0
 97
        0
 75
     2
 76
     1
 98
        0
  0
ENDBLK
  5
78
330
75
100
AcDbEntity
  8
0
100
AcDbBlockEnd
  0
BLOCK
  5
7D
330
7B
100
AcDbEntity
  8
0
100
AcDbBlockBegin
  2
block 5
 70
     0
 10
0.0
 20
0.0
 30
0.0
  3
block 5
  1

  0
SPLINE
  5
7F
330
7B
100
AcDbEntity
  8
_U+30EC_U+30A4_U+30E4_U+30FC 1
370
     0
100
AcDbSpline
210
0.0
220
0.0
230
1.0
 70
    11
 71
     3
 72
    62
 73
    58
 74
     0
 42
0.0000000001
 43
0.0000000001
 12
1.0
 22
0.0
 32
0.0
 13
1.0
 23
0.0
 33
0.0
 40
0.0
 40
0.0
 40
0.0
 40
0.0
 40
1.0
 40
1.0
 40
1.0
 40
2.0
 40
2.0
 40
2.0
 40
3.0
 40
3.0
 40
3.0
 40
4.0
 40
4.0
 40
4.0
 40
5.0
 40
5.0
 40
5.0
 40
6.0
 40
6.0
 40
6.0
 40
7.0
 40
7.0
 40
7.0
 40
8.0
 40
8.0
 40
8.0
 40
9.0
 40
9.0
 40
9.0
 40
10.0
 40
10.0
 40
10.0
 40
11.0
 40
11.0
 40
11.0
 40
12.0
 40
12.0
 40
12.0
 40
13.0
 40
13.0
 40
13.0
 40
14.0
 40
14.0
 40
14.0
 40
15.0
 40
15.0
 40
15.0
 40
16.0
 40
16.0
 40
16.0
 40
17.0
 40
17.0
 40
17.0
 40
18.0
 40
18.0
 40
18.0
 40
19.0
 40
19.0
 40
19.0
 40
19.0
 10
110.9968424201675
 20
-135.6337537638346
 30
0.0
 10
110.9968424201675
 20
-135.729182908776
 30
0.0
 10
110.9754828281589
 20
-135.9469129434438
 30
0.0
 10
110.7894476719554
 20
-136.0719699095584
 30
0.0
 10
110.6771375591363
 20
-136.1460394624913
 30
0.0
 10
110.5779188091611
 20
-136.1501735770736
 30
0.0
 10
110.4931694602239
 20
-136.1543076916559
 30
0.0
 10
110.4931694602239
 20
-136.1543076916559
 30
0.0
 10
110.4931694602239
 20
-135.9341660901484
 30
0.0
 10
110.4931694602239
 20
-135.9341660901484
 30
0.0
 10
110.5675835227053
 20
-135.9320990328573
 30
0.0
 10
110.8018500157023
 20
-135.9217637464015
 30
0.0
 10
110.8018500157023
 20
-135.6382323879654
 30
0.0
 10
110.8018500157023
 20
-135.500773078104
 30
0.0
 10
110.7322590869003
 20
-135.3481553481074
 30
0.0
 10
110.5041937657767
 20
-135.3481553481074
 30
0.0
 10
110.3877495383753
 20
-135.3481553481074
 30
0.0
 10
110.3388291824847
 20
-135.3863959079937
 30
0.0
 10
110.3071343040204
 20
-135.418090786458
 30
0.0
 10
110.2334092606361
 20
-135.4921603393909
 30
0.0
 10
110.2203178977921
 20
-135.6086045667923
 30
0.0
 10
110.2203178977921
 20
-135.6633815850078
 30
0.0
 10
110.2203178977921
 20
-135.6826741197252
 30
0.0
 10
110.2223849550833
 20
-135.7185031127718
 30
0.0
 10
110.2265190696656
 20
-135.7460638766538
 30
0.0
 10
110.2265190696656
 20
-135.7460638766538
 30
0.0
 10
110.0322156842975
 20
-135.7460638766538
 30
0.0
 10
110.0322156842975
 20
-135.7460638766538
 30
0.0
 10
110.038416856171
 20
-135.7078233167675
 30
0.0
 10
110.0404839134621
 20
-135.6657931518475
 30
0.0
 10
110.0404839134621
 20
-135.6592474704255
 30
0.0
 10
110.0404839134621
 20
-135.5937906562057
 30
0.0
 10
110.0191243214536
 20
-135.3950086467068
 30
0.0
 10
109.7827907711654
 20
-135.3950086467068
 30
0.0
 10
109.6050238441265
 20
-135.3950086467068
 30
0.0
 10
109.5499023163625
 20
-135.5259222751463
 30
0.0
 10
109.5499023163625
 20
-135.6361653306743
 30
0.0
 10
109.5499023163625
 20
-135.900404154393
 30
0.0
 10
109.7827907711654
 20
-135.9090168931061
 30
0.0
 10
109.8544487572586
 20
-135.9131510076884
 30
0.0
 10
109.8544487572586
 20
-135.9131510076884
 30
0.0
 10
109.8544487572586
 20
-136.1164116413181
 30
0.0
 10
109.8544487572586
 20
-136.1164116413181
 30
0.0
 10
109.7297363006926
 20
-136.107798902605
 30
0.0
 10
109.3528428546062
 20
-136.080238138723
 30
0.0
 10
109.3528428546062
 20
-135.6234184773789
 30
0.0
 10
109.3528428546062
 20
-135.3991427612891
 30
0.0
 10
109.4803113875605
 20
-135.1579860773216
 30
0.0
 10
109.7759005801949
 20
-135.1579860773216
 30
0.0
 10
109.9626247554955
 20
-135.1579860773216
 30
0.0
 10
110.0446180280444
 20
-135.2530707127145
 30
0.0
 10
110.1059407276819
 20
-135.3526339722382
 30
0.0
 10
110.1335014915638
 20
-135.2913112726008
 30
0.0
 10
110.2141167259187
 20
-135.1094102309796
 30
0.0
 10
110.4911024029328
 20
-135.1094102309796
 30
0.0
 10
110.8294107795843
 20
-135.1094102309796
 30
0.0
 10
110.9968424201675
 20
-135.3567680868205
 30
0.0
 10
110.9968424201675
 20
-135.6337537638346
 30
0.0
  0
HATCH
  5
80
330
7B
100
AcDbEntity
  8
_U+30EC_U+30A4_U+30E4_U+30FC 1
 62
   179
420
  2234388
100
AcDbHatch
 10
0.0
 20
0.0
 30
0.0
210
0.0
220
0.0
230
1.0
  2
SOLID
 70
     1
 71
     0
 91
        1
 92
        1
 93
        1
 72
     4
 94
        3
 73
     0
 74
     1
 95
       62
 96
       58
 40
0.0
 40
0.0
 40
0.0
 40
0.0
 40
1.0
 40
1.0
 40
1.0
 40
2.0
 40
2.0
 40
2.0
 40
3.0
 40
3.0
 40
3.0
 40
4.0
 40
4.0
 40
4.0
 40
5.0
 40
5.0
 40
5.0
 40
6.0
 40
6.0
 40
6.0
 40
7.0
 40
7.0
 40
7.0
 40
8.0
 40
8.0
 40
8.0
 40
9.0
 40
9.0
 40
9.0
 40
10.0
 40
10.0
 40
10.0
 40
11.0
 40
11.0
 40
11.0
 40
12.0
 40
12.0
 40
12.0
 40
13.0
 40
13.0
 40
13.0
 40
14.0
 40
14.0
 40
14.0
 40
15.0
 40
15.0
 40
15.0
 40
16.0
 40
16.0
 40
16.0
 40
17.0
 40
17.0
 40
17.0
 40
18.0
 40
18.0
 40
18.0
 40
19.0
 40
19.0
 40
19.0
 40
19.0
 10
110.9968424201675
 20
-135.6337537638346
 10
110.9968424201675
 20
-135.729182908776
 10
110.9754828281589
 20
-135.9469129434438
 10
110.7894476719554
 20
-136.0719699095584
 10
110.6771375591363
 20
-136.1460394624913
 10
110.5779188091611
 20
-136.1501735770736
 10
110.4931694602239
 20
-136.1543076916559
 10
110.4931694602239
 20
-136.1543076916559
 10
110.4931694602239
 20
-135.9341660901484
 10
110.4931694602239
 20
-135.9341660901484
 10
110.5675835227053
 20
-135.9320990328573
 10
110.8018500157023
 20
-135.9217637464015
 10
110.8018500157023
 20
-135.6382323879654
 10
110.8018500157023
 20
-135.500773078104
 10
110.7322590869003
 20
-135.3481553481074
 10
110.5041937657767
 20
-135.3481553481074
 10
110.3877495383753
 20
-135.3481553481074
 10
110.3388291824847
 20
-135.3863959079937
 10
110.3071343040204
 20
-135.418090786458
 10
110.2334092606361
 20
-135.4921603393909
 10
110.2203178977921
 20
-135.6086045667923
 10
110.2203178977921
 20
-135.6633815850078
 10
110.2203178977921
 20
-135.6826741197252
 10
110.2223849550833
 20
-135.7185031127718
 10
110.2265190696656
 20
-135.7460638766538
 10
110.2265190696656
 20
-135.7460638766538
 10
110.0322156842975
 20
-135.7460638766538
 10
110.0322156842975
 20
-135.7460638766538
 10
110.038416856171
 20
-135.7078233167675
 10
110.0404839134621
 20
-135.6657931518475
 10
110.0404839134621
 20
-135.6592474704255
 10
110.0404839134621
 20
-135.5937906562057
 10
110.0191243214536
 20
-135.3950086467068
 10
109.7827907711654
 20
-135.3950086467068
 10
109.6050238441265
 20
-135.3950086467068
 10
109.5499023163625
 20
-135.5259222751463
 10
109.5499023163625
 20
-135.6361653306743
 10
109.5499023163625
 20
-135.900404154393
 10
109.7827907711654
 20
-135.9090168931061
 10
109.8544487572586
 20
-135.9131510076884
 10
109.8544487572586
 20
-135.9131510076884
 10
109.8544487572586
 20
-136.1164116413181
 10
109.8544487572586
 20
-136.1164116413181
 10
109.7297363006926
 20
-136.107798902605
 10
109.3528428546062
 20
-136.080238138723
 10
109.3528428546062
 20
-135.6234184773789
 10
109.3528428546062
 20
-135.3991427612891
 10
109.4803113875605
 20
-135.1579860773216
 10
109.7759005801949
 20
-135.1579860773216
 10
109.9626247554955
 20
-135.1579860773216
 10
110.0446180280444
 20
-135.2530707127145
 10
110.1059407276819
 20
-135.3526339722382
 10
110.1335014915638
 20
-135.2913112726008
 10
110.2141167259187
 20
-135.1094102309796
 10
110.4911024029328
 20
-135.1094102309796
 10
110.8294107795843
 20
-135.1094102309796
 10
110.9968424201675
 20
-135.3567680868205
 10
110.9968424201675
 20
-135.6337537638346
 97
        0
 97
        0
 75
     2
 76
     1
 98
        0
  0
ENDBLK
  5
7E
330
7B
100
AcDbEntity
  8
0
100
AcDbBlockEnd
  0
BLOCK
  5
96
330
94
100
AcDbEntity
  8
0
100
AcDbBlockBegin
  2
block 6
 70
     0
 10
0.0
 20
0.0
 30
0.0
  3
block 6
  1

  0
SPLINE
  5
98
330
94
100
AcDbEntity
  8
_U+30EC_U+30A4_U+30E4_U+30FC 1
370
     0
100
AcDbSpline
210
0.0
220
0.0
230
1.0
 70
    11
 71
     3
 72
    62
 73
    58
 74
     0
 42
0.0000000001
 43
0.0000000001
 12
1.0
 22
0.0
 32
0.0
 13
1.0
 23
0.0
 33
0.0
 40
0.0
 40
0.0
 40
0.0
 40
0.0
 40
1.0
 40
1.0
 40
1.0
 40
2.0
 40
2.0
 40
2.0
 40
3.0
 40
3.0
 40
3.0
 40
4.0
 40
4.0
 40
4.0
 40
5.0
 40
5.0
 40
5.0
 40
6.0
 40
6.0
 40
6.0
 40
7.0
 40
7.0
 40
7.0
 40
8.0
 40
8.0
 40
8.0
 40
9.0
 40
9.0
 40
9.0
 40
10.0
 40
10.0
 40
10.0
 40
11.0
 40
11.0
 40
11.0
 40
12.0
 40
12.0
 40
12.0
 40
13.0
 40
13.0
 40
13.0
 40
14.0
 40
14.0
 40
14.0
 40
15.0
 40
15.0
 40
15.0
 40
16.0
 40
16.0
 40
16.0
 40
17.0
 40
17.0
 40
17.0
 40
18.0
 40
18.0
 40
18.0
 40
19.0
 40
19.0
 40
19.0
 40
19.0
 10
90.196044899326
 20
-116.8476480827673
 30
0.0
 10
90.10061575438458
 20
-116.8476480827673
 30
0.0
 10
89.88288571971678
 20
-116.8266330003072
 30
0.0
 10
89.75782875360221
 20
-116.6405978441037
 30
0.0
 10
89.68375920066934
 20
-116.5282877312846
 30
0.0
 10
89.67962508608704
 20
-116.4290689813094
 30
0.0
 10
89.67549097150474
 20
-116.3443196323723
 30
0.0
 10
89.67549097150474
 20
-116.3443196323723
 30
0.0
 10
89.89563257301221
 20
-116.3443196323723
 30
0.0
 10
89.89563257301221
 20
-116.3443196323723
 30
0.0
 10
89.89769963030335
 20
-116.4183891853051
 30
0.0
 10
89.9080349167591
 20
-116.6530001878507
 30
0.0
 10
90.19156627519517
 20
-116.6530001878507
 30
0.0
 10
90.32902558505664
 20
-116.6530001878507
 30
0.0
 10
90.4816433150532
 20
-116.5834092590486
 30
0.0
 10
90.4816433150532
 20
-116.3549994283765
 30
0.0
 10
90.4816433150532
 20
-116.2385552009751
 30
0.0
 10
90.44340275516693
 20
-116.1899793546331
 30
0.0
 10
90.41170787670264
 20
-116.1582844761688
 30
0.0
 10
90.33763832376977
 20
-116.0842149232359
 30
0.0
 10
90.22119409636832
 20
-116.0714680699405
 30
0.0
 10
90.16641707815285
 20
-116.0714680699405
 30
0.0
 10
90.14712454343544
 20
-116.0714680699405
 30
0.0
 10
90.11129555038885
 20
-116.0735351272316
 30
0.0
 10
90.08373478650685
 20
-116.0776692418139
 30
0.0
 10
90.08373478650685
 20
-116.0776692418139
 30
0.0
 10
90.08373478650685
 20
-115.8830213468973
 30
0.0
 10
90.08373478650685
 20
-115.8830213468973
 30
0.0
 10
90.12197534639313
 20
-115.8895670283193
 30
0.0
 10
90.16400551131316
 20
-115.8916340856104
 30
0.0
 10
90.17055119273515
 20
-115.8916340856104
 30
0.0
 10
90.23600800695489
 20
-115.8916340856104
 30
0.0
 10
90.4347900164538
 20
-115.8702744936019
 30
0.0
 10
90.4347900164538
 20
-115.6335964337652
 30
0.0
 10
90.4347900164538
 20
-115.4558295067263
 30
0.0
 10
90.30387638801432
 20
-115.4007079789623
 30
0.0
 10
90.19363333248631
 20
-115.4007079789623
 30
0.0
 10
89.92939450876766
 20
-115.4007079789623
 30
0.0
 10
89.92078177005453
 20
-115.6335964337652
 30
0.0
 10
89.91664765547223
 20
-115.7052544198584
 30
0.0
 10
89.91664765547223
 20
-115.7052544198584
 30
0.0
 10
89.7133870218425
 20
-115.7052544198584
 30
0.0
 10
89.7133870218425
 20
-115.7052544198584
 30
0.0
 10
89.72199976055562
 20
-115.5805419632924
 30
0.0
 10
89.74956052443761
 20
-115.2039930267546
 30
0.0
 10
90.20638018578174
 20
-115.2039930267546
 30
0.0
 10
90.4306559018715
 20
-115.2039930267546
 30
0.0
 10
90.67181258583899
 20
-115.3311170501603
 30
0.0
 10
90.67181258583899
 20
-115.6270507523432
 30
0.0
 10
90.67181258583899
 20
-115.8134304180953
 30
0.0
 10
90.5767279504461
 20
-115.8957682001927
 30
0.0
 10
90.47716469092238
 20
-115.9570908998302
 30
0.0
 10
90.53848739055982
 20
-115.9846516637122
 30
0.0
 10
90.72038843218102
 20
-116.0649223885185
 30
0.0
 10
90.72038843218102
 20
-116.3422525750811
 30
0.0
 10
90.72038843218102
 20
-116.6805609517326
 30
0.0
 10
90.47303057634008
 20
-116.8476480827673
 30
0.0
 10
90.196044899326
 20
-116.8476480827673
 30
0.0
  0
HATCH
  5
99
330
94
100
AcDbEntity
  8
_U+30EC_U+30A4_U+30E4_U+30FC 1
 62
   179
420
  2234388
100
AcDbHatch
 10
0.0
 20
0.0
 30
0.0
210
0.0
220
0.0
230
1.0
  2
SOLID
 70
     1
 71
     0
 91
        1
 92
        1
 93
        1
 72
     4
 94
        3
 73
     0
 74
     1
 95
       62
 96
       58
 40
0.0
 40
0.0
 40
0.0
 40
0.0
 40
1.0
 40
1.0
 40
1.0
 40
2.0
 40
2.0
 40
2.0
 40
3.0
 40
3.0
 40
3.0
 40
4.0
 40
4.0
 40
4.0
 40
5.0
 40
5.0
 40
5.0
 40
6.0
 40
6.0
 40
6.0
 40
7.0
 40
7.0
 40
7.0
 40
8.0
 40
8.0
 40
8.0
 40
9.0
 40
9.0
 40
9.0
 40
10.0
 40
10.0
 40
10.0
 40
11.0
 40
11.0
 40
11.0
 40
12.0
 40
12.0
 40
12.0
 40
13.0
 40
13.0
 40
13.0
 40
14.0
 40
14.0
 40
14.0
 40
15.0
 40
15.0
 40
15.0
 40
16.0
 40
16.0
 40
16.0
 40
17.0
 40
17.0
 40
17.0
 40
18.0
 40
18.0
 40
18.0
 40
19.0
 40
19.0
 40
19.0
 40
19.0
 10
90.196044899326
 20
-116.8476480827673
 10
90.10061575438458
 20
-116.8476480827673
 10
89.88288571971678
 20
-116.8266330003072
 10
89.75782875360221
 20
-116.6405978441037
 10
89.68375920066934
 20
-116.5282877312846
 10
89.67962508608704
 20
-116.4290689813094
 10
89.67549097150474
 20
-116.3443196323723
 10
89.67549097150474
 20
-116.3443196323723
 10
89.89563257301221
 20
-116.3443196323723
 10
89.89563257301221
 20
-116.3443196323723
 10
89.89769963030335
 20
-116.4183891853051
 10
89.9080349167591
 20
-116.6530001878507
 10
90.19156627519517
 20
-116.6530001878507
 10
90.32902558505664
 20
-116.6530001878507
 10
90.4816433150532
 20
-116.5834092590486
 10
90.4816433150532
 20
-116.3549994283765
 10
90.4816433150532
 20
-116.2385552009751
 10
90.44340275516693
 20
-116.1899793546331
 10
90.41170787670264
 20
-116.1582844761688
 10
90.33763832376977
 20
-116.0842149232359
 10
90.22119409636832
 20
-116.0714680699405
 10
90.16641707815285
 20
-116.0714680699405
 10
90.14712454343544
 20
-116.0714680699405
 10
90.11129555038885
 20
-116.0735351272316
 10
90.08373478650685
 20
-116.0776692418139
 10
90.08373478650685
 20
-116.0776692418139
 10
90.08373478650685
 20
-115.8830213468973
 10
90.08373478650685
 20
-115.8830213468973
 10
90.12197534639313
 20
-115.8895670283193
 10
90.16400551131316
 20
-115.8916340856104
 10
90.17055119273515
 20
-115.8916340856104
 10
90.23600800695489
 20
-115.8916340856104
 10
90.4347900164538
 20
-115.8702744936019
 10
90.4347900164538
 20
-115.6335964337652
 10
90.4347900164538
 20
-115.4558295067263
 10
90.30387638801432
 20
-115.4007079789623
 10
90.19363333248631
 20
-115.4007079789623
 10
89.92939450876766
 20
-115.4007079789623
 10
89.92078177005453
 20
-115.6335964337652
 10
89.91664765547223
 20
-115.7052544198584
 10
89.91664765547223
 20
-115.7052544198584
 10
89.7133870218425
 20
-115.7052544198584
 10
89.7133870218425
 20
-115.7052544198584
 10
89.72199976055562
 20
-115.5805419632924
 10
89.74956052443761
 20
-115.2039930267546
 10
90.20638018578174
 20
-115.2039930267546
 10
90.4306559018715
 20
-115.2039930267546
 10
90.67181258583899
 20
-115.3311170501603
 10
90.67181258583899
 20
-115.6270507523432
 10
90.67181258583899
 20
-115.8134304180953
 10
90.5767279504461
 20
-115.8957682001927
 10
90.47716469092238
 20
-115.9570908998302
 10
90.53848739055982
 20
-115.9846516637122
 10
90.72038843218102
 20
-116.0649223885185
 10
90.72038843218102
 20
-116.3422525750811
 10
90.72038843218102
 20
-116.6805609517326
 10
90.47303057634008
 20
-116.8476480827673
 10
90.196044899326
 20
-116.8476480827673
 97
        0
 97
        0
 75
     2
 76
     1
 98
        0
  0
SPLINE
  5
9A
330
94
100
AcDbEntity
  8
_U+30EC_U+30A4_U+30E4_U+30FC 1
370
     0
100
AcDbSpline
210
0.0
220
0.0
230
1.0
 70
    11
 71
     3
 72
    29
 73
    25
 74
     0
 42
0.0000000001
 43
0.0000000001
 12
1.0
 22
0.0
 32
0.0
 13
1.0
 23
0.0
 33
0.0
 40
0.0
 40
0.0
 40
0.0
 40
0.0
 40
1.0
 40
1.0
 40
1.0
 40
2.0
 40
2.0
 40
2.0
 40
3.0
 40
3.0
 40
3.0
 40
4.0
 40
4.0
 40
4.0
 40
5.0
 40
5.0
 40
5.0
 40
6.0
 40
6.0
 40
6.0
 40
7.0
 40
7.0
 40
7.0
 40
8.0
 40
8.0
 40
8.0
 40
8.0
 10
91.7790662747983
 20
-116.6192382520952
 30
0.0
 10
91.67089027656145
 20
-116.8287000575984
 30
0.0
 10
91.49760197365339
 20
-116.8476480827673
 30
0.0
 10
91.38115774625194
 20
-116.8476480827673
 30
0.0
 10
91.22027178709077
 20
-116.8476480827673
 30
0.0
 10
91.078678362647
 20
-116.8011392937164
 30
0.0
 10
90.9835937272541
 20
-116.6192382520952
 30
0.0
 10
90.87989635314808
 20
-116.4245903571786
 30
0.0
 10
90.86060381843069
 20
-116.1879122973419
 30
0.0
 10
90.86060381843069
 20
-116.0249592808896
 30
0.0
 10
90.86060381843069
 20
-115.8809542896062
 30
0.0
 10
90.87782929585694
 20
-115.6291178096344
 30
0.0
 10
90.9835937272541
 20
-115.4303358001355
 30
0.0
 10
91.09142521594242
 20
-115.2274196760543
 30
0.0
 10
91.2523111751036
 20
-115.2039930267546
 30
0.0
 10
91.38115774625194
 20
-115.2039930267546
 30
0.0
 10
91.53997664812195
 20
-115.2039930267546
 30
0.0
 10
91.68363712985688
 20
-115.2484347585143
 30
0.0
 10
91.7790662747983
 20
-115.4303358001355
 30
0.0
 10
91.87828502477349
 20
-115.6229166377609
 30
0.0
 10
91.90171167407318
 20
-115.851326468433
 30
0.0
 10
91.90171167407318
 20
-116.0249592808896
 30
0.0
 10
91.90171167407318
 20
-116.1961805265065
 30
0.0
 10
91.88035208206463
 20
-116.4266574144697
 30
0.0
 10
91.7790662747983
 20
-116.6192382520952
 30
0.0
  0
SPLINE
  5
9B
330
94
100
AcDbEntity
  8
_U+30EC_U+30A4_U+30E4_U+30FC 1
370
     0
100
AcDbSpline
210
0.0
220
0.0
230
1.0
 70
    11
 71
     3
 72
    17
 73
    13
 74
     0
 42
0.0000000001
 43
0.0000000001
 12
1.0
 22
0.0
 32
0.0
 13
1.0
 23
0.0
 33
0.0
 40
0.0
 40
0.0
 40
0.0
 40
0.0
 40
1.0
 40
1.0
 40
1.0
 40
2.0
 40
2.0
 40
2.0
 40
3.0
 40
3.0
 40
3.0
 40
4.0
 40
4.0
 40
4.0
 40
4.0
 10
91.38115774625194
 20
-115.39657386438
 30
0.0
 10
91.13138832357133
 20
-115.39657386438
 30
0.0
 10
91.08487953452045
 20
-115.6801052228161
 30
0.0
 10
91.08487953452045
 20
-116.0249592808896
 30
0.0
 10
91.08487953452045
 20
-116.3443196323723
 30
0.0
 10
91.12105303711557
 20
-116.6530001878507
 30
0.0
 10
91.38115774625194
 20
-116.6530001878507
 30
0.0
 10
91.6288601116414
 20
-116.6530001878507
 30
0.0
 10
91.67743595798342
 20
-116.3718803962543
 30
0.0
 10
91.67743595798342
 20
-116.0249592808896
 30
0.0
 10
91.67743595798342
 20
-115.7052544198584
 30
0.0
 10
91.63919539809714
 20
-115.39657386438
 30
0.0
 10
91.38115774625194
 20
-115.39657386438
 30
0.0
  0
HATCH
  5
9C
330
94
100
AcDbEntity
  8
_U+30EC_U+30A4_U+30E4_U+30FC 1
 62
   179
420
  2234388
100
AcDbHatch
 10
0.0
 20
0.0
 30
0.0
210
0.0
220
0.0
230
1.0
  2
SOLID
 70
     1
 71
     0
 91
        2
 92
        1
 93
        1
 72
     4
 94
        3
 73
     0
 74
     1
 95
       29
 96
       25
 40
0.0
 40
0.0
 40
0.0
 40
0.0
 40
1.0
 40
1.0
 40
1.0
 40
2.0
 40
2.0
 40
2.0
 40
3.0
 40
3.0
 40
3.0
 40
4.0
 40
4.0
 40
4.0
 40
5.0
 40
5.0
 40
5.0
 40
6.0
 40
6.0
 40
6.0
 40
7.0
 40
7.0
 40
7.0
 40
8.0
 40
8.0
 40
8.0
 40
8.0
 10
91.7790662747983
 20
-116.6192382520952
 10
91.67089027656145
 20
-116.8287000575984
 10
91.49760197365339
 20
-116.8476480827673
 10
91.38115774625194
 20
-116.8476480827673
 10
91.22027178709077
 20
-116.8476480827673
 10
91.078678362647
 20
-116.8011392937164
 10
90.9835937272541
 20
-116.6192382520952
 10
90.87989635314808
 20
-116.4245903571786
 10
90.86060381843069
 20
-116.1879122973419
 10
90.86060381843069
 20
-116.0249592808896
 10
90.86060381843069
 20
-115.8809542896062
 10
90.87782929585694
 20
-115.6291178096344
 10
90.9835937272541
 20
-115.4303358001355
 10
91.09142521594242
 20
-115.2274196760543
 10
91.2523111751036
 20
-115.2039930267546
 10
91.38115774625194
 20
-115.2039930267546
 10
91.53997664812195
 20
-115.2039930267546
 10
91.68363712985688
 20
-115.2484347585143
 10
91.7790662747983
 20
-115.4303358001355
 10
91.87828502477349
 20
-115.6229166377609
 10
91.90171167407318
 20
-115.851326468433
 10
91.90171167407318
 20
-116.0249592808896
 10
91.90171167407318
 20
-116.1961805265065
 10
91.88035208206463
 20
-116.4266574144697
 10
91.7790662747983
 20
-116.6192382520952
 97
        0
 97
        0
 92
        1
 93
        1
 72
     4
 94
        3
 73
     0
 74
     1
 95
       17
 96
       13
 40
0.0
 40
0.0
 40
0.0
 40
0.0
 40
1.0
 40
1.0
 40
1.0
 40
2.0
 40
2.0
 40
2.0
 40
3.0
 40
3.0
 40
3.0
 40
4.0
 40
4.0
 40
4.0
 40
4.0
 10
91.38115774625194
 20
-115.39657386438
 10
91.13138832357133
 20
-115.39657386438
 10
91.08487953452045
 20
-115.6801052228161
 10
91.08487953452045
 20
-116.0249592808896
 10
91.08487953452045
 20
-116.3443196323723
 10
91.12105303711557
 20
-116.6530001878507
 10
91.38115774625194
 20
-116.6530001878507
 10
91.6288601116414
 20
-116.6530001878507
 10
91.67743595798342
 20
-116.3718803962543
 10
91.67743595798342
 20
-116.0249592808896
 10
91.67743595798342
 20
-115.7052544198584
 10
91.63919539809714
 20
-115.39657386438
 10
91.38115774625194
 20
-115.39657386438
 97
        0
 97
        0
 75
     2
 76
     1
 98
        0
  0
ENDBLK
  5
97
330
94
100
AcDbEntity
  8
0
100
AcDbBlockEnd
  0
BLOCK
  5
9F
330
9D
100
AcDbEntity
  8
0
100
AcDbBlockBegin
  2
block 7
 70
     0
 10
0.0
 20
0.0
 30
0.0
  3
block 7
  1

  0
SPLINE
  5
A1
330
9D
100
AcDbEntity
  8
_U+30EC_U+30A4_U+30E4_U+30FC 1
370
     0
100
AcDbSpline
210
0.0
220
0.0
230
1.0
 70
    11
 71
     3
 72
    53
 73
    49
 74
     0
 42
0.0000000001
 43
0.0000000001
 12
1.0
 22
0.0
 32
0.0
 13
1.0
 23
0.0
 33
0.0
 40
0.0
 40
0.0
 40
0.0
 40
0.0
 40
1.0
 40
1.0
 40
1.0
 40
2.0
 40
2.0
 40
2.0
 40
3.0
 40
3.0
 40
3.0
 40
4.0
 40
4.0
 40
4.0
 40
5.0
 40
5.0
 40
5.0
 40
6.0
 40
6.0
 40
6.0
 40
7.0
 40
7.0
 40
7.0
 40
8.0
 40
8.0
 40
8.0
 40
9.0
 40
9.0
 40
9.0
 40
10.0
 40
10.0
 40
10.0
 40
11.0
 40
11.0
 40
11.0
 40
12.0
 40
12.0
 40
12.0
 40
13.0
 40
13.0
 40
13.0
 40
14.0
 40
14.0
 40
14.0
 40
15.0
 40
15.0
 40
15.0
 40
16.0
 40
16.0
 40
16.0
 40
16.0
 10
73.46958955411525
 20
-116.8476480827673
 30
0.0
 10
73.39138588660008
 20
-116.8476480827673
 30
0.0
 10
73.2897555697852
 20
-116.8307671148895
 30
0.0
 10
73.18812525297034
 20
-116.7673773579609
 30
0.0
 10
73.01483695006226
 20
-116.6574788119815
 30
0.0
 10
72.99347735805372
 20
-116.5262206739934
 30
0.0
 10
72.97452933288484
 20
-116.4183891853051
 30
0.0
 10
72.97452933288484
 20
-116.4183891853051
 30
0.0
 10
73.19673799168346
 20
-116.4183891853051
 30
0.0
 10
73.19673799168346
 20
-116.4183891853051
 30
0.0
 10
73.25151500989892
 20
-116.617171194804
 30
0.0
 10
73.37863903330465
 20
-116.6467990159772
 30
0.0
 10
73.47165661140639
 20
-116.6467990159772
 30
0.0
 10
73.61118297855901
 20
-116.6467990159772
 30
0.0
 10
73.76345619900705
 20
-116.5472357564535
 30
0.0
 10
73.76345619900705
 20
-116.3146918111991
 30
0.0
 10
73.76345619900705
 20
-116.0587212166451
 30
0.0
 10
73.58362221467702
 20
-115.9887857782945
 30
0.0
 10
73.46304387269328
 20
-115.9887857782945
 30
0.0
 10
73.43134899422897
 20
-115.9887857782945
 30
0.0
 10
73.2897555697852
 20
-115.9887857782945
 30
0.0
 10
73.20087210626576
 20
-116.1179768589913
 30
0.0
 10
73.20087210626576
 20
-116.1179768589913
 30
0.0
 10
73.02517223651802
 20
-116.0990288338225
 30
0.0
 10
73.02517223651802
 20
-116.0990288338225
 30
0.0
 10
73.02517223651802
 20
-116.0990288338225
 30
0.0
 10
73.14575057850176
 20
-115.2525688730966
 30
0.0
 10
73.14575057850176
 20
-115.2525688730966
 30
0.0
 10
73.14575057850176
 20
-115.2525688730966
 30
0.0
 10
73.92434215816823
 20
-115.2525688730966
 30
0.0
 10
73.92434215816823
 20
-115.2525688730966
 30
0.0
 10
73.92434215816823
 20
-115.2525688730966
 30
0.0
 10
73.92434215816823
 20
-115.4472167680132
 30
0.0
 10
73.92434215816823
 20
-115.4472167680132
 30
0.0
 10
73.92434215816823
 20
-115.4472167680132
 30
0.0
 10
73.30870359495408
 20
-115.4472167680132
 30
0.0
 10
73.30870359495408
 20
-115.4472167680132
 30
0.0
 10
73.30870359495408
 20
-115.4472167680132
 30
0.0
 10
73.24324678073432
 20
-115.8702744936019
 30
0.0
 10
73.24324678073432
 20
-115.8702744936019
 30
0.0
 10
73.30456948037178
 20
-115.8365125578464
 30
0.0
 10
73.38690726246925
 20
-115.796204940669
 30
0.0
 10
73.50541854716184
 20
-115.796204940669
 30
0.0
 10
73.75932208442475
 20
-115.796204940669
 30
0.0
 10
73.99634465380994
 20
-115.982584606421
 30
0.0
 10
73.99634465380994
 20
-116.2957437860302
 30
0.0
 10
73.99634465380994
 20
-116.6130370802217
 30
0.0
 10
73.77206893772018
 20
-116.8476480827673
 30
0.0
 10
73.46958955411525
 20
-116.8476480827673
 30
0.0
  0
HATCH
  5
A2
330
9D
100
AcDbEntity
  8
_U+30EC_U+30A4_U+30E4_U+30FC 1
 62
   179
420
  2234388
100
AcDbHatch
 10
0.0
 20
0.0
 30
0.0
210
0.0
220
0.0
230
1.0
  2
SOLID
 70
     1
 71
     0
 91
        1
 92
        1
 93
        1
 72
     4
 94
        3
 73
     0
 74
     1
 95
       53
 96
       49
 40
0.0
 40
0.0
 40
0.0
 40
0.0
 40
1.0
 40
1.0
 40
1.0
 40
2.0
 40
2.0
 40
2.0
 40
3.0
 40
3.0
 40
3.0
 40
4.0
 40
4.0
 40
4.0
 40
5.0
 40
5.0
 40
5.0
 40
6.0
 40
6.0
 40
6.0
 40
7.0
 40
7.0
 40
7.0
 40
8.0
 40
8.0
 40
8.0
 40
9.0
 40
9.0
 40
9.0
 40
10.0
 40
10.0
 40
10.0
 40
11.0
 40
11.0
 40
11.0
 40
12.0
 40
12.0
 40
12.0
 40
13.0
 40
13.0
 40
13.0
 40
14.0
 40
14.0
 40
14.0
 40
15.0
 40
15.0
 40
15.0
 40
16.0
 40
16.0
 40
16.0
 40
16.0
 10
73.46958955411525
 20
-116.8476480827673
 10
73.39138588660008
 20
-116.8476480827673
 10
73.2897555697852
 20
-116.8307671148895
 10
73.18812525297034
 20
-116.7673773579609
 10
73.01483695006226
 20
-116.6574788119815
 10
72.99347735805372
 20
-116.5262206739934
 10
72.97452933288484
 20
-116.4183891853051
 10
72.97452933288484
 20
-116.4183891853051
 10
73.19673799168346
 20
-116.4183891853051
 10
73.19673799168346
 20
-116.4183891853051
 10
73.25151500989892
 20
-116.617171194804
 10
73.37863903330465
 20
-116.6467990159772
 10
73.47165661140639
 20
-116.6467990159772
 10
73.61118297855901
 20
-116.6467990159772
 10
73.76345619900705
 20
-116.5472357564535
 10
73.76345619900705
 20
-116.3146918111991
 10
73.76345619900705
 20
-116.0587212166451
 10
73.58362221467702
 20
-115.9887857782945
 10
73.46304387269328
 20
-115.9887857782945
 10
73.43134899422897
 20
-115.9887857782945
 10
73.2897555697852
 20
-115.9887857782945
 10
73.20087210626576
 20
-116.1179768589913
 10
73.20087210626576
 20
-116.1179768589913
 10
73.02517223651802
 20
-116.0990288338225
 10
73.02517223651802
 20
-116.0990288338225
 10
73.02517223651802
 20
-116.0990288338225
 10
73.14575057850176
 20
-115.2525688730966
 10
73.14575057850176
 20
-115.2525688730966
 10
73.14575057850176
 20
-115.2525688730966
 10
73.92434215816823
 20
-115.2525688730966
 10
73.92434215816823
 20
-115.2525688730966
 10
73.92434215816823
 20
-115.2525688730966
 10
73.92434215816823
 20
-115.4472167680132
 10
73.92434215816823
 20
-115.4472167680132
 10
73.92434215816823
 20
-115.4472167680132
 10
73.30870359495408
 20
-115.4472167680132
 10
73.30870359495408
 20
-115.4472167680132
 10
73.30870359495408
 20
-115.4472167680132
 10
73.24324678073432
 20
-115.8702744936019
 10
73.24324678073432
 20
-115.8702744936019
 10
73.30456948037178
 20
-115.8365125578464
 10
73.38690726246925
 20
-115.796204940669
 10
73.50541854716184
 20
-115.796204940669
 10
73.75932208442475
 20
-115.796204940669
 10
73.99634465380994
 20
-115.982584606421
 10
73.99634465380994
 20
-116.2957437860302
 10
73.99634465380994
 20
-116.6130370802217
 10
73.77206893772018
 20
-116.8476480827673
 10
73.46958955411525
 20
-116.8476480827673
 97
        0
 97
        0
 75
     2
 76
     1
 98
        0
  0
ENDBLK
  5
A0
330
9D
100
AcDbEntity
  8
0
100
AcDbBlockEnd
  0
BLOCK
  5
B3
330
B1
100
AcDbEntity
  8
0
100
AcDbBlockBegin
  2
block 8
 70
     0
 10
0.0
 20
0.0
 30
0.0
  3
block 8
  1

  0
SPLINE
  5
B5
330
B1
100
AcDbEntity
  8
_U+30EC_U+30A4_U+30E4_U+30FC 1
370
     0
100
AcDbSpline
210
0.0
220
0.0
230
1.0
 70
    11
 71
     3
 72
    26
 73
    22
 74
     0
 42
0.0000000001
 43
0.0000000001
 12
1.0
 22
0.0
 32
0.0
 13
1.0
 23
0.0
 33
0.0
 40
0.0
 40
0.0
 40
0.0
 40
0.0
 40
1.0
 40
1.0
 40
1.0
 40
2.0
 40
2.0
 40
2.0
 40
3.0
 40
3.0
 40
3.0
 40
4.0
 40
4.0
 40
4.0
 40
5.0
 40
5.0
 40
5.0
 40
6.0
 40
6.0
 40
6.0
 40
7.0
 40
7.0
 40
7.0
 40
7.0
 10
75.27068547380387
 20
-140.5757432374255
 30
0.0
 10
75.27068547380387
 20
-140.5757432374255
 30
0.0
 10
75.27068547380387
 20
-139.4715901344029
 30
0.0
 10
75.27068547380387
 20
-139.4715901344029
 30
0.0
 10
75.27068547380387
 20
-139.4715901344029
 30
0.0
 10
74.94064532631693
 20
-139.4715901344029
 30
0.0
 10
74.94064532631693
 20
-139.4715901344029
 30
0.0
 10
74.94064532631693
 20
-139.4715901344029
 30
0.0
 10
74.94064532631693
 20
-139.3234510285372
 30
0.0
 10
74.94064532631693
 20
-139.3234510285372
 30
0.0
 10
75.27275253109501
 20
-139.3086371179506
 30
0.0
 10
75.31926132014588
 20
-139.1456841014983
 30
0.0
 10
75.34888914131903
 20
-139.031306931388
 30
0.0
 10
75.34888914131903
 20
-139.031306931388
 30
0.0
 10
75.49496118989363
 20
-139.031306931388
 30
0.0
 10
75.49496118989363
 20
-139.031306931388
 30
0.0
 10
75.49496118989363
 20
-139.031306931388
 30
0.0
 10
75.49496118989363
 20
-140.5757432374255
 30
0.0
 10
75.49496118989363
 20
-140.5757432374255
 30
0.0
 10
75.49496118989363
 20
-140.5757432374255
 30
0.0
 10
75.27068547380387
 20
-140.5757432374255
 30
0.0
 10
75.27068547380387
 20
-140.5757432374255
 30
0.0
  0
HATCH
  5
B6
330
B1
100
AcDbEntity
  8
_U+30EC_U+30A4_U+30E4_U+30FC 1
 62
   179
420
  2234388
100
AcDbHatch
 10
0.0
 20
0.0
 30
0.0
210
0.0
220
0.0
230
1.0
  2
SOLID
 70
     1
 71
     0
 91
        1
 92
        1
 93
        1
 72
     4
 94
        3
 73
     0
 74
     1
 95
       26
 96
       22
 40
0.0
 40
0.0
 40
0.0
 40
0.0
 40
1.0
 40
1.0
 40
1.0
 40
2.0
 40
2.0
 40
2.0
 40
3.0
 40
3.0
 40
3.0
 40
4.0
 40
4.0
 40
4.0
 40
5.0
 40
5.0
 40
5.0
 40
6.0
 40
6.0
 40
6.0
 40
7.0
 40
7.0
 40
7.0
 40
7.0
 10
75.27068547380387
 20
-140.5757432374255
 10
75.27068547380387
 20
-140.5757432374255
 10
75.27068547380387
 20
-139.4715901344029
 10
75.27068547380387
 20
-139.4715901344029
 10
75.27068547380387
 20
-139.4715901344029
 10
74.94064532631693
 20
-139.4715901344029
 10
74.94064532631693
 20
-139.4715901344029
 10
74.94064532631693
 20
-139.4715901344029
 10
74.94064532631693
 20
-139.3234510285372
 10
74.94064532631693
 20
-139.3234510285372
 10
75.27275253109501
 20
-139.3086371179506
 10
75.31926132014588
 20
-139.1456841014983
 10
75.34888914131903
 20
-139.031306931388
 10
75.34888914131903
 20
-139.031306931388
 10
75.49496118989363
 20
-139.031306931388
 10
75.49496118989363
 20
-139.031306931388
 10
75.49496118989363
 20
-139.031306931388
 10
75.49496118989363
 20
-140.5757432374255
 10
75.49496118989363
 20
-140.5757432374255
 10
75.49496118989363
 20
-140.5757432374255
 10
75.27068547380387
 20
-140.5757432374255
 10
75.27068547380387
 20
-140.5757432374255
 97
        0
 97
        0
 75
     2
 76
     1
 98
        0
  0
SPLINE
  5
B7
330
B1
100
AcDbEntity
  8
_U+30EC_U+30A4_U+30E4_U+30FC 1
370
     0
100
AcDbSpline
210
0.0
220
0.0
230
1.0
 70
    11
 71
     3
 72
    29
 73
    25
 74
     0
 42
0.0000000001
 43
0.0000000001
 12
1.0
 22
0.0
 32
0.0
 13
1.0
 23
0.0
 33
0.0
 40
0.0
 40
0.0
 40
0.0
 40
0.0
 40
1.0
 40
1.0
 40
1.0
 40
2.0
 40
2.0
 40
2.0
 40
3.0
 40
3.0
 40
3.0
 40
4.0
 40
4.0
 40
4.0
 40
5.0
 40
5.0
 40
5.0
 40
6.0
 40
6.0
 40
6.0
 40
7.0
 40
7.0
 40
7.0
 40
8.0
 40
8.0
 40
8.0
 40
8.0
 10
76.89401446645358
 20
-140.3979763103866
 30
0.0
 10
76.78583846821674
 20
-140.6074381158898
 30
0.0
 10
76.61255016530868
 20
-140.6263861410587
 30
0.0
 10
76.49610593790723
 20
-140.6263861410587
 30
0.0
 10
76.33521997874605
 20
-140.6263861410587
 30
0.0
 10
76.1936265543023
 20
-140.5798773520078
 30
0.0
 10
76.09854191890939
 20
-140.3979763103866
 30
0.0
 10
75.99484454480337
 20
-140.20332841547
 30
0.0
 10
75.9758965196345
 20
-139.9666503556333
 30
0.0
 10
75.9758965196345
 20
-139.803697339181
 30
0.0
 10
75.9758965196345
 20
-139.6596923478976
 30
0.0
 10
75.99277748751223
 20
-139.4078558679258
 30
0.0
 10
76.09854191890939
 20
-139.2090738584269
 30
0.0
 10
76.20637340759771
 20
-139.0061577343457
 30
0.0
 10
76.36725936675889
 20
-138.982731085046
 30
0.0
 10
76.49610593790723
 20
-138.982731085046
 30
0.0
 10
76.65492483977725
 20
-138.982731085046
 30
0.0
 10
76.79858532151216
 20
-139.0271728168057
 30
0.0
 10
76.89401446645358
 20
-139.2090738584269
 30
0.0
 10
76.99323321642878
 20
-139.4016546960524
 30
0.0
 10
77.01665986572847
 20
-139.6300645267244
 30
0.0
 10
77.01665986572847
 20
-139.803697339181
 30
0.0
 10
77.01665986572847
 20
-139.9749185847979
 30
0.0
 10
76.99530027371993
 20
-140.2053954727612
 30
0.0
 10
76.89401446645358
 20
-140.3979763103866
 30
0.0
  0
SPLINE
  5
B8
330
B1
100
AcDbEntity
  8
_U+30EC_U+30A4_U+30E4_U+30FC 1
370
     0
100
AcDbSpline
210
0.0
220
0.0
230
1.0
 70
    11
 71
     3
 72
    17
 73
    13
 74
     0
 42
0.0000000001
 43
0.0000000001
 12
1.0
 22
0.0
 32
0.0
 13
1.0
 23
0.0
 33
0.0
 40
0.0
 40
0.0
 40
0.0
 40
0.0
 40
1.0
 40
1.0
 40
1.0
 40
2.0
 40
2.0
 40
2.0
 40
3.0
 40
3.0
 40
3.0
 40
4.0
 40
4.0
 40
4.0
 40
4.0
 10
76.49610593790723
 20
-139.1753119226715
 30
0.0
 10
76.24668102477514
 20
-139.1753119226715
 30
0.0
 10
76.19982772617574
 20
-139.4588432811075
 30
0.0
 10
76.19982772617574
 20
-139.803697339181
 30
0.0
 10
76.19982772617574
 20
-140.1230576906637
 30
0.0
 10
76.23600122877086
 20
-140.4317382461421
 30
0.0
 10
76.49610593790723
 20
-140.4317382461421
 30
0.0
 10
76.74380830329669
 20
-140.4317382461421
 30
0.0
 10
76.7923841496387
 20
-140.1506184545457
 30
0.0
 10
76.7923841496387
 20
-139.803697339181
 30
0.0
 10
76.7923841496387
 20
-139.4839924781498
 30
0.0
 10
76.75414358975245
 20
-139.1753119226715
 30
0.0
 10
76.49610593790723
 20
-139.1753119226715
 30
0.0
  0
HATCH
  5
B9
330
B1
100
AcDbEntity
  8
_U+30EC_U+30A4_U+30E4_U+30FC 1
 62
   179
420
  2234388
100
AcDbHatch
 10
0.0
 20
0.0
 30
0.0
210
0.0
220
0.0
230
1.0
  2
SOLID
 70
     1
 71
     0
 91
        2
 92
        1
 93
        1
 72
     4
 94
        3
 73
     0
 74
     1
 95
       29
 96
       25
 40
0.0
 40
0.0
 40
0.0
 40
0.0
 40
1.0
 40
1.0
 40
1.0
 40
2.0
 40
2.0
 40
2.0
 40
3.0
 40
3.0
 40
3.0
 40
4.0
 40
4.0
 40
4.0
 40
5.0
 40
5.0
 40
5.0
 40
6.0
 40
6.0
 40
6.0
 40
7.0
 40
7.0
 40
7.0
 40
8.0
 40
8.0
 40
8.0
 40
8.0
 10
76.89401446645358
 20
-140.3979763103866
 10
76.78583846821674
 20
-140.6074381158898
 10
76.61255016530868
 20
-140.6263861410587
 10
76.49610593790723
 20
-140.6263861410587
 10
76.33521997874605
 20
-140.6263861410587
 10
76.1936265543023
 20
-140.5798773520078
 10
76.09854191890939
 20
-140.3979763103866
 10
75.99484454480337
 20
-140.20332841547
 10
75.9758965196345
 20
-139.9666503556333
 10
75.9758965196345
 20
-139.803697339181
 10
75.9758965196345
 20
-139.6596923478976
 10
75.99277748751223
 20
-139.4078558679258
 10
76.09854191890939
 20
-139.2090738584269
 10
76.20637340759771
 20
-139.0061577343457
 10
76.36725936675889
 20
-138.982731085046
 10
76.49610593790723
 20
-138.982731085046
 10
76.65492483977725
 20
-138.982731085046
 10
76.79858532151216
 20
-139.0271728168057
 10
76.89401446645358
 20
-139.2090738584269
 10
76.99323321642878
 20
-139.4016546960524
 10
77.01665986572847
 20
-139.6300645267244
 10
77.01665986572847
 20
-139.803697339181
 10
77.01665986572847
 20
-139.9749185847979
 10
76.99530027371993
 20
-140.2053954727612
 10
76.89401446645358
 20
-140.3979763103866
 97
        0
 97
        0
 92
        1
 93
        1
 72
     4
 94
        3
 73
     0
 74
     1
 95
       17
 96
       13
 40
0.0
 40
0.0
 40
0.0
 40
0.0
 40
1.0
 40
1.0
 40
1.0
 40
2.0
 40
2.0
 40
2.0
 40
3.0
 40
3.0
 40
3.0
 40
4.0
 40
4.0
 40
4.0
 40
4.0
 10
76.49610593790723
 20
-139.1753119226715
 10
76.24668102477514
 20
-139.1753119226715
 10
76.19982772617574
 20
-139.4588432811075
 10
76.19982772617574
 20
-139.803697339181
 10
76.19982772617574
 20
-140.1230576906637
 10
76.23600122877086
 20
-140.4317382461421
 10
76.49610593790723
 20
-140.4317382461421
 10
76.74380830329669
 20
-140.4317382461421
 10
76.7923841496387
 20
-140.1506184545457
 10
76.7923841496387
 20
-139.803697339181
 10
76.7923841496387
 20
-139.4839924781498
 10
76.75414358975245
 20
-139.1753119226715
 10
76.49610593790723
 20
-139.1753119226715
 97
        0
 97
        0
 75
     2
 76
     1
 98
        0
  0
ENDBLK
  5
B4
330
B1
100
AcDbEntity
  8
0
100
AcDbBlockEnd
  0
ENDSEC
  0
SECTION
  2
ENTITIES
  0
INSERT
  5
42
330
1F
100
AcDbEntity
  8
_U+30EC_U+30A4_U+30E4_U+30FC 1
100
AcDbBlockReference
  2
block 2
 10
0.0
 20
0.0
 30
0.0
  0
ENDSEC
  0
SECTION
  2
OBJECTS
  0
DICTIONARY
  5
C
330
0
100
AcDbDictionary
281
     1
  3
ACAD_GROUP
350
D
  3
ACAD_LAYOUT
350
1A
  3
ACAD_MATERIAL
350
3B
  3
ACAD_MLEADERSTYLE
350
CA
  3
ACAD_MLINESTYLE
350
17
  3
ACAD_PLOTSETTINGS
350
19
  3
ACAD_PLOTSTYLENAME
350
E
  3
ACAD_TABLESTYLE
350
C9
  3
ACAD_VISUALSTYLE
350
2A
  0
SUN
  5
3F
330
29
100
AcDbSun
 90
        1
290
     0
 63
     7
421
 16777215
 40
1.0
291
     1
 91
  2455826
 92
 54000000
292
     0
 70
     2
 71
   256
280
     1
  0
DICTIONARY
  5
D
102
{ACAD_REACTORS
330
C
102
}
330
C
100
AcDbDictionary
281
     1
  0
DICTIONARY
  5
1A
102
{ACAD_REACTORS
330
C
102
}
330
C
100
AcDbDictionary
281
     1
  3
Layout1
350
1E
  3
Layout2
350
26
  3
Model
350
22
  0
DICTIONARY
  5
3B
102
{ACAD_REACTORS
330
C
102
}
330
C
100
AcDbDictionary
281
     1
  3
ByBlock
350
3D
  3
ByLayer
350
3C
  3
Global
350
3E
  0
DICTIONARY
  5
CA
102
{ACAD_REACTORS
330
C
102
}
330
C
100
AcDbDictionary
281
     1
  0
DICTIONARY
  5
17
102
{ACAD_REACTORS
330
C
102
}
330
C
100
AcDbDictionary
281
     1
  3
Standard
350
18
  0
DICTIONARY
  5
19
102
{ACAD_REACTORS
330
C
102
}
330
C
100
AcDbDictionary
281
     1
  0
ACDBDICTIONARYWDFLT
  5
E
102
{ACAD_REACTORS
330
C
102
}
330
C
100
AcDbDictionary
281
     1
  3
Normal
350
F
100
AcDbDictionaryWithDefault
340
F
  0
DICTIONARY
  5
C9
102
{ACAD_REACTORS
330
C
102
}
330
C
100
AcDbDictionary
281
     1
  0
DICTIONARY
  5
2A
102
{ACAD_REACTORS
330
C
102
}
330
C
100
AcDbDictionary
281
     1
  3
2dWireframe
350
2F
  3
3D Hidden
350
31
  3
3dWireframe
350
30
  3
Basic
350
32
  3
Brighten
350
36
  3
ColorChange
350
3A
  3
Conceptual
350
34
  3
Dim
350
35
  3
Facepattern
350
39
  3
Flat
350
2B
  3
FlatWithEdges
350
2C
  3
Gouraud
350
2D
  3
GouraudWithEdges
350
2E
  3
Linepattern
350
38
  3
Realistic
350
33
  3
Thicken
350
37
  0
LAYOUT
  5
1E
102
{ACAD_REACTORS
330
1A
102
}
330
1A
100
AcDbPlotSettings
  1

  2
none_device
  4

  6

 40
0.0
 41
0.0
 42
0.0
 43
0.0
 44
0.0
 45
0.0
 46
0.0
 47
0.0
 48
0.0
 49
0.0
140
0.0
141
0.0
142
1.0
143
1.0
 70
   688
 72
     0
 73
     0
 74
     5
  7

 75
    16
 76
     0
 77
     2
 78
   300
147
1.0
148
0.0
149
0.0
100
AcDbLayout
  1
Layout1
 70
     1
 71
     1
 10
0.0
 20
0.0
 11
12.0
 21
9.0
 12
0.0
 22
0.0
 32
0.0
 14
1.000000000000000E+20
 24
1.000000000000000E+20
 34
1.000000000000000E+20
 15
-1.000000000000000E+20
 25
-1.000000000000000E+20
 35
-1.000000000000000E+20
146
0.0
 13
0.0
 23
0.0
 33
0.0
 16
1.0
 26
0.0
 36
0.0
 17
0.0
 27
1.0
 37
0.0
 76
     0
330
1B
  0
LAYOUT
  5
26
102
{ACAD_REACTORS
330
1A
102
}
330
1A
100
AcDbPlotSettings
  1

  2
none_device
  4

  6

 40
0.0
 41
0.0
 42
0.0
 43
0.0
 44
0.0
 45
0.0
 46
0.0
 47
0.0
 48
0.0
 49
0.0
140
0.0
141
0.0
142
1.0
143
1.0
 70
   688
 72
     0
 73
     0
 74
     5
  7

 75
    16
 76
     0
 77
     2
 78
   300
147
1.0
148
0.0
149
0.0
100
AcDbLayout
  1
Layout2
 70
     1
 71
     2
 10
0.0
 20
0.0
 11
0.0
 21
0.0
 12
0.0
 22
0.0
 32
0.0
 14
0.0
 24
0.0
 34
0.0
 15
0.0
 25
0.0
 35
0.0
146
0.0
 13
0.0
 23
0.0
 33
0.0
 16
1.0
 26
0.0
 36
0.0
 17
0.0
 27
1.0
 37
0.0
 76
     0
330
23
  0
LAYOUT
  5
22
102
{ACAD_REACTORS
330
1A
102
}
330
1A
100
AcDbPlotSettings
  1

  2
none_device
  4

  6

 40
0.0
 41
0.0
 42
0.0
 43
0.0
 44
0.0
 45
0.0
 46
0.0
 47
0.0
 48
0.0
 49
0.0
140
0.0
141
0.0
142
1.0
143
1.0
 70
  1712
 72
     0
 73
     0
 74
     0
  7

 75
     0
 76
     0
 77
     2
 78
   300
147
1.0
148
0.0
149
0.0
100
AcDbLayout
  1
Model
 70
     1
 71
     0
 10
0.0
 20
0.0
 11
12.0
 21
9.0
 12
0.0
 22
0.0
 32
0.0
 14
1.000000000000000E+20
 24
1.000000000000000E+20
 34
1.000000000000000E+20
 15
-1.000000000000000E+20
 25
-1.000000000000000E+20
 35
-1.000000000000000E+20
146
0.0
 13
0.0
 23
0.0
 33
0.0
 16
1.0
 26
0.0
 36
0.0
 17
0.0
 27
1.0
 37
0.0
 76
     0
330
1F
331
29
  0
MATERIAL
  5
3D
102
{ACAD_REACTORS
330
3B
102
}
330
3B
100
AcDbMaterial
  1
ByBlock
 72
     1
 94
      127
  0
MATERIAL
  5
3C
102
{ACAD_REACTORS
330
3B
102
}
330
3B
100
AcDbMaterial
  1
ByLayer
 72
     1
 94
      127
  0
MATERIAL
  5
3E
102
{ACAD_REACTORS
330
3B
102
}
330
3B
100
AcDbMaterial
  1
Global
 72
     1
 94
      127
  0
MLINESTYLE
  5
18
102
{ACAD_REACTORS
330
17
102
}
330
17
100
AcDbMlineStyle
  2
Standard
 70
     0
  3

 62
   256
 51
90.0
 52
90.0
 71
     2
 49
0.5
 62
   256
  6
BYLAYER
 49
-0.5
 62
   256
  6
BYLAYER
  0
ACDBPLACEHOLDER
  5
F
102
{ACAD_REACTORS
330
E
102
}
330
E
  0
VISUALSTYLE
  5
2F
102
{ACAD_REACTORS
330
2A
102
}
330
2A
100
AcDbVisualStyle
  2
2dWireframe
 70
     4
177
     2
291
     0
 71
     0
176
     1
 72
     2
176
     1
 73
     0
176
     1
 90
        0
176
     1
 40
-0.6
176
     1
 41
-30.0
176
     1
 62
     5
 63
     7
421
 16777215
176
     1
 74
     1
176
     1
 91
        4
176
     1
 64
     7
176
     1
 65
   257
176
     1
 75
     1
176
     1
175
     1
176
     1
 42
1.0
176
     1
 92
        0
176
     1
 66
   257
176
     1
 43
1.0
176
     1
 76
     1
176
     1
 77
     6
176
     1
 78
     2
176
     1
 67
     7
176
     1
 79
     5
176
     1
170
     0
176
     1
171
     0
176
     1
290
     0
176
     1
 93
        1
176
     1
 44
0.0
176
     1
173
     0
176
     1
  0
VISUALSTYLE
  5
31
102
{ACAD_REACTORS
330
2A
102
}
330
2A
100
AcDbVisualStyle
  2
3D Hidden
 70
     6
177
     2
291
     0
 71
     1
176
     1
 72
     2
176
     1
 73
     2
176
     1
 90
        0
176
     1
 40
-0.6
176
     1
 41
-30.0
176
     1
 62
     5
 63
     7
421
 16777215
176
     1
 74
     2
176
     1
 91
        2
176
     1
 64
     7
176
     1
 65
   257
176
     1
 75
     2
176
     1
175
     1
176
     1
 42
40.0
176
     1
 92
        0
176
     1
 66
   257
176
     1
 43
1.0
176
     1
 76
     1
176
     1
 77
     6
176
     1
 78
     2
176
     1
 67
     7
176
     1
 79
     3
176
     1
170
     0
176
     1
171
     0
176
     1
290
     0
176
     1
 93
        1
176
     1
 44
0.0
176
     1
173
     0
176
     1
  0
VISUALSTYLE
  5
30
102
{ACAD_REACTORS
330
2A
102
}
330
2A
100
AcDbVisualStyle
  2
3dWireframe
 70
     5
177
     2
291
     0
 71
     0
176
     1
 72
     2
176
     1
 73
     0
176
     1
 90
        0
176
     1
 40
-0.6
176
     1
 41
-30.0
176
     1
 62
     5
 63
     7
421
 16777215
176
     1
 74
     1
176
     1
 91
        4
176
     1
 64
     7
176
     1
 65
   257
176
     1
 75
     1
176
     1
175
     1
176
     1
 42
1.0
176
     1
 92
        0
176
     1
 66
   257
176
     1
 43
1.0
176
     1
 76
     1
176
     1
 77
     6
176
     1
 78
     2
176
     1
 67
     7
176
     1
 79
     5
176
     1
170
     0
176
     1
171
     0
176
     1
290
     0
176
     1
 93
        1
176
     1
 44
0.0
176
     1
173
     0
176
     1
  0
VISUALSTYLE
  5
32
102
{ACAD_REACTORS
330
2A
102
}
330
2A
100
AcDbVisualStyle
  2
Basic
 70
     7
177
     2
291
     1
 71
     1
176
     1
 72
     0
176
     1
 73
     1
176
     1
 90
        0
176
     1
 40
-0.6
176
     1
 41
-30.0
176
     1
 62
     5
 63
     7
421
 16777215
176
     1
 74
     0
176
     1
 91
        4
176
     1
 64
     7
176
     1
 65
   257
176
     1
 75
     1
176
     1
175
     1
176
     1
 42
1.0
176
     1
 92
        8
176
     1
 66
     7
176
     1
 43
1.0
176
     1
 76
     1
176
     1
 77
     6
176
     1
 78
     2
176
     1
 67
     7
176
     1
 79
     5
176
     1
170
     0
176
     1
171
     0
176
     1
290
     0
176
     1
 93
        1
176
     1
 44
0.0
176
     1
173
     0
176
     1
  0
VISUALSTYLE
  5
36
102
{ACAD_REACTORS
330
2A
102
}
330
2A
100
AcDbVisualStyle
  2
Brighten
 70
    12
177
     2
291
     1
 71
     2
176
     1
 72
     2
176
     1
 73
     0
176
     1
 90
        0
176
     1
 40
-0.6
176
     1
 41
-30.0
176
     1
 62
     5
 63
     7
421
 16777215
176
     1
 74
     1
176
     1
 91
        4
176
     1
 64
     7
176
     1
 65
   257
176
     1
 75
     1
176
     1
175
     1
176
     1
 42
1.0
176
     1
 92
        8
176
     1
 66
     7
176
     1
 43
1.0
176
     1
 76
     1
176
     1
 77
     6
176
     1
 78
     2
176
     1
 67
     7
176
     1
 79
     5
176
     1
170
     0
176
     1
171
     0
176
     1
290
     0
176
     1
 93
        1
176
     1
 44
50.0
176
     1
173
     0
176
     1
  0
VISUALSTYLE
  5
3A
102
{ACAD_REACTORS
330
2A
102
}
330
2A
100
AcDbVisualStyle
  2
ColorChange
 70
    16
177
     2
291
     1
 71
     2
176
     1
 72
     2
176
     1
 73
     3
176
     1
 90
        0
176
     1
 40
-0.6
176
     1
 41
-30.0
176
     1
 62
     5
 63
     8
421
  8421504
176
     1
 74
     1
176
     1
 91
        4
176
     1
 64
     7
176
     1
 65
   257
176
     1
 75
     1
176
     1
175
     1
176
     1
 42
1.0
176
     1
 92
        8
176
     1
 66
     8
424
  8421504
176
     1
 43
1.0
176
     1
 76
     1
176
     1
 77
     6
176
     1
 78
     2
176
     1
 67
     7
176
     1
 79
     5
176
     1
170
     0
176
     1
171
     0
176
     1
290
     0
176
     1
 93
        1
176
     1
 44
0.0
176
     1
173
     0
176
     1
  0
VISUALSTYLE
  5
34
102
{ACAD_REACTORS
330
2A
102
}
330
2A
100
AcDbVisualStyle
  2
Conceptual
 70
     9
177
     2
291
     0
 71
     3
176
     1
 72
     2
176
     1
 73
     0
176
     1
 90
        0
176
     1
 40
-0.6
176
     1
 41
-30.0
176
     1
 62
     5
 63
     7
421
 16777215
176
     1
 74
     2
176
     1
 91
        2
176
     1
 64
     7
176
     1
 65
   257
176
     1
 75
     1
176
     1
175
     1
176
     1
 42
40.0
176
     1
 92
        8
176
     1
 66
     7
176
     1
 43
1.0
176
     1
 76
     1
176
     1
 77
     6
176
     1
 78
     2
176
     1
 67
     7
176
     1
 79
     3
176
     1
170
     0
176
     1
171
     0
176
     1
290
     0
176
     1
 93
        1
176
     1
 44
0.0
176
     1
173
     0
176
     1
  0
VISUALSTYLE
  5
35
102
{ACAD_REACTORS
330
2A
102
}
330
2A
100
AcDbVisualStyle
  2
Dim
 70
    11
177
     2
291
     1
 71
     2
176
     1
 72
     2
176
     1
 73
     0
176
     1
 90
        0
176
     1
 40
-0.6
176
     1
 41
-30.0
176
     1
 62
     5
 63
     7
421
 16777215
176
     1
 74
     1
176
     1
 91
        4
176
     1
 64
     7
176
     1
 65
   257
176
     1
 75
     1
176
     1
175
     1
176
     1
 42
1.0
176
     1
 92
        8
176
     1
 66
     7
176
     1
 43
1.0
176
     1
 76
     1
176
     1
 77
     6
176
     1
 78
     2
176
     1
 67
     7
176
     1
 79
     5
176
     1
170
     0
176
     1
171
     0
176
     1
290
     0
176
     1
 93
        1
176
     1
 44
-50.0
176
     1
173
     0
176
     1
  0
VISUALSTYLE
  5
39
102
{ACAD_REACTORS
330
2A
102
}
330
2A
100
AcDbVisualStyle
  2
Facepattern
 70
    15
177
     2
291
     1
 71
     2
176
     1
 72
     2
176
     1
 73
     0
176
     1
 90
        0
176
     1
 40
-0.6
176
     1
 41
-30.0
176
     1
 62
     5
 63
     7
421
 16777215
176
     1
 74
     1
176
     1
 91
        4
176
     1
 64
     7
176
     1
 65
   257
176
     1
 75
     1
176
     1
175
     1
176
     1
 42
1.0
176
     1
 92
        8
176
     1
 66
     7
176
     1
 43
1.0
176
     1
 76
     1
176
     1
 77
     6
176
     1
 78
     2
176
     1
 67
     7
176
     1
 79
     5
176
     1
170
     0
176
     1
171
     0
176
     1
290
     0
176
     1
 93
        1
176
     1
 44
0.0
176
     1
173
     0
176
     1
  0
VISUALSTYLE
  5
2B
102
{ACAD_REACTORS
330
2A
102
}
330
2A
100
AcDbVisualStyle
  2
Flat
 70
     0
177
     2
291
     1
 71
     2
176
     1
 72
     1
176
     1
 73
     1
176
     1
 90
        2
176
     1
 40
-0.6
176
     1
 41
30.0
176
     1
 62
     5
 63
     7
421
 16777215
176
     1
 74
     0
176
     1
 91
        4
176
     1
 64
     7
176
     1
 65
   257
176
     1
 75
     1
176
     1
175
     1
176
     1
 42
1.0
176
     1
 92
        8
176
     1
 66
     7
176
     1
 43
1.0
176
     1
 76
     1
176
     1
 77
     6
176
     1
 78
     2
176
     1
 67
     7
176
     1
 79
     5
176
     1
170
     0
176
     1
171
     0
176
     1
290
     0
176
     1
 93
       13
176
     1
 44
0.0
176
     1
173
     0
176
     1
  0
VISUALSTYLE
  5
2C
102
{ACAD_REACTORS
330
2A
102
}
330
2A
100
AcDbVisualStyle
  2
FlatWithEdges
 70
     1
177
     2
291
     1
 71
     2
176
     1
 72
     1
176
     1
 73
     1
176
     1
 90
        2
176
     1
 40
-0.6
176
     1
 41
30.0
176
     1
 62
     5
 63
     7
421
 16777215
176
     1
 74
     1
176
     1
 91
        4
176
     1
 64
     7
176
     1
 65
   257
176
     1
 75
     1
176
     1
175
     1
176
     1
 42
1.0
176
     1
 92
        0
176
     1
 66
   257
176
     1
 43
1.0
176
     1
 76
     1
176
     1
 77
     6
176
     1
 78
     2
176
     1
 67
     7
176
     1
 79
     5
176
     1
170
     0
176
     1
171
     0
176
     1
290
     0
176
     1
 93
       13
176
     1
 44
0.0
176
     1
173
     0
176
     1
  0
VISUALSTYLE
  5
2D
102
{ACAD_REACTORS
330
2A
102
}
330
2A
100
AcDbVisualStyle
  2
Gouraud
 70
     2
177
     2
291
     1
 71
     2
176
     1
 72
     2
176
     1
 73
     1
176
     1
 90
        2
176
     1
 40
-0.6
176
     1
 41
30.0
176
     1
 62
     5
 63
     7
421
 16777215
176
     1
 74
     0
176
     1
 91
        4
176
     1
 64
     7
176
     1
 65
   257
176
     1
 75
     1
176
     1
175
     1
176
     1
 42
1.0
176
     1
 92
        0
176
     1
 66
     7
176
     1
 43
1.0
176
     1
 76
     1
176
     1
 77
     6
176
     1
 78
     2
176
     1
 67
     7
176
     1
 79
     5
176
     1
170
     0
176
     1
171
     0
176
     1
290
     0
176
     1
 93
       13
176
     1
 44
0.0
176
     1
173
     0
176
     1
  0
VISUALSTYLE
  5
2E
102
{ACAD_REACTORS
330
2A
102
}
330
2A
100
AcDbVisualStyle
  2
GouraudWithEdges
 70
     3
177
     2
291
     1
 71
     2
176
     1
 72
     2
176
     1
 73
     1
176
     1
 90
        2
176
     1
 40
-0.6
176
     1
 41
30.0
176
     1
 62
     5
 63
     7
421
 16777215
176
     1
 74
     1
176
     1
 91
        4
176
     1
 64
     7
176
     1
 65
   257
176
     1
 75
     1
176
     1
175
     1
176
     1
 42
1.0
176
     1
 92
        0
176
     1
 66
   257
176
     1
 43
1.0
176
     1
 76
     1
176
     1
 77
     6
176
     1
 78
     2
176
     1
 67
     7
176
     1
 79
     5
176
     1
170
     0
176
     1
171
     0
176
     1
290
     0
176
     1
 93
       13
176
     1
 44
0.0
176
     1
173
     0
176
     1
  0
VISUALSTYLE
  5
38
102
{ACAD_REACTORS
330
2A
102
}
330
2A
100
AcDbVisualStyle
  2
Linepattern
 70
    14
177
     2
291
     1
 71
     2
176
     1
 72
     2
176
     1
 73
     0
176
     1
 90
        0
176
     1
 40
-0.6
176
     1
 41
-30.0
176
     1
 62
     5
 63
     7
421
 16777215
176
     1
 74
     1
176
     1
 91
        4
176
     1
 64
     7
176
     1
 65
   257
176
     1
 75
     7
176
     1
175
     7
176
     1
 42
1.0
176
     1
 92
        8
176
     1
 66
     7
176
     1
 43
1.0
176
     1
 76
     1
176
     1
 77
     6
176
     1
 78
     2
176
     1
 67
     7
176
     1
 79
     5
176
     1
170
     0
176
     1
171
     0
176
     1
290
     0
176
     1
 93
        1
176
     1
 44
0.0
176
     1
173
     0
176
     1
  0
VISUALSTYLE
  5
33
102
{ACAD_REACTORS
330
2A
102
}
330
2A
100
AcDbVisualStyle
  2
Realistic
 70
     8
177
     2
291
     0
 71
     2
176
     1
 72
     2
176
     1
 73
     0
176
     1
 90
        0
176
     1
 40
-0.6
176
     1
 41
-30.0
176
     1
 62
     5
 63
     7
421
 16777215
176
     1
 74
     1
176
     1
 91
        0
176
     1
 64
     7
176
     1
 65
   257
176
     1
 75
     1
176
     1
175
     1
176
     1
 42
1.0
176
     1
 92
        8
176
     1
 66
     8
424
  7895160
176
     1
 43
1.0
176
     1
 76
     1
176
     1
 77
     6
176
     1
 78
     2
176
     1
 67
     7
176
     1
 79
     5
176
     1
170
     0
176
     1
171
     0
176
     1
290
     0
176
     1
 93
       13
176
     1
 44
0.0
176
     1
173
     0
176
     1
  0
VISUALSTYLE
  5
37
102
{ACAD_REACTORS
330
2A
102
}
330
2A
100
AcDbVisualStyle
  2
Thicken
 70
    13
177
     2
291
     1
 71
     2
176
     1
 72
     2
176
     1
 73
     0
176
     1
 90
        0
176
     1
 40
-0.6
176
     1
 41
-30.0
176
     1
 62
     5
 63
     7
421
 16777215
176
     1
 74
     1
176
     1
 91
        4
176
     1
 64
     7
176
     1
 65
   257
176
     1
 75
     1
176
     1
175
     1
176
     1
 42
1.0
176
     1
 92
       12
176
     1
 66
     7
176
     1
 43
1.0
176
     1
 76
     1
176
     1
 77
     6
176
     1
 78
     2
176
     1
 67
     7
176
     1
 79
     5
176
     1
170
     0
176
     1
171
     0
176
     1
290
     0
176
     1
 93
        1
176
     1
 44
0.0
176
     1
173
     0
176
     1
  0
ENDSEC
  0
EOF
