  0
SECTION
  2
HEADER
  9
$ACADVER
  1
AC1024
  9
$ACADMAINTVER
 70
     6
  9
$DWGCODEPAGE
  3
UNDEFINED
  9
$INSBASE
 10
0.0
 20
0.0
 30
0.0
  9
$EXTMIN
 10
1.000000000000000E+20
 20
1.000000000000000E+20
 30
1.000000000000000E+20
  9
$EXTMAX
 10
-1.000000000000000E+20
 20
-1.000000000000000E+20
 30
-1.000000000000000E+20
  9
$LIMMIN
 10
0.0
 20
0.0
  9
$LIMMAX
 10
12.0
 20
9.0
  9
$ORTHOMODE
 70
     0
  9
$REGENMODE
 70
     1
  9
$FILLMODE
 70
     1
  9
$QTEXTMODE
 70
     0
  9
$MIRRTEXT
 70
     1
  9
$LTSCALE
 40
1.0
  9
$ATTMODE
 70
     1
  9
$TEXTSIZE
 40
0.2
  9
$TRACEWID
 40
0.05
  9
$TEXTSTYLE
  7
Standard
  9
$CLAYER
  8
0
  9
$CELTYPE
  6
ByLayer
  9
$CECOLOR
 62
   256
  9
$CELTSCALE
 40
1.0
  9
$DISPSILH
 70
     0
  9
$DIMSCALE
 40
1.0
  9
$DIMASZ
 40
0.18
  9
$DIMEXO
 40
0.0625
  9
$DIMDLI
 40
0.38
  9
$DIMRND
 40
0.0
  9
$DIMDLE
 40
0.0
  9
$DIMEXE
 40
0.18
  9
$DIMTP
 40
0.0
  9
$DIMTM
 40
0.0
  9
$DIMTXT
 40
0.18
  9
$DIMCEN
 40
0.09
  9
$DIMTSZ
 40
0.0
  9
$DIMTOL
 70
     0
  9
$DIMLIM
 70
     0
  9
$DIMTIH
 70
     1
  9
$DIMTOH
 70
     1
  9
$DIMSE1
 70
     0
  9
$DIMSE2
 70
     0
  9
$DIMTAD
 70
     0
  9
$DIMZIN
 70
     0
  9
$DIMBLK
  1

  9
$DIMASO
 70
     1
  9
$DIMSHO
 70
     1
  9
$DIMPOST
  1

  9
$DIMAPOST
  1

  9
$DIMALT
 70
     0
  9
$DIMALTD
 70
     2
  9
$DIMALTF
 40
25.4
  9
$DIMLFAC
 40
1.0
  9
$DIMTOFL
 70
     0
  9
$DIMTVP
 40
0.0
  9
$DIMTIX
 70
     0
  9
$DIMSOXD
 70
     0
  9
$DIMSAH
 70
     0
  9
$DIMBLK1
  1

  9
$DIMBLK2
  1

  9
$DIMSTYLE
  2
Standard
  9
$DIMCLRD
 70
     0
  9
$DIMCLRE
 70
     0
  9
$DIMCLRT
 70
     0
  9
$DIMTFAC
 40
1.0
  9
$DIMGAP
 40
0.09
  9
$DIMJUST
 70
     0
  9
$DIMSD1
 70
     0
  9
$DIMSD2
 70
     0
  9
$DIMTOLJ
 70
     1
  9
$DIMTZIN
 70
     0
  9
$DIMALTZ
 70
     0
  9
$DIMALTTZ
 70
     0
  9
$DIMUPT
 70
     0
  9
$DIMDEC
 70
     4
  9
$DIMTDEC
 70
     4
  9
$DIMALTU
 70
     2
  9
$DIMALTTD
 70
     2
  9
$DIMTXSTY
  7
Standard
  9
$DIMAUNIT
 70
     0
  9
$DIMADEC
 70
     0
  9
$DIMALTRND
 40
0.0
  9
$DIMAZIN
 70
     0
  9
$DIMDSEP
 70
    46
  9
$DIMATFIT
 70
     3
  9
$DIMFRAC
 70
     0
  9
$DIMLDRBLK
  1

  9
$DIMLUNIT
 70
     2
  9
$DIMLWD
 70
    -2
  9
$DIMLWE
 70
    -2
  9
$DIMTMOVE
 70
     0
  9
$DIMFXL
 40
1.0
  9
$DIMFXLON
 70
     0
  9
$DIMJOGANG
 40
0.7853981633974483
  9
$DIMTFILL
 70
     0
  9
$DIMTFILLCLR
 70
     0
  9
$DIMARCSYM
 70
     0
  9
$DIMLTYPE
  6

  9
$DIMLTEX1
  6

  9
$DIMLTEX2
  6

  9
$DIMTXTDIRECTION
 70
     0
  9
$LUNITS
 70
     2
  9
$LUPREC
 70
     4
  9
$SKETCHINC
 40
0.1
  9
$FILLETRAD
 40
0.5
  9
$AUNITS
 70
     0
  9
$AUPREC
 70
     0
  9
$MENU
  1
.
  9
$ELEVATION
 40
0.0
  9
$PELEVATION
 40
0.0
  9
$THICKNESS
 40
0.0
  9
$LIMCHECK
 70
     0
  9
$CHAMFERA
 40
0.5
  9
$CHAMFERB
 40
0.5
  9
$CHAMFERC
 40
1.0
  9
$CHAMFERD
 40
0.0
  9
$SKPOLY
 70
     0
  9
$TDCREATE
 40
2457917.616921296
  9
$TDUCREATE
 40
2457917.241921296
  9
$TDUPDATE
 40
2457917.616921296
  9
$TDUUPDATE
 40
2457917.241921296
  9
$TDINDWG
 40
0.0000000116
  9
$TDUSRTIMER
 40
0.0000000116
  9
$USRTIMER
 70
     1
  9
$ANGBASE
 50
0.0
  9
$ANGDIR
 70
     0
  9
$PDMODE
 70
     0
  9
$PDSIZE
 40
0.0
  9
$PLINEWID
 40
0.0
  9
$SPLFRAME
 70
     0
  9
$SPLINETYPE
 70
     6
  9
$SPLINESEGS
 70
     8
  9
$HANDSEED
  5
D0
  9
$SURFTAB1
 70
     6
  9
$SURFTAB2
 70
     6
  9
$SURFTYPE
 70
     6
  9
$SURFU
 70
     6
  9
$SURFV
 70
     6
  9
$UCSBASE
  2

  9
$UCSNAME
  2

  9
$UCSORG
 10
0.0
 20
0.0
 30
0.0
  9
$UCSXDIR
 10
1.0
 20
0.0
 30
0.0
  9
$UCSYDIR
 10
0.0
 20
1.0
 30
0.0
  9
$UCSORTHOREF
  2

  9
$UCSORTHOVIEW
 70
     0
  9
$UCSORGTOP
 10
0.0
 20
0.0
 30
0.0
  9
$UCSORGBOTTOM
 10
0.0
 20
0.0
 30
0.0
  9
$UCSORGLEFT
 10
0.0
 20
0.0
 30
0.0
  9
$UCSORGRIGHT
 10
0.0
 20
0.0
 30
0.0
  9
$UCSORGFRONT
 10
0.0
 20
0.0
 30
0.0
  9
$UCSORGBACK
 10
0.0
 20
0.0
 30
0.0
  9
$PUCSBASE
  2

  9
$PUCSNAME
  2

  9
$PUCSORG
 10
0.0
 20
0.0
 30
0.0
  9
$PUCSXDIR
 10
1.0
 20
0.0
 30
0.0
  9
$PUCSYDIR
 10
0.0
 20
1.0
 30
0.0
  9
$PUCSORTHOREF
  2

  9
$PUCSORTHOVIEW
 70
     0
  9
$PUCSORGTOP
 10
0.0
 20
0.0
 30
0.0
  9
$PUCSORGBOTTOM
 10
0.0
 20
0.0
 30
0.0
  9
$PUCSORGLEFT
 10
0.0
 20
0.0
 30
0.0
  9
$PUCSORGRIGHT
 10
0.0
 20
0.0
 30
0.0
  9
$PUCSORGFRONT
 10
0.0
 20
0.0
 30
0.0
  9
$PUCSORGBACK
 10
0.0
 20
0.0
 30
0.0
  9
$USERI1
 70
     0
  9
$USERI2
 70
     0
  9
$USERI3
 70
     0
  9
$USERI4
 70
     0
  9
$USERI5
 70
     0
  9
$USERR1
 40
0.0
  9
$USERR2
 40
0.0
  9
$USERR3
 40
0.0
  9
$USERR4
 40
0.0
  9
$USERR5
 40
0.0
  9
$WORLDVIEW
 70
     1
  9
$SHADEDGE
 70
     3
  9
$SHADEDIF
 70
    70
  9
$TILEMODE
 70
     1
  9
$MAXACTVP
 70
    64
  9
$PINSBASE
 10
0.0
 20
0.0
 30
0.0
  9
$PLIMCHECK
 70
     0
  9
$PEXTMIN
 10
1.000000000000000E+20
 20
1.000000000000000E+20
 30
1.000000000000000E+20
  9
$PEXTMAX
 10
-1.000000000000000E+20
 20
-1.000000000000000E+20
 30
-1.000000000000000E+20
  9
$PLIMMIN
 10
0.0
 20
0.0
  9
$PLIMMAX
 10
12.0
 20
9.0
  9
$UNITMODE
 70
     0
  9
$VISRETAIN
 70
     1
  9
$PLINEGEN
 70
     0
  9
$PSLTSCALE
 70
     1
  9
$TREEDEPTH
 70
  3020
  9
$CMLSTYLE
  2
Standard
  9
$CMLJUST
 70
     0
  9
$CMLSCALE
 40
1.0
  9
$PROXYGRAPHICS
 70
     1
  9
$MEASUREMENT
 70
     0
  9
$CELWEIGHT
370
    -1
  9
$ENDCAPS
280
     0
  9
$JOINSTYLE
280
     0
  9
$LWDISPLAY
290
     1
  9
$INSUNITS
 70
     1
  9
$HYPERLINKBASE
  1

  9
$STYLESHEET
  1

  9
$XEDIT
290
     1
  9
$CEPSNTYPE
380
     0
  9
$PSTYLEMODE
290
     1
  9
$FINGERPRINTGUID
  2
{1E67371C-1292-6FF0-FBA1-6FE3F1BEBDE0}
  9
$VERSIONGUID
  2
{FAEB1C32-E019-11D5-929B-00C0DF256EC4}
  9
$EXTNAMES
290
     1
  9
$PSVPSCALE
 40
0.0
  9
$OLESTARTUP
290
     0
  9
$SORTENTS
280
   127
  9
$INDEXCTL
280
     0
  9
$HIDETEXT
280
     1
  9
$XCLIPFRAME
280
     2
  9
$HALOGAP
280
     0
  9
$OBSCOLOR
 70
   257
  9
$OBSLTYPE
280
     0
  9
$INTERSECTIONDISPLAY
280
     0
  9
$INTERSECTIONCOLOR
 70
   257
  9
$DIMASSOC
280
     2
  9
$PROJECTNAME
  1

  9
$CAMERADISPLAY
290
     0
  9
$LENSLENGTH
 40
50.0
  9
$CAMERAHEIGHT
 40
0.0
  9
$STEPSPERSEC
 40
2.0
  9
$STEPSIZE
 40
6.0
  9
$3DDWFPREC
 40
2.0
  9
$PSOLWIDTH
 40
0.25
  9
$PSOLHEIGHT
 40
4.0
  9
$LOFTANG1
 40
1.570796326794897
  9
$LOFTANG2
 40
1.570796326794897
  9
$LOFTMAG1
 40
0.0
  9
$LOFTMAG2
 40
0.0
  9
$LOFTPARAM
 70
     7
  9
$LOFTNORMALS
280
     1
  9
$LATITUDE
 40
37.795
  9
$LONGITUDE
 40
-122.394
  9
$NORTHDIRECTION
 40
0.0
  9
$TIMEZONE
 70
 -8000
  9
$LIGHTGLYPHDISPLAY
280
     1
  9
$TILEMODELIGHTSYNCH
280
     1
  9
$CMATERIAL
347
3C
  9
$SOLIDHIST
280
     1
  9
$SHOWHIST
280
     1
  9
$DWFFRAME
280
     2
  9
$DGNFRAME
280
     2
  9
$REALWORLDSCALE
290
     1
  9
$INTERFERECOLOR
 62
   256
  9
$CSHADOW
280
     0
  9
$SHADOWPLANELOCATION
 40
0.0
  0
ENDSEC
  0
SECTION
  2
CLASSES
  0
CLASS
  1
ACDBDICTIONARYWDFLT
  2
AcDbDictionaryWithDefault
  3
ObjectDBX Classes
 90
        0
 91
        4
280
     0
281
     0
  0
CLASS
  1
VISUALSTYLE
  2
AcDbVisualStyle
  3
ObjectDBX Classes
 90
     4095
 91
        4
280
     0
281
     0
  0
CLASS
  1
MATERIAL
  2
AcDbMaterial
  3
ObjectDBX Classes
 90
     1153
 91
        4
280
     0
281
     0
  0
CLASS
  1
SUN
  2
AcDbSun
  3
SCENEOE
 90
     1024
 91
        4
280
     0
281
     0
  0
ENDSEC
  0
SECTION
  2
TABLES
  0
TABLE
  2
VPORT
  5
8
330
0
100
AcDbSymbolTable
 70
     1
  0
VPORT
  5
29
330
8
100
AcDbSymbolTableRecord
100
AcDbViewportTableRecord
  2
*Active
 70
     0
 10
0.0
 20
0.0
 11
1.0
 21
1.0
 12
0.0
 22
0.0
 13
0.0
 23
0.0
 14
0.5
 24
0.5
 15
0.5
 25
0.5
 16
0.0
 26
0.0
 36
1.0
 17
91.00082462281999
 27
-128.4993055234307
 37
0.0
 40
256.9986110468615
 41
0.7081814508812795
 42
50.0
 43
0.0
 44
0.0
 50
0.0
 51
0.0
 71
     0
 72
   100
 73
     1
 74
     3
 75
     0
 76
     0
 77
     0
 78
     0
281
     0
 65
     1
110
0.0
120
0.0
130
0.0
111
1.0
121
0.0
131
0.0
112
0.0
122
1.0
132
0.0
 79
     0
146
0.0
 60
     3
 61
     5
292
     1
282
     1
141
0.0
142
0.0
 63
   250
361
3F
  0
ENDTAB
  0
TABLE
  2
LTYPE
  5
5
330
0
100
AcDbSymbolTable
 70
     1
  0
LTYPE
  5
14
330
5
100
AcDbSymbolTableRecord
100
AcDbLinetypeTableRecord
  2
ByBlock
 70
     0
  3

 72
    65
 73
     0
 40
0.0
  0
LTYPE
  5
15
330
5
100
AcDbSymbolTableRecord
100
AcDbLinetypeTableRecord
  2
ByLayer
 70
     0
  3

 72
    65
 73
     0
 40
0.0
  0
LTYPE
  5
16
330
5
100
AcDbSymbolTableRecord
100
AcDbLinetypeTableRecord
  2
Continuous
 70
     0
  3
Solid line
 72
    65
 73
     0
 40
0.0
  0
ENDTAB
  0
TABLE
  2
LAYER
  5
2
330
0
100
AcDbSymbolTable
 70
     2
  0
LAYER
  5
10
330
2
100
AcDbSymbolTableRecord
100
AcDbLayerTableRecord
  2
0
 70
     0
 62
     7
  6
Continuous
370
    -3
390
F
347
3E
  0
LAYER
  5
40
330
2
100
AcDbSymbolTableRecord
100
AcDbLayerTableRecord
  2
_U+30EC_U+30A4_U+30E4_U+30FC 1
 70
     0
 62
     7
  6
Continuous
370
    -3
390
F
347
3E
  0
ENDTAB
  0
TABLE
  2
STYLE
  5
3
330
0
100
AcDbSymbolTable
 70
     1
  0
STYLE
  5
11
330
3
100
AcDbSymbolTableRecord
100
AcDbTextStyleTableRecord
  2
Standard
 70
     0
 40
0.0
 41
1.0
 50
0.0
 71
     0
 42
0.2
  3
txt
  4

  0
ENDTAB
  0
TABLE
  2
VIEW
  5
6
330
0
100
AcDbSymbolTable
 70
     0
  0
ENDTAB
  0
TABLE
  2
UCS
  5
7
330
0
100
AcDbSymbolTable
 70
     0
  0
ENDTAB
  0
TABLE
  2
APPID
  5
9
330
0
100
AcDbSymbolTable
 70
     1
  0
APPID
  5
12
330
9
100
AcDbSymbolTableRecord
100
AcDbRegAppTableRecord
  2
ACAD
 70
     0
  0
ENDTAB
  0
TABLE
  2
DIMSTYLE
  5
A
330
0
100
AcDbSymbolTable
 70
     1
100
AcDbDimStyleTable
  0
DIMSTYLE
105
27
330
A
100
AcDbSymbolTableRecord
100
AcDbDimStyleTableRecord
  2
Standard
 70
     0
178
     0
340
11
  0
ENDTAB
  0
TABLE
  2
BLOCK_RECORD
  5
1
330
0
100
AcDbSymbolTable
 70
     9
  0
BLOCK_RECORD
  5
1F
330
1
100
AcDbSymbolTableRecord
100
AcDbBlockTableRecord
  2
*Model_Space
340
22
 70
     0
280
     1
281
     0
  0
BLOCK_RECORD
  5
1B
330
1
100
AcDbSymbolTableRecord
100
AcDbBlockTableRecord
  2
*Paper_Space
340
1E
 70
     0
280
     1
281
     0
  0
BLOCK_RECORD
  5
23
330
1
100
AcDbSymbolTableRecord
100
AcDbBlockTableRecord
  2
*Paper_Space0
340
26
 70
     0
280
     1
281
     0
  0
BLOCK_RECORD
  5
41
330
1
100
AcDbSymbolTableRecord
100
AcDbBlockTableRecord
  2
block 2
340
0
102
{BLKREFS
331
42
102
}
 70
     0
280
     1
281
     0
  0
BLOCK_RECORD
  5
55
330
1
100
AcDbSymbolTableRecord
100
AcDbBlockTableRecord
  2
block 3
340
0
102
{BLKREFS
331
56
102
}
 70
     0
280
     1
281
     0
  0
BLOCK_RECORD
  5
71
330
1
100
AcDbSymbolTableRecord
100
AcDbBlockTableRecord
  2
block 4
340
0
102
{BLKREFS
331
72
102
}
 70
     0
280
     1
281
     0
  0
BLOCK_RECORD
  5
7A
330
1
100
AcDbSymbolTableRecord
100
AcDbBlockTableRecord
  2
block 5
340
0
102
{BLKREFS
331
7B
102
}
 70
     0
280
     1
281
     0
  0
BLOCK_RECORD
  5
80
330
1
100
AcDbSymbolTableRecord
100
AcDbBlockTableRecord
  2
block 6
340
0
102
{BLKREFS
331
81
102
}
 70
     0
280
     1
281
     0
  0
BLOCK_RECORD
  5
99
330
1
100
AcDbSymbolTableRecord
100
AcDbBlockTableRecord
  2
block 7
340
0
102
{BLKREFS
331
9A
102
}
 70
     0
280
     1
281
     0
  0
BLOCK_RECORD
  5
A2
330
1
100
AcDbSymbolTableRecord
100
AcDbBlockTableRecord
  2
block 8
340
0
102
{BLKREFS
331
A3
102
}
 70
     0
280
     1
281
     0
  0
BLOCK_RECORD
  5
B6
330
1
100
AcDbSymbolTableRecord
100
AcDbBlockTableRecord
  2
block 9
340
0
102
{BLKREFS
331
B7
102
}
 70
     0
280
     1
281
     0
  0
ENDTAB
  0
ENDSEC
  0
SECTION
  2
BLOCKS
  0
BLOCK
  5
20
330
1F
100
AcDbEntity
  8
0
100
AcDbBlockBegin
  2
*Model_Space
 70
     0
 10
0.0
 20
0.0
 30
0.0
  3
*Model_Space
  1

  0
ENDBLK
  5
21
330
1F
100
AcDbEntity
  8
0
100
AcDbBlockEnd
  0
BLOCK
  5
1C
330
1B
100
AcDbEntity
 67
     1
  8
0
100
AcDbBlockBegin
  2
*Paper_Space
 70
     0
 10
0.0
 20
0.0
 30
0.0
  3
*Paper_Space
  1

  0
ENDBLK
  5
1D
330
1B
100
AcDbEntity
 67
     1
  8
0
100
AcDbBlockEnd
  0
BLOCK
  5
24
330
23
100
AcDbEntity
  8
0
100
AcDbBlockBegin
  2
*Paper_Space0
 70
     0
 10
0.0
 20
0.0
 30
0.0
  3
*Paper_Space0
  1

  0
ENDBLK
  5
25
330
23
100
AcDbEntity
  8
0
100
AcDbBlockEnd
  0
BLOCK
  5
43
330
41
100
AcDbEntity
  8
0
100
AcDbBlockBegin
  2
block 2
 70
     0
 10
0.0
 20
0.0
 30
0.0
  3
block 2
  1

  0
POLYLINE
  5
45
330
41
100
AcDbEntity
  8
_U+30EC_U+30A4_U+30E4_U+30FC 1
370
     0
100
AcDb2dPolyline
 66
     1
 10
0.0
 20
0.0
 30
0.0
  0
VERTEX
  5
46
330
45
100
AcDbEntity
  8
_U+30EC_U+30A4_U+30E4_U+30FC 1
370
     0
100
AcDbVertex
100
AcDb2dVertex
 10
79.64801269023214
 20
-134.6074763552372
 30
0.0
  0
VERTEX
  5
47
330
45
100
AcDbEntity
  8
_U+30EC_U+30A4_U+30E4_U+30FC 1
370
     0
100
AcDbVertex
100
AcDb2dVertex
 10
76.91363220443644
 20
-134.6074763552372
 30
0.0
  0
VERTEX
  5
48
330
45
100
AcDbEntity
  8
_U+30EC_U+30A4_U+30E4_U+30FC 1
370
     0
100
AcDbVertex
100
AcDb2dVertex
 10
76.91363220443644
 20
-122.8748283026146
 30
0.0
  0
VERTEX
  5
49
330
45
100
AcDbEntity
  8
_U+30EC_U+30A4_U+30E4_U+30FC 1
370
     0
100
AcDbVertex
100
AcDb2dVertex
 10
105.9135875756971
 20
-122.8748283026146
 30
0.0
  0
VERTEX
  5
4A
330
45
100
AcDbEntity
  8
_U+30EC_U+30A4_U+30E4_U+30FC 1
370
     0
100
AcDbVertex
100
AcDb2dVertex
 10
105.9132700757051
 20
-121.610508025153
 30
0.0
  0
VERTEX
  5
4B
330
45
100
AcDbEntity
  8
_U+30EC_U+30A4_U+30E4_U+30FC 1
370
     0
100
AcDbVertex
100
AcDb2dVertex
 10
75.64860831442115
 20
-121.610508025153
 30
0.0
  0
VERTEX
  5
4C
330
45
100
AcDbEntity
  8
_U+30EC_U+30A4_U+30E4_U+30FC 1
370
     0
100
AcDbVertex
100
AcDb2dVertex
 10
75.64860831442115
 20
-134.6074763552372
 30
0.0
  0
VERTEX
  5
4D
330
45
100
AcDbEntity
  8
_U+30EC_U+30A4_U+30E4_U+30FC 1
370
     0
100
AcDbVertex
100
AcDb2dVertex
 10
71.72963344780237
 20
-134.6074763552372
 30
0.0
  0
VERTEX
  5
4E
330
45
100
AcDbEntity
  8
_U+30EC_U+30A4_U+30E4_U+30FC 1
370
     0
100
AcDbVertex
100
AcDb2dVertex
 10
70.45995276016289
 20
-135.8717966326987
 30
0.0
  0
VERTEX
  5
4F
330
45
100
AcDbEntity
  8
_U+30EC_U+30A4_U+30E4_U+30FC 1
370
     0
100
AcDbVertex
100
AcDb2dVertex
 10
80.91272099130006
 20
-135.8717966326987
 30
0.0
  0
VERTEX
  5
50
330
45
100
AcDbEntity
  8
_U+30EC_U+30A4_U+30E4_U+30FC 1
370
     0
100
AcDbVertex
100
AcDb2dVertex
 10
80.91272099130006
 20
-132.6072263557372
 30
0.0
  0
VERTEX
  5
51
330
45
100
AcDbEntity
  8
_U+30EC_U+30A4_U+30E4_U+30FC 1
370
     0
100
AcDbVertex
100
AcDb2dVertex
 10
79.64801269023214
 20
-132.6072263557372
 30
0.0
  0
VERTEX
  5
52
330
45
100
AcDbEntity
  8
_U+30EC_U+30A4_U+30E4_U+30FC 1
370
     0
100
AcDbVertex
100
AcDb2dVertex
 10
79.64801269023214
 20
-134.6074763552372
 30
0.0
  0
SEQEND
  5
53
330
45
100
AcDbEntity
  8
_U+30EC_U+30A4_U+30E4_U+30FC 1
370
     0
  0
HATCH
  5
54
330
41
100
AcDbEntity
  8
_U+30EC_U+30A4_U+30E4_U+30FC 1
 62
     9
420
 13224394
100
AcDbHatch
 10
0.0
 20
0.0
 30
0.0
210
0.0
220
0.0
230
1.0
  2
SOLID
 70
     1
 71
     0
 91
        1
 92
        1
 93
       12
 72
     1
 10
79.64801269023214
 20
-134.6074763552372
 11
76.91363220443644
 21
-134.6074763552372
 72
     1
 10
76.91363220443644
 20
-134.6074763552372
 11
76.91363220443644
 21
-122.8748283026146
 72
     1
 10
76.91363220443644
 20
-122.8748283026146
 11
105.9135875756971
 21
-122.8748283026146
 72
     1
 10
105.9135875756971
 20
-122.8748283026146
 11
105.9132700757051
 21
-121.610508025153
 72
     1
 10
105.9132700757051
 20
-121.610508025153
 11
75.64860831442115
 21
-121.610508025153
 72
     1
 10
75.64860831442115
 20
-121.610508025153
 11
75.64860831442115
 21
-134.6074763552372
 72
     1
 10
75.64860831442115
 20
-134.6074763552372
 11
71.72963344780237
 21
-134.6074763552372
 72
     1
 10
71.72963344780237
 20
-134.6074763552372
 11
70.45995276016289
 21
-135.8717966326987
 72
     1
 10
70.45995276016289
 20
-135.8717966326987
 11
80.91272099130006
 21
-135.8717966326987
 72
     1
 10
80.91272099130006
 20
-135.8717966326987
 11
80.91272099130006
 21
-132.6072263557372
 72
     1
 10
80.91272099130006
 20
-132.6072263557372
 11
79.64801269023214
 21
-132.6072263557372
 72
     1
 10
79.64801269023214
 20
-132.6072263557372
 11
79.64801269023214
 21
-134.6074763552372
 97
        0
 75
     2
 76
     1
 98
        0
  0
INSERT
  5
56
330
41
100
AcDbEntity
  8
_U+30EC_U+30A4_U+30E4_U+30FC 1
100
AcDbBlockReference
  2
block 3
 10
0.0
 20
0.0
 30
0.0
  0
ENDBLK
  5
44
330
41
100
AcDbEntity
  8
0
100
AcDbBlockEnd
  0
BLOCK
  5
57
330
55
100
AcDbEntity
  8
0
100
AcDbBlockBegin
  2
block 3
 70
     0
 10
0.0
 20
0.0
 30
0.0
  3
block 3
  1

  0
SPLINE
  5
59
330
55
100
AcDbEntity
  8
_U+30EC_U+30A4_U+30E4_U+30FC 1
 62
   179
420
  2234388
370
     9
100
AcDbSpline
210
0.0
220
0.0
230
1.0
 70
    11
 71
     3
 72
    17
 73
    13
 74
     0
 42
0.0000000001
 43
0.0000000001
 12
1.0
 22
0.0
 32
0.0
 13
1.0
 23
0.0
 33
0.0
 40
0.0
 40
0.0
 40
0.0
 40
0.0
 40
1.0
 40
1.0
 40
1.0
 40
2.0
 40
2.0
 40
2.0
 40
3.0
 40
3.0
 40
3.0
 40
4.0
 40
4.0
 40
4.0
 40
4.0
 10
108.455386677517
 20
-135.7395049660651
 30
0.0
 10
108.455386677517
 20
-135.7946441327182
 30
0.0
 10
108.5001894541518
 20
-135.8394116327068
 30
0.0
 10
108.5552933416349
 20
-135.8394116327068
 30
0.0
 10
108.6104325068948
 20
-135.8394116327068
 30
0.0
 10
108.6552027506139
 20
-135.7946441327182
 30
0.0
 10
108.6552027506139
 20
-135.7395049660651
 30
0.0
 10
108.6552027506139
 20
-135.6844010771902
 30
0.0
 10
108.6104325068948
 20
-135.6395982994235
 30
0.0
 10
108.5552933416349
 20
-135.6395982994235
 30
0.0
 10
108.5001894541518
 20
-135.6395982994235
 30
0.0
 10
108.455386677517
 20
-135.6844010771902
 30
0.0
 10
108.455386677517
 20
-135.7395049660651
 30
0.0
  0
SPLINE
  5
5A
330
55
100
AcDbEntity
  8
_U+30EC_U+30A4_U+30E4_U+30FC 1
 62
   179
420
  2234388
370
     9
100
AcDbSpline
210
0.0
220
0.0
230
1.0
 70
    11
 71
     3
 72
    17
 73
    13
 74
     0
 42
0.0000000001
 43
0.0000000001
 12
1.0
 22
0.0
 32
0.0
 13
1.0
 23
0.0
 33
0.0
 40
0.0
 40
0.0
 40
0.0
 40
0.0
 40
1.0
 40
1.0
 40
1.0
 40
2.0
 40
2.0
 40
2.0
 40
3.0
 40
3.0
 40
3.0
 40
4.0
 40
4.0
 40
4.0
 40
4.0
 10
108.455386677517
 20
-122.5427233026977
 30
0.0
 10
108.455386677517
 20
-122.5978624693505
 30
0.0
 10
108.5001894541518
 20
-122.6426299693394
 30
0.0
 10
108.5552933416349
 20
-122.6426299693394
 30
0.0
 10
108.6104325068948
 20
-122.6426299693394
 30
0.0
 10
108.6552027506139
 20
-122.5978624693505
 30
0.0
 10
108.6552027506139
 20
-122.5427233026977
 30
0.0
 10
108.6552027506139
 20
-122.4869138582673
 30
0.0
 10
108.6104325068948
 20
-122.4421463582784
 30
0.0
 10
108.5552933416349
 20
-122.4421463582784
 30
0.0
 10
108.5001894541518
 20
-122.4421463582784
 30
0.0
 10
108.455386677517
 20
-122.4869138582673
 30
0.0
 10
108.455386677517
 20
-122.5427233026977
 30
0.0
  0
POLYLINE
  5
5B
330
55
100
AcDbEntity
  8
_U+30EC_U+30A4_U+30E4_U+30FC 1
 62
   179
420
  2234388
370
     9
100
AcDb2dPolyline
 66
     1
 10
0.0
 20
0.0
 30
0.0
  0
VERTEX
  5
5C
330
5B
100
AcDbEntity
  8
_U+30EC_U+30A4_U+30E4_U+30FC 1
 62
   179
420
  2234388
370
     9
100
AcDbVertex
100
AcDb2dVertex
 10
108.5552933416349
 20
-117.9721344149514
 30
0.0
  0
VERTEX
  5
5D
330
5B
100
AcDbEntity
  8
_U+30EC_U+30A4_U+30E4_U+30FC 1
 62
   179
420
  2234388
370
     9
100
AcDbVertex
100
AcDb2dVertex
 10
108.5552933416349
 20
-135.7395049660651
 30
0.0
  0
SEQEND
  5
5E
330
5B
100
AcDbEntity
  8
_U+30EC_U+30A4_U+30E4_U+30FC 1
 62
   179
420
  2234388
370
     9
  0
POLYLINE
  5
5F
330
55
100
AcDbEntity
  8
_U+30EC_U+30A4_U+30E4_U+30FC 1
 62
   179
420
  2234388
370
     9
100
AcDb2dPolyline
 66
     1
 10
0.0
 20
0.0
 30
0.0
  0
VERTEX
  5
60
330
5F
100
AcDbEntity
  8
_U+30EC_U+30A4_U+30E4_U+30FC 1
 62
   179
420
  2234388
370
     9
100
AcDbVertex
100
AcDb2dVertex
 10
106.9312808830669
 20
-122.5427233026977
 30
0.0
  0
VERTEX
  5
61
330
5F
100
AcDbEntity
  8
_U+30EC_U+30A4_U+30E4_U+30FC 1
 62
   179
420
  2234388
370
     9
100
AcDbVertex
100
AcDb2dVertex
 10
109.5550655383508
 20
-122.5427233026977
 30
0.0
  0
SEQEND
  5
62
330
5F
100
AcDbEntity
  8
_U+30EC_U+30A4_U+30E4_U+30FC 1
 62
   179
420
  2234388
370
     9
  0
SPLINE
  5
63
330
55
100
AcDbEntity
  8
_U+30EC_U+30A4_U+30E4_U+30FC 1
 62
   179
420
  2234388
370
     9
100
AcDbSpline
210
0.0
220
0.0
230
1.0
 70
    11
 71
     3
 72
    17
 73
    13
 74
     0
 42
0.0000000001
 43
0.0000000001
 12
1.0
 22
0.0
 32
0.0
 13
1.0
 23
0.0
 33
0.0
 40
0.0
 40
0.0
 40
0.0
 40
0.0
 40
1.0
 40
1.0
 40
1.0
 40
2.0
 40
2.0
 40
2.0
 40
3.0
 40
3.0
 40
3.0
 40
4.0
 40
4.0
 40
4.0
 40
4.0
 10
108.455386677517
 20
-121.7427996917866
 30
0.0
 10
108.455386677517
 20
-121.7979035806615
 30
0.0
 10
108.5001894541518
 20
-121.8427063584283
 30
0.0
 10
108.5552933416349
 20
-121.8427063584283
 30
0.0
 10
108.6104325068948
 20
-121.8427063584283
 30
0.0
 10
108.6552027506139
 20
-121.7979035806615
 30
0.0
 10
108.6552027506139
 20
-121.7427996917866
 30
0.0
 10
108.6552027506139
 20
-121.6869902473562
 30
0.0
 10
108.6104325068948
 20
-121.6421874695895
 30
0.0
 10
108.5552933416349
 20
-121.6421874695895
 30
0.0
 10
108.5001894541518
 20
-121.6421874695895
 30
0.0
 10
108.455386677517
 20
-121.6869902473562
 30
0.0
 10
108.455386677517
 20
-121.7427996917866
 30
0.0
  0
POLYLINE
  5
64
330
55
100
AcDbEntity
  8
_U+30EC_U+30A4_U+30E4_U+30FC 1
 62
   179
420
  2234388
370
     9
100
AcDb2dPolyline
 66
     1
 10
0.0
 20
0.0
 30
0.0
  0
VERTEX
  5
65
330
64
100
AcDbEntity
  8
_U+30EC_U+30A4_U+30E4_U+30FC 1
 62
   179
420
  2234388
370
     9
100
AcDbVertex
100
AcDb2dVertex
 10
106.9312808830669
 20
-121.7427996917866
 30
0.0
  0
VERTEX
  5
66
330
64
100
AcDbEntity
  8
_U+30EC_U+30A4_U+30E4_U+30FC 1
 62
   179
420
  2234388
370
     9
100
AcDbVertex
100
AcDb2dVertex
 10
109.5550655383508
 20
-121.7427996917866
 30
0.0
  0
SEQEND
  5
67
330
64
100
AcDbEntity
  8
_U+30EC_U+30A4_U+30E4_U+30FC 1
 62
   179
420
  2234388
370
     9
  0
POLYLINE
  5
68
330
55
100
AcDbEntity
  8
_U+30EC_U+30A4_U+30E4_U+30FC 1
 62
   179
420
  2234388
370
     9
100
AcDb2dPolyline
 66
     1
 10
0.0
 20
0.0
 30
0.0
  0
VERTEX
  5
69
330
68
100
AcDbEntity
  8
_U+30EC_U+30A4_U+30E4_U+30FC 1
 62
   179
420
  2234388
370
     9
100
AcDbVertex
100
AcDb2dVertex
 10
81.93041429866989
 20
-135.7395049660651
 30
0.0
  0
VERTEX
  5
6A
330
68
100
AcDbEntity
  8
_U+30EC_U+30A4_U+30E4_U+30FC 1
 62
   179
420
  2234388
370
     9
100
AcDbVertex
100
AcDb2dVertex
 10
109.5550655383508
 20
-135.7395049660651
 30
0.0
  0
SEQEND
  5
6B
330
68
100
AcDbEntity
  8
_U+30EC_U+30A4_U+30E4_U+30FC 1
 62
   179
420
  2234388
370
     9
  0
SPLINE
  5
6C
330
55
100
AcDbEntity
  8
_U+30EC_U+30A4_U+30E4_U+30FC 1
 62
   179
420
  2234388
370
     9
100
AcDbSpline
210
0.0
220
0.0
230
1.0
 70
    11
 71
     3
 72
    17
 73
    13
 74
     0
 42
0.0000000001
 43
0.0000000001
 12
1.0
 22
0.0
 32
0.0
 13
1.0
 23
0.0
 33
0.0
 40
0.0
 40
0.0
 40
0.0
 40
0.0
 40
1.0
 40
1.0
 40
1.0
 40
2.0
 40
2.0
 40
2.0
 40
3.0
 40
3.0
 40
3.0
 40
4.0
 40
4.0
 40
4.0
 40
4.0
 10
108.455386677517
 20
-132.7395180223708
 30
0.0
 10
108.455386677517
 20
-132.7946571890239
 30
0.0
 10
108.5001894541518
 20
-132.8394246890124
 30
0.0
 10
108.5552933416349
 20
-132.8394246890124
 30
0.0
 10
108.6104325068948
 20
-132.8394246890124
 30
0.0
 10
108.6552027506139
 20
-132.7946571890239
 30
0.0
 10
108.6552027506139
 20
-132.7395180223708
 30
0.0
 10
108.6552027506139
 20
-132.6844141334959
 30
0.0
 10
108.6104325068948
 20
-132.6396113557292
 30
0.0
 10
108.5552933416349
 20
-132.6396113557292
 30
0.0
 10
108.5001894541518
 20
-132.6396113557292
 30
0.0
 10
108.455386677517
 20
-132.6844141334959
 30
0.0
 10
108.455386677517
 20
-132.7395180223708
 30
0.0
  0
POLYLINE
  5
6D
330
55
100
AcDbEntity
  8
_U+30EC_U+30A4_U+30E4_U+30FC 1
 62
   179
420
  2234388
370
     9
100
AcDb2dPolyline
 66
     1
 10
0.0
 20
0.0
 30
0.0
  0
VERTEX
  5
6E
330
6D
100
AcDbEntity
  8
_U+30EC_U+30A4_U+30E4_U+30FC 1
 62
   179
420
  2234388
370
     9
100
AcDbVertex
100
AcDb2dVertex
 10
81.93041429866989
 20
-132.7395180223708
 30
0.0
  0
VERTEX
  5
6F
330
6D
100
AcDbEntity
  8
_U+30EC_U+30A4_U+30E4_U+30FC 1
 62
   179
420
  2234388
370
     9
100
AcDbVertex
100
AcDb2dVertex
 10
109.5550655383508
 20
-132.7395180223708
 30
0.0
  0
SEQEND
  5
70
330
6D
100
AcDbEntity
  8
_U+30EC_U+30A4_U+30E4_U+30FC 1
 62
   179
420
  2234388
370
     9
  0
INSERT
  5
72
330
55
100
AcDbEntity
  8
_U+30EC_U+30A4_U+30E4_U+30FC 1
100
AcDbBlockReference
  2
block 4
 10
0.0
 20
0.0
 30
0.0
  0
INSERT
  5
7B
330
55
100
AcDbEntity
  8
_U+30EC_U+30A4_U+30E4_U+30FC 1
100
AcDbBlockReference
  2
block 5
 10
0.0
 20
0.0
 30
0.0
  0
INSERT
  5
81
330
55
100
AcDbEntity
  8
_U+30EC_U+30A4_U+30E4_U+30FC 1
100
AcDbBlockReference
  2
block 6
 10
0.0
 20
0.0
 30
0.0
  0
POLYLINE
  5
86
330
55
100
AcDbEntity
  8
_U+30EC_U+30A4_U+30E4_U+30FC 1
 62
   179
420
  2234388
370
     9
100
AcDb2dPolyline
 66
     1
 10
0.0
 20
0.0
 30
0.0
  0
VERTEX
  5
87
330
86
100
AcDbEntity
  8
_U+30EC_U+30A4_U+30E4_U+30FC 1
 62
   179
420
  2234388
370
     9
100
AcDbVertex
100
AcDb2dVertex
 10
105.7812959124054
 20
-118.9625933035927
 30
0.0
  0
VERTEX
  5
88
330
86
100
AcDbEntity
  8
_U+30EC_U+30A4_U+30E4_U+30FC 1
 62
   179
420
  2234388
370
     9
100
AcDbVertex
100
AcDb2dVertex
 10
70.76242263914465
 20
-118.9625933035927
 30
0.0
  0
SEQEND
  5
89
330
86
100
AcDbEntity
  8
_U+30EC_U+30A4_U+30E4_U+30FC 1
 62
   179
420
  2234388
370
     9
  0
SPLINE
  5
8A
330
55
100
AcDbEntity
  8
_U+30EC_U+30A4_U+30E4_U+30FC 1
 62
   179
420
  2234388
370
     9
100
AcDbSpline
210
0.0
220
0.0
230
1.0
 70
    11
 71
     3
 72
    17
 73
    13
 74
     0
 42
0.0000000001
 43
0.0000000001
 12
1.0
 22
0.0
 32
0.0
 13
1.0
 23
0.0
 33
0.0
 40
0.0
 40
0.0
 40
0.0
 40
0.0
 40
1.0
 40
1.0
 40
1.0
 40
2.0
 40
2.0
 40
2.0
 40
3.0
 40
3.0
 40
3.0
 40
4.0
 40
4.0
 40
4.0
 40
4.0
 10
75.78125275883251
 20
-118.8626866369511
 30
0.0
 10
75.72611167917705
 20
-118.8626866369511
 30
0.0
 10
75.68134418031917
 20
-118.9074541369397
 30
0.0
 10
75.68134418031917
 20
-118.9625933035927
 30
0.0
 10
75.68134418031917
 20
-119.0176971924677
 30
0.0
 10
75.72611167917705
 20
-119.0624999702344
 30
0.0
 10
75.78125275883251
 20
-119.0624999702344
 30
0.0
 10
75.83635473192007
 20
-119.0624999702344
 30
0.0
 10
75.88115750855484
 20
-119.0176971924677
 30
0.0
 10
75.88115750855484
 20
-118.9625933035927
 30
0.0
 10
75.88115750855484
 20
-118.9074541369397
 30
0.0
 10
75.83635473192007
 20
-118.8626866369511
 30
0.0
 10
75.78125275883251
 20
-118.8626866369511
 30
0.0
  0
POLYLINE
  5
8B
330
55
100
AcDbEntity
  8
_U+30EC_U+30A4_U+30E4_U+30FC 1
 62
   179
420
  2234388
370
     9
100
AcDb2dPolyline
 66
     1
 10
0.0
 20
0.0
 30
0.0
  0
VERTEX
  5
8C
330
8B
100
AcDbEntity
  8
_U+30EC_U+30A4_U+30E4_U+30FC 1
 62
   179
420
  2234388
370
     9
100
AcDbVertex
100
AcDb2dVertex
 10
75.78125275883251
 20
-117.5023755261798
 30
0.0
  0
VERTEX
  5
8D
330
8B
100
AcDbEntity
  8
_U+30EC_U+30A4_U+30E4_U+30FC 1
 62
   179
420
  2234388
370
     9
100
AcDbVertex
100
AcDb2dVertex
 10
75.78125275883251
 20
-120.2427885810504
 30
0.0
  0
SEQEND
  5
8E
330
8B
100
AcDbEntity
  8
_U+30EC_U+30A4_U+30E4_U+30FC 1
 62
   179
420
  2234388
370
     9
  0
SPLINE
  5
8F
330
55
100
AcDbEntity
  8
_U+30EC_U+30A4_U+30E4_U+30FC 1
 62
   179
420
  2234388
370
     9
100
AcDbSpline
210
0.0
220
0.0
230
1.0
 70
    11
 71
     3
 72
    17
 73
    13
 74
     0
 42
0.0000000001
 43
0.0000000001
 12
1.0
 22
0.0
 32
0.0
 13
1.0
 23
0.0
 33
0.0
 40
0.0
 40
0.0
 40
0.0
 40
0.0
 40
1.0
 40
1.0
 40
1.0
 40
2.0
 40
2.0
 40
2.0
 40
3.0
 40
3.0
 40
3.0
 40
4.0
 40
4.0
 40
4.0
 40
4.0
 10
70.781366805328
 20
-118.8626866369511
 30
0.0
 10
70.72626291784493
 20
-118.8626866369511
 30
0.0
 10
70.68146014121017
 20
-118.9074541369397
 30
0.0
 10
70.68146014121017
 20
-118.9625933035927
 30
0.0
 10
70.68146014121017
 20
-119.0176971924677
 30
0.0
 10
70.72626291784493
 20
-119.0624999702344
 30
0.0
 10
70.781366805328
 20
-119.0624999702344
 30
0.0
 10
70.83650597058795
 20
-119.0624999702344
 30
0.0
 10
70.88127346944584
 20
-119.0176971924677
 30
0.0
 10
70.88127346944584
 20
-118.9625933035927
 30
0.0
 10
70.88127346944584
 20
-118.9074541369397
 30
0.0
 10
70.83650597058795
 20
-118.8626866369511
 30
0.0
 10
70.781366805328
 20
-118.8626866369511
 30
0.0
  0
POLYLINE
  5
90
330
55
100
AcDbEntity
  8
_U+30EC_U+30A4_U+30E4_U+30FC 1
 62
   179
420
  2234388
370
     9
100
AcDb2dPolyline
 66
     1
 10
0.0
 20
0.0
 30
0.0
  0
VERTEX
  5
91
330
90
100
AcDbEntity
  8
_U+30EC_U+30A4_U+30E4_U+30FC 1
 62
   179
420
  2234388
370
     9
100
AcDbVertex
100
AcDb2dVertex
 10
70.781366805328
 20
-117.5023755261798
 30
0.0
  0
VERTEX
  5
92
330
90
100
AcDbEntity
  8
_U+30EC_U+30A4_U+30E4_U+30FC 1
 62
   179
420
  2234388
370
     9
100
AcDbVertex
100
AcDb2dVertex
 10
70.781366805328
 20
-120.2427885810504
 30
0.0
  0
SEQEND
  5
93
330
90
100
AcDbEntity
  8
_U+30EC_U+30A4_U+30E4_U+30FC 1
 62
   179
420
  2234388
370
     9
  0
SPLINE
  5
94
330
55
100
AcDbEntity
  8
_U+30EC_U+30A4_U+30E4_U+30FC 1
 62
   179
420
  2234388
370
     9
100
AcDbSpline
210
0.0
220
0.0
230
1.0
 70
    11
 71
     3
 72
    17
 73
    13
 74
     0
 42
0.0000000001
 43
0.0000000001
 12
1.0
 22
0.0
 32
0.0
 13
1.0
 23
0.0
 33
0.0
 40
0.0
 40
0.0
 40
0.0
 40
0.0
 40
1.0
 40
1.0
 40
1.0
 40
2.0
 40
2.0
 40
2.0
 40
3.0
 40
3.0
 40
3.0
 40
4.0
 40
4.0
 40
4.0
 40
4.0
 10
105.7812959124054
 20
-118.8626866369511
 30
0.0
 10
105.7261920249224
 20
-118.8626866369511
 30
0.0
 10
105.6813892482876
 20
-118.9074541369397
 30
0.0
 10
105.6813892482876
 20
-118.9625933035927
 30
0.0
 10
105.6813892482876
 20
-119.0176971924677
 30
0.0
 10
105.7261920249224
 20
-119.0624999702344
 30
0.0
 10
105.7812959124054
 20
-119.0624999702344
 30
0.0
 10
105.8364350776654
 20
-119.0624999702344
 30
0.0
 10
105.8812025765233
 20
-119.0176971924677
 30
0.0
 10
105.8812025765233
 20
-118.9625933035927
 30
0.0
 10
105.8812025765233
 20
-118.9074541369397
 30
0.0
 10
105.8364350776654
 20
-118.8626866369511
 30
0.0
 10
105.7812959124054
 20
-118.8626866369511
 30
0.0
  0
POLYLINE
  5
95
330
55
100
AcDbEntity
  8
_U+30EC_U+30A4_U+30E4_U+30FC 1
 62
   179
420
  2234388
370
     9
100
AcDb2dPolyline
 66
     1
 10
0.0
 20
0.0
 30
0.0
  0
VERTEX
  5
96
330
95
100
AcDbEntity
  8
_U+30EC_U+30A4_U+30E4_U+30FC 1
 62
   179
420
  2234388
370
     9
100
AcDbVertex
100
AcDb2dVertex
 10
105.7812959124054
 20
-117.5023755261798
 30
0.0
  0
VERTEX
  5
97
330
95
100
AcDbEntity
  8
_U+30EC_U+30A4_U+30E4_U+30FC 1
 62
   179
420
  2234388
370
     9
100
AcDbVertex
100
AcDb2dVertex
 10
105.7812959124054
 20
-120.2427885810504
 30
0.0
  0
SEQEND
  5
98
330
95
100
AcDbEntity
  8
_U+30EC_U+30A4_U+30E4_U+30FC 1
 62
   179
420
  2234388
370
     9
  0
INSERT
  5
9A
330
55
100
AcDbEntity
  8
_U+30EC_U+30A4_U+30E4_U+30FC 1
100
AcDbBlockReference
  2
block 7
 10
0.0
 20
0.0
 30
0.0
  0
INSERT
  5
A3
330
55
100
AcDbEntity
  8
_U+30EC_U+30A4_U+30E4_U+30FC 1
100
AcDbBlockReference
  2
block 8
 10
0.0
 20
0.0
 30
0.0
  0
SPLINE
  5
A8
330
55
100
AcDbEntity
  8
_U+30EC_U+30A4_U+30E4_U+30FC 1
 62
   179
420
  2234388
370
     9
100
AcDbSpline
210
0.0
220
0.0
230
1.0
 70
    11
 71
     3
 72
    17
 73
    13
 74
     0
 42
0.0000000001
 43
0.0000000001
 12
1.0
 22
0.0
 32
0.0
 13
1.0
 23
0.0
 33
0.0
 40
0.0
 40
0.0
 40
0.0
 40
0.0
 40
1.0
 40
1.0
 40
1.0
 40
2.0
 40
2.0
 40
2.0
 40
3.0
 40
3.0
 40
3.0
 40
4.0
 40
4.0
 40
4.0
 40
4.0
 10
70.86232930326248
 20
-139.7585610761712
 30
0.0
 10
70.86232930326248
 20
-139.7034571872963
 30
0.0
 10
70.81756180440459
 20
-139.6586544095296
 30
0.0
 10
70.76175236138397
 20
-139.6586544095296
 30
0.0
 10
70.70661319612401
 20
-139.6586544095296
 30
0.0
 10
70.66184569726613
 20
-139.7034571872963
 30
0.0
 10
70.66184569726613
 20
-139.7585610761712
 30
0.0
 10
70.66184569726613
 20
-139.8137002428243
 30
0.0
 10
70.70661319612401
 20
-139.8584677428128
 30
0.0
 10
70.76175236138397
 20
-139.8584677428128
 30
0.0
 10
70.81756180440459
 20
-139.8584677428128
 30
0.0
 10
70.86232930326248
 20
-139.8137002428243
 30
0.0
 10
70.86232930326248
 20
-139.7585610761712
 30
0.0
  0
POLYLINE
  5
A9
330
55
100
AcDbEntity
  8
_U+30EC_U+30A4_U+30E4_U+30FC 1
 62
   179
420
  2234388
370
     9
100
AcDb2dPolyline
 66
     1
 10
0.0
 20
0.0
 30
0.0
  0
VERTEX
  5
AA
330
A9
100
AcDbEntity
  8
_U+30EC_U+30A4_U+30E4_U+30FC 1
 62
   179
420
  2234388
370
     9
100
AcDbVertex
100
AcDb2dVertex
 10
70.76175236138397
 20
-139.7585610761712
 30
0.0
  0
VERTEX
  5
AB
330
A9
100
AcDbEntity
  8
_U+30EC_U+30A4_U+30E4_U+30FC 1
 62
   179
420
  2234388
370
     9
100
AcDbVertex
100
AcDb2dVertex
 10
80.76148516182508
 20
-139.7585610761712
 30
0.0
  0
SEQEND
  5
AC
330
A9
100
AcDbEntity
  8
_U+30EC_U+30A4_U+30E4_U+30FC 1
 62
   179
420
  2234388
370
     9
  0
POLYLINE
  5
AD
330
55
100
AcDbEntity
  8
_U+30EC_U+30A4_U+30E4_U+30FC 1
 62
   179
420
  2234388
370
     9
100
AcDb2dPolyline
 66
     1
 10
0.0
 20
0.0
 30
0.0
  0
VERTEX
  5
AE
330
AD
100
AcDbEntity
  8
_U+30EC_U+30A4_U+30E4_U+30FC 1
 62
   179
420
  2234388
370
     9
100
AcDbVertex
100
AcDb2dVertex
 10
70.76175236138397
 20
-137.2980771878976
 30
0.0
  0
VERTEX
  5
AF
330
AD
100
AcDbEntity
  8
_U+30EC_U+30A4_U+30E4_U+30FC 1
 62
   179
420
  2234388
370
     9
100
AcDbVertex
100
AcDb2dVertex
 10
70.76175236138397
 20
-140.7583332981438
 30
0.0
  0
SEQEND
  5
B0
330
AD
100
AcDbEntity
  8
_U+30EC_U+30A4_U+30E4_U+30FC 1
 62
   179
420
  2234388
370
     9
  0
SPLINE
  5
B1
330
55
100
AcDbEntity
  8
_U+30EC_U+30A4_U+30E4_U+30FC 1
 62
   179
420
  2234388
370
     9
100
AcDbSpline
210
0.0
220
0.0
230
1.0
 70
    11
 71
     3
 72
    17
 73
    13
 74
     0
 42
0.0000000001
 43
0.0000000001
 12
1.0
 22
0.0
 32
0.0
 13
1.0
 23
0.0
 33
0.0
 40
0.0
 40
0.0
 40
0.0
 40
0.0
 40
1.0
 40
1.0
 40
1.0
 40
2.0
 40
2.0
 40
2.0
 40
3.0
 40
3.0
 40
3.0
 40
4.0
 40
4.0
 40
4.0
 40
4.0
 10
80.8620621037036
 20
-139.7585610761712
 30
0.0
 10
80.8620621037036
 20
-139.7034571872963
 30
0.0
 10
80.81729460484571
 20
-139.6586544095296
 30
0.0
 10
80.76148516182508
 20
-139.6586544095296
 30
0.0
 10
80.70634599656513
 20
-139.6586544095296
 30
0.0
 10
80.66158053539014
 20
-139.7034571872963
 30
0.0
 10
80.66158053539014
 20
-139.7585610761712
 30
0.0
 10
80.66158053539014
 20
-139.8137002428243
 30
0.0
 10
80.70634599656513
 20
-139.8584677428128
 30
0.0
 10
80.76148516182508
 20
-139.8584677428128
 30
0.0
 10
80.81729460484571
 20
-139.8584677428128
 30
0.0
 10
80.8620621037036
 20
-139.8137002428243
 30
0.0
 10
80.8620621037036
 20
-139.7585610761712
 30
0.0
  0
POLYLINE
  5
B2
330
55
100
AcDbEntity
  8
_U+30EC_U+30A4_U+30E4_U+30FC 1
 62
   179
420
  2234388
370
     9
100
AcDb2dPolyline
 66
     1
 10
0.0
 20
0.0
 30
0.0
  0
VERTEX
  5
B3
330
B2
100
AcDbEntity
  8
_U+30EC_U+30A4_U+30E4_U+30FC 1
 62
   179
420
  2234388
370
     9
100
AcDbVertex
100
AcDb2dVertex
 10
80.76148516182508
 20
-137.2980771878976
 30
0.0
  0
VERTEX
  5
B4
330
B2
100
AcDbEntity
  8
_U+30EC_U+30A4_U+30E4_U+30FC 1
 62
   179
420
  2234388
370
     9
100
AcDbVertex
100
AcDb2dVertex
 10
80.76148516182508
 20
-140.7583332981438
 30
0.0
  0
SEQEND
  5
B5
330
B2
100
AcDbEntity
  8
_U+30EC_U+30A4_U+30E4_U+30FC 1
 62
   179
420
  2234388
370
     9
  0
INSERT
  5
B7
330
55
100
AcDbEntity
  8
_U+30EC_U+30A4_U+30E4_U+30FC 1
100
AcDbBlockReference
  2
block 9
 10
0.0
 20
0.0
 30
0.0
  0
POLYLINE
  5
BF
330
55
100
AcDbEntity
  8
_U+30EC_U+30A4_U+30E4_U+30FC 1
 62
   179
420
  2234388
370
    25
100
AcDb2dPolyline
 66
     1
 10
0.0
 20
0.0
 30
0.0
  0
VERTEX
  5
C0
330
BF
100
AcDbEntity
  8
_U+30EC_U+30A4_U+30E4_U+30FC 1
 62
   179
420
  2234388
370
    25
100
AcDbVertex
100
AcDb2dVertex
 10
79.78030435352376
 20
-134.7397680218708
 30
0.0
  0
VERTEX
  5
C1
330
BF
100
AcDbEntity
  8
_U+30EC_U+30A4_U+30E4_U+30FC 1
 62
   179
420
  2234388
370
    25
100
AcDbVertex
100
AcDb2dVertex
 10
76.78134054114481
 20
-134.7397680218708
 30
0.0
  0
VERTEX
  5
C2
330
BF
100
AcDbEntity
  8
_U+30EC_U+30A4_U+30E4_U+30FC 1
 62
   179
420
  2234388
370
    25
100
AcDbVertex
100
AcDb2dVertex
 10
76.78134054114481
 20
-122.742536635981
 30
0.0
  0
VERTEX
  5
C3
330
BF
100
AcDbEntity
  8
_U+30EC_U+30A4_U+30E4_U+30FC 1
 62
   179
420
  2234388
370
    25
100
AcDbVertex
100
AcDb2dVertex
 10
105.7812959124054
 20
-122.742536635981
 30
0.0
  0
VERTEX
  5
C4
330
BF
100
AcDbEntity
  8
_U+30EC_U+30A4_U+30E4_U+30FC 1
 62
   179
420
  2234388
370
    25
100
AcDbVertex
100
AcDb2dVertex
 10
105.7809784124135
 20
-121.7427996917866
 30
0.0
  0
VERTEX
  5
C5
330
BF
100
AcDbEntity
  8
_U+30EC_U+30A4_U+30E4_U+30FC 1
 62
   179
420
  2234388
370
    25
100
AcDbVertex
100
AcDb2dVertex
 10
75.78089998105474
 20
-121.7427996917866
 30
0.0
  0
VERTEX
  5
C6
330
BF
100
AcDbEntity
  8
_U+30EC_U+30A4_U+30E4_U+30FC 1
 62
   179
420
  2234388
370
    25
100
AcDbVertex
100
AcDb2dVertex
 10
75.78089998105474
 20
-134.7397680218708
 30
0.0
  0
VERTEX
  5
C7
330
BF
100
AcDbEntity
  8
_U+30EC_U+30A4_U+30E4_U+30FC 1
 62
   179
420
  2234388
370
    25
100
AcDbVertex
100
AcDb2dVertex
 10
71.78424344640915
 20
-134.7397680218708
 30
0.0
  0
VERTEX
  5
C8
330
BF
100
AcDbEntity
  8
_U+30EC_U+30A4_U+30E4_U+30FC 1
 62
   179
420
  2234388
370
    25
100
AcDbVertex
100
AcDb2dVertex
 10
70.78034374979855
 20
-135.7395049660651
 30
0.0
  0
VERTEX
  5
C9
330
BF
100
AcDbEntity
  8
_U+30EC_U+30A4_U+30E4_U+30FC 1
 62
   179
420
  2234388
370
    25
100
AcDbVertex
100
AcDb2dVertex
 10
80.78042932800844
 20
-135.7395049660651
 30
0.0
  0
VERTEX
  5
CA
330
BF
100
AcDbEntity
  8
_U+30EC_U+30A4_U+30E4_U+30FC 1
 62
   179
420
  2234388
370
    25
100
AcDbVertex
100
AcDb2dVertex
 10
80.78042932800844
 20
-132.7395180223708
 30
0.0
  0
VERTEX
  5
CB
330
BF
100
AcDbEntity
  8
_U+30EC_U+30A4_U+30E4_U+30FC 1
 62
   179
420
  2234388
370
    25
100
AcDbVertex
100
AcDb2dVertex
 10
79.78030435352376
 20
-132.7395180223708
 30
0.0
  0
VERTEX
  5
CC
330
BF
100
AcDbEntity
  8
_U+30EC_U+30A4_U+30E4_U+30FC 1
 62
   179
420
  2234388
370
    25
100
AcDbVertex
100
AcDb2dVertex
 10
79.78030435352376
 20
-134.7397680218708
 30
0.0
  0
SEQEND
  5
CD
330
BF
100
AcDbEntity
  8
_U+30EC_U+30A4_U+30E4_U+30FC 1
 62
   179
420
  2234388
370
    25
  0
ENDBLK
  5
58
330
55
100
AcDbEntity
  8
0
100
AcDbBlockEnd
  0
BLOCK
  5
73
330
71
100
AcDbEntity
  8
0
100
AcDbBlockBegin
  2
block 4
 70
     0
 10
0.0
 20
0.0
 30
0.0
  3
block 4
  1

  0
SPLINE
  5
75
330
71
100
AcDbEntity
  8
_U+30EC_U+30A4_U+30E4_U+30FC 1
370
     0
100
AcDbSpline
210
0.0
220
0.0
230
1.0
 70
    11
 71
     3
 72
    26
 73
    22
 74
     0
 42
0.0000000001
 43
0.0000000001
 12
1.0
 22
0.0
 32
0.0
 13
1.0
 23
0.0
 33
0.0
 40
0.0
 40
0.0
 40
0.0
 40
0.0
 40
1.0
 40
1.0
 40
1.0
 40
2.0
 40
2.0
 40
2.0
 40
3.0
 40
3.0
 40
3.0
 40
4.0
 40
4.0
 40
4.0
 40
5.0
 40
5.0
 40
5.0
 40
6.0
 40
6.0
 40
6.0
 40
7.0
 40
7.0
 40
7.0
 40
7.0
 10
110.7994384488626
 20
-128.3739040477676
 30
0.0
 10
110.7994384488626
 20
-128.3739040477676
 30
0.0
 10
109.6952853458401
 20
-128.3739040477676
 30
0.0
 10
109.6952853458401
 20
-128.3739040477676
 30
0.0
 10
109.6952853458401
 20
-128.3739040477676
 30
0.0
 10
109.6952853458401
 20
-128.7039441952546
 30
0.0
 10
109.6952853458401
 20
-128.7039441952546
 30
0.0
 10
109.6952853458401
 20
-128.7039441952546
 30
0.0
 10
109.5471462399743
 20
-128.7039441952546
 30
0.0
 10
109.5471462399743
 20
-128.7039441952546
 30
0.0
 10
109.5323323293878
 20
-128.3718369904765
 30
0.0
 10
109.3693793129354
 20
-128.3253282014256
 30
0.0
 10
109.2550021428251
 20
-128.2957003802525
 30
0.0
 10
109.2550021428251
 20
-128.2957003802525
 30
0.0
 10
109.2550021428251
 20
-128.1496283316779
 30
0.0
 10
109.2550021428251
 20
-128.1496283316779
 30
0.0
 10
109.2550021428251
 20
-128.1496283316779
 30
0.0
 10
110.7994384488626
 20
-128.1496283316779
 30
0.0
 10
110.7994384488626
 20
-128.1496283316779
 30
0.0
 10
110.7994384488626
 20
-128.1496283316779
 30
0.0
 10
110.7994384488626
 20
-128.3739040477676
 30
0.0
 10
110.7994384488626
 20
-128.3739040477676
 30
0.0
  0
HATCH
  5
76
330
71
100
AcDbEntity
  8
_U+30EC_U+30A4_U+30E4_U+30FC 1
 62
   179
420
  2234388
100
AcDbHatch
 10
0.0
 20
0.0
 30
0.0
210
0.0
220
0.0
230
1.0
  2
SOLID
 70
     1
 71
     0
 91
        1
 92
        1
 93
        1
 72
     4
 94
        3
 73
     0
 74
     1
 95
       26
 96
       22
 40
0.0
 40
0.0
 40
0.0
 40
0.0
 40
1.0
 40
1.0
 40
1.0
 40
2.0
 40
2.0
 40
2.0
 40
3.0
 40
3.0
 40
3.0
 40
4.0
 40
4.0
 40
4.0
 40
5.0
 40
5.0
 40
5.0
 40
6.0
 40
6.0
 40
6.0
 40
7.0
 40
7.0
 40
7.0
 40
7.0
 10
110.7994384488626
 20
-128.3739040477676
 10
110.7994384488626
 20
-128.3739040477676
 10
109.6952853458401
 20
-128.3739040477676
 10
109.6952853458401
 20
-128.3739040477676
 10
109.6952853458401
 20
-128.3739040477676
 10
109.6952853458401
 20
-128.7039441952546
 10
109.6952853458401
 20
-128.7039441952546
 10
109.6952853458401
 20
-128.7039441952546
 10
109.5471462399743
 20
-128.7039441952546
 10
109.5471462399743
 20
-128.7039441952546
 10
109.5323323293878
 20
-128.3718369904765
 10
109.3693793129354
 20
-128.3253282014256
 10
109.2550021428251
 20
-128.2957003802525
 10
109.2550021428251
 20
-128.2957003802525
 10
109.2550021428251
 20
-128.1496283316779
 10
109.2550021428251
 20
-128.1496283316779
 10
109.2550021428251
 20
-128.1496283316779
 10
110.7994384488626
 20
-128.1496283316779
 10
110.7994384488626
 20
-128.1496283316779
 10
110.7994384488626
 20
-128.1496283316779
 10
110.7994384488626
 20
-128.3739040477676
 10
110.7994384488626
 20
-128.3739040477676
 97
        0
 97
        0
 75
     2
 76
     1
 98
        0
  0
SPLINE
  5
77
330
71
100
AcDbEntity
  8
_U+30EC_U+30A4_U+30E4_U+30FC 1
370
     0
100
AcDbSpline
210
0.0
220
0.0
230
1.0
 70
    11
 71
     3
 72
    29
 73
    25
 74
     0
 42
0.0000000001
 43
0.0000000001
 12
1.0
 22
0.0
 32
0.0
 13
1.0
 23
0.0
 33
0.0
 40
0.0
 40
0.0
 40
0.0
 40
0.0
 40
1.0
 40
1.0
 40
1.0
 40
2.0
 40
2.0
 40
2.0
 40
3.0
 40
3.0
 40
3.0
 40
4.0
 40
4.0
 40
4.0
 40
5.0
 40
5.0
 40
5.0
 40
6.0
 40
6.0
 40
6.0
 40
7.0
 40
7.0
 40
7.0
 40
8.0
 40
8.0
 40
8.0
 40
8.0
 10
110.6216715218238
 20
-126.7505750551179
 30
0.0
 10
110.8311333273269
 20
-126.8587510533548
 30
0.0
 10
110.8500813524958
 20
-127.0320393562628
 30
0.0
 10
110.8500813524958
 20
-127.1484835836643
 30
0.0
 10
110.8500813524958
 20
-127.3093695428254
 30
0.0
 10
110.8035725634449
 20
-127.4509629672692
 30
0.0
 10
110.6216715218238
 20
-127.5460476026621
 30
0.0
 10
110.4270236269071
 20
-127.6497449767681
 30
0.0
 10
110.1903455670705
 20
-127.6690375114855
 30
0.0
 10
110.0273925506182
 20
-127.6690375114855
 30
0.0
 10
109.8833875593347
 20
-127.6690375114855
 30
0.0
 10
109.6315510793629
 20
-127.6518120340593
 30
0.0
 10
109.432769069864
 20
-127.5460476026621
 30
0.0
 10
109.2298529457828
 20
-127.4382161139738
 30
0.0
 10
109.2064262964831
 20
-127.2773301548126
 30
0.0
 10
109.2064262964831
 20
-127.1484835836643
 30
0.0
 10
109.2064262964831
 20
-126.9896646817943
 30
0.0
 10
109.2508680282428
 20
-126.8460042000593
 30
0.0
 10
109.432769069864
 20
-126.7505750551179
 30
0.0
 10
109.6253499074895
 20
-126.6513563051427
 30
0.0
 10
109.8537597381616
 20
-126.627929655843
 30
0.0
 10
110.0273925506182
 20
-126.627929655843
 30
0.0
 10
110.1986137962351
 20
-126.627929655843
 30
0.0
 10
110.4290906841983
 20
-126.6492892478516
 30
0.0
 10
110.6216715218238
 20
-126.7505750551179
 30
0.0
  0
SPLINE
  5
78
330
71
100
AcDbEntity
  8
_U+30EC_U+30A4_U+30E4_U+30FC 1
370
     0
100
AcDbSpline
210
0.0
220
0.0
230
1.0
 70
    11
 71
     3
 72
    17
 73
    13
 74
     0
 42
0.0000000001
 43
0.0000000001
 12
1.0
 22
0.0
 32
0.0
 13
1.0
 23
0.0
 33
0.0
 40
0.0
 40
0.0
 40
0.0
 40
0.0
 40
1.0
 40
1.0
 40
1.0
 40
2.0
 40
2.0
 40
2.0
 40
3.0
 40
3.0
 40
3.0
 40
4.0
 40
4.0
 40
4.0
 40
4.0
 10
109.3990071341086
 20
-127.1484835836643
 30
0.0
 10
109.3990071341086
 20
-127.3982530063449
 30
0.0
 10
109.6825384925447
 20
-127.4447617953958
 30
0.0
 10
110.0273925506182
 20
-127.4447617953958
 30
0.0
 10
110.3467529021008
 20
-127.4447617953958
 30
0.0
 10
110.6554334575792
 20
-127.4085882928006
 30
0.0
 10
110.6554334575792
 20
-127.1484835836643
 30
0.0
 10
110.6554334575792
 20
-126.9007812182748
 30
0.0
 10
110.3743136659828
 20
-126.8522053719328
 30
0.0
 10
110.0273925506182
 20
-126.8522053719328
 30
0.0
 10
109.707687689587
 20
-126.8522053719328
 30
0.0
 10
109.3990071341086
 20
-126.8904459318191
 30
0.0
 10
109.3990071341086
 20
-127.1484835836643
 30
0.0
  0
HATCH
  5
79
330
71
100
AcDbEntity
  8
_U+30EC_U+30A4_U+30E4_U+30FC 1
 62
   179
420
  2234388
100
AcDbHatch
 10
0.0
 20
0.0
 30
0.0
210
0.0
220
0.0
230
1.0
  2
SOLID
 70
     1
 71
     0
 91
        2
 92
        1
 93
        1
 72
     4
 94
        3
 73
     0
 74
     1
 95
       29
 96
       25
 40
0.0
 40
0.0
 40
0.0
 40
0.0
 40
1.0
 40
1.0
 40
1.0
 40
2.0
 40
2.0
 40
2.0
 40
3.0
 40
3.0
 40
3.0
 40
4.0
 40
4.0
 40
4.0
 40
5.0
 40
5.0
 40
5.0
 40
6.0
 40
6.0
 40
6.0
 40
7.0
 40
7.0
 40
7.0
 40
8.0
 40
8.0
 40
8.0
 40
8.0
 10
110.6216715218238
 20
-126.7505750551179
 10
110.8311333273269
 20
-126.8587510533548
 10
110.8500813524958
 20
-127.0320393562628
 10
110.8500813524958
 20
-127.1484835836643
 10
110.8500813524958
 20
-127.3093695428254
 10
110.8035725634449
 20
-127.4509629672692
 10
110.6216715218238
 20
-127.5460476026621
 10
110.4270236269071
 20
-127.6497449767681
 10
110.1903455670705
 20
-127.6690375114855
 10
110.0273925506182
 20
-127.6690375114855
 10
109.8833875593347
 20
-127.6690375114855
 10
109.6315510793629
 20
-127.6518120340593
 10
109.432769069864
 20
-127.5460476026621
 10
109.2298529457828
 20
-127.4382161139738
 10
109.2064262964831
 20
-127.2773301548126
 10
109.2064262964831
 20
-127.1484835836643
 10
109.2064262964831
 20
-126.9896646817943
 10
109.2508680282428
 20
-126.8460042000593
 10
109.432769069864
 20
-126.7505750551179
 10
109.6253499074895
 20
-126.6513563051427
 10
109.8537597381616
 20
-126.627929655843
 10
110.0273925506182
 20
-126.627929655843
 10
110.1986137962351
 20
-126.627929655843
 10
110.4290906841983
 20
-126.6492892478516
 10
110.6216715218238
 20
-126.7505750551179
 97
        0
 97
        0
 92
        1
 93
        1
 72
     4
 94
        3
 73
     0
 74
     1
 95
       17
 96
       13
 40
0.0
 40
0.0
 40
0.0
 40
0.0
 40
1.0
 40
1.0
 40
1.0
 40
2.0
 40
2.0
 40
2.0
 40
3.0
 40
3.0
 40
3.0
 40
4.0
 40
4.0
 40
4.0
 40
4.0
 10
109.3990071341086
 20
-127.1484835836643
 10
109.3990071341086
 20
-127.3982530063449
 10
109.6825384925447
 20
-127.4447617953958
 10
110.0273925506182
 20
-127.4447617953958
 10
110.3467529021008
 20
-127.4447617953958
 10
110.6554334575792
 20
-127.4085882928006
 10
110.6554334575792
 20
-127.1484835836643
 10
110.6554334575792
 20
-126.9007812182748
 10
110.3743136659828
 20
-126.8522053719328
 10
110.0273925506182
 20
-126.8522053719328
 10
109.707687689587
 20
-126.8522053719328
 10
109.3990071341086
 20
-126.8904459318191
 10
109.3990071341086
 20
-127.1484835836643
 97
        0
 97
        0
 75
     2
 76
     1
 98
        0
  0
ENDBLK
  5
74
330
71
100
AcDbEntity
  8
0
100
AcDbBlockEnd
  0
BLOCK
  5
7C
330
7A
100
AcDbEntity
  8
0
100
AcDbBlockBegin
  2
block 5
 70
     0
 10
0.0
 20
0.0
 30
0.0
  3
block 5
  1

  0
SPLINE
  5
7E
330
7A
100
AcDbEntity
  8
_U+30EC_U+30A4_U+30E4_U+30FC 1
370
     0
100
AcDbSpline
210
0.0
220
0.0
230
1.0
 70
    11
 71
     3
 72
    26
 73
    22
 74
     0
 42
0.0000000001
 43
0.0000000001
 12
1.0
 22
0.0
 32
0.0
 13
1.0
 23
0.0
 33
0.0
 40
0.0
 40
0.0
 40
0.0
 40
0.0
 40
1.0
 40
1.0
 40
1.0
 40
2.0
 40
2.0
 40
2.0
 40
3.0
 40
3.0
 40
3.0
 40
4.0
 40
4.0
 40
4.0
 40
5.0
 40
5.0
 40
5.0
 40
6.0
 40
6.0
 40
6.0
 40
7.0
 40
7.0
 40
7.0
 40
7.0
 10
110.7994384488626
 20
-118.7393500137179
 30
0.0
 10
110.7994384488626
 20
-118.7393500137179
 30
0.0
 10
109.6952853458401
 20
-118.7393500137179
 30
0.0
 10
109.6952853458401
 20
-118.7393500137179
 30
0.0
 10
109.6952853458401
 20
-118.7393500137179
 30
0.0
 10
109.6952853458401
 20
-119.0693901612049
 30
0.0
 10
109.6952853458401
 20
-119.0693901612049
 30
0.0
 10
109.6952853458401
 20
-119.0693901612049
 30
0.0
 10
109.5471462399743
 20
-119.0693901612049
 30
0.0
 10
109.5471462399743
 20
-119.0693901612049
 30
0.0
 10
109.5323323293878
 20
-118.7372829564268
 30
0.0
 10
109.3693793129354
 20
-118.6907741673759
 30
0.0
 10
109.2550021428251
 20
-118.6611463462028
 30
0.0
 10
109.2550021428251
 20
-118.6611463462028
 30
0.0
 10
109.2550021428251
 20
-118.5150742976282
 30
0.0
 10
109.2550021428251
 20
-118.5150742976282
 30
0.0
 10
109.2550021428251
 20
-118.5150742976282
 30
0.0
 10
110.7994384488626
 20
-118.5150742976282
 30
0.0
 10
110.7994384488626
 20
-118.5150742976282
 30
0.0
 10
110.7994384488626
 20
-118.5150742976282
 30
0.0
 10
110.7994384488626
 20
-118.7393500137179
 30
0.0
 10
110.7994384488626
 20
-118.7393500137179
 30
0.0
  0
HATCH
  5
7F
330
7A
100
AcDbEntity
  8
_U+30EC_U+30A4_U+30E4_U+30FC 1
 62
   179
420
  2234388
100
AcDbHatch
 10
0.0
 20
0.0
 30
0.0
210
0.0
220
0.0
230
1.0
  2
SOLID
 70
     1
 71
     0
 91
        1
 92
        1
 93
        1
 72
     4
 94
        3
 73
     0
 74
     1
 95
       26
 96
       22
 40
0.0
 40
0.0
 40
0.0
 40
0.0
 40
1.0
 40
1.0
 40
1.0
 40
2.0
 40
2.0
 40
2.0
 40
3.0
 40
3.0
 40
3.0
 40
4.0
 40
4.0
 40
4.0
 40
5.0
 40
5.0
 40
5.0
 40
6.0
 40
6.0
 40
6.0
 40
7.0
 40
7.0
 40
7.0
 40
7.0
 10
110.7994384488626
 20
-118.7393500137179
 10
110.7994384488626
 20
-118.7393500137179
 10
109.6952853458401
 20
-118.7393500137179
 10
109.6952853458401
 20
-118.7393500137179
 10
109.6952853458401
 20
-118.7393500137179
 10
109.6952853458401
 20
-119.0693901612049
 10
109.6952853458401
 20
-119.0693901612049
 10
109.6952853458401
 20
-119.0693901612049
 10
109.5471462399743
 20
-119.0693901612049
 10
109.5471462399743
 20
-119.0693901612049
 10
109.5323323293878
 20
-118.7372829564268
 10
109.3693793129354
 20
-118.6907741673759
 10
109.2550021428251
 20
-118.6611463462028
 10
109.2550021428251
 20
-118.6611463462028
 10
109.2550021428251
 20
-118.5150742976282
 10
109.2550021428251
 20
-118.5150742976282
 10
109.2550021428251
 20
-118.5150742976282
 10
110.7994384488626
 20
-118.5150742976282
 10
110.7994384488626
 20
-118.5150742976282
 10
110.7994384488626
 20
-118.5150742976282
 10
110.7994384488626
 20
-118.7393500137179
 10
110.7994384488626
 20
-118.7393500137179
 97
        0
 97
        0
 75
     2
 76
     1
 98
        0
  0
ENDBLK
  5
7D
330
7A
100
AcDbEntity
  8
0
100
AcDbBlockEnd
  0
BLOCK
  5
82
330
80
100
AcDbEntity
  8
0
100
AcDbBlockBegin
  2
block 6
 70
     0
 10
0.0
 20
0.0
 30
0.0
  3
block 6
  1

  0
SPLINE
  5
84
330
80
100
AcDbEntity
  8
_U+30EC_U+30A4_U+30E4_U+30FC 1
370
     0
100
AcDbSpline
210
0.0
220
0.0
230
1.0
 70
    11
 71
     3
 72
    62
 73
    58
 74
     0
 42
0.0000000001
 43
0.0000000001
 12
1.0
 22
0.0
 32
0.0
 13
1.0
 23
0.0
 33
0.0
 40
0.0
 40
0.0
 40
0.0
 40
0.0
 40
1.0
 40
1.0
 40
1.0
 40
2.0
 40
2.0
 40
2.0
 40
3.0
 40
3.0
 40
3.0
 40
4.0
 40
4.0
 40
4.0
 40
5.0
 40
5.0
 40
5.0
 40
6.0
 40
6.0
 40
6.0
 40
7.0
 40
7.0
 40
7.0
 40
8.0
 40
8.0
 40
8.0
 40
9.0
 40
9.0
 40
9.0
 40
10.0
 40
10.0
 40
10.0
 40
11.0
 40
11.0
 40
11.0
 40
12.0
 40
12.0
 40
12.0
 40
13.0
 40
13.0
 40
13.0
 40
14.0
 40
14.0
 40
14.0
 40
15.0
 40
15.0
 40
15.0
 40
16.0
 40
16.0
 40
16.0
 40
17.0
 40
17.0
 40
17.0
 40
18.0
 40
18.0
 40
18.0
 40
19.0
 40
19.0
 40
19.0
 40
19.0
 10
110.8500813524958
 20
-134.2226426530763
 30
0.0
 10
110.8500813524958
 20
-134.3180717980177
 30
0.0
 10
110.8290662700358
 20
-134.5358018326855
 30
0.0
 10
110.6430311138323
 20
-134.6608587988001
 30
0.0
 10
110.5307210010132
 20
-134.7349283517329
 30
0.0
 10
110.431502251038
 20
-134.7390624663152
 30
0.0
 10
110.3467529021008
 20
-134.7431965808975
 30
0.0
 10
110.3467529021008
 20
-134.7431965808975
 30
0.0
 10
110.3467529021008
 20
-134.5230549793901
 30
0.0
 10
110.3467529021008
 20
-134.5230549793901
 30
0.0
 10
110.4208224550337
 20
-134.5209879220989
 30
0.0
 10
110.6554334575792
 20
-134.5106526356432
 30
0.0
 10
110.6554334575792
 20
-134.2271212772071
 30
0.0
 10
110.6554334575792
 20
-134.0896619673456
 30
0.0
 10
110.5858425287771
 20
-133.9370442373491
 30
0.0
 10
110.3574326981051
 20
-133.9370442373491
 30
0.0
 10
110.2409884707036
 20
-133.9370442373491
 30
0.0
 10
110.1924126243616
 20
-133.9752847972354
 30
0.0
 10
110.1607177458973
 20
-134.0069796756997
 30
0.0
 10
110.0866481929645
 20
-134.0810492286325
 30
0.0
 10
110.073901339669
 20
-134.197493456034
 30
0.0
 10
110.073901339669
 20
-134.2522704742494
 30
0.0
 10
110.073901339669
 20
-134.2715630089668
 30
0.0
 10
110.0759683969602
 20
-134.3073920020134
 30
0.0
 10
110.0801025115425
 20
-134.3349527658954
 30
0.0
 10
110.0801025115425
 20
-134.3349527658954
 30
0.0
 10
109.8854546166259
 20
-134.3349527658954
 30
0.0
 10
109.8854546166259
 20
-134.3349527658954
 30
0.0
 10
109.8920002980478
 20
-134.2967122060092
 30
0.0
 10
109.894067355339
 20
-134.2546820410891
 30
0.0
 10
109.894067355339
 20
-134.2481363596671
 30
0.0
 10
109.894067355339
 20
-134.1826795454474
 30
0.0
 10
109.8727077633304
 20
-133.9838975359485
 30
0.0
 10
109.6360297034938
 20
-133.9838975359485
 30
0.0
 10
109.4582627764549
 20
-133.9838975359485
 30
0.0
 10
109.4031412486909
 20
-134.114811164388
 30
0.0
 10
109.4031412486909
 20
-134.225054219916
 30
0.0
 10
109.4031412486909
 20
-134.4892930436346
 30
0.0
 10
109.6360297034938
 20
-134.4979057823477
 30
0.0
 10
109.707687689587
 20
-134.5020398969301
 30
0.0
 10
109.707687689587
 20
-134.5020398969301
 30
0.0
 10
109.707687689587
 20
-134.7053005305598
 30
0.0
 10
109.707687689587
 20
-134.7053005305598
 30
0.0
 10
109.5829752330209
 20
-134.6966877918467
 30
0.0
 10
109.2064262964831
 20
-134.6691270279647
 30
0.0
 10
109.2064262964831
 20
-134.2123073666205
 30
0.0
 10
109.2064262964831
 20
-133.9880316505308
 30
0.0
 10
109.3335503198888
 20
-133.7468749665633
 30
0.0
 10
109.6294840220718
 20
-133.7468749665633
 30
0.0
 10
109.8158636878238
 20
-133.7468749665633
 30
0.0
 10
109.8982014699213
 20
-133.8419596019562
 30
0.0
 10
109.9595241695587
 20
-133.9415228614799
 30
0.0
 10
109.9870849334407
 20
-133.8802001618425
 30
0.0
 10
110.0673556582471
 20
-133.6982991202213
 30
0.0
 10
110.3446858448097
 20
-133.6982991202213
 30
0.0
 10
110.6829942214612
 20
-133.6982991202213
 30
0.0
 10
110.8500813524958
 20
-133.9456569760622
 30
0.0
 10
110.8500813524958
 20
-134.2226426530763
 30
0.0
  0
HATCH
  5
85
330
80
100
AcDbEntity
  8
_U+30EC_U+30A4_U+30E4_U+30FC 1
 62
   179
420
  2234388
100
AcDbHatch
 10
0.0
 20
0.0
 30
0.0
210
0.0
220
0.0
230
1.0
  2
SOLID
 70
     1
 71
     0
 91
        1
 92
        1
 93
        1
 72
     4
 94
        3
 73
     0
 74
     1
 95
       62
 96
       58
 40
0.0
 40
0.0
 40
0.0
 40
0.0
 40
1.0
 40
1.0
 40
1.0
 40
2.0
 40
2.0
 40
2.0
 40
3.0
 40
3.0
 40
3.0
 40
4.0
 40
4.0
 40
4.0
 40
5.0
 40
5.0
 40
5.0
 40
6.0
 40
6.0
 40
6.0
 40
7.0
 40
7.0
 40
7.0
 40
8.0
 40
8.0
 40
8.0
 40
9.0
 40
9.0
 40
9.0
 40
10.0
 40
10.0
 40
10.0
 40
11.0
 40
11.0
 40
11.0
 40
12.0
 40
12.0
 40
12.0
 40
13.0
 40
13.0
 40
13.0
 40
14.0
 40
14.0
 40
14.0
 40
15.0
 40
15.0
 40
15.0
 40
16.0
 40
16.0
 40
16.0
 40
17.0
 40
17.0
 40
17.0
 40
18.0
 40
18.0
 40
18.0
 40
19.0
 40
19.0
 40
19.0
 40
19.0
 10
110.8500813524958
 20
-134.2226426530763
 10
110.8500813524958
 20
-134.3180717980177
 10
110.8290662700358
 20
-134.5358018326855
 10
110.6430311138323
 20
-134.6608587988001
 10
110.5307210010132
 20
-134.7349283517329
 10
110.431502251038
 20
-134.7390624663152
 10
110.3467529021008
 20
-134.7431965808975
 10
110.3467529021008
 20
-134.7431965808975
 10
110.3467529021008
 20
-134.5230549793901
 10
110.3467529021008
 20
-134.5230549793901
 10
110.4208224550337
 20
-134.5209879220989
 10
110.6554334575792
 20
-134.5106526356432
 10
110.6554334575792
 20
-134.2271212772071
 10
110.6554334575792
 20
-134.0896619673456
 10
110.5858425287771
 20
-133.9370442373491
 10
110.3574326981051
 20
-133.9370442373491
 10
110.2409884707036
 20
-133.9370442373491
 10
110.1924126243616
 20
-133.9752847972354
 10
110.1607177458973
 20
-134.0069796756997
 10
110.0866481929645
 20
-134.0810492286325
 10
110.073901339669
 20
-134.197493456034
 10
110.073901339669
 20
-134.2522704742494
 10
110.073901339669
 20
-134.2715630089668
 10
110.0759683969602
 20
-134.3073920020134
 10
110.0801025115425
 20
-134.3349527658954
 10
110.0801025115425
 20
-134.3349527658954
 10
109.8854546166259
 20
-134.3349527658954
 10
109.8854546166259
 20
-134.3349527658954
 10
109.8920002980478
 20
-134.2967122060092
 10
109.894067355339
 20
-134.2546820410891
 10
109.894067355339
 20
-134.2481363596671
 10
109.894067355339
 20
-134.1826795454474
 10
109.8727077633304
 20
-133.9838975359485
 10
109.6360297034938
 20
-133.9838975359485
 10
109.4582627764549
 20
-133.9838975359485
 10
109.4031412486909
 20
-134.114811164388
 10
109.4031412486909
 20
-134.225054219916
 10
109.4031412486909
 20
-134.4892930436346
 10
109.6360297034938
 20
-134.4979057823477
 10
109.707687689587
 20
-134.5020398969301
 10
109.707687689587
 20
-134.5020398969301
 10
109.707687689587
 20
-134.7053005305598
 10
109.707687689587
 20
-134.7053005305598
 10
109.5829752330209
 20
-134.6966877918467
 10
109.2064262964831
 20
-134.6691270279647
 10
109.2064262964831
 20
-134.2123073666205
 10
109.2064262964831
 20
-133.9880316505308
 10
109.3335503198888
 20
-133.7468749665633
 10
109.6294840220718
 20
-133.7468749665633
 10
109.8158636878238
 20
-133.7468749665633
 10
109.8982014699213
 20
-133.8419596019562
 10
109.9595241695587
 20
-133.9415228614799
 10
109.9870849334407
 20
-133.8802001618425
 10
110.0673556582471
 20
-133.6982991202213
 10
110.3446858448097
 20
-133.6982991202213
 10
110.6829942214612
 20
-133.6982991202213
 10
110.8500813524958
 20
-133.9456569760622
 10
110.8500813524958
 20
-134.2226426530763
 97
        0
 97
        0
 75
     2
 76
     1
 98
        0
  0
ENDBLK
  5
83
330
80
100
AcDbEntity
  8
0
100
AcDbBlockEnd
  0
BLOCK
  5
9B
330
99
100
AcDbEntity
  8
0
100
AcDbBlockBegin
  2
block 7
 70
     0
 10
0.0
 20
0.0
 30
0.0
  3
block 7
  1

  0
SPLINE
  5
9D
330
99
100
AcDbEntity
  8
_U+30EC_U+30A4_U+30E4_U+30FC 1
370
     0
100
AcDbSpline
210
0.0
220
0.0
230
1.0
 70
    11
 71
     3
 72
    62
 73
    58
 74
     0
 42
0.0000000001
 43
0.0000000001
 12
1.0
 22
0.0
 32
0.0
 13
1.0
 23
0.0
 33
0.0
 40
0.0
 40
0.0
 40
0.0
 40
0.0
 40
1.0
 40
1.0
 40
1.0
 40
2.0
 40
2.0
 40
2.0
 40
3.0
 40
3.0
 40
3.0
 40
4.0
 40
4.0
 40
4.0
 40
5.0
 40
5.0
 40
5.0
 40
6.0
 40
6.0
 40
6.0
 40
7.0
 40
7.0
 40
7.0
 40
8.0
 40
8.0
 40
8.0
 40
9.0
 40
9.0
 40
9.0
 40
10.0
 40
10.0
 40
10.0
 40
11.0
 40
11.0
 40
11.0
 40
12.0
 40
12.0
 40
12.0
 40
13.0
 40
13.0
 40
13.0
 40
14.0
 40
14.0
 40
14.0
 40
15.0
 40
15.0
 40
15.0
 40
16.0
 40
16.0
 40
16.0
 40
17.0
 40
17.0
 40
17.0
 40
18.0
 40
18.0
 40
18.0
 40
19.0
 40
19.0
 40
19.0
 40
19.0
 10
90.04928383165435
 20
-118.4365261205645
 30
0.0
 10
89.95385468671293
 20
-118.4365261205645
 30
0.0
 10
89.73612465204513
 20
-118.4155110381045
 30
0.0
 10
89.61106768593056
 20
-118.229475881901
 30
0.0
 10
89.5369981329977
 20
-118.1171657690818
 30
0.0
 10
89.5328640184154
 20
-118.0179470191066
 30
0.0
 10
89.5287299038331
 20
-117.9331976701695
 30
0.0
 10
89.5287299038331
 20
-117.9331976701695
 30
0.0
 10
89.74887150534056
 20
-117.9331976701695
 30
0.0
 10
89.74887150534056
 20
-117.9331976701695
 30
0.0
 10
89.75093856263172
 20
-118.0072672231024
 30
0.0
 10
89.76127384908746
 20
-118.2418782256479
 30
0.0
 10
90.04480520752352
 20
-118.2418782256479
 30
0.0
 10
90.182264517385
 20
-118.2418782256479
 30
0.0
 10
90.33488224738156
 20
-118.1722872968458
 30
0.0
 10
90.33488224738156
 20
-117.9438774661738
 30
0.0
 10
90.33488224738156
 20
-117.8274332387723
 30
0.0
 10
90.29664168749528
 20
-117.7788573924303
 30
0.0
 10
90.26494680903099
 20
-117.747162513966
 30
0.0
 10
90.19087725609812
 20
-117.6730929610331
 30
0.0
 10
90.07443302869667
 20
-117.6603461077377
 30
0.0
 10
90.0196560104812
 20
-117.6603461077377
 30
0.0
 10
90.0003634757638
 20
-117.6603461077377
 30
0.0
 10
89.9645344827172
 20
-117.6624131650289
 30
0.0
 10
89.9369737188352
 20
-117.6665472796112
 30
0.0
 10
89.9369737188352
 20
-117.6665472796112
 30
0.0
 10
89.9369737188352
 20
-117.4718993846945
 30
0.0
 10
89.9369737188352
 20
-117.4718993846945
 30
0.0
 10
89.97521427872148
 20
-117.4784450661165
 30
0.0
 10
90.01724444364153
 20
-117.4805121234076
 30
0.0
 10
90.0237901250635
 20
-117.4805121234076
 30
0.0
 10
90.08924693928324
 20
-117.4805121234076
 30
0.0
 10
90.28802894878217
 20
-117.4591525313991
 30
0.0
 10
90.28802894878217
 20
-117.2224744715624
 30
0.0
 10
90.28802894878217
 20
-117.0447075445235
 30
0.0
 10
90.15711532034267
 20
-116.9895860167596
 30
0.0
 10
90.04687226481468
 20
-116.9895860167596
 30
0.0
 10
89.78263344109601
 20
-116.9895860167596
 30
0.0
 10
89.77402070238288
 20
-117.2224744715624
 30
0.0
 10
89.76988658780058
 20
-117.2941324576556
 30
0.0
 10
89.76988658780058
 20
-117.2941324576556
 30
0.0
 10
89.56662595417085
 20
-117.2941324576556
 30
0.0
 10
89.56662595417085
 20
-117.2941324576556
 30
0.0
 10
89.57523869288397
 20
-117.1694200010896
 30
0.0
 10
89.60279945676596
 20
-116.7928710645518
 30
0.0
 10
90.0596191181101
 20
-116.7928710645518
 30
0.0
 10
90.28389483419987
 20
-116.7928710645518
 30
0.0
 10
90.52505151816736
 20
-116.9199950879575
 30
0.0
 10
90.52505151816736
 20
-117.2159287901405
 30
0.0
 10
90.52505151816736
 20
-117.4023084558925
 30
0.0
 10
90.42996688277445
 20
-117.4846462379899
 30
0.0
 10
90.33040362325073
 20
-117.5459689376274
 30
0.0
 10
90.39172632288819
 20
-117.5735297015094
 30
0.0
 10
90.57362736450938
 20
-117.6538004263157
 30
0.0
 10
90.57362736450938
 20
-117.9311306128783
 30
0.0
 10
90.57362736450938
 20
-118.2694389895299
 30
0.0
 10
90.32626950866843
 20
-118.4365261205645
 30
0.0
 10
90.04928383165435
 20
-118.4365261205645
 30
0.0
  0
HATCH
  5
9E
330
99
100
AcDbEntity
  8
_U+30EC_U+30A4_U+30E4_U+30FC 1
 62
   179
420
  2234388
100
AcDbHatch
 10
0.0
 20
0.0
 30
0.0
210
0.0
220
0.0
230
1.0
  2
SOLID
 70
     1
 71
     0
 91
        1
 92
        1
 93
        1
 72
     4
 94
        3
 73
     0
 74
     1
 95
       62
 96
       58
 40
0.0
 40
0.0
 40
0.0
 40
0.0
 40
1.0
 40
1.0
 40
1.0
 40
2.0
 40
2.0
 40
2.0
 40
3.0
 40
3.0
 40
3.0
 40
4.0
 40
4.0
 40
4.0
 40
5.0
 40
5.0
 40
5.0
 40
6.0
 40
6.0
 40
6.0
 40
7.0
 40
7.0
 40
7.0
 40
8.0
 40
8.0
 40
8.0
 40
9.0
 40
9.0
 40
9.0
 40
10.0
 40
10.0
 40
10.0
 40
11.0
 40
11.0
 40
11.0
 40
12.0
 40
12.0
 40
12.0
 40
13.0
 40
13.0
 40
13.0
 40
14.0
 40
14.0
 40
14.0
 40
15.0
 40
15.0
 40
15.0
 40
16.0
 40
16.0
 40
16.0
 40
17.0
 40
17.0
 40
17.0
 40
18.0
 40
18.0
 40
18.0
 40
19.0
 40
19.0
 40
19.0
 40
19.0
 10
90.04928383165435
 20
-118.4365261205645
 10
89.95385468671293
 20
-118.4365261205645
 10
89.73612465204513
 20
-118.4155110381045
 10
89.61106768593056
 20
-118.229475881901
 10
89.5369981329977
 20
-118.1171657690818
 10
89.5328640184154
 20
-118.0179470191066
 10
89.5287299038331
 20
-117.9331976701695
 10
89.5287299038331
 20
-117.9331976701695
 10
89.74887150534056
 20
-117.9331976701695
 10
89.74887150534056
 20
-117.9331976701695
 10
89.75093856263172
 20
-118.0072672231024
 10
89.76127384908746
 20
-118.2418782256479
 10
90.04480520752352
 20
-118.2418782256479
 10
90.182264517385
 20
-118.2418782256479
 10
90.33488224738156
 20
-118.1722872968458
 10
90.33488224738156
 20
-117.9438774661738
 10
90.33488224738156
 20
-117.8274332387723
 10
90.29664168749528
 20
-117.7788573924303
 10
90.26494680903099
 20
-117.747162513966
 10
90.19087725609812
 20
-117.6730929610331
 10
90.07443302869667
 20
-117.6603461077377
 10
90.0196560104812
 20
-117.6603461077377
 10
90.0003634757638
 20
-117.6603461077377
 10
89.9645344827172
 20
-117.6624131650289
 10
89.9369737188352
 20
-117.6665472796112
 10
89.9369737188352
 20
-117.6665472796112
 10
89.9369737188352
 20
-117.4718993846945
 10
89.9369737188352
 20
-117.4718993846945
 10
89.97521427872148
 20
-117.4784450661165
 10
90.01724444364153
 20
-117.4805121234076
 10
90.0237901250635
 20
-117.4805121234076
 10
90.08924693928324
 20
-117.4805121234076
 10
90.28802894878217
 20
-117.4591525313991
 10
90.28802894878217
 20
-117.2224744715624
 10
90.28802894878217
 20
-117.0447075445235
 10
90.15711532034267
 20
-116.9895860167596
 10
90.04687226481468
 20
-116.9895860167596
 10
89.78263344109601
 20
-116.9895860167596
 10
89.77402070238288
 20
-117.2224744715624
 10
89.76988658780058
 20
-117.2941324576556
 10
89.76988658780058
 20
-117.2941324576556
 10
89.56662595417085
 20
-117.2941324576556
 10
89.56662595417085
 20
-117.2941324576556
 10
89.57523869288397
 20
-117.1694200010896
 10
89.60279945676596
 20
-116.7928710645518
 10
90.0596191181101
 20
-116.7928710645518
 10
90.28389483419987
 20
-116.7928710645518
 10
90.52505151816736
 20
-116.9199950879575
 10
90.52505151816736
 20
-117.2159287901405
 10
90.52505151816736
 20
-117.4023084558925
 10
90.42996688277445
 20
-117.4846462379899
 10
90.33040362325073
 20
-117.5459689376274
 10
90.39172632288819
 20
-117.5735297015094
 10
90.57362736450938
 20
-117.6538004263157
 10
90.57362736450938
 20
-117.9311306128783
 10
90.57362736450938
 20
-118.2694389895299
 10
90.32626950866843
 20
-118.4365261205645
 10
90.04928383165435
 20
-118.4365261205645
 97
        0
 97
        0
 75
     2
 76
     1
 98
        0
  0
SPLINE
  5
9F
330
99
100
AcDbEntity
  8
_U+30EC_U+30A4_U+30E4_U+30FC 1
370
     0
100
AcDbSpline
210
0.0
220
0.0
230
1.0
 70
    11
 71
     3
 72
    29
 73
    25
 74
     0
 42
0.0000000001
 43
0.0000000001
 12
1.0
 22
0.0
 32
0.0
 13
1.0
 23
0.0
 33
0.0
 40
0.0
 40
0.0
 40
0.0
 40
0.0
 40
1.0
 40
1.0
 40
1.0
 40
2.0
 40
2.0
 40
2.0
 40
3.0
 40
3.0
 40
3.0
 40
4.0
 40
4.0
 40
4.0
 40
5.0
 40
5.0
 40
5.0
 40
6.0
 40
6.0
 40
6.0
 40
7.0
 40
7.0
 40
7.0
 40
8.0
 40
8.0
 40
8.0
 40
8.0
 10
91.63230520712665
 20
-118.2081162898924
 30
0.0
 10
91.5241292088898
 20
-118.4175780953956
 30
0.0
 10
91.35084090598174
 20
-118.4365261205645
 30
0.0
 10
91.2343966785803
 20
-118.4365261205645
 30
0.0
 10
91.07351071941913
 20
-118.4365261205645
 30
0.0
 10
90.93191729497536
 20
-118.3900173315136
 30
0.0
 10
90.83683265958246
 20
-118.2081162898924
 30
0.0
 10
90.73313528547644
 20
-118.0134683949758
 30
0.0
 10
90.71384275075904
 20
-117.7767903351391
 30
0.0
 10
90.71384275075904
 20
-117.6138373186868
 30
0.0
 10
90.71384275075904
 20
-117.4698323274034
 30
0.0
 10
90.7310682281853
 20
-117.2179958474316
 30
0.0
 10
90.83683265958246
 20
-117.0192138379327
 30
0.0
 10
90.94466414827079
 20
-116.8162977138515
 30
0.0
 10
91.10555010743195
 20
-116.7928710645518
 30
0.0
 10
91.2343966785803
 20
-116.7928710645518
 30
0.0
 10
91.39321558045032
 20
-116.7928710645518
 30
0.0
 10
91.53687606218523
 20
-116.8373127963115
 30
0.0
 10
91.63230520712665
 20
-117.0192138379327
 30
0.0
 10
91.73152395710184
 20
-117.2117946755582
 30
0.0
 10
91.75495060640155
 20
-117.4402045062302
 30
0.0
 10
91.75495060640155
 20
-117.6138373186868
 30
0.0
 10
91.75495060640155
 20
-117.7850585643037
 30
0.0
 10
91.733591014393
 20
-118.015535452267
 30
0.0
 10
91.63230520712665
 20
-118.2081162898924
 30
0.0
  0
SPLINE
  5
A0
330
99
100
AcDbEntity
  8
_U+30EC_U+30A4_U+30E4_U+30FC 1
370
     0
100
AcDbSpline
210
0.0
220
0.0
230
1.0
 70
    11
 71
     3
 72
    17
 73
    13
 74
     0
 42
0.0000000001
 43
0.0000000001
 12
1.0
 22
0.0
 32
0.0
 13
1.0
 23
0.0
 33
0.0
 40
0.0
 40
0.0
 40
0.0
 40
0.0
 40
1.0
 40
1.0
 40
1.0
 40
2.0
 40
2.0
 40
2.0
 40
3.0
 40
3.0
 40
3.0
 40
4.0
 40
4.0
 40
4.0
 40
4.0
 10
91.2343966785803
 20
-116.9854519021773
 30
0.0
 10
90.98462725589968
 20
-116.9854519021773
 30
0.0
 10
90.9381184668488
 20
-117.2689832606133
 30
0.0
 10
90.9381184668488
 20
-117.6138373186868
 30
0.0
 10
90.9381184668488
 20
-117.9331976701695
 30
0.0
 10
90.97429196944393
 20
-118.2418782256479
 30
0.0
 10
91.2343966785803
 20
-118.2418782256479
 30
0.0
 10
91.48209904396975
 20
-118.2418782256479
 30
0.0
 10
91.53067489031179
 20
-117.9607584340515
 30
0.0
 10
91.53067489031179
 20
-117.6138373186868
 30
0.0
 10
91.53067489031179
 20
-117.2941324576556
 30
0.0
 10
91.49243433042551
 20
-116.9854519021773
 30
0.0
 10
91.2343966785803
 20
-116.9854519021773
 30
0.0
  0
HATCH
  5
A1
330
99
100
AcDbEntity
  8
_U+30EC_U+30A4_U+30E4_U+30FC 1
 62
   179
420
  2234388
100
AcDbHatch
 10
0.0
 20
0.0
 30
0.0
210
0.0
220
0.0
230
1.0
  2
SOLID
 70
     1
 71
     0
 91
        2
 92
        1
 93
        1
 72
     4
 94
        3
 73
     0
 74
     1
 95
       29
 96
       25
 40
0.0
 40
0.0
 40
0.0
 40
0.0
 40
1.0
 40
1.0
 40
1.0
 40
2.0
 40
2.0
 40
2.0
 40
3.0
 40
3.0
 40
3.0
 40
4.0
 40
4.0
 40
4.0
 40
5.0
 40
5.0
 40
5.0
 40
6.0
 40
6.0
 40
6.0
 40
7.0
 40
7.0
 40
7.0
 40
8.0
 40
8.0
 40
8.0
 40
8.0
 10
91.63230520712665
 20
-118.2081162898924
 10
91.5241292088898
 20
-118.4175780953956
 10
91.35084090598174
 20
-118.4365261205645
 10
91.2343966785803
 20
-118.4365261205645
 10
91.07351071941913
 20
-118.4365261205645
 10
90.93191729497536
 20
-118.3900173315136
 10
90.83683265958246
 20
-118.2081162898924
 10
90.73313528547644
 20
-118.0134683949758
 10
90.71384275075904
 20
-117.7767903351391
 10
90.71384275075904
 20
-117.6138373186868
 10
90.71384275075904
 20
-117.4698323274034
 10
90.7310682281853
 20
-117.2179958474316
 10
90.83683265958246
 20
-117.0192138379327
 10
90.94466414827079
 20
-116.8162977138515
 10
91.10555010743195
 20
-116.7928710645518
 10
91.2343966785803
 20
-116.7928710645518
 10
91.39321558045032
 20
-116.7928710645518
 10
91.53687606218523
 20
-116.8373127963115
 10
91.63230520712665
 20
-117.0192138379327
 10
91.73152395710184
 20
-117.2117946755582
 10
91.75495060640155
 20
-117.4402045062302
 10
91.75495060640155
 20
-117.6138373186868
 10
91.75495060640155
 20
-117.7850585643037
 10
91.733591014393
 20
-118.015535452267
 10
91.63230520712665
 20
-118.2081162898924
 97
        0
 97
        0
 92
        1
 93
        1
 72
     4
 94
        3
 73
     0
 74
     1
 95
       17
 96
       13
 40
0.0
 40
0.0
 40
0.0
 40
0.0
 40
1.0
 40
1.0
 40
1.0
 40
2.0
 40
2.0
 40
2.0
 40
3.0
 40
3.0
 40
3.0
 40
4.0
 40
4.0
 40
4.0
 40
4.0
 10
91.2343966785803
 20
-116.9854519021773
 10
90.98462725589968
 20
-116.9854519021773
 10
90.9381184668488
 20
-117.2689832606133
 10
90.9381184668488
 20
-117.6138373186868
 10
90.9381184668488
 20
-117.9331976701695
 10
90.97429196944393
 20
-118.2418782256479
 10
91.2343966785803
 20
-118.2418782256479
 10
91.48209904396975
 20
-118.2418782256479
 10
91.53067489031179
 20
-117.9607584340515
 10
91.53067489031179
 20
-117.6138373186868
 10
91.53067489031179
 20
-117.2941324576556
 10
91.49243433042551
 20
-116.9854519021773
 10
91.2343966785803
 20
-116.9854519021773
 97
        0
 97
        0
 75
     2
 76
     1
 98
        0
  0
ENDBLK
  5
9C
330
99
100
AcDbEntity
  8
0
100
AcDbBlockEnd
  0
BLOCK
  5
A4
330
A2
100
AcDbEntity
  8
0
100
AcDbBlockBegin
  2
block 8
 70
     0
 10
0.0
 20
0.0
 30
0.0
  3
block 8
  1

  0
SPLINE
  5
A6
330
A2
100
AcDbEntity
  8
_U+30EC_U+30A4_U+30E4_U+30FC 1
370
     0
100
AcDbSpline
210
0.0
220
0.0
230
1.0
 70
    11
 71
     3
 72
    53
 73
    49
 74
     0
 42
0.0000000001
 43
0.0000000001
 12
1.0
 22
0.0
 32
0.0
 13
1.0
 23
0.0
 33
0.0
 40
0.0
 40
0.0
 40
0.0
 40
0.0
 40
1.0
 40
1.0
 40
1.0
 40
2.0
 40
2.0
 40
2.0
 40
3.0
 40
3.0
 40
3.0
 40
4.0
 40
4.0
 40
4.0
 40
5.0
 40
5.0
 40
5.0
 40
6.0
 40
6.0
 40
6.0
 40
7.0
 40
7.0
 40
7.0
 40
8.0
 40
8.0
 40
8.0
 40
9.0
 40
9.0
 40
9.0
 40
10.0
 40
10.0
 40
10.0
 40
11.0
 40
11.0
 40
11.0
 40
12.0
 40
12.0
 40
12.0
 40
13.0
 40
13.0
 40
13.0
 40
14.0
 40
14.0
 40
14.0
 40
15.0
 40
15.0
 40
15.0
 40
16.0
 40
16.0
 40
16.0
 40
16.0
 10
73.32300074121787
 20
-118.4365261205645
 30
0.0
 10
73.2447970737027
 20
-118.4365261205645
 30
0.0
 10
73.14316675688782
 20
-118.4196451526868
 30
0.0
 10
73.04153644007295
 20
-118.3562553957582
 30
0.0
 10
72.86824813716488
 20
-118.2463568497787
 30
0.0
 10
72.84688854515633
 20
-118.1150987117907
 30
0.0
 10
72.82794051998746
 20
-118.0072672231024
 30
0.0
 10
72.82794051998746
 20
-118.0072672231024
 30
0.0
 10
73.05014917878607
 20
-118.0072672231024
 30
0.0
 10
73.05014917878607
 20
-118.0072672231024
 30
0.0
 10
73.10492619700155
 20
-118.2060492326013
 30
0.0
 10
73.23205022040727
 20
-118.2356770537744
 30
0.0
 10
73.32506779850901
 20
-118.2356770537744
 30
0.0
 10
73.46459416566164
 20
-118.2356770537744
 30
0.0
 10
73.61686738610967
 20
-118.1361137942507
 30
0.0
 10
73.61686738610967
 20
-117.9035698489963
 30
0.0
 10
73.61686738610967
 20
-117.6475992544423
 30
0.0
 10
73.43703340177963
 20
-117.5776638160917
 30
0.0
 10
73.31645505979589
 20
-117.5776638160917
 30
0.0
 10
73.28476018133159
 20
-117.5776638160917
 30
0.0
 10
73.14316675688782
 20
-117.5776638160917
 30
0.0
 10
73.05428329336837
 20
-117.7068548967886
 30
0.0
 10
73.05428329336837
 20
-117.7068548967886
 30
0.0
 10
72.87858342362064
 20
-117.6879068716197
 30
0.0
 10
72.87858342362064
 20
-117.6879068716197
 30
0.0
 10
72.87858342362064
 20
-117.6879068716197
 30
0.0
 10
72.99916176560438
 20
-116.8414469108938
 30
0.0
 10
72.99916176560438
 20
-116.8414469108938
 30
0.0
 10
72.99916176560438
 20
-116.8414469108938
 30
0.0
 10
73.77775334527084
 20
-116.8414469108938
 30
0.0
 10
73.77775334527084
 20
-116.8414469108938
 30
0.0
 10
73.77775334527084
 20
-116.8414469108938
 30
0.0
 10
73.77775334527084
 20
-117.0360948058104
 30
0.0
 10
73.77775334527084
 20
-117.0360948058104
 30
0.0
 10
73.77775334527084
 20
-117.0360948058104
 30
0.0
 10
73.16211478205669
 20
-117.0360948058104
 30
0.0
 10
73.16211478205669
 20
-117.0360948058104
 30
0.0
 10
73.16211478205669
 20
-117.0360948058104
 30
0.0
 10
73.09665796783695
 20
-117.4591525313991
 30
0.0
 10
73.09665796783695
 20
-117.4591525313991
 30
0.0
 10
73.15798066747439
 20
-117.4253905956437
 30
0.0
 10
73.24031844957187
 20
-117.3850829784662
 30
0.0
 10
73.35882973426446
 20
-117.3850829784662
 30
0.0
 10
73.61273327152738
 20
-117.3850829784662
 30
0.0
 10
73.84975584091256
 20
-117.5714626442183
 30
0.0
 10
73.84975584091256
 20
-117.8846218238275
 30
0.0
 10
73.84975584091256
 20
-118.201915118019
 30
0.0
 10
73.6254801248228
 20
-118.4365261205645
 30
0.0
 10
73.32300074121787
 20
-118.4365261205645
 30
0.0
  0
HATCH
  5
A7
330
A2
100
AcDbEntity
  8
_U+30EC_U+30A4_U+30E4_U+30FC 1
 62
   179
420
  2234388
100
AcDbHatch
 10
0.0
 20
0.0
 30
0.0
210
0.0
220
0.0
230
1.0
  2
SOLID
 70
     1
 71
     0
 91
        1
 92
        1
 93
        1
 72
     4
 94
        3
 73
     0
 74
     1
 95
       53
 96
       49
 40
0.0
 40
0.0
 40
0.0
 40
0.0
 40
1.0
 40
1.0
 40
1.0
 40
2.0
 40
2.0
 40
2.0
 40
3.0
 40
3.0
 40
3.0
 40
4.0
 40
4.0
 40
4.0
 40
5.0
 40
5.0
 40
5.0
 40
6.0
 40
6.0
 40
6.0
 40
7.0
 40
7.0
 40
7.0
 40
8.0
 40
8.0
 40
8.0
 40
9.0
 40
9.0
 40
9.0
 40
10.0
 40
10.0
 40
10.0
 40
11.0
 40
11.0
 40
11.0
 40
12.0
 40
12.0
 40
12.0
 40
13.0
 40
13.0
 40
13.0
 40
14.0
 40
14.0
 40
14.0
 40
15.0
 40
15.0
 40
15.0
 40
16.0
 40
16.0
 40
16.0
 40
16.0
 10
73.32300074121787
 20
-118.4365261205645
 10
73.2447970737027
 20
-118.4365261205645
 10
73.14316675688782
 20
-118.4196451526868
 10
73.04153644007295
 20
-118.3562553957582
 10
72.86824813716488
 20
-118.2463568497787
 10
72.84688854515633
 20
-118.1150987117907
 10
72.82794051998746
 20
-118.0072672231024
 10
72.82794051998746
 20
-118.0072672231024
 10
73.05014917878607
 20
-118.0072672231024
 10
73.05014917878607
 20
-118.0072672231024
 10
73.10492619700155
 20
-118.2060492326013
 10
73.23205022040727
 20
-118.2356770537744
 10
73.32506779850901
 20
-118.2356770537744
 10
73.46459416566164
 20
-118.2356770537744
 10
73.61686738610967
 20
-118.1361137942507
 10
73.61686738610967
 20
-117.9035698489963
 10
73.61686738610967
 20
-117.6475992544423
 10
73.43703340177963
 20
-117.5776638160917
 10
73.31645505979589
 20
-117.5776638160917
 10
73.28476018133159
 20
-117.5776638160917
 10
73.14316675688782
 20
-117.5776638160917
 10
73.05428329336837
 20
-117.7068548967886
 10
73.05428329336837
 20
-117.7068548967886
 10
72.87858342362064
 20
-117.6879068716197
 10
72.87858342362064
 20
-117.6879068716197
 10
72.87858342362064
 20
-117.6879068716197
 10
72.99916176560438
 20
-116.8414469108938
 10
72.99916176560438
 20
-116.8414469108938
 10
72.99916176560438
 20
-116.8414469108938
 10
73.77775334527084
 20
-116.8414469108938
 10
73.77775334527084
 20
-116.8414469108938
 10
73.77775334527084
 20
-116.8414469108938
 10
73.77775334527084
 20
-117.0360948058104
 10
73.77775334527084
 20
-117.0360948058104
 10
73.77775334527084
 20
-117.0360948058104
 10
73.16211478205669
 20
-117.0360948058104
 10
73.16211478205669
 20
-117.0360948058104
 10
73.16211478205669
 20
-117.0360948058104
 10
73.09665796783695
 20
-117.4591525313991
 10
73.09665796783695
 20
-117.4591525313991
 10
73.15798066747439
 20
-117.4253905956437
 10
73.24031844957187
 20
-117.3850829784662
 10
73.35882973426446
 20
-117.3850829784662
 10
73.61273327152738
 20
-117.3850829784662
 10
73.84975584091256
 20
-117.5714626442183
 10
73.84975584091256
 20
-117.8846218238275
 10
73.84975584091256
 20
-118.201915118019
 10
73.6254801248228
 20
-118.4365261205645
 10
73.32300074121787
 20
-118.4365261205645
 97
        0
 97
        0
 75
     2
 76
     1
 98
        0
  0
ENDBLK
  5
A5
330
A2
100
AcDbEntity
  8
0
100
AcDbBlockEnd
  0
BLOCK
  5
B8
330
B6
100
AcDbEntity
  8
0
100
AcDbBlockBegin
  2
block 9
 70
     0
 10
0.0
 20
0.0
 30
0.0
  3
block 9
  1

  0
SPLINE
  5
BA
330
B6
100
AcDbEntity
  8
_U+30EC_U+30A4_U+30E4_U+30FC 1
370
     0
100
AcDbSpline
210
0.0
220
0.0
230
1.0
 70
    11
 71
     3
 72
    26
 73
    22
 74
     0
 42
0.0000000001
 43
0.0000000001
 12
1.0
 22
0.0
 32
0.0
 13
1.0
 23
0.0
 33
0.0
 40
0.0
 40
0.0
 40
0.0
 40
0.0
 40
1.0
 40
1.0
 40
1.0
 40
2.0
 40
2.0
 40
2.0
 40
3.0
 40
3.0
 40
3.0
 40
4.0
 40
4.0
 40
4.0
 40
5.0
 40
5.0
 40
5.0
 40
6.0
 40
6.0
 40
6.0
 40
7.0
 40
7.0
 40
7.0
 40
7.0
 10
75.13305390916813
 20
-139.1646321266672
 30
0.0
 10
75.13305390916813
 20
-139.1646321266672
 30
0.0
 10
75.13305390916813
 20
-138.0604790236446
 30
0.0
 10
75.13305390916813
 20
-138.0604790236446
 30
0.0
 10
75.13305390916813
 20
-138.0604790236446
 30
0.0
 10
74.8030137616812
 20
-138.0604790236446
 30
0.0
 10
74.8030137616812
 20
-138.0604790236446
 30
0.0
 10
74.8030137616812
 20
-138.0604790236446
 30
0.0
 10
74.8030137616812
 20
-137.9123399177789
 30
0.0
 10
74.8030137616812
 20
-137.9123399177789
 30
0.0
 10
75.13512096645928
 20
-137.8975260071923
 30
0.0
 10
75.18162975551016
 20
-137.73457299074
 30
0.0
 10
75.2112575766833
 20
-137.6201958206297
 30
0.0
 10
75.2112575766833
 20
-137.6201958206297
 30
0.0
 10
75.35732962525789
 20
-137.6201958206297
 30
0.0
 10
75.35732962525789
 20
-137.6201958206297
 30
0.0
 10
75.35732962525789
 20
-137.6201958206297
 30
0.0
 10
75.35732962525789
 20
-139.1646321266672
 30
0.0
 10
75.35732962525789
 20
-139.1646321266672
 30
0.0
 10
75.35732962525789
 20
-139.1646321266672
 30
0.0
 10
75.13305390916813
 20
-139.1646321266672
 30
0.0
 10
75.13305390916813
 20
-139.1646321266672
 30
0.0
  0
HATCH
  5
BB
330
B6
100
AcDbEntity
  8
_U+30EC_U+30A4_U+30E4_U+30FC 1
 62
   179
420
  2234388
100
AcDbHatch
 10
0.0
 20
0.0
 30
0.0
210
0.0
220
0.0
230
1.0
  2
SOLID
 70
     1
 71
     0
 91
        1
 92
        1
 93
        1
 72
     4
 94
        3
 73
     0
 74
     1
 95
       26
 96
       22
 40
0.0
 40
0.0
 40
0.0
 40
0.0
 40
1.0
 40
1.0
 40
1.0
 40
2.0
 40
2.0
 40
2.0
 40
3.0
 40
3.0
 40
3.0
 40
4.0
 40
4.0
 40
4.0
 40
5.0
 40
5.0
 40
5.0
 40
6.0
 40
6.0
 40
6.0
 40
7.0
 40
7.0
 40
7.0
 40
7.0
 10
75.13305390916813
 20
-139.1646321266672
 10
75.13305390916813
 20
-139.1646321266672
 10
75.13305390916813
 20
-138.0604790236446
 10
75.13305390916813
 20
-138.0604790236446
 10
75.13305390916813
 20
-138.0604790236446
 10
74.8030137616812
 20
-138.0604790236446
 10
74.8030137616812
 20
-138.0604790236446
 10
74.8030137616812
 20
-138.0604790236446
 10
74.8030137616812
 20
-137.9123399177789
 10
74.8030137616812
 20
-137.9123399177789
 10
75.13512096645928
 20
-137.8975260071923
 10
75.18162975551016
 20
-137.73457299074
 10
75.2112575766833
 20
-137.6201958206297
 10
75.2112575766833
 20
-137.6201958206297
 10
75.35732962525789
 20
-137.6201958206297
 10
75.35732962525789
 20
-137.6201958206297
 10
75.35732962525789
 20
-137.6201958206297
 10
75.35732962525789
 20
-139.1646321266672
 10
75.35732962525789
 20
-139.1646321266672
 10
75.35732962525789
 20
-139.1646321266672
 10
75.13305390916813
 20
-139.1646321266672
 10
75.13305390916813
 20
-139.1646321266672
 97
        0
 97
        0
 75
     2
 76
     1
 98
        0
  0
SPLINE
  5
BC
330
B6
100
AcDbEntity
  8
_U+30EC_U+30A4_U+30E4_U+30FC 1
370
     0
100
AcDbSpline
210
0.0
220
0.0
230
1.0
 70
    11
 71
     3
 72
    29
 73
    25
 74
     0
 42
0.0000000001
 43
0.0000000001
 12
1.0
 22
0.0
 32
0.0
 13
1.0
 23
0.0
 33
0.0
 40
0.0
 40
0.0
 40
0.0
 40
0.0
 40
1.0
 40
1.0
 40
1.0
 40
2.0
 40
2.0
 40
2.0
 40
3.0
 40
3.0
 40
3.0
 40
4.0
 40
4.0
 40
4.0
 40
5.0
 40
5.0
 40
5.0
 40
6.0
 40
6.0
 40
6.0
 40
7.0
 40
7.0
 40
7.0
 40
8.0
 40
8.0
 40
8.0
 40
8.0
 10
76.75638290181786
 20
-138.9868651996283
 30
0.0
 10
76.64820690358101
 20
-139.1963270051315
 30
0.0
 10
76.47491860067294
 20
-139.2152750303003
 30
0.0
 10
76.35847437327149
 20
-139.2152750303003
 30
0.0
 10
76.19758841411033
 20
-139.2152750303003
 30
0.0
 10
76.05599498966656
 20
-139.1687662412495
 30
0.0
 10
75.96091035427366
 20
-138.9868651996283
 30
0.0
 10
75.85721298016765
 20
-138.7922173047117
 30
0.0
 10
75.83826495499878
 20
-138.555539244875
 30
0.0
 10
75.83826495499878
 20
-138.3925862284227
 30
0.0
 10
75.83826495499878
 20
-138.2485812371393
 30
0.0
 10
75.85514592287649
 20
-137.9967447571675
 30
0.0
 10
75.96091035427366
 20
-137.7979627476686
 30
0.0
 10
76.06874184296198
 20
-137.5950466235874
 30
0.0
 10
76.22962780212315
 20
-137.5716199742876
 30
0.0
 10
76.35847437327149
 20
-137.5716199742876
 30
0.0
 10
76.51729327514151
 20
-137.5716199742876
 30
0.0
 10
76.66095375687644
 20
-137.6160617060474
 30
0.0
 10
76.75638290181786
 20
-137.7979627476686
 30
0.0
 10
76.85560165179305
 20
-137.990543585294
 30
0.0
 10
76.87902830109275
 20
-138.2189534159661
 30
0.0
 10
76.87902830109275
 20
-138.3925862284227
 30
0.0
 10
76.87902830109275
 20
-138.5638074740396
 30
0.0
 10
76.8576687090842
 20
-138.7942843620028
 30
0.0
 10
76.75638290181786
 20
-138.9868651996283
 30
0.0
  0
SPLINE
  5
BD
330
B6
100
AcDbEntity
  8
_U+30EC_U+30A4_U+30E4_U+30FC 1
370
     0
100
AcDbSpline
210
0.0
220
0.0
230
1.0
 70
    11
 71
     3
 72
    17
 73
    13
 74
     0
 42
0.0000000001
 43
0.0000000001
 12
1.0
 22
0.0
 32
0.0
 13
1.0
 23
0.0
 33
0.0
 40
0.0
 40
0.0
 40
0.0
 40
0.0
 40
1.0
 40
1.0
 40
1.0
 40
2.0
 40
2.0
 40
2.0
 40
3.0
 40
3.0
 40
3.0
 40
4.0
 40
4.0
 40
4.0
 40
4.0
 10
76.35847437327149
 20
-137.7642008119131
 30
0.0
 10
76.1090494601394
 20
-137.7642008119131
 30
0.0
 10
76.06219616154002
 20
-138.0477321703492
 30
0.0
 10
76.06219616154002
 20
-138.3925862284227
 30
0.0
 10
76.06219616154002
 20
-138.7119465799053
 30
0.0
 10
76.09836966413513
 20
-139.0206271353837
 30
0.0
 10
76.35847437327149
 20
-139.0206271353837
 30
0.0
 10
76.60617673866096
 20
-139.0206271353837
 30
0.0
 10
76.65475258500298
 20
-138.7395073437874
 30
0.0
 10
76.65475258500298
 20
-138.3925862284227
 30
0.0
 10
76.65475258500298
 20
-138.0728813673915
 30
0.0
 10
76.6165120251167
 20
-137.7642008119131
 30
0.0
 10
76.35847437327149
 20
-137.7642008119131
 30
0.0
  0
HATCH
  5
BE
330
B6
100
AcDbEntity
  8
_U+30EC_U+30A4_U+30E4_U+30FC 1
 62
   179
420
  2234388
100
AcDbHatch
 10
0.0
 20
0.0
 30
0.0
210
0.0
220
0.0
230
1.0
  2
SOLID
 70
     1
 71
     0
 91
        2
 92
        1
 93
        1
 72
     4
 94
        3
 73
     0
 74
     1
 95
       29
 96
       25
 40
0.0
 40
0.0
 40
0.0
 40
0.0
 40
1.0
 40
1.0
 40
1.0
 40
2.0
 40
2.0
 40
2.0
 40
3.0
 40
3.0
 40
3.0
 40
4.0
 40
4.0
 40
4.0
 40
5.0
 40
5.0
 40
5.0
 40
6.0
 40
6.0
 40
6.0
 40
7.0
 40
7.0
 40
7.0
 40
8.0
 40
8.0
 40
8.0
 40
8.0
 10
76.75638290181786
 20
-138.9868651996283
 10
76.64820690358101
 20
-139.1963270051315
 10
76.47491860067294
 20
-139.2152750303003
 10
76.35847437327149
 20
-139.2152750303003
 10
76.19758841411033
 20
-139.2152750303003
 10
76.05599498966656
 20
-139.1687662412495
 10
75.96091035427366
 20
-138.9868651996283
 10
75.85721298016765
 20
-138.7922173047117
 10
75.83826495499878
 20
-138.555539244875
 10
75.83826495499878
 20
-138.3925862284227
 10
75.83826495499878
 20
-138.2485812371393
 10
75.85514592287649
 20
-137.9967447571675
 10
75.96091035427366
 20
-137.7979627476686
 10
76.06874184296198
 20
-137.5950466235874
 10
76.22962780212315
 20
-137.5716199742876
 10
76.35847437327149
 20
-137.5716199742876
 10
76.51729327514151
 20
-137.5716199742876
 10
76.66095375687644
 20
-137.6160617060474
 10
76.75638290181786
 20
-137.7979627476686
 10
76.85560165179305
 20
-137.990543585294
 10
76.87902830109275
 20
-138.2189534159661
 10
76.87902830109275
 20
-138.3925862284227
 10
76.87902830109275
 20
-138.5638074740396
 10
76.8576687090842
 20
-138.7942843620028
 10
76.75638290181786
 20
-138.9868651996283
 97
        0
 97
        0
 92
        1
 93
        1
 72
     4
 94
        3
 73
     0
 74
     1
 95
       17
 96
       13
 40
0.0
 40
0.0
 40
0.0
 40
0.0
 40
1.0
 40
1.0
 40
1.0
 40
2.0
 40
2.0
 40
2.0
 40
3.0
 40
3.0
 40
3.0
 40
4.0
 40
4.0
 40
4.0
 40
4.0
 10
76.35847437327149
 20
-137.7642008119131
 10
76.1090494601394
 20
-137.7642008119131
 10
76.06219616154002
 20
-138.0477321703492
 10
76.06219616154002
 20
-138.3925862284227
 10
76.06219616154002
 20
-138.7119465799053
 10
76.09836966413513
 20
-139.0206271353837
 10
76.35847437327149
 20
-139.0206271353837
 10
76.60617673866096
 20
-139.0206271353837
 10
76.65475258500298
 20
-138.7395073437874
 10
76.65475258500298
 20
-138.3925862284227
 10
76.65475258500298
 20
-138.0728813673915
 10
76.6165120251167
 20
-137.7642008119131
 10
76.35847437327149
 20
-137.7642008119131
 97
        0
 97
        0
 75
     2
 76
     1
 98
        0
  0
ENDBLK
  5
B9
330
B6
100
AcDbEntity
  8
0
100
AcDbBlockEnd
  0
ENDSEC
  0
SECTION
  2
ENTITIES
  0
INSERT
  5
42
330
1F
100
AcDbEntity
  8
_U+30EC_U+30A4_U+30E4_U+30FC 1
100
AcDbBlockReference
  2
block 2
 10
0.0
 20
0.0
 30
0.0
  0
ENDSEC
  0
SECTION
  2
OBJECTS
  0
DICTIONARY
  5
C
330
0
100
AcDbDictionary
281
     1
  3
ACAD_GROUP
350
D
  3
ACAD_LAYOUT
350
1A
  3
ACAD_MATERIAL
350
3B
  3
ACAD_MLEADERSTYLE
350
CF
  3
ACAD_MLINESTYLE
350
17
  3
ACAD_PLOTSETTINGS
350
19
  3
ACAD_PLOTSTYLENAME
350
E
  3
ACAD_TABLESTYLE
350
CE
  3
ACAD_VISUALSTYLE
350
2A
  0
SUN
  5
3F
330
29
100
AcDbSun
 90
        1
290
     0
 63
     7
421
 16777215
 40
1.0
291
     1
 91
  2455826
 92
 54000000
292
     0
 70
     2
 71
   256
280
     1
  0
DICTIONARY
  5
D
102
{ACAD_REACTORS
330
C
102
}
330
C
100
AcDbDictionary
281
     1
  0
DICTIONARY
  5
1A
102
{ACAD_REACTORS
330
C
102
}
330
C
100
AcDbDictionary
281
     1
  3
Layout1
350
1E
  3
Layout2
350
26
  3
Model
350
22
  0
DICTIONARY
  5
3B
102
{ACAD_REACTORS
330
C
102
}
330
C
100
AcDbDictionary
281
     1
  3
ByBlock
350
3D
  3
ByLayer
350
3C
  3
Global
350
3E
  0
DICTIONARY
  5
CF
102
{ACAD_REACTORS
330
C
102
}
330
C
100
AcDbDictionary
281
     1
  0
DICTIONARY
  5
17
102
{ACAD_REACTORS
330
C
102
}
330
C
100
AcDbDictionary
281
     1
  3
Standard
350
18
  0
DICTIONARY
  5
19
102
{ACAD_REACTORS
330
C
102
}
330
C
100
AcDbDictionary
281
     1
  0
ACDBDICTIONARYWDFLT
  5
E
102
{ACAD_REACTORS
330
C
102
}
330
C
100
AcDbDictionary
281
     1
  3
Normal
350
F
100
AcDbDictionaryWithDefault
340
F
  0
DICTIONARY
  5
CE
102
{ACAD_REACTORS
330
C
102
}
330
C
100
AcDbDictionary
281
     1
  0
DICTIONARY
  5
2A
102
{ACAD_REACTORS
330
C
102
}
330
C
100
AcDbDictionary
281
     1
  3
2dWireframe
350
2F
  3
3D Hidden
350
31
  3
3dWireframe
350
30
  3
Basic
350
32
  3
Brighten
350
36
  3
ColorChange
350
3A
  3
Conceptual
350
34
  3
Dim
350
35
  3
Facepattern
350
39
  3
Flat
350
2B
  3
FlatWithEdges
350
2C
  3
Gouraud
350
2D
  3
GouraudWithEdges
350
2E
  3
Linepattern
350
38
  3
Realistic
350
33
  3
Thicken
350
37
  0
LAYOUT
  5
1E
102
{ACAD_REACTORS
330
1A
102
}
330
1A
100
AcDbPlotSettings
  1

  2
none_device
  4

  6

 40
0.0
 41
0.0
 42
0.0
 43
0.0
 44
0.0
 45
0.0
 46
0.0
 47
0.0
 48
0.0
 49
0.0
140
0.0
141
0.0
142
1.0
143
1.0
 70
   688
 72
     0
 73
     0
 74
     5
  7

 75
    16
 76
     0
 77
     2
 78
   300
147
1.0
148
0.0
149
0.0
100
AcDbLayout
  1
Layout1
 70
     1
 71
     1
 10
0.0
 20
0.0
 11
12.0
 21
9.0
 12
0.0
 22
0.0
 32
0.0
 14
1.000000000000000E+20
 24
1.000000000000000E+20
 34
1.000000000000000E+20
 15
-1.000000000000000E+20
 25
-1.000000000000000E+20
 35
-1.000000000000000E+20
146
0.0
 13
0.0
 23
0.0
 33
0.0
 16
1.0
 26
0.0
 36
0.0
 17
0.0
 27
1.0
 37
0.0
 76
     0
330
1B
  0
LAYOUT
  5
26
102
{ACAD_REACTORS
330
1A
102
}
330
1A
100
AcDbPlotSettings
  1

  2
none_device
  4

  6

 40
0.0
 41
0.0
 42
0.0
 43
0.0
 44
0.0
 45
0.0
 46
0.0
 47
0.0
 48
0.0
 49
0.0
140
0.0
141
0.0
142
1.0
143
1.0
 70
   688
 72
     0
 73
     0
 74
     5
  7

 75
    16
 76
     0
 77
     2
 78
   300
147
1.0
148
0.0
149
0.0
100
AcDbLayout
  1
Layout2
 70
     1
 71
     2
 10
0.0
 20
0.0
 11
0.0
 21
0.0
 12
0.0
 22
0.0
 32
0.0
 14
0.0
 24
0.0
 34
0.0
 15
0.0
 25
0.0
 35
0.0
146
0.0
 13
0.0
 23
0.0
 33
0.0
 16
1.0
 26
0.0
 36
0.0
 17
0.0
 27
1.0
 37
0.0
 76
     0
330
23
  0
LAYOUT
  5
22
102
{ACAD_REACTORS
330
1A
102
}
330
1A
100
AcDbPlotSettings
  1

  2
none_device
  4

  6

 40
0.0
 41
0.0
 42
0.0
 43
0.0
 44
0.0
 45
0.0
 46
0.0
 47
0.0
 48
0.0
 49
0.0
140
0.0
141
0.0
142
1.0
143
1.0
 70
  1712
 72
     0
 73
     0
 74
     0
  7

 75
     0
 76
     0
 77
     2
 78
   300
147
1.0
148
0.0
149
0.0
100
AcDbLayout
  1
Model
 70
     1
 71
     0
 10
0.0
 20
0.0
 11
12.0
 21
9.0
 12
0.0
 22
0.0
 32
0.0
 14
1.000000000000000E+20
 24
1.000000000000000E+20
 34
1.000000000000000E+20
 15
-1.000000000000000E+20
 25
-1.000000000000000E+20
 35
-1.000000000000000E+20
146
0.0
 13
0.0
 23
0.0
 33
0.0
 16
1.0
 26
0.0
 36
0.0
 17
0.0
 27
1.0
 37
0.0
 76
     0
330
1F
331
29
  0
MATERIAL
  5
3D
102
{ACAD_REACTORS
330
3B
102
}
330
3B
100
AcDbMaterial
  1
ByBlock
 72
     1
 94
      127
  0
MATERIAL
  5
3C
102
{ACAD_REACTORS
330
3B
102
}
330
3B
100
AcDbMaterial
  1
ByLayer
 72
     1
 94
      127
  0
MATERIAL
  5
3E
102
{ACAD_REACTORS
330
3B
102
}
330
3B
100
AcDbMaterial
  1
Global
 72
     1
 94
      127
  0
MLINESTYLE
  5
18
102
{ACAD_REACTORS
330
17
102
}
330
17
100
AcDbMlineStyle
  2
Standard
 70
     0
  3

 62
   256
 51
90.0
 52
90.0
 71
     2
 49
0.5
 62
   256
  6
BYLAYER
 49
-0.5
 62
   256
  6
BYLAYER
  0
ACDBPLACEHOLDER
  5
F
102
{ACAD_REACTORS
330
E
102
}
330
E
  0
VISUALSTYLE
  5
2F
102
{ACAD_REACTORS
330
2A
102
}
330
2A
100
AcDbVisualStyle
  2
2dWireframe
 70
     4
177
     2
291
     0
 71
     0
176
     1
 72
     2
176
     1
 73
     0
176
     1
 90
        0
176
     1
 40
-0.6
176
     1
 41
-30.0
176
     1
 62
     5
 63
     7
421
 16777215
176
     1
 74
     1
176
     1
 91
        4
176
     1
 64
     7
176
     1
 65
   257
176
     1
 75
     1
176
     1
175
     1
176
     1
 42
1.0
176
     1
 92
        0
176
     1
 66
   257
176
     1
 43
1.0
176
     1
 76
     1
176
     1
 77
     6
176
     1
 78
     2
176
     1
 67
     7
176
     1
 79
     5
176
     1
170
     0
176
     1
171
     0
176
     1
290
     0
176
     1
 93
        1
176
     1
 44
0.0
176
     1
173
     0
176
     1
  0
VISUALSTYLE
  5
31
102
{ACAD_REACTORS
330
2A
102
}
330
2A
100
AcDbVisualStyle
  2
3D Hidden
 70
     6
177
     2
291
     0
 71
     1
176
     1
 72
     2
176
     1
 73
     2
176
     1
 90
        0
176
     1
 40
-0.6
176
     1
 41
-30.0
176
     1
 62
     5
 63
     7
421
 16777215
176
     1
 74
     2
176
     1
 91
        2
176
     1
 64
     7
176
     1
 65
   257
176
     1
 75
     2
176
     1
175
     1
176
     1
 42
40.0
176
     1
 92
        0
176
     1
 66
   257
176
     1
 43
1.0
176
     1
 76
     1
176
     1
 77
     6
176
     1
 78
     2
176
     1
 67
     7
176
     1
 79
     3
176
     1
170
     0
176
     1
171
     0
176
     1
290
     0
176
     1
 93
        1
176
     1
 44
0.0
176
     1
173
     0
176
     1
  0
VISUALSTYLE
  5
30
102
{ACAD_REACTORS
330
2A
102
}
330
2A
100
AcDbVisualStyle
  2
3dWireframe
 70
     5
177
     2
291
     0
 71
     0
176
     1
 72
     2
176
     1
 73
     0
176
     1
 90
        0
176
     1
 40
-0.6
176
     1
 41
-30.0
176
     1
 62
     5
 63
     7
421
 16777215
176
     1
 74
     1
176
     1
 91
        4
176
     1
 64
     7
176
     1
 65
   257
176
     1
 75
     1
176
     1
175
     1
176
     1
 42
1.0
176
     1
 92
        0
176
     1
 66
   257
176
     1
 43
1.0
176
     1
 76
     1
176
     1
 77
     6
176
     1
 78
     2
176
     1
 67
     7
176
     1
 79
     5
176
     1
170
     0
176
     1
171
     0
176
     1
290
     0
176
     1
 93
        1
176
     1
 44
0.0
176
     1
173
     0
176
     1
  0
VISUALSTYLE
  5
32
102
{ACAD_REACTORS
330
2A
102
}
330
2A
100
AcDbVisualStyle
  2
Basic
 70
     7
177
     2
291
     1
 71
     1
176
     1
 72
     0
176
     1
 73
     1
176
     1
 90
        0
176
     1
 40
-0.6
176
     1
 41
-30.0
176
     1
 62
     5
 63
     7
421
 16777215
176
     1
 74
     0
176
     1
 91
        4
176
     1
 64
     7
176
     1
 65
   257
176
     1
 75
     1
176
     1
175
     1
176
     1
 42
1.0
176
     1
 92
        8
176
     1
 66
     7
176
     1
 43
1.0
176
     1
 76
     1
176
     1
 77
     6
176
     1
 78
     2
176
     1
 67
     7
176
     1
 79
     5
176
     1
170
     0
176
     1
171
     0
176
     1
290
     0
176
     1
 93
        1
176
     1
 44
0.0
176
     1
173
     0
176
     1
  0
VISUALSTYLE
  5
36
102
{ACAD_REACTORS
330
2A
102
}
330
2A
100
AcDbVisualStyle
  2
Brighten
 70
    12
177
     2
291
     1
 71
     2
176
     1
 72
     2
176
     1
 73
     0
176
     1
 90
        0
176
     1
 40
-0.6
176
     1
 41
-30.0
176
     1
 62
     5
 63
     7
421
 16777215
176
     1
 74
     1
176
     1
 91
        4
176
     1
 64
     7
176
     1
 65
   257
176
     1
 75
     1
176
     1
175
     1
176
     1
 42
1.0
176
     1
 92
        8
176
     1
 66
     7
176
     1
 43
1.0
176
     1
 76
     1
176
     1
 77
     6
176
     1
 78
     2
176
     1
 67
     7
176
     1
 79
     5
176
     1
170
     0
176
     1
171
     0
176
     1
290
     0
176
     1
 93
        1
176
     1
 44
50.0
176
     1
173
     0
176
     1
  0
VISUALSTYLE
  5
3A
102
{ACAD_REACTORS
330
2A
102
}
330
2A
100
AcDbVisualStyle
  2
ColorChange
 70
    16
177
     2
291
     1
 71
     2
176
     1
 72
     2
176
     1
 73
     3
176
     1
 90
        0
176
     1
 40
-0.6
176
     1
 41
-30.0
176
     1
 62
     5
 63
     8
421
  8421504
176
     1
 74
     1
176
     1
 91
        4
176
     1
 64
     7
176
     1
 65
   257
176
     1
 75
     1
176
     1
175
     1
176
     1
 42
1.0
176
     1
 92
        8
176
     1
 66
     8
424
  8421504
176
     1
 43
1.0
176
     1
 76
     1
176
     1
 77
     6
176
     1
 78
     2
176
     1
 67
     7
176
     1
 79
     5
176
     1
170
     0
176
     1
171
     0
176
     1
290
     0
176
     1
 93
        1
176
     1
 44
0.0
176
     1
173
     0
176
     1
  0
VISUALSTYLE
  5
34
102
{ACAD_REACTORS
330
2A
102
}
330
2A
100
AcDbVisualStyle
  2
Conceptual
 70
     9
177
     2
291
     0
 71
     3
176
     1
 72
     2
176
     1
 73
     0
176
     1
 90
        0
176
     1
 40
-0.6
176
     1
 41
-30.0
176
     1
 62
     5
 63
     7
421
 16777215
176
     1
 74
     2
176
     1
 91
        2
176
     1
 64
     7
176
     1
 65
   257
176
     1
 75
     1
176
     1
175
     1
176
     1
 42
40.0
176
     1
 92
        8
176
     1
 66
     7
176
     1
 43
1.0
176
     1
 76
     1
176
     1
 77
     6
176
     1
 78
     2
176
     1
 67
     7
176
     1
 79
     3
176
     1
170
     0
176
     1
171
     0
176
     1
290
     0
176
     1
 93
        1
176
     1
 44
0.0
176
     1
173
     0
176
     1
  0
VISUALSTYLE
  5
35
102
{ACAD_REACTORS
330
2A
102
}
330
2A
100
AcDbVisualStyle
  2
Dim
 70
    11
177
     2
291
     1
 71
     2
176
     1
 72
     2
176
     1
 73
     0
176
     1
 90
        0
176
     1
 40
-0.6
176
     1
 41
-30.0
176
     1
 62
     5
 63
     7
421
 16777215
176
     1
 74
     1
176
     1
 91
        4
176
     1
 64
     7
176
     1
 65
   257
176
     1
 75
     1
176
     1
175
     1
176
     1
 42
1.0
176
     1
 92
        8
176
     1
 66
     7
176
     1
 43
1.0
176
     1
 76
     1
176
     1
 77
     6
176
     1
 78
     2
176
     1
 67
     7
176
     1
 79
     5
176
     1
170
     0
176
     1
171
     0
176
     1
290
     0
176
     1
 93
        1
176
     1
 44
-50.0
176
     1
173
     0
176
     1
  0
VISUALSTYLE
  5
39
102
{ACAD_REACTORS
330
2A
102
}
330
2A
100
AcDbVisualStyle
  2
Facepattern
 70
    15
177
     2
291
     1
 71
     2
176
     1
 72
     2
176
     1
 73
     0
176
     1
 90
        0
176
     1
 40
-0.6
176
     1
 41
-30.0
176
     1
 62
     5
 63
     7
421
 16777215
176
     1
 74
     1
176
     1
 91
        4
176
     1
 64
     7
176
     1
 65
   257
176
     1
 75
     1
176
     1
175
     1
176
     1
 42
1.0
176
     1
 92
        8
176
     1
 66
     7
176
     1
 43
1.0
176
     1
 76
     1
176
     1
 77
     6
176
     1
 78
     2
176
     1
 67
     7
176
     1
 79
     5
176
     1
170
     0
176
     1
171
     0
176
     1
290
     0
176
     1
 93
        1
176
     1
 44
0.0
176
     1
173
     0
176
     1
  0
VISUALSTYLE
  5
2B
102
{ACAD_REACTORS
330
2A
102
}
330
2A
100
AcDbVisualStyle
  2
Flat
 70
     0
177
     2
291
     1
 71
     2
176
     1
 72
     1
176
     1
 73
     1
176
     1
 90
        2
176
     1
 40
-0.6
176
     1
 41
30.0
176
     1
 62
     5
 63
     7
421
 16777215
176
     1
 74
     0
176
     1
 91
        4
176
     1
 64
     7
176
     1
 65
   257
176
     1
 75
     1
176
     1
175
     1
176
     1
 42
1.0
176
     1
 92
        8
176
     1
 66
     7
176
     1
 43
1.0
176
     1
 76
     1
176
     1
 77
     6
176
     1
 78
     2
176
     1
 67
     7
176
     1
 79
     5
176
     1
170
     0
176
     1
171
     0
176
     1
290
     0
176
     1
 93
       13
176
     1
 44
0.0
176
     1
173
     0
176
     1
  0
VISUALSTYLE
  5
2C
102
{ACAD_REACTORS
330
2A
102
}
330
2A
100
AcDbVisualStyle
  2
FlatWithEdges
 70
     1
177
     2
291
     1
 71
     2
176
     1
 72
     1
176
     1
 73
     1
176
     1
 90
        2
176
     1
 40
-0.6
176
     1
 41
30.0
176
     1
 62
     5
 63
     7
421
 16777215
176
     1
 74
     1
176
     1
 91
        4
176
     1
 64
     7
176
     1
 65
   257
176
     1
 75
     1
176
     1
175
     1
176
     1
 42
1.0
176
     1
 92
        0
176
     1
 66
   257
176
     1
 43
1.0
176
     1
 76
     1
176
     1
 77
     6
176
     1
 78
     2
176
     1
 67
     7
176
     1
 79
     5
176
     1
170
     0
176
     1
171
     0
176
     1
290
     0
176
     1
 93
       13
176
     1
 44
0.0
176
     1
173
     0
176
     1
  0
VISUALSTYLE
  5
2D
102
{ACAD_REACTORS
330
2A
102
}
330
2A
100
AcDbVisualStyle
  2
Gouraud
 70
     2
177
     2
291
     1
 71
     2
176
     1
 72
     2
176
     1
 73
     1
176
     1
 90
        2
176
     1
 40
-0.6
176
     1
 41
30.0
176
     1
 62
     5
 63
     7
421
 16777215
176
     1
 74
     0
176
     1
 91
        4
176
     1
 64
     7
176
     1
 65
   257
176
     1
 75
     1
176
     1
175
     1
176
     1
 42
1.0
176
     1
 92
        0
176
     1
 66
     7
176
     1
 43
1.0
176
     1
 76
     1
176
     1
 77
     6
176
     1
 78
     2
176
     1
 67
     7
176
     1
 79
     5
176
     1
170
     0
176
     1
171
     0
176
     1
290
     0
176
     1
 93
       13
176
     1
 44
0.0
176
     1
173
     0
176
     1
  0
VISUALSTYLE
  5
2E
102
{ACAD_REACTORS
330
2A
102
}
330
2A
100
AcDbVisualStyle
  2
GouraudWithEdges
 70
     3
177
     2
291
     1
 71
     2
176
     1
 72
     2
176
     1
 73
     1
176
     1
 90
        2
176
     1
 40
-0.6
176
     1
 41
30.0
176
     1
 62
     5
 63
     7
421
 16777215
176
     1
 74
     1
176
     1
 91
        4
176
     1
 64
     7
176
     1
 65
   257
176
     1
 75
     1
176
     1
175
     1
176
     1
 42
1.0
176
     1
 92
        0
176
     1
 66
   257
176
     1
 43
1.0
176
     1
 76
     1
176
     1
 77
     6
176
     1
 78
     2
176
     1
 67
     7
176
     1
 79
     5
176
     1
170
     0
176
     1
171
     0
176
     1
290
     0
176
     1
 93
       13
176
     1
 44
0.0
176
     1
173
     0
176
     1
  0
VISUALSTYLE
  5
38
102
{ACAD_REACTORS
330
2A
102
}
330
2A
100
AcDbVisualStyle
  2
Linepattern
 70
    14
177
     2
291
     1
 71
     2
176
     1
 72
     2
176
     1
 73
     0
176
     1
 90
        0
176
     1
 40
-0.6
176
     1
 41
-30.0
176
     1
 62
     5
 63
     7
421
 16777215
176
     1
 74
     1
176
     1
 91
        4
176
     1
 64
     7
176
     1
 65
   257
176
     1
 75
     7
176
     1
175
     7
176
     1
 42
1.0
176
     1
 92
        8
176
     1
 66
     7
176
     1
 43
1.0
176
     1
 76
     1
176
     1
 77
     6
176
     1
 78
     2
176
     1
 67
     7
176
     1
 79
     5
176
     1
170
     0
176
     1
171
     0
176
     1
290
     0
176
     1
 93
        1
176
     1
 44
0.0
176
     1
173
     0
176
     1
  0
VISUALSTYLE
  5
33
102
{ACAD_REACTORS
330
2A
102
}
330
2A
100
AcDbVisualStyle
  2
Realistic
 70
     8
177
     2
291
     0
 71
     2
176
     1
 72
     2
176
     1
 73
     0
176
     1
 90
        0
176
     1
 40
-0.6
176
     1
 41
-30.0
176
     1
 62
     5
 63
     7
421
 16777215
176
     1
 74
     1
176
     1
 91
        0
176
     1
 64
     7
176
     1
 65
   257
176
     1
 75
     1
176
     1
175
     1
176
     1
 42
1.0
176
     1
 92
        8
176
     1
 66
     8
424
  7895160
176
     1
 43
1.0
176
     1
 76
     1
176
     1
 77
     6
176
     1
 78
     2
176
     1
 67
     7
176
     1
 79
     5
176
     1
170
     0
176
     1
171
     0
176
     1
290
     0
176
     1
 93
       13
176
     1
 44
0.0
176
     1
173
     0
176
     1
  0
VISUALSTYLE
  5
37
102
{ACAD_REACTORS
330
2A
102
}
330
2A
100
AcDbVisualStyle
  2
Thicken
 70
    13
177
     2
291
     1
 71
     2
176
     1
 72
     2
176
     1
 73
     0
176
     1
 90
        0
176
     1
 40
-0.6
176
     1
 41
-30.0
176
     1
 62
     5
 63
     7
421
 16777215
176
     1
 74
     1
176
     1
 91
        4
176
     1
 64
     7
176
     1
 65
   257
176
     1
 75
     1
176
     1
175
     1
176
     1
 42
1.0
176
     1
 92
       12
176
     1
 66
     7
176
     1
 43
1.0
176
     1
 76
     1
176
     1
 77
     6
176
     1
 78
     2
176
     1
 67
     7
176
     1
 79
     5
176
     1
170
     0
176
     1
171
     0
176
     1
290
     0
176
     1
 93
        1
176
     1
 44
0.0
176
     1
173
     0
176
     1
  0
ENDSEC
  0
EOF
