  0
SECTION
  2
HEADER
  9
$ACADVER
  1
AC1024
  9
$ACADMAINTVER
 70
     6
  9
$DWGCODEPAGE
  3
UNDEFINED
  9
$INSBASE
 10
0.0
 20
0.0
 30
0.0
  9
$EXTMIN
 10
1.000000000000000E+20
 20
1.000000000000000E+20
 30
1.000000000000000E+20
  9
$EXTMAX
 10
-1.000000000000000E+20
 20
-1.000000000000000E+20
 30
-1.000000000000000E+20
  9
$LIMMIN
 10
0.0
 20
0.0
  9
$LIMMAX
 10
12.0
 20
9.0
  9
$ORTHOMODE
 70
     0
  9
$REGENMODE
 70
     1
  9
$FILLMODE
 70
     1
  9
$QTEXTMODE
 70
     0
  9
$MIRRTEXT
 70
     1
  9
$LTSCALE
 40
1.0
  9
$ATTMODE
 70
     1
  9
$TEXTSIZE
 40
0.2
  9
$TRACEWID
 40
0.05
  9
$TEXTSTYLE
  7
Standard
  9
$CLAYER
  8
0
  9
$CELTYPE
  6
ByLayer
  9
$CECOLOR
 62
   256
  9
$CELTSCALE
 40
1.0
  9
$DISPSILH
 70
     0
  9
$DIMSCALE
 40
1.0
  9
$DIMASZ
 40
0.18
  9
$DIMEXO
 40
0.0625
  9
$DIMDLI
 40
0.38
  9
$DIMRND
 40
0.0
  9
$DIMDLE
 40
0.0
  9
$DIMEXE
 40
0.18
  9
$DIMTP
 40
0.0
  9
$DIMTM
 40
0.0
  9
$DIMTXT
 40
0.18
  9
$DIMCEN
 40
0.09
  9
$DIMTSZ
 40
0.0
  9
$DIMTOL
 70
     0
  9
$DIMLIM
 70
     0
  9
$DIMTIH
 70
     1
  9
$DIMTOH
 70
     1
  9
$DIMSE1
 70
     0
  9
$DIMSE2
 70
     0
  9
$DIMTAD
 70
     0
  9
$DIMZIN
 70
     0
  9
$DIMBLK
  1

  9
$DIMASO
 70
     1
  9
$DIMSHO
 70
     1
  9
$DIMPOST
  1

  9
$DIMAPOST
  1

  9
$DIMALT
 70
     0
  9
$DIMALTD
 70
     2
  9
$DIMALTF
 40
25.4
  9
$DIMLFAC
 40
1.0
  9
$DIMTOFL
 70
     0
  9
$DIMTVP
 40
0.0
  9
$DIMTIX
 70
     0
  9
$DIMSOXD
 70
     0
  9
$DIMSAH
 70
     0
  9
$DIMBLK1
  1

  9
$DIMBLK2
  1

  9
$DIMSTYLE
  2
Standard
  9
$DIMCLRD
 70
     0
  9
$DIMCLRE
 70
     0
  9
$DIMCLRT
 70
     0
  9
$DIMTFAC
 40
1.0
  9
$DIMGAP
 40
0.09
  9
$DIMJUST
 70
     0
  9
$DIMSD1
 70
     0
  9
$DIMSD2
 70
     0
  9
$DIMTOLJ
 70
     1
  9
$DIMTZIN
 70
     0
  9
$DIMALTZ
 70
     0
  9
$DIMALTTZ
 70
     0
  9
$DIMUPT
 70
     0
  9
$DIMDEC
 70
     4
  9
$DIMTDEC
 70
     4
  9
$DIMALTU
 70
     2
  9
$DIMALTTD
 70
     2
  9
$DIMTXSTY
  7
Standard
  9
$DIMAUNIT
 70
     0
  9
$DIMADEC
 70
     0
  9
$DIMALTRND
 40
0.0
  9
$DIMAZIN
 70
     0
  9
$DIMDSEP
 70
    46
  9
$DIMATFIT
 70
     3
  9
$DIMFRAC
 70
     0
  9
$DIMLDRBLK
  1

  9
$DIMLUNIT
 70
     2
  9
$DIMLWD
 70
    -2
  9
$DIMLWE
 70
    -2
  9
$DIMTMOVE
 70
     0
  9
$DIMFXL
 40
1.0
  9
$DIMFXLON
 70
     0
  9
$DIMJOGANG
 40
0.7853981633974483
  9
$DIMTFILL
 70
     0
  9
$DIMTFILLCLR
 70
     0
  9
$DIMARCSYM
 70
     0
  9
$DIMLTYPE
  6

  9
$DIMLTEX1
  6

  9
$DIMLTEX2
  6

  9
$DIMTXTDIRECTION
 70
     0
  9
$LUNITS
 70
     2
  9
$LUPREC
 70
     4
  9
$SKETCHINC
 40
0.1
  9
$FILLETRAD
 40
0.5
  9
$AUNITS
 70
     0
  9
$AUPREC
 70
     0
  9
$MENU
  1
.
  9
$ELEVATION
 40
0.0
  9
$PELEVATION
 40
0.0
  9
$THICKNESS
 40
0.0
  9
$LIMCHECK
 70
     0
  9
$CHAMFERA
 40
0.5
  9
$CHAMFERB
 40
0.5
  9
$CHAMFERC
 40
1.0
  9
$CHAMFERD
 40
0.0
  9
$SKPOLY
 70
     0
  9
$TDCREATE
 40
2457917.616597211
  9
$TDUCREATE
 40
2457917.241597222
  9
$TDUPDATE
 40
2457917.616597211
  9
$TDUUPDATE
 40
2457917.241597222
  9
$TDINDWG
 40
0.0000000116
  9
$TDUSRTIMER
 40
0.0000000116
  9
$USRTIMER
 70
     1
  9
$ANGBASE
 50
0.0
  9
$ANGDIR
 70
     0
  9
$PDMODE
 70
     0
  9
$PDSIZE
 40
0.0
  9
$PLINEWID
 40
0.0
  9
$SPLFRAME
 70
     0
  9
$SPLINETYPE
 70
     6
  9
$SPLINESEGS
 70
     8
  9
$HANDSEED
  5
CA
  9
$SURFTAB1
 70
     6
  9
$SURFTAB2
 70
     6
  9
$SURFTYPE
 70
     6
  9
$SURFU
 70
     6
  9
$SURFV
 70
     6
  9
$UCSBASE
  2

  9
$UCSNAME
  2

  9
$UCSORG
 10
0.0
 20
0.0
 30
0.0
  9
$UCSXDIR
 10
1.0
 20
0.0
 30
0.0
  9
$UCSYDIR
 10
0.0
 20
1.0
 30
0.0
  9
$UCSORTHOREF
  2

  9
$UCSORTHOVIEW
 70
     0
  9
$UCSORGTOP
 10
0.0
 20
0.0
 30
0.0
  9
$UCSORGBOTTOM
 10
0.0
 20
0.0
 30
0.0
  9
$UCSORGLEFT
 10
0.0
 20
0.0
 30
0.0
  9
$UCSORGRIGHT
 10
0.0
 20
0.0
 30
0.0
  9
$UCSORGFRONT
 10
0.0
 20
0.0
 30
0.0
  9
$UCSORGBACK
 10
0.0
 20
0.0
 30
0.0
  9
$PUCSBASE
  2

  9
$PUCSNAME
  2

  9
$PUCSORG
 10
0.0
 20
0.0
 30
0.0
  9
$PUCSXDIR
 10
1.0
 20
0.0
 30
0.0
  9
$PUCSYDIR
 10
0.0
 20
1.0
 30
0.0
  9
$PUCSORTHOREF
  2

  9
$PUCSORTHOVIEW
 70
     0
  9
$PUCSORGTOP
 10
0.0
 20
0.0
 30
0.0
  9
$PUCSORGBOTTOM
 10
0.0
 20
0.0
 30
0.0
  9
$PUCSORGLEFT
 10
0.0
 20
0.0
 30
0.0
  9
$PUCSORGRIGHT
 10
0.0
 20
0.0
 30
0.0
  9
$PUCSORGFRONT
 10
0.0
 20
0.0
 30
0.0
  9
$PUCSORGBACK
 10
0.0
 20
0.0
 30
0.0
  9
$USERI1
 70
     0
  9
$USERI2
 70
     0
  9
$USERI3
 70
     0
  9
$USERI4
 70
     0
  9
$USERI5
 70
     0
  9
$USERR1
 40
0.0
  9
$USERR2
 40
0.0
  9
$USERR3
 40
0.0
  9
$USERR4
 40
0.0
  9
$USERR5
 40
0.0
  9
$WORLDVIEW
 70
     1
  9
$SHADEDGE
 70
     3
  9
$SHADEDIF
 70
    70
  9
$TILEMODE
 70
     1
  9
$MAXACTVP
 70
    64
  9
$PINSBASE
 10
0.0
 20
0.0
 30
0.0
  9
$PLIMCHECK
 70
     0
  9
$PEXTMIN
 10
1.000000000000000E+20
 20
1.000000000000000E+20
 30
1.000000000000000E+20
  9
$PEXTMAX
 10
-1.000000000000000E+20
 20
-1.000000000000000E+20
 30
-1.000000000000000E+20
  9
$PLIMMIN
 10
0.0
 20
0.0
  9
$PLIMMAX
 10
12.0
 20
9.0
  9
$UNITMODE
 70
     0
  9
$VISRETAIN
 70
     1
  9
$PLINEGEN
 70
     0
  9
$PSLTSCALE
 70
     1
  9
$TREEDEPTH
 70
  3020
  9
$CMLSTYLE
  2
Standard
  9
$CMLJUST
 70
     0
  9
$CMLSCALE
 40
1.0
  9
$PROXYGRAPHICS
 70
     1
  9
$MEASUREMENT
 70
     0
  9
$CELWEIGHT
370
    -1
  9
$ENDCAPS
280
     0
  9
$JOINSTYLE
280
     0
  9
$LWDISPLAY
290
     1
  9
$INSUNITS
 70
     1
  9
$HYPERLINKBASE
  1

  9
$STYLESHEET
  1

  9
$XEDIT
290
     1
  9
$CEPSNTYPE
380
     0
  9
$PSTYLEMODE
290
     1
  9
$FINGERPRINTGUID
  2
{3509095E-9EF4-5BA8-93C0-7E7D29644533}
  9
$VERSIONGUID
  2
{FAEB1C32-E019-11D5-929B-00C0DF256EC4}
  9
$EXTNAMES
290
     1
  9
$PSVPSCALE
 40
0.0
  9
$OLESTARTUP
290
     0
  9
$SORTENTS
280
   127
  9
$INDEXCTL
280
     0
  9
$HIDETEXT
280
     1
  9
$XCLIPFRAME
280
     2
  9
$HALOGAP
280
     0
  9
$OBSCOLOR
 70
   257
  9
$OBSLTYPE
280
     0
  9
$INTERSECTIONDISPLAY
280
     0
  9
$INTERSECTIONCOLOR
 70
   257
  9
$DIMASSOC
280
     2
  9
$PROJECTNAME
  1

  9
$CAMERADISPLAY
290
     0
  9
$LENSLENGTH
 40
50.0
  9
$CAMERAHEIGHT
 40
0.0
  9
$STEPSPERSEC
 40
2.0
  9
$STEPSIZE
 40
6.0
  9
$3DDWFPREC
 40
2.0
  9
$PSOLWIDTH
 40
0.25
  9
$PSOLHEIGHT
 40
4.0
  9
$LOFTANG1
 40
1.570796326794897
  9
$LOFTANG2
 40
1.570796326794897
  9
$LOFTMAG1
 40
0.0
  9
$LOFTMAG2
 40
0.0
  9
$LOFTPARAM
 70
     7
  9
$LOFTNORMALS
280
     1
  9
$LATITUDE
 40
37.795
  9
$LONGITUDE
 40
-122.394
  9
$NORTHDIRECTION
 40
0.0
  9
$TIMEZONE
 70
 -8000
  9
$LIGHTGLYPHDISPLAY
280
     1
  9
$TILEMODELIGHTSYNCH
280
     1
  9
$CMATERIAL
347
3C
  9
$SOLIDHIST
280
     1
  9
$SHOWHIST
280
     1
  9
$DWFFRAME
280
     2
  9
$DGNFRAME
280
     2
  9
$REALWORLDSCALE
290
     1
  9
$INTERFERECOLOR
 62
   256
  9
$CSHADOW
280
     0
  9
$SHADOWPLANELOCATION
 40
0.0
  0
ENDSEC
  0
SECTION
  2
CLASSES
  0
CLASS
  1
ACDBDICTIONARYWDFLT
  2
AcDbDictionaryWithDefault
  3
ObjectDBX Classes
 90
        0
 91
        4
280
     0
281
     0
  0
CLASS
  1
VISUALSTYLE
  2
AcDbVisualStyle
  3
ObjectDBX Classes
 90
     4095
 91
        4
280
     0
281
     0
  0
CLASS
  1
MATERIAL
  2
AcDbMaterial
  3
ObjectDBX Classes
 90
     1153
 91
        4
280
     0
281
     0
  0
CLASS
  1
SUN
  2
AcDbSun
  3
SCENEOE
 90
     1024
 91
        4
280
     0
281
     0
  0
ENDSEC
  0
SECTION
  2
TABLES
  0
TABLE
  2
VPORT
  5
8
330
0
100
AcDbSymbolTable
 70
     1
  0
VPORT
  5
29
330
8
100
AcDbSymbolTableRecord
100
AcDbViewportTableRecord
  2
*Active
 70
     0
 10
0.0
 20
0.0
 11
1.0
 21
1.0
 12
0.0
 22
0.0
 13
0.0
 23
0.0
 14
0.5
 24
0.5
 15
0.5
 25
0.5
 16
0.0
 26
0.0
 36
1.0
 17
91.00082462281999
 27
-128.4993055234307
 37
0.0
 40
256.9986110468615
 41
0.7081814508812795
 42
50.0
 43
0.0
 44
0.0
 50
0.0
 51
0.0
 71
     0
 72
   100
 73
     1
 74
     3
 75
     0
 76
     0
 77
     0
 78
     0
281
     0
 65
     1
110
0.0
120
0.0
130
0.0
111
1.0
121
0.0
131
0.0
112
0.0
122
1.0
132
0.0
 79
     0
146
0.0
 60
     3
 61
     5
292
     1
282
     1
141
0.0
142
0.0
 63
   250
361
3F
  0
ENDTAB
  0
TABLE
  2
LTYPE
  5
5
330
0
100
AcDbSymbolTable
 70
     1
  0
LTYPE
  5
14
330
5
100
AcDbSymbolTableRecord
100
AcDbLinetypeTableRecord
  2
ByBlock
 70
     0
  3

 72
    65
 73
     0
 40
0.0
  0
LTYPE
  5
15
330
5
100
AcDbSymbolTableRecord
100
AcDbLinetypeTableRecord
  2
ByLayer
 70
     0
  3

 72
    65
 73
     0
 40
0.0
  0
LTYPE
  5
16
330
5
100
AcDbSymbolTableRecord
100
AcDbLinetypeTableRecord
  2
Continuous
 70
     0
  3
Solid line
 72
    65
 73
     0
 40
0.0
  0
ENDTAB
  0
TABLE
  2
LAYER
  5
2
330
0
100
AcDbSymbolTable
 70
     2
  0
LAYER
  5
10
330
2
100
AcDbSymbolTableRecord
100
AcDbLayerTableRecord
  2
0
 70
     0
 62
     7
  6
Continuous
370
    -3
390
F
347
3E
  0
LAYER
  5
40
330
2
100
AcDbSymbolTableRecord
100
AcDbLayerTableRecord
  2
_U+30EC_U+30A4_U+30E4_U+30FC 1
 70
     0
 62
     7
  6
Continuous
370
    -3
390
F
347
3E
  0
ENDTAB
  0
TABLE
  2
STYLE
  5
3
330
0
100
AcDbSymbolTable
 70
     1
  0
STYLE
  5
11
330
3
100
AcDbSymbolTableRecord
100
AcDbTextStyleTableRecord
  2
Standard
 70
     0
 40
0.0
 41
1.0
 50
0.0
 71
     0
 42
0.2
  3
txt
  4

  0
ENDTAB
  0
TABLE
  2
VIEW
  5
6
330
0
100
AcDbSymbolTable
 70
     0
  0
ENDTAB
  0
TABLE
  2
UCS
  5
7
330
0
100
AcDbSymbolTable
 70
     0
  0
ENDTAB
  0
TABLE
  2
APPID
  5
9
330
0
100
AcDbSymbolTable
 70
     1
  0
APPID
  5
12
330
9
100
AcDbSymbolTableRecord
100
AcDbRegAppTableRecord
  2
ACAD
 70
     0
  0
ENDTAB
  0
TABLE
  2
DIMSTYLE
  5
A
330
0
100
AcDbSymbolTable
 70
     1
100
AcDbDimStyleTable
  0
DIMSTYLE
105
27
330
A
100
AcDbSymbolTableRecord
100
AcDbDimStyleTableRecord
  2
Standard
 70
     0
178
     0
340
11
  0
ENDTAB
  0
TABLE
  2
BLOCK_RECORD
  5
1
330
0
100
AcDbSymbolTable
 70
     8
  0
BLOCK_RECORD
  5
1F
330
1
100
AcDbSymbolTableRecord
100
AcDbBlockTableRecord
  2
*Model_Space
340
22
 70
     0
280
     1
281
     0
  0
BLOCK_RECORD
  5
1B
330
1
100
AcDbSymbolTableRecord
100
AcDbBlockTableRecord
  2
*Paper_Space
340
1E
 70
     0
280
     1
281
     0
  0
BLOCK_RECORD
  5
23
330
1
100
AcDbSymbolTableRecord
100
AcDbBlockTableRecord
  2
*Paper_Space0
340
26
 70
     0
280
     1
281
     0
  0
BLOCK_RECORD
  5
4B
330
1
100
AcDbSymbolTableRecord
100
AcDbBlockTableRecord
  2
block 2
340
0
102
{BLKREFS
331
4C
102
}
 70
     0
280
     1
281
     0
  0
BLOCK_RECORD
  5
5B
330
1
100
AcDbSymbolTableRecord
100
AcDbBlockTableRecord
  2
block 3
340
0
102
{BLKREFS
331
5C
102
}
 70
     0
280
     1
281
     0
  0
BLOCK_RECORD
  5
75
330
1
100
AcDbSymbolTableRecord
100
AcDbBlockTableRecord
  2
block 4
340
0
102
{BLKREFS
331
76
102
}
 70
     0
280
     1
281
     0
  0
BLOCK_RECORD
  5
7E
330
1
100
AcDbSymbolTableRecord
100
AcDbBlockTableRecord
  2
block 5
340
0
102
{BLKREFS
331
7F
102
}
 70
     0
280
     1
281
     0
  0
BLOCK_RECORD
  5
9A
330
1
100
AcDbSymbolTableRecord
100
AcDbBlockTableRecord
  2
block 6
340
0
102
{BLKREFS
331
9B
102
}
 70
     0
280
     1
281
     0
  0
BLOCK_RECORD
  5
A2
330
1
100
AcDbSymbolTableRecord
100
AcDbBlockTableRecord
  2
block 7
340
0
102
{BLKREFS
331
A3
102
}
 70
     0
280
     1
281
     0
  0
BLOCK_RECORD
  5
BD
330
1
100
AcDbSymbolTableRecord
100
AcDbBlockTableRecord
  2
block 8
340
0
102
{BLKREFS
331
BE
102
}
 70
     0
280
     1
281
     0
  0
ENDTAB
  0
ENDSEC
  0
SECTION
  2
BLOCKS
  0
BLOCK
  5
20
330
1F
100
AcDbEntity
  8
0
100
AcDbBlockBegin
  2
*Model_Space
 70
     0
 10
0.0
 20
0.0
 30
0.0
  3
*Model_Space
  1

  0
ENDBLK
  5
21
330
1F
100
AcDbEntity
  8
0
100
AcDbBlockEnd
  0
BLOCK
  5
1C
330
1B
100
AcDbEntity
 67
     1
  8
0
100
AcDbBlockBegin
  2
*Paper_Space
 70
     0
 10
0.0
 20
0.0
 30
0.0
  3
*Paper_Space
  1

  0
ENDBLK
  5
1D
330
1B
100
AcDbEntity
 67
     1
  8
0
100
AcDbBlockEnd
  0
BLOCK
  5
24
330
23
100
AcDbEntity
  8
0
100
AcDbBlockBegin
  2
*Paper_Space0
 70
     0
 10
0.0
 20
0.0
 30
0.0
  3
*Paper_Space0
  1

  0
ENDBLK
  5
25
330
23
100
AcDbEntity
  8
0
100
AcDbBlockEnd
  0
BLOCK
  5
4D
330
4B
100
AcDbEntity
  8
0
100
AcDbBlockBegin
  2
block 2
 70
     0
 10
0.0
 20
0.0
 30
0.0
  3
block 2
  1

  0
SPLINE
  5
4F
330
4B
100
AcDbEntity
  8
_U+30EC_U+30A4_U+30E4_U+30FC 1
370
     0
100
AcDbSpline
210
0.0
220
0.0
230
1.0
 70
    11
 71
     3
 72
    44
 73
    40
 74
     0
 42
0.0000000001
 43
0.0000000001
 12
1.0
 22
0.0
 32
0.0
 13
1.0
 23
0.0
 33
0.0
 40
0.0
 40
0.0
 40
0.0
 40
0.0
 40
1.0
 40
1.0
 40
1.0
 40
2.0
 40
2.0
 40
2.0
 40
3.0
 40
3.0
 40
3.0
 40
4.0
 40
4.0
 40
4.0
 40
5.0
 40
5.0
 40
5.0
 40
6.0
 40
6.0
 40
6.0
 40
7.0
 40
7.0
 40
7.0
 40
8.0
 40
8.0
 40
8.0
 40
9.0
 40
9.0
 40
9.0
 40
10.0
 40
10.0
 40
10.0
 40
11.0
 40
11.0
 40
11.0
 40
12.0
 40
12.0
 40
12.0
 40
13.0
 40
13.0
 40
13.0
 40
13.0
 10
80.85397947197401
 20
-151.0898301488595
 30
0.0
 10
80.63607718253196
 20
-151.2486490507295
 30
0.0
 10
80.54288734965594
 20
-151.3223740941139
 30
0.0
 10
80.49431150331392
 20
-151.4663790853973
 30
0.0
 10
80.49431150331392
 20
-151.4663790853973
 30
0.0
 10
81.27273082820612
 20
-151.4663790853973
 30
0.0
 10
81.27273082820612
 20
-151.4663790853973
 30
0.0
 10
81.27273082820612
 20
-151.4663790853973
 30
0.0
 10
81.27273082820612
 20
-151.6717067763182
 30
0.0
 10
81.27273082820612
 20
-151.6717067763182
 30
0.0
 10
81.27273082820612
 20
-151.6717067763182
 30
0.0
 10
80.24471433540758
 20
-151.6717067763182
 30
0.0
 10
80.24471433540758
 20
-151.6717067763182
 30
0.0
 10
80.27640921387187
 20
-151.3141058649493
 30
0.0
 10
80.34203828286589
 20
-151.2355576878856
 30
0.0
 10
80.72702770334256
 20
-150.9372124188629
 30
0.0
 10
80.98299829789661
 20
-150.7387749189125
 30
0.0
 10
81.04845511211636
 20
-150.6709065378531
 30
0.0
 10
81.04845511211636
 20
-150.5334472279916
 30
0.0
 10
81.04845511211636
 20
-150.414935943299
 30
0.0
 10
80.9766248712489
 20
-150.2840223148596
 30
0.0
 10
80.77990991904113
 20
-150.2840223148596
 30
0.0
 10
80.51963295513052
 20
-150.2840223148596
 30
0.0
 10
80.51119247119165
 20
-150.5141546932742
 30
0.0
 10
80.5068861018351
 20
-150.6305989206757
 30
0.0
 10
80.5068861018351
 20
-150.6305989206757
 30
0.0
 10
80.28278264051959
 20
-150.6305989206757
 30
0.0
 10
80.28278264051959
 20
-150.6305989206757
 30
0.0
 10
80.29122312445845
 20
-150.5038194068185
 30
0.0
 10
80.30173066568845
 20
-150.3915092939993
 30
0.0
 10
80.38217364526905
 20
-150.2729980093067
 30
0.0
 10
80.49207219124851
 20
-150.1124565596941
 30
0.0
 10
80.67827960222627
 20
-150.0786946239387
 30
0.0
 10
80.79472382962771
 20
-150.0786946239387
 30
0.0
 10
81.07188176141607
 20
-150.0786946239387
 30
0.0
 10
81.27910425485383
 20
-150.262662722851
 30
0.0
 10
81.27910425485383
 20
-150.5355142852828
 30
0.0
 10
81.27910425485383
 20
-150.7639241159549
 30
0.0
 10
81.16283228222666
 20
-150.8634873754786
 30
0.0
 10
80.85397947197401
 20
-151.0898301488595
 30
0.0
  0
HATCH
  5
50
330
4B
100
AcDbEntity
  8
_U+30EC_U+30A4_U+30E4_U+30FC 1
 62
     7
420
 16777215
100
AcDbHatch
 10
0.0
 20
0.0
 30
0.0
210
0.0
220
0.0
230
1.0
  2
SOLID
 70
     1
 71
     0
 91
        1
 92
        1
 93
        1
 72
     4
 94
        3
 73
     0
 74
     1
 95
       44
 96
       40
 40
0.0
 40
0.0
 40
0.0
 40
0.0
 40
1.0
 40
1.0
 40
1.0
 40
2.0
 40
2.0
 40
2.0
 40
3.0
 40
3.0
 40
3.0
 40
4.0
 40
4.0
 40
4.0
 40
5.0
 40
5.0
 40
5.0
 40
6.0
 40
6.0
 40
6.0
 40
7.0
 40
7.0
 40
7.0
 40
8.0
 40
8.0
 40
8.0
 40
9.0
 40
9.0
 40
9.0
 40
10.0
 40
10.0
 40
10.0
 40
11.0
 40
11.0
 40
11.0
 40
12.0
 40
12.0
 40
12.0
 40
13.0
 40
13.0
 40
13.0
 40
13.0
 10
80.85397947197401
 20
-151.0898301488595
 10
80.63607718253196
 20
-151.2486490507295
 10
80.54288734965594
 20
-151.3223740941139
 10
80.49431150331392
 20
-151.4663790853973
 10
80.49431150331392
 20
-151.4663790853973
 10
81.27273082820612
 20
-151.4663790853973
 10
81.27273082820612
 20
-151.4663790853973
 10
81.27273082820612
 20
-151.4663790853973
 10
81.27273082820612
 20
-151.6717067763182
 10
81.27273082820612
 20
-151.6717067763182
 10
81.27273082820612
 20
-151.6717067763182
 10
80.24471433540758
 20
-151.6717067763182
 10
80.24471433540758
 20
-151.6717067763182
 10
80.27640921387187
 20
-151.3141058649493
 10
80.34203828286589
 20
-151.2355576878856
 10
80.72702770334256
 20
-150.9372124188629
 10
80.98299829789661
 20
-150.7387749189125
 10
81.04845511211636
 20
-150.6709065378531
 10
81.04845511211636
 20
-150.5334472279916
 10
81.04845511211636
 20
-150.414935943299
 10
80.9766248712489
 20
-150.2840223148596
 10
80.77990991904113
 20
-150.2840223148596
 10
80.51963295513052
 20
-150.2840223148596
 10
80.51119247119165
 20
-150.5141546932742
 10
80.5068861018351
 20
-150.6305989206757
 10
80.5068861018351
 20
-150.6305989206757
 10
80.28278264051959
 20
-150.6305989206757
 10
80.28278264051959
 20
-150.6305989206757
 10
80.29122312445845
 20
-150.5038194068185
 10
80.30173066568845
 20
-150.3915092939993
 10
80.38217364526905
 20
-150.2729980093067
 10
80.49207219124851
 20
-150.1124565596941
 10
80.67827960222627
 20
-150.0786946239387
 10
80.79472382962771
 20
-150.0786946239387
 10
81.07188176141607
 20
-150.0786946239387
 10
81.27910425485383
 20
-150.262662722851
 10
81.27910425485383
 20
-150.5355142852828
 10
81.27910425485383
 20
-150.7639241159549
 10
81.16283228222666
 20
-150.8634873754786
 10
80.85397947197401
 20
-151.0898301488595
 97
        0
 97
        0
 75
     2
 76
     1
 98
        0
  0
SPLINE
  5
51
330
4B
100
AcDbEntity
  8
_U+30EC_U+30A4_U+30E4_U+30FC 1
370
     0
100
AcDbSpline
210
0.0
220
0.0
230
1.0
 70
    11
 71
     3
 72
    53
 73
    49
 74
     0
 42
0.0000000001
 43
0.0000000001
 12
1.0
 22
0.0
 32
0.0
 13
1.0
 23
0.0
 33
0.0
 40
0.0
 40
0.0
 40
0.0
 40
0.0
 40
1.0
 40
1.0
 40
1.0
 40
2.0
 40
2.0
 40
2.0
 40
3.0
 40
3.0
 40
3.0
 40
4.0
 40
4.0
 40
4.0
 40
5.0
 40
5.0
 40
5.0
 40
6.0
 40
6.0
 40
6.0
 40
7.0
 40
7.0
 40
7.0
 40
8.0
 40
8.0
 40
8.0
 40
9.0
 40
9.0
 40
9.0
 40
10.0
 40
10.0
 40
10.0
 40
11.0
 40
11.0
 40
11.0
 40
12.0
 40
12.0
 40
12.0
 40
13.0
 40
13.0
 40
13.0
 40
14.0
 40
14.0
 40
14.0
 40
15.0
 40
15.0
 40
15.0
 40
16.0
 40
16.0
 40
16.0
 40
16.0
 10
81.91868623169047
 20
-151.7223496799513
 30
0.0
 10
81.84031030940103
 20
-151.7223496799513
 30
0.0
 10
81.73885224736043
 20
-151.7054687120736
 30
0.0
 10
81.63722193054556
 20
-151.6420789551451
 30
0.0
 10
81.46376137286323
 20
-151.5318358996171
 30
0.0
 10
81.44257403562894
 20
-151.4009222711776
 30
0.0
 10
81.42362601046007
 20
-151.2927462729407
 30
0.0
 10
81.42362601046007
 20
-151.2927462729407
 30
0.0
 10
81.64566241448442
 20
-151.2927462729407
 30
0.0
 10
81.64566241448442
 20
-151.2927462729407
 30
0.0
 10
81.70078394224842
 20
-151.4918727919882
 30
0.0
 10
81.82773571087988
 20
-151.5215006131613
 30
0.0
 10
81.92075328898162
 20
-151.5215006131613
 30
0.0
 10
82.0604519109085
 20
-151.5215006131613
 30
0.0
 10
82.21272513135655
 20
-151.4219373536376
 30
0.0
 10
82.21272513135655
 20
-151.1893934083832
 30
0.0
 10
82.21272513135655
 20
-150.9330783042806
 30
0.0
 10
82.0328911470265
 20
-150.8634873754786
 30
0.0
 10
81.91231280504276
 20
-150.8634873754786
 30
0.0
 10
81.88061792657847
 20
-150.8634873754786
 30
0.0
 10
81.73885224736043
 20
-150.8634873754786
 30
0.0
 10
81.64996878384099
 20
-150.9923339466269
 30
0.0
 10
81.64996878384099
 20
-150.9923339466269
 30
0.0
 10
81.4744411688675
 20
-150.9733859214581
 30
0.0
 10
81.4744411688675
 20
-150.9733859214581
 30
0.0
 10
81.4744411688675
 20
-150.9733859214581
 30
0.0
 10
81.59501951085124
 20
-150.1272704702807
 30
0.0
 10
81.59501951085124
 20
-150.1272704702807
 30
0.0
 10
81.59501951085124
 20
-150.1272704702807
 30
0.0
 10
82.37343883574344
 20
-150.1272704702807
 30
0.0
 10
82.37343883574344
 20
-150.1272704702807
 30
0.0
 10
82.37343883574344
 20
-150.1272704702807
 30
0.0
 10
82.37343883574344
 20
-150.3219183651973
 30
0.0
 10
82.37343883574344
 20
-150.3219183651973
 30
0.0
 10
82.37343883574344
 20
-150.3219183651973
 30
0.0
 10
81.75780027252931
 20
-150.3219183651973
 30
0.0
 10
81.75780027252931
 20
-150.3219183651973
 30
0.0
 10
81.75780027252931
 20
-150.3219183651973
 30
0.0
 10
81.69234345830955
 20
-150.744976090786
 30
0.0
 10
81.69234345830955
 20
-150.744976090786
 30
0.0
 10
81.75366615794701
 20
-150.7112141550305
 30
0.0
 10
81.83617619481873
 20
-150.6709065378531
 30
0.0
 10
81.95451522473707
 20
-150.6709065378531
 30
0.0
 10
82.20841876199998
 20
-150.6709065378531
 30
0.0
 10
82.44544133138517
 20
-150.8572862036051
 30
0.0
 10
82.44544133138517
 20
-151.1701008736658
 30
0.0
 10
82.44544133138517
 20
-151.4877386774058
 30
0.0
 10
82.2211656152954
 20
-151.7223496799513
 30
0.0
 10
81.91868623169047
 20
-151.7223496799513
 30
0.0
  0
HATCH
  5
52
330
4B
100
AcDbEntity
  8
_U+30EC_U+30A4_U+30E4_U+30FC 1
 62
     7
420
 16777215
100
AcDbHatch
 10
0.0
 20
0.0
 30
0.0
210
0.0
220
0.0
230
1.0
  2
SOLID
 70
     1
 71
     0
 91
        1
 92
        1
 93
        1
 72
     4
 94
        3
 73
     0
 74
     1
 95
       53
 96
       49
 40
0.0
 40
0.0
 40
0.0
 40
0.0
 40
1.0
 40
1.0
 40
1.0
 40
2.0
 40
2.0
 40
2.0
 40
3.0
 40
3.0
 40
3.0
 40
4.0
 40
4.0
 40
4.0
 40
5.0
 40
5.0
 40
5.0
 40
6.0
 40
6.0
 40
6.0
 40
7.0
 40
7.0
 40
7.0
 40
8.0
 40
8.0
 40
8.0
 40
9.0
 40
9.0
 40
9.0
 40
10.0
 40
10.0
 40
10.0
 40
11.0
 40
11.0
 40
11.0
 40
12.0
 40
12.0
 40
12.0
 40
13.0
 40
13.0
 40
13.0
 40
14.0
 40
14.0
 40
14.0
 40
15.0
 40
15.0
 40
15.0
 40
16.0
 40
16.0
 40
16.0
 40
16.0
 10
81.91868623169047
 20
-151.7223496799513
 10
81.84031030940103
 20
-151.7223496799513
 10
81.73885224736043
 20
-151.7054687120736
 10
81.63722193054556
 20
-151.6420789551451
 10
81.46376137286323
 20
-151.5318358996171
 10
81.44257403562894
 20
-151.4009222711776
 10
81.42362601046007
 20
-151.2927462729407
 10
81.42362601046007
 20
-151.2927462729407
 10
81.64566241448442
 20
-151.2927462729407
 10
81.64566241448442
 20
-151.2927462729407
 10
81.70078394224842
 20
-151.4918727919882
 10
81.82773571087988
 20
-151.5215006131613
 10
81.92075328898162
 20
-151.5215006131613
 10
82.0604519109085
 20
-151.5215006131613
 10
82.21272513135655
 20
-151.4219373536376
 10
82.21272513135655
 20
-151.1893934083832
 10
82.21272513135655
 20
-150.9330783042806
 10
82.0328911470265
 20
-150.8634873754786
 10
81.91231280504276
 20
-150.8634873754786
 10
81.88061792657847
 20
-150.8634873754786
 10
81.73885224736043
 20
-150.8634873754786
 10
81.64996878384099
 20
-150.9923339466269
 10
81.64996878384099
 20
-150.9923339466269
 10
81.4744411688675
 20
-150.9733859214581
 10
81.4744411688675
 20
-150.9733859214581
 10
81.4744411688675
 20
-150.9733859214581
 10
81.59501951085124
 20
-150.1272704702807
 10
81.59501951085124
 20
-150.1272704702807
 10
81.59501951085124
 20
-150.1272704702807
 10
82.37343883574344
 20
-150.1272704702807
 10
82.37343883574344
 20
-150.1272704702807
 10
82.37343883574344
 20
-150.1272704702807
 10
82.37343883574344
 20
-150.3219183651973
 10
82.37343883574344
 20
-150.3219183651973
 10
82.37343883574344
 20
-150.3219183651973
 10
81.75780027252931
 20
-150.3219183651973
 10
81.75780027252931
 20
-150.3219183651973
 10
81.75780027252931
 20
-150.3219183651973
 10
81.69234345830955
 20
-150.744976090786
 10
81.69234345830955
 20
-150.744976090786
 10
81.75366615794701
 20
-150.7112141550305
 10
81.83617619481873
 20
-150.6709065378531
 10
81.95451522473707
 20
-150.6709065378531
 10
82.20841876199998
 20
-150.6709065378531
 10
82.44544133138517
 20
-150.8572862036051
 10
82.44544133138517
 20
-151.1701008736658
 10
82.44544133138517
 20
-151.4877386774058
 10
82.2211656152954
 20
-151.7223496799513
 10
81.91868623169047
 20
-151.7223496799513
 97
        0
 97
        0
 75
     2
 76
     1
 98
        0
  0
ENDBLK
  5
4E
330
4B
100
AcDbEntity
  8
0
100
AcDbBlockEnd
  0
BLOCK
  5
5D
330
5B
100
AcDbEntity
  8
0
100
AcDbBlockBegin
  2
block 3
 70
     0
 10
0.0
 20
0.0
 30
0.0
  3
block 3
  1

  0
SPLINE
  5
5F
330
5B
100
AcDbEntity
  8
_U+30EC_U+30A4_U+30E4_U+30FC 1
370
     0
100
AcDbSpline
210
0.0
220
0.0
230
1.0
 70
    11
 71
     3
 72
    53
 73
    49
 74
     0
 42
0.0000000001
 43
0.0000000001
 12
1.0
 22
0.0
 32
0.0
 13
1.0
 23
0.0
 33
0.0
 40
0.0
 40
0.0
 40
0.0
 40
0.0
 40
1.0
 40
1.0
 40
1.0
 40
2.0
 40
2.0
 40
2.0
 40
3.0
 40
3.0
 40
3.0
 40
4.0
 40
4.0
 40
4.0
 40
5.0
 40
5.0
 40
5.0
 40
6.0
 40
6.0
 40
6.0
 40
7.0
 40
7.0
 40
7.0
 40
8.0
 40
8.0
 40
8.0
 40
9.0
 40
9.0
 40
9.0
 40
10.0
 40
10.0
 40
10.0
 40
11.0
 40
11.0
 40
11.0
 40
12.0
 40
12.0
 40
12.0
 40
13.0
 40
13.0
 40
13.0
 40
14.0
 40
14.0
 40
14.0
 40
15.0
 40
15.0
 40
15.0
 40
16.0
 40
16.0
 40
16.0
 40
16.0
 10
96.3310709394589
 20
-151.7223496799513
 30
0.0
 10
96.25286727194373
 20
-151.7223496799513
 30
0.0
 10
96.15123695512887
 20
-151.7054687120736
 30
0.0
 10
96.04995114786252
 20
-151.6420789551451
 30
0.0
 10
95.87631833540593
 20
-151.5318358996171
 30
0.0
 10
95.85495874339738
 20
-151.4009222711776
 30
0.0
 10
95.83635522777702
 20
-151.2927462729407
 30
0.0
 10
95.83635522777702
 20
-151.2927462729407
 30
0.0
 10
96.05821937702711
 20
-151.2927462729407
 30
0.0
 10
96.05821937702711
 20
-151.2927462729407
 30
0.0
 10
96.11334090479112
 20
-151.4918727919882
 30
0.0
 10
96.2401204186483
 20
-151.5215006131613
 30
0.0
 10
96.33313799675005
 20
-151.5215006131613
 30
0.0
 10
96.47300887345119
 20
-151.5215006131613
 30
0.0
 10
96.62528209389924
 20
-151.4219373536376
 30
0.0
 10
96.62528209389924
 20
-151.1893934083832
 30
0.0
 10
96.62528209389924
 20
-150.9330783042806
 30
0.0
 10
96.4454481095692
 20
-150.8634873754786
 30
0.0
 10
96.32486976758545
 20
-150.8634873754786
 30
0.0
 10
96.29317488912116
 20
-150.8634873754786
 30
0.0
 10
96.15123695512887
 20
-150.8634873754786
 30
0.0
 10
96.06235349160941
 20
-150.9923339466269
 30
0.0
 10
96.06235349160941
 20
-150.9923339466269
 30
0.0
 10
95.8869981314102
 20
-150.9733859214581
 30
0.0
 10
95.8869981314102
 20
-150.9733859214581
 30
0.0
 10
95.8869981314102
 20
-150.9733859214581
 30
0.0
 10
96.00757647339394
 20
-150.1272704702807
 30
0.0
 10
96.00757647339394
 20
-150.1272704702807
 30
0.0
 10
96.00757647339394
 20
-150.1272704702807
 30
0.0
 10
96.78582354351188
 20
-150.1272704702807
 30
0.0
 10
96.78582354351188
 20
-150.1272704702807
 30
0.0
 10
96.78582354351188
 20
-150.1272704702807
 30
0.0
 10
96.78582354351188
 20
-150.3219183651973
 30
0.0
 10
96.78582354351188
 20
-150.3219183651973
 30
0.0
 10
96.78582354351188
 20
-150.3219183651973
 30
0.0
 10
96.17052948984626
 20
-150.3219183651973
 30
0.0
 10
96.17052948984626
 20
-150.3219183651973
 30
0.0
 10
96.17052948984626
 20
-150.3219183651973
 30
0.0
 10
96.10507267562652
 20
-150.744976090786
 30
0.0
 10
96.10507267562652
 20
-150.744976090786
 30
0.0
 10
96.16639537526396
 20
-150.7112141550305
 30
0.0
 10
96.24873315736143
 20
-150.6709065378531
 30
0.0
 10
96.3668999325055
 20
-150.6709065378531
 30
0.0
 10
96.62114797931694
 20
-150.6709065378531
 30
0.0
 10
96.85817054870213
 20
-150.8572862036051
 30
0.0
 10
96.85817054870213
 20
-151.1701008736658
 30
0.0
 10
96.85817054870213
 20
-151.4877386774058
 30
0.0
 10
96.63355032306384
 20
-151.7223496799513
 30
0.0
 10
96.3310709394589
 20
-151.7223496799513
 30
0.0
  0
HATCH
  5
60
330
5B
100
AcDbEntity
  8
_U+30EC_U+30A4_U+30E4_U+30FC 1
 62
     7
420
 16777215
100
AcDbHatch
 10
0.0
 20
0.0
 30
0.0
210
0.0
220
0.0
230
1.0
  2
SOLID
 70
     1
 71
     0
 91
        1
 92
        1
 93
        1
 72
     4
 94
        3
 73
     0
 74
     1
 95
       53
 96
       49
 40
0.0
 40
0.0
 40
0.0
 40
0.0
 40
1.0
 40
1.0
 40
1.0
 40
2.0
 40
2.0
 40
2.0
 40
3.0
 40
3.0
 40
3.0
 40
4.0
 40
4.0
 40
4.0
 40
5.0
 40
5.0
 40
5.0
 40
6.0
 40
6.0
 40
6.0
 40
7.0
 40
7.0
 40
7.0
 40
8.0
 40
8.0
 40
8.0
 40
9.0
 40
9.0
 40
9.0
 40
10.0
 40
10.0
 40
10.0
 40
11.0
 40
11.0
 40
11.0
 40
12.0
 40
12.0
 40
12.0
 40
13.0
 40
13.0
 40
13.0
 40
14.0
 40
14.0
 40
14.0
 40
15.0
 40
15.0
 40
15.0
 40
16.0
 40
16.0
 40
16.0
 40
16.0
 10
96.3310709394589
 20
-151.7223496799513
 10
96.25286727194373
 20
-151.7223496799513
 10
96.15123695512887
 20
-151.7054687120736
 10
96.04995114786252
 20
-151.6420789551451
 10
95.87631833540593
 20
-151.5318358996171
 10
95.85495874339738
 20
-151.4009222711776
 10
95.83635522777702
 20
-151.2927462729407
 10
95.83635522777702
 20
-151.2927462729407
 10
96.05821937702711
 20
-151.2927462729407
 10
96.05821937702711
 20
-151.2927462729407
 10
96.11334090479112
 20
-151.4918727919882
 10
96.2401204186483
 20
-151.5215006131613
 10
96.33313799675005
 20
-151.5215006131613
 10
96.47300887345119
 20
-151.5215006131613
 10
96.62528209389924
 20
-151.4219373536376
 10
96.62528209389924
 20
-151.1893934083832
 10
96.62528209389924
 20
-150.9330783042806
 10
96.4454481095692
 20
-150.8634873754786
 10
96.32486976758545
 20
-150.8634873754786
 10
96.29317488912116
 20
-150.8634873754786
 10
96.15123695512887
 20
-150.8634873754786
 10
96.06235349160941
 20
-150.9923339466269
 10
96.06235349160941
 20
-150.9923339466269
 10
95.8869981314102
 20
-150.9733859214581
 10
95.8869981314102
 20
-150.9733859214581
 10
95.8869981314102
 20
-150.9733859214581
 10
96.00757647339394
 20
-150.1272704702807
 10
96.00757647339394
 20
-150.1272704702807
 10
96.00757647339394
 20
-150.1272704702807
 10
96.78582354351188
 20
-150.1272704702807
 10
96.78582354351188
 20
-150.1272704702807
 10
96.78582354351188
 20
-150.1272704702807
 10
96.78582354351188
 20
-150.3219183651973
 10
96.78582354351188
 20
-150.3219183651973
 10
96.78582354351188
 20
-150.3219183651973
 10
96.17052948984626
 20
-150.3219183651973
 10
96.17052948984626
 20
-150.3219183651973
 10
96.17052948984626
 20
-150.3219183651973
 10
96.10507267562652
 20
-150.744976090786
 10
96.10507267562652
 20
-150.744976090786
 10
96.16639537526396
 20
-150.7112141550305
 10
96.24873315736143
 20
-150.6709065378531
 10
96.3668999325055
 20
-150.6709065378531
 10
96.62114797931694
 20
-150.6709065378531
 10
96.85817054870213
 20
-150.8572862036051
 10
96.85817054870213
 20
-151.1701008736658
 10
96.85817054870213
 20
-151.4877386774058
 10
96.63355032306384
 20
-151.7223496799513
 10
96.3310709394589
 20
-151.7223496799513
 97
        0
 97
        0
 75
     2
 76
     1
 98
        0
  0
ENDBLK
  5
5E
330
5B
100
AcDbEntity
  8
0
100
AcDbBlockEnd
  0
BLOCK
  5
77
330
75
100
AcDbEntity
  8
0
100
AcDbBlockBegin
  2
block 4
 70
     0
 10
0.0
 20
0.0
 30
0.0
  3
block 4
  1

  0
SPLINE
  5
79
330
75
100
AcDbEntity
  8
_U+30EC_U+30A4_U+30E4_U+30FC 1
370
     0
100
AcDbSpline
210
0.0
220
0.0
230
1.0
 70
    11
 71
     3
 72
    62
 73
    58
 74
     0
 42
0.0000000001
 43
0.0000000001
 12
1.0
 22
0.0
 32
0.0
 13
1.0
 23
0.0
 33
0.0
 40
0.0
 40
0.0
 40
0.0
 40
0.0
 40
1.0
 40
1.0
 40
1.0
 40
2.0
 40
2.0
 40
2.0
 40
3.0
 40
3.0
 40
3.0
 40
4.0
 40
4.0
 40
4.0
 40
5.0
 40
5.0
 40
5.0
 40
6.0
 40
6.0
 40
6.0
 40
7.0
 40
7.0
 40
7.0
 40
8.0
 40
8.0
 40
8.0
 40
9.0
 40
9.0
 40
9.0
 40
10.0
 40
10.0
 40
10.0
 40
11.0
 40
11.0
 40
11.0
 40
12.0
 40
12.0
 40
12.0
 40
13.0
 40
13.0
 40
13.0
 40
14.0
 40
14.0
 40
14.0
 40
15.0
 40
15.0
 40
15.0
 40
16.0
 40
16.0
 40
16.0
 40
17.0
 40
17.0
 40
17.0
 40
18.0
 40
18.0
 40
18.0
 40
19.0
 40
19.0
 40
19.0
 40
19.0
 10
64.13682588457344
 20
-133.1391601229652
 30
0.0
 10
64.13682588457344
 20
-133.2342447583581
 30
0.0
 10
64.11563854733915
 20
-133.4523193025744
 30
0.0
 10
63.92943113636139
 20
-133.5770317591405
 30
0.0
 10
63.81729327831651
 20
-133.6511013120733
 30
0.0
 10
63.71790227356706
 20
-133.6552354266557
 30
0.0
 10
63.63332517940417
 20
-133.6593695412379
 30
0.0
 10
63.63332517940417
 20
-133.6593695412379
 30
0.0
 10
63.63332517940417
 20
-133.439572449279
 30
0.0
 10
63.63332517940417
 20
-133.439572449279
 30
0.0
 10
63.70739473233704
 20
-133.4375053919879
 30
0.0
 10
63.94217798965682
 20
-133.4268255959836
 30
0.0
 10
63.94217798965682
 20
-133.1432942375475
 30
0.0
 10
63.94217798965682
 20
-133.005834927686
 30
0.0
 10
63.87241480608051
 20
-132.853561707238
 30
0.0
 10
63.64383272063419
 20
-132.853561707238
 30
0.0
 10
63.52756074800701
 20
-132.853561707238
 30
0.0
 10
63.47881264689072
 20
-132.8918022671243
 30
0.0
 10
63.44711776842642
 20
-132.9234971455886
 30
0.0
 10
63.37304821549355
 20
-132.9972221889729
 30
0.0
 10
63.36047361697239
 20
-133.1136664163744
 30
0.0
 10
63.36047361697239
 20
-133.1687879441384
 30
0.0
 10
63.36047361697239
 20
-133.1877359693072
 30
0.0
 10
63.36254067426353
 20
-133.2239094719024
 30
0.0
 10
63.36667478884583
 20
-133.2514702357844
 30
0.0
 10
63.36667478884583
 20
-133.2514702357844
 30
0.0
 10
63.17202689392922
 20
-133.2514702357844
 30
0.0
 10
63.17202689392922
 20
-133.2514702357844
 30
0.0
 10
63.17840032057693
 20
-133.2132296758981
 30
0.0
 10
63.18063963264234
 20
-133.1708550014295
 30
0.0
 10
63.18063963264234
 20
-133.1646538295561
 30
0.0
 10
63.18063963264234
 20
-133.0991970153363
 30
0.0
 10
63.15945229540806
 20
-132.9000704962889
 30
0.0
 10
62.92242972602287
 20
-132.9000704962889
 30
0.0
 10
62.74483505375824
 20
-132.9000704962889
 30
0.0
 10
62.68971352599424
 20
-133.0313286342769
 30
0.0
 10
62.68971352599424
 20
-133.1412271802564
 30
0.0
 10
62.68971352599424
 20
-133.4058105135236
 30
0.0
 10
62.92242972602287
 20
-133.4140787426882
 30
0.0
 10
62.99443222166459
 20
-133.4182128572704
 30
0.0
 10
62.99443222166459
 20
-133.4182128572704
 30
0.0
 10
62.99443222166459
 20
-133.6214734909002
 30
0.0
 10
62.99443222166459
 20
-133.6214734909002
 30
0.0
 10
62.86954751032428
 20
-133.6132052617356
 30
0.0
 10
62.49299857378647
 20
-133.5856444978536
 30
0.0
 10
62.49299857378647
 20
-133.1288248365095
 30
0.0
 10
62.49299857378647
 20
-132.9042046108712
 30
0.0
 10
62.61995034241793
 20
-132.6630479269037
 30
0.0
 10
62.91605629937516
 20
-132.6630479269037
 30
0.0
 10
63.10226371035291
 20
-132.6630479269037
 30
0.0
 10
63.18477374722464
 20
-132.7581325622966
 30
0.0
 10
63.24609644686209
 20
-132.8580403313688
 30
0.0
 10
63.27365721074409
 20
-132.7963731221829
 30
0.0
 10
63.35410019032467
 20
-132.6144720805617
 30
0.0
 10
63.63125812211302
 20
-132.6144720805617
 30
0.0
 10
63.96973875353882
 20
-132.6144720805617
 30
0.0
 10
64.13682588457344
 20
-132.8621744459511
 30
0.0
 10
64.13682588457344
 20
-133.1391601229652
 30
0.0
  0
HATCH
  5
7A
330
75
100
AcDbEntity
  8
_U+30EC_U+30A4_U+30E4_U+30FC 1
 62
     7
420
 16777215
100
AcDbHatch
 10
0.0
 20
0.0
 30
0.0
210
0.0
220
0.0
230
1.0
  2
SOLID
 70
     1
 71
     0
 91
        1
 92
        1
 93
        1
 72
     4
 94
        3
 73
     0
 74
     1
 95
       62
 96
       58
 40
0.0
 40
0.0
 40
0.0
 40
0.0
 40
1.0
 40
1.0
 40
1.0
 40
2.0
 40
2.0
 40
2.0
 40
3.0
 40
3.0
 40
3.0
 40
4.0
 40
4.0
 40
4.0
 40
5.0
 40
5.0
 40
5.0
 40
6.0
 40
6.0
 40
6.0
 40
7.0
 40
7.0
 40
7.0
 40
8.0
 40
8.0
 40
8.0
 40
9.0
 40
9.0
 40
9.0
 40
10.0
 40
10.0
 40
10.0
 40
11.0
 40
11.0
 40
11.0
 40
12.0
 40
12.0
 40
12.0
 40
13.0
 40
13.0
 40
13.0
 40
14.0
 40
14.0
 40
14.0
 40
15.0
 40
15.0
 40
15.0
 40
16.0
 40
16.0
 40
16.0
 40
17.0
 40
17.0
 40
17.0
 40
18.0
 40
18.0
 40
18.0
 40
19.0
 40
19.0
 40
19.0
 40
19.0
 10
64.13682588457344
 20
-133.1391601229652
 10
64.13682588457344
 20
-133.2342447583581
 10
64.11563854733915
 20
-133.4523193025744
 10
63.92943113636139
 20
-133.5770317591405
 10
63.81729327831651
 20
-133.6511013120733
 10
63.71790227356706
 20
-133.6552354266557
 10
63.63332517940417
 20
-133.6593695412379
 10
63.63332517940417
 20
-133.6593695412379
 10
63.63332517940417
 20
-133.439572449279
 10
63.63332517940417
 20
-133.439572449279
 10
63.70739473233704
 20
-133.4375053919879
 10
63.94217798965682
 20
-133.4268255959836
 10
63.94217798965682
 20
-133.1432942375475
 10
63.94217798965682
 20
-133.005834927686
 10
63.87241480608051
 20
-132.853561707238
 10
63.64383272063419
 20
-132.853561707238
 10
63.52756074800701
 20
-132.853561707238
 10
63.47881264689072
 20
-132.8918022671243
 10
63.44711776842642
 20
-132.9234971455886
 10
63.37304821549355
 20
-132.9972221889729
 10
63.36047361697239
 20
-133.1136664163744
 10
63.36047361697239
 20
-133.1687879441384
 10
63.36047361697239
 20
-133.1877359693072
 10
63.36254067426353
 20
-133.2239094719024
 10
63.36667478884583
 20
-133.2514702357844
 10
63.36667478884583
 20
-133.2514702357844
 10
63.17202689392922
 20
-133.2514702357844
 10
63.17202689392922
 20
-133.2514702357844
 10
63.17840032057693
 20
-133.2132296758981
 10
63.18063963264234
 20
-133.1708550014295
 10
63.18063963264234
 20
-133.1646538295561
 10
63.18063963264234
 20
-133.0991970153363
 10
63.15945229540806
 20
-132.9000704962889
 10
62.92242972602287
 20
-132.9000704962889
 10
62.74483505375824
 20
-132.9000704962889
 10
62.68971352599424
 20
-133.0313286342769
 10
62.68971352599424
 20
-133.1412271802564
 10
62.68971352599424
 20
-133.4058105135236
 10
62.92242972602287
 20
-133.4140787426882
 10
62.99443222166459
 20
-133.4182128572704
 10
62.99443222166459
 20
-133.4182128572704
 10
62.99443222166459
 20
-133.6214734909002
 10
62.99443222166459
 20
-133.6214734909002
 10
62.86954751032428
 20
-133.6132052617356
 10
62.49299857378647
 20
-133.5856444978536
 10
62.49299857378647
 20
-133.1288248365095
 10
62.49299857378647
 20
-132.9042046108712
 10
62.61995034241793
 20
-132.6630479269037
 10
62.91605629937516
 20
-132.6630479269037
 10
63.10226371035291
 20
-132.6630479269037
 10
63.18477374722464
 20
-132.7581325622966
 10
63.24609644686209
 20
-132.8580403313688
 10
63.27365721074409
 20
-132.7963731221829
 10
63.35410019032467
 20
-132.6144720805617
 10
63.63125812211302
 20
-132.6144720805617
 10
63.96973875353882
 20
-132.6144720805617
 10
64.13682588457344
 20
-132.8621744459511
 10
64.13682588457344
 20
-133.1391601229652
 97
        0
 97
        0
 75
     2
 76
     1
 98
        0
  0
SPLINE
  5
7B
330
75
100
AcDbEntity
  8
_U+30EC_U+30A4_U+30E4_U+30FC 1
370
     0
100
AcDbSpline
210
0.0
220
0.0
230
1.0
 70
    11
 71
     3
 72
    29
 73
    25
 74
     0
 42
0.0000000001
 43
0.0000000001
 12
1.0
 22
0.0
 32
0.0
 13
1.0
 23
0.0
 33
0.0
 40
0.0
 40
0.0
 40
0.0
 40
0.0
 40
1.0
 40
1.0
 40
1.0
 40
2.0
 40
2.0
 40
2.0
 40
3.0
 40
3.0
 40
3.0
 40
4.0
 40
4.0
 40
4.0
 40
5.0
 40
5.0
 40
5.0
 40
6.0
 40
6.0
 40
6.0
 40
7.0
 40
7.0
 40
7.0
 40
8.0
 40
8.0
 40
8.0
 40
8.0
 10
63.90824379912711
 20
-131.5561387474929
 30
0.0
 10
64.1177056046303
 20
-131.6639702361812
 30
0.0
 10
64.13682588457344
 20
-131.8376030486378
 30
0.0
 10
64.13682588457344
 20
-131.9540472760393
 30
0.0
 10
64.13682588457344
 20
-132.1145887256519
 30
0.0
 10
64.09031709552256
 20
-132.2565266596442
 30
0.0
 10
63.90824379912711
 20
-132.3516112950371
 30
0.0
 10
63.71359590421049
 20
-132.4549641595946
 30
0.0
 10
63.47674558959957
 20
-132.474256694312
 30
0.0
 10
63.31379257314725
 20
-132.474256694312
 30
0.0
 10
63.16995983663807
 20
-132.474256694312
 30
0.0
 10
62.91829561144057
 20
-132.4573757264343
 30
0.0
 10
62.71934134716739
 20
-132.3516112950371
 30
0.0
 10
62.51625296831191
 20
-132.2434352968003
 30
0.0
 10
62.49299857378647
 20
-132.0828938471876
 30
0.0
 10
62.49299857378647
 20
-131.9540472760393
 30
0.0
 10
62.49299857378647
 20
-131.7952283741693
 30
0.0
 10
62.5374403055462
 20
-131.6515678924343
 30
0.0
 10
62.71934134716739
 20
-131.5561387474929
 30
0.0
 10
62.91192218479286
 20
-131.4565754879692
 30
0.0
 10
63.14033201546492
 20
-131.433493348218
 30
0.0
 10
63.31379257314725
 20
-131.433493348218
 30
0.0
 10
63.48518607353843
 20
-131.433493348218
 30
0.0
 10
63.71583521627591
 20
-131.454508430678
 30
0.0
 10
63.90824379912711
 20
-131.5561387474929
 30
0.0
  0
SPLINE
  5
7C
330
75
100
AcDbEntity
  8
_U+30EC_U+30A4_U+30E4_U+30FC 1
370
     0
100
AcDbSpline
210
0.0
220
0.0
230
1.0
 70
    11
 71
     3
 72
    17
 73
    13
 74
     0
 42
0.0000000001
 43
0.0000000001
 12
1.0
 22
0.0
 32
0.0
 13
1.0
 23
0.0
 33
0.0
 40
0.0
 40
0.0
 40
0.0
 40
0.0
 40
1.0
 40
1.0
 40
1.0
 40
2.0
 40
2.0
 40
2.0
 40
3.0
 40
3.0
 40
3.0
 40
4.0
 40
4.0
 40
4.0
 40
4.0
 10
62.68557941141194
 20
-131.9540472760393
 30
0.0
 10
62.68557941141194
 20
-132.2034721891714
 30
0.0
 10
62.969110769848
 20
-132.2499809782222
 30
0.0
 10
63.31379257314725
 20
-132.2499809782222
 30
0.0
 10
63.63332517940417
 20
-132.2499809782222
 30
0.0
 10
63.94217798965682
 20
-132.2138074756271
 30
0.0
 10
63.94217798965682
 20
-131.9540472760393
 30
0.0
 10
63.94217798965682
 20
-131.7063449106498
 30
0.0
 10
63.6607136885119
 20
-131.6577690643078
 30
0.0
 10
63.31379257314725
 20
-131.6577690643078
 30
0.0
 10
62.99443222166459
 20
-131.6577690643078
 30
0.0
 10
62.68557941141194
 20
-131.6956651146455
 30
0.0
 10
62.68557941141194
 20
-131.9540472760393
 30
0.0
  0
HATCH
  5
7D
330
75
100
AcDbEntity
  8
_U+30EC_U+30A4_U+30E4_U+30FC 1
 62
     7
420
 16777215
100
AcDbHatch
 10
0.0
 20
0.0
 30
0.0
210
0.0
220
0.0
230
1.0
  2
SOLID
 70
     1
 71
     0
 91
        2
 92
        1
 93
        1
 72
     4
 94
        3
 73
     0
 74
     1
 95
       29
 96
       25
 40
0.0
 40
0.0
 40
0.0
 40
0.0
 40
1.0
 40
1.0
 40
1.0
 40
2.0
 40
2.0
 40
2.0
 40
3.0
 40
3.0
 40
3.0
 40
4.0
 40
4.0
 40
4.0
 40
5.0
 40
5.0
 40
5.0
 40
6.0
 40
6.0
 40
6.0
 40
7.0
 40
7.0
 40
7.0
 40
8.0
 40
8.0
 40
8.0
 40
8.0
 10
63.90824379912711
 20
-131.5561387474929
 10
64.1177056046303
 20
-131.6639702361812
 10
64.13682588457344
 20
-131.8376030486378
 10
64.13682588457344
 20
-131.9540472760393
 10
64.13682588457344
 20
-132.1145887256519
 10
64.09031709552256
 20
-132.2565266596442
 10
63.90824379912711
 20
-132.3516112950371
 10
63.71359590421049
 20
-132.4549641595946
 10
63.47674558959957
 20
-132.474256694312
 10
63.31379257314725
 20
-132.474256694312
 10
63.16995983663807
 20
-132.474256694312
 10
62.91829561144057
 20
-132.4573757264343
 10
62.71934134716739
 20
-132.3516112950371
 10
62.51625296831191
 20
-132.2434352968003
 10
62.49299857378647
 20
-132.0828938471876
 10
62.49299857378647
 20
-131.9540472760393
 10
62.49299857378647
 20
-131.7952283741693
 10
62.5374403055462
 20
-131.6515678924343
 10
62.71934134716739
 20
-131.5561387474929
 10
62.91192218479286
 20
-131.4565754879692
 10
63.14033201546492
 20
-131.433493348218
 10
63.31379257314725
 20
-131.433493348218
 10
63.48518607353843
 20
-131.433493348218
 10
63.71583521627591
 20
-131.454508430678
 10
63.90824379912711
 20
-131.5561387474929
 97
        0
 97
        0
 92
        1
 93
        1
 72
     4
 94
        3
 73
     0
 74
     1
 95
       17
 96
       13
 40
0.0
 40
0.0
 40
0.0
 40
0.0
 40
1.0
 40
1.0
 40
1.0
 40
2.0
 40
2.0
 40
2.0
 40
3.0
 40
3.0
 40
3.0
 40
4.0
 40
4.0
 40
4.0
 40
4.0
 10
62.68557941141194
 20
-131.9540472760393
 10
62.68557941141194
 20
-132.2034721891714
 10
62.969110769848
 20
-132.2499809782222
 10
63.31379257314725
 20
-132.2499809782222
 10
63.63332517940417
 20
-132.2499809782222
 10
63.94217798965682
 20
-132.2138074756271
 10
63.94217798965682
 20
-131.9540472760393
 10
63.94217798965682
 20
-131.7063449106498
 10
63.6607136885119
 20
-131.6577690643078
 10
63.31379257314725
 20
-131.6577690643078
 10
62.99443222166459
 20
-131.6577690643078
 10
62.68557941141194
 20
-131.6956651146455
 10
62.68557941141194
 20
-131.9540472760393
 97
        0
 97
        0
 75
     2
 76
     1
 98
        0
  0
ENDBLK
  5
78
330
75
100
AcDbEntity
  8
0
100
AcDbBlockEnd
  0
BLOCK
  5
80
330
7E
100
AcDbEntity
  8
0
100
AcDbBlockBegin
  2
block 5
 70
     0
 10
0.0
 20
0.0
 30
0.0
  3
block 5
  1

  0
SPLINE
  5
82
330
7E
100
AcDbEntity
  8
_U+30EC_U+30A4_U+30E4_U+30FC 1
370
     0
100
AcDbSpline
210
0.0
220
0.0
230
1.0
 70
    11
 71
     3
 72
    26
 73
    22
 74
     0
 42
0.0000000001
 43
0.0000000001
 12
1.0
 22
0.0
 32
0.0
 13
1.0
 23
0.0
 33
0.0
 40
0.0
 40
0.0
 40
0.0
 40
0.0
 40
1.0
 40
1.0
 40
1.0
 40
2.0
 40
2.0
 40
2.0
 40
3.0
 40
3.0
 40
3.0
 40
4.0
 40
4.0
 40
4.0
 40
5.0
 40
5.0
 40
5.0
 40
6.0
 40
6.0
 40
6.0
 40
7.0
 40
7.0
 40
7.0
 40
7.0
 10
64.086010726166
 20
-110.679549125976
 30
0.0
 10
64.086010726166
 20
-110.679549125976
 30
0.0
 10
62.98168536836916
 20
-110.679549125976
 30
0.0
 10
62.98168536836916
 20
-110.679549125976
 30
0.0
 10
62.98168536836916
 20
-110.679549125976
 30
0.0
 10
62.98168536836916
 20
-111.0095892734629
 30
0.0
 10
62.98168536836916
 20
-111.0095892734629
 30
0.0
 10
62.98168536836916
 20
-111.0095892734629
 30
0.0
 10
62.83371851727768
 20
-111.0095892734629
 30
0.0
 10
62.83371851727768
 20
-111.0095892734629
 30
0.0
 10
62.81890460669111
 20
-110.6774820686848
 30
0.0
 10
62.65595159023879
 20
-110.6309732796339
 30
0.0
 10
62.54174667490276
 20
-110.6013454584608
 30
0.0
 10
62.54174667490276
 20
-110.6013454584608
 30
0.0
 10
62.54174667490276
 20
-110.4552734098862
 30
0.0
 10
62.54174667490276
 20
-110.4552734098862
 30
0.0
 10
62.54174667490276
 20
-110.4552734098862
 30
0.0
 10
64.086010726166
 20
-110.4552734098862
 30
0.0
 10
64.086010726166
 20
-110.4552734098862
 30
0.0
 10
64.086010726166
 20
-110.4552734098862
 30
0.0
 10
64.086010726166
 20
-110.679549125976
 30
0.0
 10
64.086010726166
 20
-110.679549125976
 30
0.0
  0
HATCH
  5
83
330
7E
100
AcDbEntity
  8
_U+30EC_U+30A4_U+30E4_U+30FC 1
 62
     7
420
 16777215
100
AcDbHatch
 10
0.0
 20
0.0
 30
0.0
210
0.0
220
0.0
230
1.0
  2
SOLID
 70
     1
 71
     0
 91
        1
 92
        1
 93
        1
 72
     4
 94
        3
 73
     0
 74
     1
 95
       26
 96
       22
 40
0.0
 40
0.0
 40
0.0
 40
0.0
 40
1.0
 40
1.0
 40
1.0
 40
2.0
 40
2.0
 40
2.0
 40
3.0
 40
3.0
 40
3.0
 40
4.0
 40
4.0
 40
4.0
 40
5.0
 40
5.0
 40
5.0
 40
6.0
 40
6.0
 40
6.0
 40
7.0
 40
7.0
 40
7.0
 40
7.0
 10
64.086010726166
 20
-110.679549125976
 10
64.086010726166
 20
-110.679549125976
 10
62.98168536836916
 20
-110.679549125976
 10
62.98168536836916
 20
-110.679549125976
 10
62.98168536836916
 20
-110.679549125976
 10
62.98168536836916
 20
-111.0095892734629
 10
62.98168536836916
 20
-111.0095892734629
 10
62.98168536836916
 20
-111.0095892734629
 10
62.83371851727768
 20
-111.0095892734629
 10
62.83371851727768
 20
-111.0095892734629
 10
62.81890460669111
 20
-110.6774820686848
 10
62.65595159023879
 20
-110.6309732796339
 10
62.54174667490276
 20
-110.6013454584608
 10
62.54174667490276
 20
-110.6013454584608
 10
62.54174667490276
 20
-110.4552734098862
 10
62.54174667490276
 20
-110.4552734098862
 10
62.54174667490276
 20
-110.4552734098862
 10
64.086010726166
 20
-110.4552734098862
 10
64.086010726166
 20
-110.4552734098862
 10
64.086010726166
 20
-110.4552734098862
 10
64.086010726166
 20
-110.679549125976
 10
64.086010726166
 20
-110.679549125976
 97
        0
 97
        0
 75
     2
 76
     1
 98
        0
  0
SPLINE
  5
84
330
7E
100
AcDbEntity
  8
_U+30EC_U+30A4_U+30E4_U+30FC 1
370
     0
100
AcDbSpline
210
0.0
220
0.0
230
1.0
 70
    11
 71
     3
 72
    53
 73
    49
 74
     0
 42
0.0000000001
 43
0.0000000001
 12
1.0
 22
0.0
 32
0.0
 13
1.0
 23
0.0
 33
0.0
 40
0.0
 40
0.0
 40
0.0
 40
0.0
 40
1.0
 40
1.0
 40
1.0
 40
2.0
 40
2.0
 40
2.0
 40
3.0
 40
3.0
 40
3.0
 40
4.0
 40
4.0
 40
4.0
 40
5.0
 40
5.0
 40
5.0
 40
6.0
 40
6.0
 40
6.0
 40
7.0
 40
7.0
 40
7.0
 40
8.0
 40
8.0
 40
8.0
 40
9.0
 40
9.0
 40
9.0
 40
10.0
 40
10.0
 40
10.0
 40
11.0
 40
11.0
 40
11.0
 40
12.0
 40
12.0
 40
12.0
 40
13.0
 40
13.0
 40
13.0
 40
14.0
 40
14.0
 40
14.0
 40
15.0
 40
15.0
 40
15.0
 40
16.0
 40
16.0
 40
16.0
 40
16.0
 10
64.13682588457344
 20
-109.4730766870415
 30
0.0
 10
64.13682588457344
 20
-109.5514526093309
 30
0.0
 10
64.11977266192144
 20
-109.6529106713715
 30
0.0
 10
64.05638290499286
 20
-109.7545409881864
 30
0.0
 10
63.94631210423912
 20
-109.9280015458687
 30
0.0
 10
63.81522622102536
 20
-109.949188883103
 30
0.0
 10
63.70739473233704
 20
-109.9681369082719
 30
0.0
 10
63.70739473233704
 20
-109.9681369082719
 30
0.0
 10
63.70739473233704
 20
-109.7461005042475
 30
0.0
 10
63.70739473233704
 20
-109.7461005042475
 30
0.0
 10
63.90617674183596
 20
-109.6909789764835
 30
0.0
 10
63.93580456300911
 20
-109.564027207852
 30
0.0
 10
63.93580456300911
 20
-109.4710096297503
 30
0.0
 10
63.93580456300911
 20
-109.3313110078234
 30
0.0
 10
63.83641355825965
 20
-109.1790377873754
 30
0.0
 10
63.60369735823102
 20
-109.1790377873754
 30
0.0
 10
63.34772676367696
 20
-109.1790377873754
 30
0.0
 10
63.27796358010065
 20
-109.3588717717054
 30
0.0
 10
63.27796358010065
 20
-109.4794501136892
 30
0.0
 10
63.27796358010065
 20
-109.5111449921535
 30
0.0
 10
63.27796358010065
 20
-109.6529106713715
 30
0.0
 10
63.40698240602326
 20
-109.741794134891
 30
0.0
 10
63.40698240602326
 20
-109.741794134891
 30
0.0
 10
63.38786212608012
 20
-109.9173217498644
 30
0.0
 10
63.38786212608012
 20
-109.9173217498644
 30
0.0
 10
63.38786212608012
 20
-109.9173217498644
 30
0.0
 10
62.54174667490276
 20
-109.7967434078807
 30
0.0
 10
62.54174667490276
 20
-109.7967434078807
 30
0.0
 10
62.54174667490276
 20
-109.7967434078807
 30
0.0
 10
62.54174667490276
 20
-109.0183240829885
 30
0.0
 10
62.54174667490276
 20
-109.0183240829885
 30
0.0
 10
62.54174667490276
 20
-109.0183240829885
 30
0.0
 10
62.73639456981937
 20
-109.0183240829885
 30
0.0
 10
62.73639456981937
 20
-109.0183240829885
 30
0.0
 10
62.73639456981937
 20
-109.0183240829885
 30
0.0
 10
62.73639456981937
 20
-109.6339626462026
 30
0.0
 10
62.73639456981937
 20
-109.6339626462026
 30
0.0
 10
62.73639456981937
 20
-109.6339626462026
 30
0.0
 10
63.15945229540806
 20
-109.6994194604224
 30
0.0
 10
63.15945229540806
 20
-109.6994194604224
 30
0.0
 10
63.12551810487835
 20
-109.6380967607849
 30
0.0
 10
63.08538274247518
 20
-109.5555867239132
 30
0.0
 10
63.08538274247518
 20
-109.4372476939949
 30
0.0
 10
63.08538274247518
 20
-109.1833441567319
 30
0.0
 10
63.27159015345294
 20
-108.9463215873468
 30
0.0
 10
63.58457707828789
 20
-108.9463215873468
 30
0.0
 10
63.90204262725366
 20
-108.9463215873468
 30
0.0
 10
64.13682588457344
 20
-109.1705973034365
 30
0.0
 10
64.13682588457344
 20
-109.4730766870415
 30
0.0
  0
HATCH
  5
85
330
7E
100
AcDbEntity
  8
_U+30EC_U+30A4_U+30E4_U+30FC 1
 62
     7
420
 16777215
100
AcDbHatch
 10
0.0
 20
0.0
 30
0.0
210
0.0
220
0.0
230
1.0
  2
SOLID
 70
     1
 71
     0
 91
        1
 92
        1
 93
        1
 72
     4
 94
        3
 73
     0
 74
     1
 95
       53
 96
       49
 40
0.0
 40
0.0
 40
0.0
 40
0.0
 40
1.0
 40
1.0
 40
1.0
 40
2.0
 40
2.0
 40
2.0
 40
3.0
 40
3.0
 40
3.0
 40
4.0
 40
4.0
 40
4.0
 40
5.0
 40
5.0
 40
5.0
 40
6.0
 40
6.0
 40
6.0
 40
7.0
 40
7.0
 40
7.0
 40
8.0
 40
8.0
 40
8.0
 40
9.0
 40
9.0
 40
9.0
 40
10.0
 40
10.0
 40
10.0
 40
11.0
 40
11.0
 40
11.0
 40
12.0
 40
12.0
 40
12.0
 40
13.0
 40
13.0
 40
13.0
 40
14.0
 40
14.0
 40
14.0
 40
15.0
 40
15.0
 40
15.0
 40
16.0
 40
16.0
 40
16.0
 40
16.0
 10
64.13682588457344
 20
-109.4730766870415
 10
64.13682588457344
 20
-109.5514526093309
 10
64.11977266192144
 20
-109.6529106713715
 10
64.05638290499286
 20
-109.7545409881864
 10
63.94631210423912
 20
-109.9280015458687
 10
63.81522622102536
 20
-109.949188883103
 10
63.70739473233704
 20
-109.9681369082719
 10
63.70739473233704
 20
-109.9681369082719
 10
63.70739473233704
 20
-109.7461005042475
 10
63.70739473233704
 20
-109.7461005042475
 10
63.90617674183596
 20
-109.6909789764835
 10
63.93580456300911
 20
-109.564027207852
 10
63.93580456300911
 20
-109.4710096297503
 10
63.93580456300911
 20
-109.3313110078234
 10
63.83641355825965
 20
-109.1790377873754
 10
63.60369735823102
 20
-109.1790377873754
 10
63.34772676367696
 20
-109.1790377873754
 10
63.27796358010065
 20
-109.3588717717054
 10
63.27796358010065
 20
-109.4794501136892
 10
63.27796358010065
 20
-109.5111449921535
 10
63.27796358010065
 20
-109.6529106713715
 10
63.40698240602326
 20
-109.741794134891
 10
63.40698240602326
 20
-109.741794134891
 10
63.38786212608012
 20
-109.9173217498644
 10
63.38786212608012
 20
-109.9173217498644
 10
63.38786212608012
 20
-109.9173217498644
 10
62.54174667490276
 20
-109.7967434078807
 10
62.54174667490276
 20
-109.7967434078807
 10
62.54174667490276
 20
-109.7967434078807
 10
62.54174667490276
 20
-109.0183240829885
 10
62.54174667490276
 20
-109.0183240829885
 10
62.54174667490276
 20
-109.0183240829885
 10
62.73639456981937
 20
-109.0183240829885
 10
62.73639456981937
 20
-109.0183240829885
 10
62.73639456981937
 20
-109.0183240829885
 10
62.73639456981937
 20
-109.6339626462026
 10
62.73639456981937
 20
-109.6339626462026
 10
62.73639456981937
 20
-109.6339626462026
 10
63.15945229540806
 20
-109.6994194604224
 10
63.15945229540806
 20
-109.6994194604224
 10
63.12551810487835
 20
-109.6380967607849
 10
63.08538274247518
 20
-109.5555867239132
 10
63.08538274247518
 20
-109.4372476939949
 10
63.08538274247518
 20
-109.1833441567319
 10
63.27159015345294
 20
-108.9463215873468
 10
63.58457707828789
 20
-108.9463215873468
 10
63.90204262725366
 20
-108.9463215873468
 10
64.13682588457344
 20
-109.1705973034365
 10
64.13682588457344
 20
-109.4730766870415
 97
        0
 97
        0
 75
     2
 76
     1
 98
        0
  0
ENDBLK
  5
81
330
7E
100
AcDbEntity
  8
0
100
AcDbBlockEnd
  0
BLOCK
  5
9C
330
9A
100
AcDbEntity
  8
0
100
AcDbBlockBegin
  2
block 6
 70
     0
 10
0.0
 20
0.0
 30
0.0
  3
block 6
  1

  0
SPLINE
  5
9E
330
9A
100
AcDbEntity
  8
_U+30EC_U+30A4_U+30E4_U+30FC 1
370
     0
100
AcDbSpline
210
0.0
220
0.0
230
1.0
 70
    11
 71
     3
 72
    26
 73
    22
 74
     0
 42
0.0000000001
 43
0.0000000001
 12
1.0
 22
0.0
 32
0.0
 13
1.0
 23
0.0
 33
0.0
 40
0.0
 40
0.0
 40
0.0
 40
0.0
 40
1.0
 40
1.0
 40
1.0
 40
2.0
 40
2.0
 40
2.0
 40
3.0
 40
3.0
 40
3.0
 40
4.0
 40
4.0
 40
4.0
 40
5.0
 40
5.0
 40
5.0
 40
6.0
 40
6.0
 40
6.0
 40
7.0
 40
7.0
 40
7.0
 40
7.0
 10
117.3244492979258
 20
-141.679207321351
 30
0.0
 10
117.3244492979258
 20
-141.679207321351
 30
0.0
 10
116.2202961949033
 20
-141.679207321351
 30
0.0
 10
116.2202961949033
 20
-141.679207321351
 30
0.0
 10
116.2202961949033
 20
-141.679207321351
 30
0.0
 10
116.2202961949033
 20
-142.009247468838
 30
0.0
 10
116.2202961949033
 20
-142.009247468838
 30
0.0
 10
116.2202961949033
 20
-142.009247468838
 30
0.0
 10
116.0721570890375
 20
-142.009247468838
 30
0.0
 10
116.0721570890375
 20
-142.009247468838
 30
0.0
 10
116.0573431784509
 20
-141.6771402640599
 30
0.0
 10
115.8943901619986
 20
-141.630631475009
 30
0.0
 10
115.7800129918883
 20
-141.6010036538359
 30
0.0
 10
115.7800129918883
 20
-141.6010036538359
 30
0.0
 10
115.7800129918883
 20
-141.4549316052613
 30
0.0
 10
115.7800129918883
 20
-141.4549316052613
 30
0.0
 10
115.7800129918883
 20
-141.4549316052613
 30
0.0
 10
117.3244492979258
 20
-141.4549316052613
 30
0.0
 10
117.3244492979258
 20
-141.4549316052613
 30
0.0
 10
117.3244492979258
 20
-141.4549316052613
 30
0.0
 10
117.3244492979258
 20
-141.679207321351
 30
0.0
 10
117.3244492979258
 20
-141.679207321351
 30
0.0
  0
HATCH
  5
9F
330
9A
100
AcDbEntity
  8
_U+30EC_U+30A4_U+30E4_U+30FC 1
 62
     7
420
 16777215
100
AcDbHatch
 10
0.0
 20
0.0
 30
0.0
210
0.0
220
0.0
230
1.0
  2
SOLID
 70
     1
 71
     0
 91
        1
 92
        1
 93
        1
 72
     4
 94
        3
 73
     0
 74
     1
 95
       26
 96
       22
 40
0.0
 40
0.0
 40
0.0
 40
0.0
 40
1.0
 40
1.0
 40
1.0
 40
2.0
 40
2.0
 40
2.0
 40
3.0
 40
3.0
 40
3.0
 40
4.0
 40
4.0
 40
4.0
 40
5.0
 40
5.0
 40
5.0
 40
6.0
 40
6.0
 40
6.0
 40
7.0
 40
7.0
 40
7.0
 40
7.0
 10
117.3244492979258
 20
-141.679207321351
 10
117.3244492979258
 20
-141.679207321351
 10
116.2202961949033
 20
-141.679207321351
 10
116.2202961949033
 20
-141.679207321351
 10
116.2202961949033
 20
-141.679207321351
 10
116.2202961949033
 20
-142.009247468838
 10
116.2202961949033
 20
-142.009247468838
 10
116.2202961949033
 20
-142.009247468838
 10
116.0721570890375
 20
-142.009247468838
 10
116.0721570890375
 20
-142.009247468838
 10
116.0573431784509
 20
-141.6771402640599
 10
115.8943901619986
 20
-141.630631475009
 10
115.7800129918883
 20
-141.6010036538359
 10
115.7800129918883
 20
-141.6010036538359
 10
115.7800129918883
 20
-141.4549316052613
 10
115.7800129918883
 20
-141.4549316052613
 10
115.7800129918883
 20
-141.4549316052613
 10
117.3244492979258
 20
-141.4549316052613
 10
117.3244492979258
 20
-141.4549316052613
 10
117.3244492979258
 20
-141.4549316052613
 10
117.3244492979258
 20
-141.679207321351
 10
117.3244492979258
 20
-141.679207321351
 97
        0
 97
        0
 75
     2
 76
     1
 98
        0
  0
SPLINE
  5
A0
330
9A
100
AcDbEntity
  8
_U+30EC_U+30A4_U+30E4_U+30FC 1
370
     0
100
AcDbSpline
210
0.0
220
0.0
230
1.0
 70
    11
 71
     3
 72
    62
 73
    58
 74
     0
 42
0.0000000001
 43
0.0000000001
 12
1.0
 22
0.0
 32
0.0
 13
1.0
 23
0.0
 33
0.0
 40
0.0
 40
0.0
 40
0.0
 40
0.0
 40
1.0
 40
1.0
 40
1.0
 40
2.0
 40
2.0
 40
2.0
 40
3.0
 40
3.0
 40
3.0
 40
4.0
 40
4.0
 40
4.0
 40
5.0
 40
5.0
 40
5.0
 40
6.0
 40
6.0
 40
6.0
 40
7.0
 40
7.0
 40
7.0
 40
8.0
 40
8.0
 40
8.0
 40
9.0
 40
9.0
 40
9.0
 40
10.0
 40
10.0
 40
10.0
 40
11.0
 40
11.0
 40
11.0
 40
12.0
 40
12.0
 40
12.0
 40
13.0
 40
13.0
 40
13.0
 40
14.0
 40
14.0
 40
14.0
 40
15.0
 40
15.0
 40
15.0
 40
16.0
 40
16.0
 40
16.0
 40
17.0
 40
17.0
 40
17.0
 40
18.0
 40
18.0
 40
18.0
 40
19.0
 40
19.0
 40
19.0
 40
19.0
 10
117.375092201559
 20
-140.4620550864123
 30
0.0
 10
117.375092201559
 20
-140.5574842313537
 30
0.0
 10
117.354077119099
 20
-140.77555877557
 30
0.0
 10
117.167697453347
 20
-140.900271232136
 30
0.0
 10
117.0557318500764
 20
-140.9739962755204
 30
0.0
 10
116.9561685905526
 20
-140.9784748996512
 30
0.0
 10
116.871763751164
 20
-140.9826090142335
 30
0.0
 10
116.871763751164
 20
-140.9826090142335
 30
0.0
 10
116.871763751164
 20
-140.7624674127261
 30
0.0
 10
116.871763751164
 20
-140.7624674127261
 30
0.0
 10
116.9458333040969
 20
-140.7604003554349
 30
0.0
 10
117.1807888161909
 20
-140.7500650689792
 30
0.0
 10
117.1807888161909
 20
-140.4661892009946
 30
0.0
 10
117.1807888161909
 20
-140.3290744006816
 30
0.0
 10
117.1108533778403
 20
-140.1768011802336
 30
0.0
 10
116.8824435471683
 20
-140.1768011802336
 30
0.0
 10
116.7659993197668
 20
-140.1768011802336
 30
0.0
 10
116.7170789638763
 20
-140.2146972305713
 30
0.0
 10
116.685384085412
 20
-140.2463921090356
 30
0.0
 10
116.6116590420276
 20
-140.3204616619685
 30
0.0
 10
116.5989121887322
 20
-140.4369058893699
 30
0.0
 10
116.5989121887322
 20
-140.4916829075854
 30
0.0
 10
116.5989121887322
 20
-140.5109754423028
 30
0.0
 10
116.6009792460234
 20
-140.5468044353494
 30
0.0
 10
116.6051133606057
 20
-140.5743651992314
 30
0.0
 10
116.6051133606057
 20
-140.5743651992314
 30
0.0
 10
116.4104654656891
 20
-140.5743651992314
 30
0.0
 10
116.4104654656891
 20
-140.5743651992314
 30
0.0
 10
116.4166666375625
 20
-140.5364691488937
 30
0.0
 10
116.4190782044022
 20
-140.4937499648766
 30
0.0
 10
116.4190782044022
 20
-140.4875487930031
 30
0.0
 10
116.4190782044022
 20
-140.4220919787834
 30
0.0
 10
116.3980631219422
 20
-140.2229654597359
 30
0.0
 10
116.161040552557
 20
-140.2229654597359
 30
0.0
 10
115.9832736255181
 20
-140.2229654597359
 30
0.0
 10
115.9281520977541
 20
-140.3545681072725
 30
0.0
 10
115.9281520977541
 20
-140.4641221437034
 30
0.0
 10
115.9281520977541
 20
-140.7287054769706
 30
0.0
 10
116.161040552557
 20
-140.7369737061352
 30
0.0
 10
116.2326985386502
 20
-140.741452330266
 30
0.0
 10
116.2326985386502
 20
-140.741452330266
 30
0.0
 10
116.2326985386502
 20
-140.9443684543473
 30
0.0
 10
116.2326985386502
 20
-140.9443684543473
 30
0.0
 10
116.1079860820841
 20
-140.9361002251827
 30
0.0
 10
115.7314371455463
 20
-140.9085394613006
 30
0.0
 10
115.7314371455463
 20
-140.4517197999565
 30
0.0
 10
115.7314371455463
 20
-140.2274440838667
 30
0.0
 10
115.858561168952
 20
-139.9862873998993
 30
0.0
 10
116.154494871135
 20
-139.9862873998993
 30
0.0
 10
116.340874536887
 20
-139.9862873998993
 30
0.0
 10
116.4232123189845
 20
-140.0813720352922
 30
0.0
 10
116.4845350186219
 20
-140.1809352948159
 30
0.0
 10
116.5120957825039
 20
-140.1196125951784
 30
0.0
 10
116.5923665073102
 20
-139.9377115535572
 30
0.0
 10
116.8696966938729
 20
-139.9377115535572
 30
0.0
 10
117.2083495800729
 20
-139.9377115535572
 30
0.0
 10
117.375092201559
 20
-140.1850694093982
 30
0.0
 10
117.375092201559
 20
-140.4620550864123
 30
0.0
  0
HATCH
  5
A1
330
9A
100
AcDbEntity
  8
_U+30EC_U+30A4_U+30E4_U+30FC 1
 62
     7
420
 16777215
100
AcDbHatch
 10
0.0
 20
0.0
 30
0.0
210
0.0
220
0.0
230
1.0
  2
SOLID
 70
     1
 71
     0
 91
        1
 92
        1
 93
        1
 72
     4
 94
        3
 73
     0
 74
     1
 95
       62
 96
       58
 40
0.0
 40
0.0
 40
0.0
 40
0.0
 40
1.0
 40
1.0
 40
1.0
 40
2.0
 40
2.0
 40
2.0
 40
3.0
 40
3.0
 40
3.0
 40
4.0
 40
4.0
 40
4.0
 40
5.0
 40
5.0
 40
5.0
 40
6.0
 40
6.0
 40
6.0
 40
7.0
 40
7.0
 40
7.0
 40
8.0
 40
8.0
 40
8.0
 40
9.0
 40
9.0
 40
9.0
 40
10.0
 40
10.0
 40
10.0
 40
11.0
 40
11.0
 40
11.0
 40
12.0
 40
12.0
 40
12.0
 40
13.0
 40
13.0
 40
13.0
 40
14.0
 40
14.0
 40
14.0
 40
15.0
 40
15.0
 40
15.0
 40
16.0
 40
16.0
 40
16.0
 40
17.0
 40
17.0
 40
17.0
 40
18.0
 40
18.0
 40
18.0
 40
19.0
 40
19.0
 40
19.0
 40
19.0
 10
117.375092201559
 20
-140.4620550864123
 10
117.375092201559
 20
-140.5574842313537
 10
117.354077119099
 20
-140.77555877557
 10
117.167697453347
 20
-140.900271232136
 10
117.0557318500764
 20
-140.9739962755204
 10
116.9561685905526
 20
-140.9784748996512
 10
116.871763751164
 20
-140.9826090142335
 10
116.871763751164
 20
-140.9826090142335
 10
116.871763751164
 20
-140.7624674127261
 10
116.871763751164
 20
-140.7624674127261
 10
116.9458333040969
 20
-140.7604003554349
 10
117.1807888161909
 20
-140.7500650689792
 10
117.1807888161909
 20
-140.4661892009946
 10
117.1807888161909
 20
-140.3290744006816
 10
117.1108533778403
 20
-140.1768011802336
 10
116.8824435471683
 20
-140.1768011802336
 10
116.7659993197668
 20
-140.1768011802336
 10
116.7170789638763
 20
-140.2146972305713
 10
116.685384085412
 20
-140.2463921090356
 10
116.6116590420276
 20
-140.3204616619685
 10
116.5989121887322
 20
-140.4369058893699
 10
116.5989121887322
 20
-140.4916829075854
 10
116.5989121887322
 20
-140.5109754423028
 10
116.6009792460234
 20
-140.5468044353494
 10
116.6051133606057
 20
-140.5743651992314
 10
116.6051133606057
 20
-140.5743651992314
 10
116.4104654656891
 20
-140.5743651992314
 10
116.4104654656891
 20
-140.5743651992314
 10
116.4166666375625
 20
-140.5364691488937
 10
116.4190782044022
 20
-140.4937499648766
 10
116.4190782044022
 20
-140.4875487930031
 10
116.4190782044022
 20
-140.4220919787834
 10
116.3980631219422
 20
-140.2229654597359
 10
116.161040552557
 20
-140.2229654597359
 10
115.9832736255181
 20
-140.2229654597359
 10
115.9281520977541
 20
-140.3545681072725
 10
115.9281520977541
 20
-140.4641221437034
 10
115.9281520977541
 20
-140.7287054769706
 10
116.161040552557
 20
-140.7369737061352
 10
116.2326985386502
 20
-140.741452330266
 10
116.2326985386502
 20
-140.741452330266
 10
116.2326985386502
 20
-140.9443684543473
 10
116.2326985386502
 20
-140.9443684543473
 10
116.1079860820841
 20
-140.9361002251827
 10
115.7314371455463
 20
-140.9085394613006
 10
115.7314371455463
 20
-140.4517197999565
 10
115.7314371455463
 20
-140.2274440838667
 10
115.858561168952
 20
-139.9862873998993
 10
116.154494871135
 20
-139.9862873998993
 10
116.340874536887
 20
-139.9862873998993
 10
116.4232123189845
 20
-140.0813720352922
 10
116.4845350186219
 20
-140.1809352948159
 10
116.5120957825039
 20
-140.1196125951784
 10
116.5923665073102
 20
-139.9377115535572
 10
116.8696966938729
 20
-139.9377115535572
 10
117.2083495800729
 20
-139.9377115535572
 10
117.375092201559
 20
-140.1850694093982
 10
117.375092201559
 20
-140.4620550864123
 97
        0
 97
        0
 75
     2
 76
     1
 98
        0
  0
ENDBLK
  5
9D
330
9A
100
AcDbEntity
  8
0
100
AcDbBlockEnd
  0
BLOCK
  5
A4
330
A2
100
AcDbEntity
  8
0
100
AcDbBlockBegin
  2
block 7
 70
     0
 10
0.0
 20
0.0
 30
0.0
  3
block 7
  1

  0
SPLINE
  5
A6
330
A2
100
AcDbEntity
  8
_U+30EC_U+30A4_U+30E4_U+30FC 1
370
     0
100
AcDbSpline
210
0.0
220
0.0
230
1.0
 70
    11
 71
     3
 72
    26
 73
    22
 74
     0
 42
0.0000000001
 43
0.0000000001
 12
1.0
 22
0.0
 32
0.0
 13
1.0
 23
0.0
 33
0.0
 40
0.0
 40
0.0
 40
0.0
 40
0.0
 40
1.0
 40
1.0
 40
1.0
 40
2.0
 40
2.0
 40
2.0
 40
3.0
 40
3.0
 40
3.0
 40
4.0
 40
4.0
 40
4.0
 40
5.0
 40
5.0
 40
5.0
 40
6.0
 40
6.0
 40
6.0
 40
7.0
 40
7.0
 40
7.0
 40
7.0
 10
117.3244492979258
 20
-132.6175726664984
 30
0.0
 10
117.3244492979258
 20
-132.6175726664984
 30
0.0
 10
116.2202961949033
 20
-132.6175726664984
 30
0.0
 10
116.2202961949033
 20
-132.6175726664984
 30
0.0
 10
116.2202961949033
 20
-132.6175726664984
 30
0.0
 10
116.2202961949033
 20
-132.9476128139853
 30
0.0
 10
116.2202961949033
 20
-132.9476128139853
 30
0.0
 10
116.2202961949033
 20
-132.9476128139853
 30
0.0
 10
116.0721570890375
 20
-132.9476128139853
 30
0.0
 10
116.0721570890375
 20
-132.9476128139853
 30
0.0
 10
116.0573431784509
 20
-132.6155056092072
 30
0.0
 10
115.8943901619986
 20
-132.5686523106078
 30
0.0
 10
115.7800129918883
 20
-132.5390244894347
 30
0.0
 10
115.7800129918883
 20
-132.5390244894347
 30
0.0
 10
115.7800129918883
 20
-132.3929524408601
 30
0.0
 10
115.7800129918883
 20
-132.3929524408601
 30
0.0
 10
115.7800129918883
 20
-132.3929524408601
 30
0.0
 10
117.3244492979258
 20
-132.3929524408601
 30
0.0
 10
117.3244492979258
 20
-132.3929524408601
 30
0.0
 10
117.3244492979258
 20
-132.3929524408601
 30
0.0
 10
117.3244492979258
 20
-132.6175726664984
 30
0.0
 10
117.3244492979258
 20
-132.6175726664984
 30
0.0
  0
HATCH
  5
A7
330
A2
100
AcDbEntity
  8
_U+30EC_U+30A4_U+30E4_U+30FC 1
 62
     7
420
 16777215
100
AcDbHatch
 10
0.0
 20
0.0
 30
0.0
210
0.0
220
0.0
230
1.0
  2
SOLID
 70
     1
 71
     0
 91
        1
 92
        1
 93
        1
 72
     4
 94
        3
 73
     0
 74
     1
 95
       26
 96
       22
 40
0.0
 40
0.0
 40
0.0
 40
0.0
 40
1.0
 40
1.0
 40
1.0
 40
2.0
 40
2.0
 40
2.0
 40
3.0
 40
3.0
 40
3.0
 40
4.0
 40
4.0
 40
4.0
 40
5.0
 40
5.0
 40
5.0
 40
6.0
 40
6.0
 40
6.0
 40
7.0
 40
7.0
 40
7.0
 40
7.0
 10
117.3244492979258
 20
-132.6175726664984
 10
117.3244492979258
 20
-132.6175726664984
 10
116.2202961949033
 20
-132.6175726664984
 10
116.2202961949033
 20
-132.6175726664984
 10
116.2202961949033
 20
-132.6175726664984
 10
116.2202961949033
 20
-132.9476128139853
 10
116.2202961949033
 20
-132.9476128139853
 10
116.2202961949033
 20
-132.9476128139853
 10
116.0721570890375
 20
-132.9476128139853
 10
116.0721570890375
 20
-132.9476128139853
 10
116.0573431784509
 20
-132.6155056092072
 10
115.8943901619986
 20
-132.5686523106078
 10
115.7800129918883
 20
-132.5390244894347
 10
115.7800129918883
 20
-132.5390244894347
 10
115.7800129918883
 20
-132.3929524408601
 10
115.7800129918883
 20
-132.3929524408601
 10
115.7800129918883
 20
-132.3929524408601
 10
117.3244492979258
 20
-132.3929524408601
 10
117.3244492979258
 20
-132.3929524408601
 10
117.3244492979258
 20
-132.3929524408601
 10
117.3244492979258
 20
-132.6175726664984
 10
117.3244492979258
 20
-132.6175726664984
 97
        0
 97
        0
 75
     2
 76
     1
 98
        0
  0
ENDBLK
  5
A5
330
A2
100
AcDbEntity
  8
0
100
AcDbBlockEnd
  0
BLOCK
  5
BF
330
BD
100
AcDbEntity
  8
0
100
AcDbBlockBegin
  2
block 8
 70
     0
 10
0.0
 20
0.0
 30
0.0
  3
block 8
  1

  0
SPLINE
  5
C1
330
BD
100
AcDbEntity
  8
_U+30EC_U+30A4_U+30E4_U+30FC 1
370
     0
100
AcDbSpline
210
0.0
220
0.0
230
1.0
 70
    11
 71
     3
 72
    44
 73
    40
 74
     0
 42
0.0000000001
 43
0.0000000001
 12
1.0
 22
0.0
 32
0.0
 13
1.0
 23
0.0
 33
0.0
 40
0.0
 40
0.0
 40
0.0
 40
0.0
 40
1.0
 40
1.0
 40
1.0
 40
2.0
 40
2.0
 40
2.0
 40
3.0
 40
3.0
 40
3.0
 40
4.0
 40
4.0
 40
4.0
 40
5.0
 40
5.0
 40
5.0
 40
6.0
 40
6.0
 40
6.0
 40
7.0
 40
7.0
 40
7.0
 40
8.0
 40
8.0
 40
8.0
 40
9.0
 40
9.0
 40
9.0
 40
10.0
 40
10.0
 40
10.0
 40
11.0
 40
11.0
 40
11.0
 40
12.0
 40
12.0
 40
12.0
 40
13.0
 40
13.0
 40
13.0
 40
13.0
 10
80.36684297035968
 20
-128.8858452368758
 30
0.0
 10
80.34341632105998
 20
-128.8410589955675
 30
0.0
 10
80.32240123859997
 20
-128.7883490346432
 30
0.0
 10
80.32016192653455
 20
-128.5576998919057
 30
0.0
 10
80.31602781195225
 20
-128.3144761506471
 30
0.0
 10
80.25677216960595
 20
-128.2447129670708
 30
0.0
 10
80.07900524256706
 20
-128.2447129670708
 30
0.0
 10
80.07900524256706
 20
-128.2447129670708
 30
0.0
 10
79.67076142756495
 20
-128.2447129670708
 30
0.0
 10
79.67076142756495
 20
-128.2447129670708
 30
0.0
 10
79.67076142756495
 20
-128.2447129670708
 30
0.0
 10
79.67076142756495
 20
-128.8858452368758
 30
0.0
 10
79.67076142756495
 20
-128.8858452368758
 30
0.0
 10
79.67076142756495
 20
-128.8858452368758
 30
0.0
 10
79.43597817024518
 20
-128.8858452368758
 30
0.0
 10
79.43597817024518
 20
-128.8858452368758
 30
0.0
 10
79.43597817024518
 20
-128.8858452368758
 30
0.0
 10
79.43597817024518
 20
-127.3414089308383
 30
0.0
 10
79.43597817024518
 20
-127.3414089308383
 30
0.0
 10
79.43597817024518
 20
-127.3414089308383
 30
0.0
 10
80.11087237580561
 20
-127.3414089308383
 30
0.0
 10
80.11087237580561
 20
-127.3414089308383
 30
0.0
 10
80.41748587399286
 20
-127.3414089308383
 30
0.0
 10
80.58457300502747
 20
-127.5126301764552
 30
0.0
 10
80.58457300502747
 20
-127.7687730257835
 30
0.0
 10
80.58457300502747
 20
-127.8194159294167
 30
0.0
 10
80.57613252108861
 20
-127.9019259662884
 30
0.0
 10
80.53169078932889
 20
-127.982368945869
 30
0.0
 10
80.47260740175685
 20
-128.086066319975
 30
0.0
 10
80.40697833276285
 20
-128.1050143451439
 30
0.0
 10
80.34565563312539
 20
-128.1218953130216
 30
0.0
 10
80.48311494298686
 20
-128.1642699874902
 30
0.0
 10
80.55081106927203
 20
-128.2130180886065
 30
0.0
 10
80.55511743862859
 20
-128.5280720707326
 30
0.0
 10
80.55925155321088
 20
-128.7990288306475
 30
0.0
 10
80.59525280103175
 20
-128.8307237091118
 30
0.0
 10
80.6629489273169
 20
-128.8858452368758
 30
0.0
 10
80.6629489273169
 20
-128.8858452368758
 30
0.0
 10
80.36684297035968
 20
-128.8858452368758
 30
0.0
 10
80.36684297035968
 20
-128.8858452368758
 30
0.0
  0
SPLINE
  5
C2
330
BD
100
AcDbEntity
  8
_U+30EC_U+30A4_U+30E4_U+30FC 1
370
     0
100
AcDbSpline
210
0.0
220
0.0
230
1.0
 70
    11
 71
     3
 72
    20
 73
    16
 74
     0
 42
0.0000000001
 43
0.0000000001
 12
1.0
 22
0.0
 32
0.0
 13
1.0
 23
0.0
 33
0.0
 40
0.0
 40
0.0
 40
0.0
 40
0.0
 40
1.0
 40
1.0
 40
1.0
 40
2.0
 40
2.0
 40
2.0
 40
3.0
 40
3.0
 40
3.0
 40
4.0
 40
4.0
 40
4.0
 40
5.0
 40
5.0
 40
5.0
 40
5.0
 10
80.11500649038791
 20
-127.5529377936326
 30
0.0
 10
80.11500649038791
 20
-127.5529377936326
 30
0.0
 10
79.67076142756495
 20
-127.5529377936326
 30
0.0
 10
79.67076142756495
 20
-127.5529377936326
 30
0.0
 10
79.67076142756495
 20
-127.5529377936326
 30
0.0
 10
79.67076142756495
 20
-128.0331841042764
 30
0.0
 10
79.67076142756495
 20
-128.0331841042764
 30
0.0
 10
79.67076142756495
 20
-128.0331841042764
 30
0.0
 10
80.11293943309677
 20
-128.0331841042764
 30
0.0
 10
80.11293943309677
 20
-128.0331841042764
 30
0.0
 10
80.21233043784623
 20
-128.0331841042764
 30
0.0
 10
80.34772269041655
 20
-127.9570474940524
 30
0.0
 10
80.34772269041655
 20
-127.7856539936612
 30
0.0
 10
80.34772269041655
 20
-127.7072780713718
 30
0.0
 10
80.31378849988684
 20
-127.5529377936326
 30
0.0
 10
80.11500649038791
 20
-127.5529377936326
 30
0.0
  0
HATCH
  5
C3
330
BD
100
AcDbEntity
  8
_U+30EC_U+30A4_U+30E4_U+30FC 1
 62
     7
420
 16777215
100
AcDbHatch
 10
0.0
 20
0.0
 30
0.0
210
0.0
220
0.0
230
1.0
  2
SOLID
 70
     1
 71
     0
 91
        2
 92
        1
 93
        1
 72
     4
 94
        3
 73
     0
 74
     1
 95
       44
 96
       40
 40
0.0
 40
0.0
 40
0.0
 40
0.0
 40
1.0
 40
1.0
 40
1.0
 40
2.0
 40
2.0
 40
2.0
 40
3.0
 40
3.0
 40
3.0
 40
4.0
 40
4.0
 40
4.0
 40
5.0
 40
5.0
 40
5.0
 40
6.0
 40
6.0
 40
6.0
 40
7.0
 40
7.0
 40
7.0
 40
8.0
 40
8.0
 40
8.0
 40
9.0
 40
9.0
 40
9.0
 40
10.0
 40
10.0
 40
10.0
 40
11.0
 40
11.0
 40
11.0
 40
12.0
 40
12.0
 40
12.0
 40
13.0
 40
13.0
 40
13.0
 40
13.0
 10
80.36684297035968
 20
-128.8858452368758
 10
80.34341632105998
 20
-128.8410589955675
 10
80.32240123859997
 20
-128.7883490346432
 10
80.32016192653455
 20
-128.5576998919057
 10
80.31602781195225
 20
-128.3144761506471
 10
80.25677216960595
 20
-128.2447129670708
 10
80.07900524256706
 20
-128.2447129670708
 10
80.07900524256706
 20
-128.2447129670708
 10
79.67076142756495
 20
-128.2447129670708
 10
79.67076142756495
 20
-128.2447129670708
 10
79.67076142756495
 20
-128.2447129670708
 10
79.67076142756495
 20
-128.8858452368758
 10
79.67076142756495
 20
-128.8858452368758
 10
79.67076142756495
 20
-128.8858452368758
 10
79.43597817024518
 20
-128.8858452368758
 10
79.43597817024518
 20
-128.8858452368758
 10
79.43597817024518
 20
-128.8858452368758
 10
79.43597817024518
 20
-127.3414089308383
 10
79.43597817024518
 20
-127.3414089308383
 10
79.43597817024518
 20
-127.3414089308383
 10
80.11087237580561
 20
-127.3414089308383
 10
80.11087237580561
 20
-127.3414089308383
 10
80.41748587399286
 20
-127.3414089308383
 10
80.58457300502747
 20
-127.5126301764552
 10
80.58457300502747
 20
-127.7687730257835
 10
80.58457300502747
 20
-127.8194159294167
 10
80.57613252108861
 20
-127.9019259662884
 10
80.53169078932889
 20
-127.982368945869
 10
80.47260740175685
 20
-128.086066319975
 10
80.40697833276285
 20
-128.1050143451439
 10
80.34565563312539
 20
-128.1218953130216
 10
80.48311494298686
 20
-128.1642699874902
 10
80.55081106927203
 20
-128.2130180886065
 10
80.55511743862859
 20
-128.5280720707326
 10
80.55925155321088
 20
-128.7990288306475
 10
80.59525280103175
 20
-128.8307237091118
 10
80.6629489273169
 20
-128.8858452368758
 10
80.6629489273169
 20
-128.8858452368758
 10
80.36684297035968
 20
-128.8858452368758
 10
80.36684297035968
 20
-128.8858452368758
 97
        0
 97
        0
 92
        1
 93
        1
 72
     4
 94
        3
 73
     0
 74
     1
 95
       20
 96
       16
 40
0.0
 40
0.0
 40
0.0
 40
0.0
 40
1.0
 40
1.0
 40
1.0
 40
2.0
 40
2.0
 40
2.0
 40
3.0
 40
3.0
 40
3.0
 40
4.0
 40
4.0
 40
4.0
 40
5.0
 40
5.0
 40
5.0
 40
5.0
 10
80.11500649038791
 20
-127.5529377936326
 10
80.11500649038791
 20
-127.5529377936326
 10
79.67076142756495
 20
-127.5529377936326
 10
79.67076142756495
 20
-127.5529377936326
 10
79.67076142756495
 20
-127.5529377936326
 10
79.67076142756495
 20
-128.0331841042764
 10
79.67076142756495
 20
-128.0331841042764
 10
79.67076142756495
 20
-128.0331841042764
 10
80.11293943309677
 20
-128.0331841042764
 10
80.11293943309677
 20
-128.0331841042764
 10
80.21233043784623
 20
-128.0331841042764
 10
80.34772269041655
 20
-127.9570474940524
 10
80.34772269041655
 20
-127.7856539936612
 10
80.34772269041655
 20
-127.7072780713718
 10
80.31378849988684
 20
-127.5529377936326
 10
80.11500649038791
 20
-127.5529377936326
 97
        0
 97
        0
 75
     2
 76
     1
 98
        0
  0
SPLINE
  5
C4
330
BD
100
AcDbEntity
  8
_U+30EC_U+30A4_U+30E4_U+30FC 1
370
     0
100
AcDbSpline
210
0.0
220
0.0
230
1.0
 70
    11
 71
     3
 72
    44
 73
    40
 74
     0
 42
0.0000000001
 43
0.0000000001
 12
1.0
 22
0.0
 32
0.0
 13
1.0
 23
0.0
 33
0.0
 40
0.0
 40
0.0
 40
0.0
 40
0.0
 40
1.0
 40
1.0
 40
1.0
 40
2.0
 40
2.0
 40
2.0
 40
3.0
 40
3.0
 40
3.0
 40
4.0
 40
4.0
 40
4.0
 40
5.0
 40
5.0
 40
5.0
 40
6.0
 40
6.0
 40
6.0
 40
7.0
 40
7.0
 40
7.0
 40
8.0
 40
8.0
 40
8.0
 40
9.0
 40
9.0
 40
9.0
 40
10.0
 40
10.0
 40
10.0
 40
11.0
 40
11.0
 40
11.0
 40
12.0
 40
12.0
 40
12.0
 40
13.0
 40
13.0
 40
13.0
 40
13.0
 10
81.39572073702955
 20
-128.3039686094171
 30
0.0
 10
81.1778184475875
 20
-128.4626152565128
 30
0.0
 10
81.08462861471149
 20
-128.5366848094457
 30
0.0
 10
81.03605276836946
 20
-128.6805175459549
 30
0.0
 10
81.03605276836946
 20
-128.6805175459549
 30
0.0
 10
81.81447209326166
 20
-128.6805175459549
 30
0.0
 10
81.81447209326166
 20
-128.6805175459549
 30
0.0
 10
81.81447209326166
 20
-128.6805175459549
 30
0.0
 10
81.81447209326166
 20
-128.8858452368758
 30
0.0
 10
81.81447209326166
 20
-128.8858452368758
 30
0.0
 10
81.81447209326166
 20
-128.8858452368758
 30
0.0
 10
80.78645560046311
 20
-128.8858452368758
 30
0.0
 10
80.78645560046311
 20
-128.8858452368758
 30
0.0
 10
80.81815047892741
 20
-128.5280720707326
 30
0.0
 10
80.88360729314715
 20
-128.4498684032174
 30
0.0
 10
81.26876896839809
 20
-128.1515231341948
 30
0.0
 10
81.52473956295215
 20
-127.9527411246958
 30
0.0
 10
81.59019637717189
 20
-127.8850449984107
 30
0.0
 10
81.59019637717189
 20
-127.7475856885492
 30
0.0
 10
81.59019637717189
 20
-127.6290744038566
 30
0.0
 10
81.51836613630444
 20
-127.4979885206429
 30
0.0
 10
81.32165118409668
 20
-127.4979885206429
 30
0.0
 10
81.06137422018605
 20
-127.4979885206429
 30
0.0
 10
81.05293373624718
 20
-127.7284654086061
 30
0.0
 10
81.04862736689063
 20
-127.8449096360075
 30
0.0
 10
81.04862736689063
 20
-127.8449096360075
 30
0.0
 10
80.82452390557512
 20
-127.8449096360075
 30
0.0
 10
80.82452390557512
 20
-127.8449096360075
 30
0.0
 10
80.83296438951399
 20
-127.7179578673761
 30
0.0
 10
80.843471930744
 20
-127.6058200093312
 30
0.0
 10
80.92391491032458
 20
-127.4873087246386
 30
0.0
 10
81.03381345630405
 20
-127.3265950202517
 30
0.0
 10
81.2200208672818
 20
-127.292660829722
 30
0.0
 10
81.33646509468325
 20
-127.292660829722
 30
0.0
 10
81.6136230264716
 20
-127.292660829722
 30
0.0
 10
81.82084551990937
 20
-127.4768011834086
 30
0.0
 10
81.82084551990937
 20
-127.7496527458404
 30
0.0
 10
81.82084551990937
 20
-127.9780625765124
 30
0.0
 10
81.7045735472822
 20
-128.0776258360362
 30
0.0
 10
81.39572073702955
 20
-128.3039686094171
 30
0.0
  0
HATCH
  5
C5
330
BD
100
AcDbEntity
  8
_U+30EC_U+30A4_U+30E4_U+30FC 1
 62
     7
420
 16777215
100
AcDbHatch
 10
0.0
 20
0.0
 30
0.0
210
0.0
220
0.0
230
1.0
  2
SOLID
 70
     1
 71
     0
 91
        1
 92
        1
 93
        1
 72
     4
 94
        3
 73
     0
 74
     1
 95
       44
 96
       40
 40
0.0
 40
0.0
 40
0.0
 40
0.0
 40
1.0
 40
1.0
 40
1.0
 40
2.0
 40
2.0
 40
2.0
 40
3.0
 40
3.0
 40
3.0
 40
4.0
 40
4.0
 40
4.0
 40
5.0
 40
5.0
 40
5.0
 40
6.0
 40
6.0
 40
6.0
 40
7.0
 40
7.0
 40
7.0
 40
8.0
 40
8.0
 40
8.0
 40
9.0
 40
9.0
 40
9.0
 40
10.0
 40
10.0
 40
10.0
 40
11.0
 40
11.0
 40
11.0
 40
12.0
 40
12.0
 40
12.0
 40
13.0
 40
13.0
 40
13.0
 40
13.0
 10
81.39572073702955
 20
-128.3039686094171
 10
81.1778184475875
 20
-128.4626152565128
 10
81.08462861471149
 20
-128.5366848094457
 10
81.03605276836946
 20
-128.6805175459549
 10
81.03605276836946
 20
-128.6805175459549
 10
81.81447209326166
 20
-128.6805175459549
 10
81.81447209326166
 20
-128.6805175459549
 10
81.81447209326166
 20
-128.6805175459549
 10
81.81447209326166
 20
-128.8858452368758
 10
81.81447209326166
 20
-128.8858452368758
 10
81.81447209326166
 20
-128.8858452368758
 10
80.78645560046311
 20
-128.8858452368758
 10
80.78645560046311
 20
-128.8858452368758
 10
80.81815047892741
 20
-128.5280720707326
 10
80.88360729314715
 20
-128.4498684032174
 10
81.26876896839809
 20
-128.1515231341948
 10
81.52473956295215
 20
-127.9527411246958
 10
81.59019637717189
 20
-127.8850449984107
 10
81.59019637717189
 20
-127.7475856885492
 10
81.59019637717189
 20
-127.6290744038566
 10
81.51836613630444
 20
-127.4979885206429
 10
81.32165118409668
 20
-127.4979885206429
 10
81.06137422018605
 20
-127.4979885206429
 10
81.05293373624718
 20
-127.7284654086061
 10
81.04862736689063
 20
-127.8449096360075
 10
81.04862736689063
 20
-127.8449096360075
 10
80.82452390557512
 20
-127.8449096360075
 10
80.82452390557512
 20
-127.8449096360075
 10
80.83296438951399
 20
-127.7179578673761
 10
80.843471930744
 20
-127.6058200093312
 10
80.92391491032458
 20
-127.4873087246386
 10
81.03381345630405
 20
-127.3265950202517
 10
81.2200208672818
 20
-127.292660829722
 10
81.33646509468325
 20
-127.292660829722
 10
81.6136230264716
 20
-127.292660829722
 10
81.82084551990937
 20
-127.4768011834086
 10
81.82084551990937
 20
-127.7496527458404
 10
81.82084551990937
 20
-127.9780625765124
 10
81.7045735472822
 20
-128.0776258360362
 10
81.39572073702955
 20
-128.3039686094171
 97
        0
 97
        0
 75
     2
 76
     1
 98
        0
  0
SPLINE
  5
C6
330
BD
100
AcDbEntity
  8
_U+30EC_U+30A4_U+30E4_U+30FC 1
370
     0
100
AcDbSpline
210
0.0
220
0.0
230
1.0
 70
    11
 71
     3
 72
    53
 73
    49
 74
     0
 42
0.0000000001
 43
0.0000000001
 12
1.0
 22
0.0
 32
0.0
 13
1.0
 23
0.0
 33
0.0
 40
0.0
 40
0.0
 40
0.0
 40
0.0
 40
1.0
 40
1.0
 40
1.0
 40
2.0
 40
2.0
 40
2.0
 40
3.0
 40
3.0
 40
3.0
 40
4.0
 40
4.0
 40
4.0
 40
5.0
 40
5.0
 40
5.0
 40
6.0
 40
6.0
 40
6.0
 40
7.0
 40
7.0
 40
7.0
 40
8.0
 40
8.0
 40
8.0
 40
9.0
 40
9.0
 40
9.0
 40
10.0
 40
10.0
 40
10.0
 40
11.0
 40
11.0
 40
11.0
 40
12.0
 40
12.0
 40
12.0
 40
13.0
 40
13.0
 40
13.0
 40
14.0
 40
14.0
 40
14.0
 40
15.0
 40
15.0
 40
15.0
 40
16.0
 40
16.0
 40
16.0
 40
16.0
 10
82.46042749674601
 20
-128.9364881405089
 30
0.0
 10
82.38205157445657
 20
-128.9364881405089
 30
0.0
 10
82.28059351241596
 20
-128.9196071726312
 30
0.0
 10
82.1789631956011
 20
-128.8562174157026
 30
0.0
 10
82.00550263791877
 20
-128.7459743601746
 30
0.0
 10
81.98431530068449
 20
-128.6148884769609
 30
0.0
 10
81.9653672755156
 20
-128.5070569882726
 30
0.0
 10
81.9653672755156
 20
-128.5070569882726
 30
0.0
 10
82.18740367953995
 20
-128.5070569882726
 30
0.0
 10
82.18740367953995
 20
-128.5070569882726
 30
0.0
 10
82.24252520730396
 20
-128.7058389977715
 30
0.0
 10
82.36947697593541
 20
-128.7354668189446
 30
0.0
 10
82.46249455403716
 20
-128.7354668189446
 30
0.0
 10
82.60202092118978
 20
-128.7354668189446
 30
0.0
 10
82.75446639641208
 20
-128.6360758141952
 30
0.0
 10
82.75446639641208
 20
-128.4033596141665
 30
0.0
 10
82.75446639641208
 20
-128.1473890196125
 30
0.0
 10
82.57463241208204
 20
-128.0776258360362
 30
0.0
 10
82.4540540700983
 20
-128.0776258360362
 30
0.0
 10
82.422359191634
 20
-128.0776258360362
 30
0.0
 10
82.28059351241596
 20
-128.0776258360362
 30
0.0
 10
82.19171004889652
 20
-128.2066446619588
 30
0.0
 10
82.19171004889652
 20
-128.2066446619588
 30
0.0
 10
82.01618243392303
 20
-128.1875243820156
 30
0.0
 10
82.01618243392303
 20
-128.1875243820156
 30
0.0
 10
82.01618243392303
 20
-128.1875243820156
 30
0.0
 10
82.13676077590678
 20
-127.3414089308383
 30
0.0
 10
82.13676077590678
 20
-127.3414089308383
 30
0.0
 10
82.13676077590678
 20
-127.3414089308383
 30
0.0
 10
82.91518010079899
 20
-127.3414089308383
 30
0.0
 10
82.91518010079899
 20
-127.3414089308383
 30
0.0
 10
82.91518010079899
 20
-127.3414089308383
 30
0.0
 10
82.91518010079899
 20
-127.5360568257549
 30
0.0
 10
82.91518010079899
 20
-127.5360568257549
 30
0.0
 10
82.91518010079899
 20
-127.5360568257549
 30
0.0
 10
82.29954153758484
 20
-127.5360568257549
 30
0.0
 10
82.29954153758484
 20
-127.5360568257549
 30
0.0
 10
82.29954153758484
 20
-127.5360568257549
 30
0.0
 10
82.2340847233651
 20
-127.9591145513436
 30
0.0
 10
82.2340847233651
 20
-127.9591145513436
 30
0.0
 10
82.29540742300254
 20
-127.9251803608139
 30
0.0
 10
82.37791745987427
 20
-127.8850449984107
 30
0.0
 10
82.4962564897926
 20
-127.8850449984107
 30
0.0
 10
82.75016002705551
 20
-127.8850449984107
 30
0.0
 10
82.9871825964407
 20
-128.0712524093884
 30
0.0
 10
82.9871825964407
 20
-128.3842393342234
 30
0.0
 10
82.9871825964407
 20
-128.7017048831892
 30
0.0
 10
82.76290688035094
 20
-128.9364881405089
 30
0.0
 10
82.46042749674601
 20
-128.9364881405089
 30
0.0
  0
HATCH
  5
C7
330
BD
100
AcDbEntity
  8
_U+30EC_U+30A4_U+30E4_U+30FC 1
 62
     7
420
 16777215
100
AcDbHatch
 10
0.0
 20
0.0
 30
0.0
210
0.0
220
0.0
230
1.0
  2
SOLID
 70
     1
 71
     0
 91
        1
 92
        1
 93
        1
 72
     4
 94
        3
 73
     0
 74
     1
 95
       53
 96
       49
 40
0.0
 40
0.0
 40
0.0
 40
0.0
 40
1.0
 40
1.0
 40
1.0
 40
2.0
 40
2.0
 40
2.0
 40
3.0
 40
3.0
 40
3.0
 40
4.0
 40
4.0
 40
4.0
 40
5.0
 40
5.0
 40
5.0
 40
6.0
 40
6.0
 40
6.0
 40
7.0
 40
7.0
 40
7.0
 40
8.0
 40
8.0
 40
8.0
 40
9.0
 40
9.0
 40
9.0
 40
10.0
 40
10.0
 40
10.0
 40
11.0
 40
11.0
 40
11.0
 40
12.0
 40
12.0
 40
12.0
 40
13.0
 40
13.0
 40
13.0
 40
14.0
 40
14.0
 40
14.0
 40
15.0
 40
15.0
 40
15.0
 40
16.0
 40
16.0
 40
16.0
 40
16.0
 10
82.46042749674601
 20
-128.9364881405089
 10
82.38205157445657
 20
-128.9364881405089
 10
82.28059351241596
 20
-128.9196071726312
 10
82.1789631956011
 20
-128.8562174157026
 10
82.00550263791877
 20
-128.7459743601746
 10
81.98431530068449
 20
-128.6148884769609
 10
81.9653672755156
 20
-128.5070569882726
 10
81.9653672755156
 20
-128.5070569882726
 10
82.18740367953995
 20
-128.5070569882726
 10
82.18740367953995
 20
-128.5070569882726
 10
82.24252520730396
 20
-128.7058389977715
 10
82.36947697593541
 20
-128.7354668189446
 10
82.46249455403716
 20
-128.7354668189446
 10
82.60202092118978
 20
-128.7354668189446
 10
82.75446639641208
 20
-128.6360758141952
 10
82.75446639641208
 20
-128.4033596141665
 10
82.75446639641208
 20
-128.1473890196125
 10
82.57463241208204
 20
-128.0776258360362
 10
82.4540540700983
 20
-128.0776258360362
 10
82.422359191634
 20
-128.0776258360362
 10
82.28059351241596
 20
-128.0776258360362
 10
82.19171004889652
 20
-128.2066446619588
 10
82.19171004889652
 20
-128.2066446619588
 10
82.01618243392303
 20
-128.1875243820156
 10
82.01618243392303
 20
-128.1875243820156
 10
82.01618243392303
 20
-128.1875243820156
 10
82.13676077590678
 20
-127.3414089308383
 10
82.13676077590678
 20
-127.3414089308383
 10
82.13676077590678
 20
-127.3414089308383
 10
82.91518010079899
 20
-127.3414089308383
 10
82.91518010079899
 20
-127.3414089308383
 10
82.91518010079899
 20
-127.3414089308383
 10
82.91518010079899
 20
-127.5360568257549
 10
82.91518010079899
 20
-127.5360568257549
 10
82.91518010079899
 20
-127.5360568257549
 10
82.29954153758484
 20
-127.5360568257549
 10
82.29954153758484
 20
-127.5360568257549
 10
82.29954153758484
 20
-127.5360568257549
 10
82.2340847233651
 20
-127.9591145513436
 10
82.2340847233651
 20
-127.9591145513436
 10
82.29540742300254
 20
-127.9251803608139
 10
82.37791745987427
 20
-127.8850449984107
 10
82.4962564897926
 20
-127.8850449984107
 10
82.75016002705551
 20
-127.8850449984107
 10
82.9871825964407
 20
-128.0712524093884
 10
82.9871825964407
 20
-128.3842393342234
 10
82.9871825964407
 20
-128.7017048831892
 10
82.76290688035094
 20
-128.9364881405089
 10
82.46042749674601
 20
-128.9364881405089
 97
        0
 97
        0
 75
     2
 76
     1
 98
        0
  0
ENDBLK
  5
C0
330
BD
100
AcDbEntity
  8
0
100
AcDbBlockEnd
  0
ENDSEC
  0
SECTION
  2
ENTITIES
  0
SPLINE
  5
41
330
1F
100
AcDbEntity
  8
_U+30EC_U+30A4_U+30E4_U+30FC 1
 62
     7
420
 16777215
370
    25
100
AcDbSpline
210
0.0
220
0.0
230
1.0
 70
    11
 71
     3
 72
    53
 73
    49
 74
     0
 42
0.0000000001
 43
0.0000000001
 12
1.0
 22
0.0
 32
0.0
 13
1.0
 23
0.0
 33
0.0
 40
0.0
 40
0.0
 40
0.0
 40
0.0
 40
1.0
 40
1.0
 40
1.0
 40
2.0
 40
2.0
 40
2.0
 40
3.0
 40
3.0
 40
3.0
 40
4.0
 40
4.0
 40
4.0
 40
5.0
 40
5.0
 40
5.0
 40
6.0
 40
6.0
 40
6.0
 40
7.0
 40
7.0
 40
7.0
 40
8.0
 40
8.0
 40
8.0
 40
9.0
 40
9.0
 40
9.0
 40
10.0
 40
10.0
 40
10.0
 40
11.0
 40
11.0
 40
11.0
 40
12.0
 40
12.0
 40
12.0
 40
13.0
 40
13.0
 40
13.0
 40
14.0
 40
14.0
 40
14.0
 40
15.0
 40
15.0
 40
15.0
 40
16.0
 40
16.0
 40
16.0
 40
16.0
 10
93.85162177231231
 20
-147.5410505186703
 30
0.0
 10
80.04453490233823
 20
-147.5410505186703
 30
0.0
 10
68.85160185456041
 20
-136.3479055214684
 30
0.0
 10
68.85160185456041
 20
-122.5406771915872
 30
0.0
 10
68.85160185456041
 20
-122.5406771915872
 30
0.0
 10
68.84987498278753
 20
-117.5411458039481
 30
0.0
 10
68.84987498278753
 20
-117.5411458039481
 30
0.0
 10
68.84987498278753
 20
-117.5411458039481
 30
0.0
 10
81.84959291184292
 20
-117.8229446927667
 30
0.0
 10
81.84959291184292
 20
-117.8229446927667
 30
0.0
 10
81.84959291184292
 20
-117.8229446927667
 30
0.0
 10
81.84959291184292
 20
-102.5405055299205
 30
0.0
 10
81.84959291184292
 20
-102.5405055299205
 30
0.0
 10
81.84959291184292
 20
-102.5405055299205
 30
0.0
 10
82.84971788632761
 20
-102.5405055299205
 30
0.0
 10
82.84971788632761
 20
-102.5405055299205
 30
0.0
 10
82.84971788632761
 20
-102.5405055299205
 30
0.0
 10
82.84971788632761
 20
-118.8234224702941
 30
0.0
 10
82.84971788632761
 20
-118.8234224702941
 30
0.0
 10
82.84971788632761
 20
-118.8234224702941
 30
0.0
 10
69.8499999825375
 20
-118.5409180259203
 30
0.0
 10
69.8499999825375
 20
-118.5409180259203
 30
0.0
 10
69.8499999825375
 20
-118.5409180259203
 30
0.0
 10
69.85155044016071
 20
-122.5406771915872
 30
0.0
 10
69.85155044016071
 20
-122.5406771915872
 30
0.0
 10
69.85155044016071
 20
-135.7960199660511
 30
0.0
 10
80.59680849935967
 20
-146.5405727411429
 30
0.0
 10
93.85162177231231
 20
-146.5405727411429
 30
0.0
 10
93.85162177231231
 20
-146.5405727411429
 30
0.0
 10
97.85071055917595
 20
-146.5405727411429
 30
0.0
 10
97.85071055917595
 20
-146.5405727411429
 30
0.0
 10
97.85071055917595
 20
-146.5405727411429
 30
0.0
 10
97.56855889970758
 20
-133.5408527443923
 30
0.0
 10
97.56855889970758
 20
-133.5408527443923
 30
0.0
 10
97.56855889970758
 20
-133.5408527443923
 30
0.0
 10
113.8507698732027
 20
-133.5408527443923
 30
0.0
 10
113.8507698732027
 20
-133.5408527443923
 30
0.0
 10
113.8507698732027
 20
-133.5408527443923
 30
0.0
 10
113.8507698732027
 20
-134.5413305219204
 30
0.0
 10
113.8507698732027
 20
-134.5413305219204
 30
0.0
 10
113.8507698732027
 20
-134.5413305219204
 30
0.0
 10
98.56833109642348
 20
-134.5413305219204
 30
0.0
 10
98.56833109642348
 20
-134.5413305219204
 30
0.0
 10
98.56833109642348
 20
-134.5413305219204
 30
0.0
 10
98.85048275589186
 20
-147.5410505186703
 30
0.0
 10
98.85048275589186
 20
-147.5410505186703
 30
0.0
 10
98.85048275589186
 20
-147.5410505186703
 30
0.0
 10
93.85162177231231
 20
-147.5410505186703
 30
0.0
 10
93.85162177231231
 20
-147.5410505186703
 30
0.0
  0
HATCH
  5
42
330
1F
100
AcDbEntity
  8
_U+30EC_U+30A4_U+30E4_U+30FC 1
 62
   253
420
 11711154
100
AcDbHatch
 10
0.0
 20
0.0
 30
0.0
210
0.0
220
0.0
230
1.0
  2
SOLID
 70
     1
 71
     0
 91
        1
 92
        1
 93
        1
 72
     4
 94
        3
 73
     0
 74
     1
 95
       53
 96
       49
 40
0.0
 40
0.0
 40
0.0
 40
0.0
 40
1.0
 40
1.0
 40
1.0
 40
2.0
 40
2.0
 40
2.0
 40
3.0
 40
3.0
 40
3.0
 40
4.0
 40
4.0
 40
4.0
 40
5.0
 40
5.0
 40
5.0
 40
6.0
 40
6.0
 40
6.0
 40
7.0
 40
7.0
 40
7.0
 40
8.0
 40
8.0
 40
8.0
 40
9.0
 40
9.0
 40
9.0
 40
10.0
 40
10.0
 40
10.0
 40
11.0
 40
11.0
 40
11.0
 40
12.0
 40
12.0
 40
12.0
 40
13.0
 40
13.0
 40
13.0
 40
14.0
 40
14.0
 40
14.0
 40
15.0
 40
15.0
 40
15.0
 40
16.0
 40
16.0
 40
16.0
 40
16.0
 10
93.85162177231231
 20
-147.5410505186703
 10
80.04453490233823
 20
-147.5410505186703
 10
68.85160185456041
 20
-136.3479055214684
 10
68.85160185456041
 20
-122.5406771915872
 10
68.85160185456041
 20
-122.5406771915872
 10
68.84987498278753
 20
-117.5411458039481
 10
68.84987498278753
 20
-117.5411458039481
 10
68.84987498278753
 20
-117.5411458039481
 10
81.84959291184292
 20
-117.8229446927667
 10
81.84959291184292
 20
-117.8229446927667
 10
81.84959291184292
 20
-117.8229446927667
 10
81.84959291184292
 20
-102.5405055299205
 10
81.84959291184292
 20
-102.5405055299205
 10
81.84959291184292
 20
-102.5405055299205
 10
82.84971788632761
 20
-102.5405055299205
 10
82.84971788632761
 20
-102.5405055299205
 10
82.84971788632761
 20
-102.5405055299205
 10
82.84971788632761
 20
-118.8234224702941
 10
82.84971788632761
 20
-118.8234224702941
 10
82.84971788632761
 20
-118.8234224702941
 10
69.8499999825375
 20
-118.5409180259203
 10
69.8499999825375
 20
-118.5409180259203
 10
69.8499999825375
 20
-118.5409180259203
 10
69.85155044016071
 20
-122.5406771915872
 10
69.85155044016071
 20
-122.5406771915872
 10
69.85155044016071
 20
-135.7960199660511
 10
80.59680849935967
 20
-146.5405727411429
 10
93.85162177231231
 20
-146.5405727411429
 10
93.85162177231231
 20
-146.5405727411429
 10
97.85071055917595
 20
-146.5405727411429
 10
97.85071055917595
 20
-146.5405727411429
 10
97.85071055917595
 20
-146.5405727411429
 10
97.56855889970758
 20
-133.5408527443923
 10
97.56855889970758
 20
-133.5408527443923
 10
97.56855889970758
 20
-133.5408527443923
 10
113.8507698732027
 20
-133.5408527443923
 10
113.8507698732027
 20
-133.5408527443923
 10
113.8507698732027
 20
-133.5408527443923
 10
113.8507698732027
 20
-134.5413305219204
 10
113.8507698732027
 20
-134.5413305219204
 10
113.8507698732027
 20
-134.5413305219204
 10
98.56833109642348
 20
-134.5413305219204
 10
98.56833109642348
 20
-134.5413305219204
 10
98.56833109642348
 20
-134.5413305219204
 10
98.85048275589186
 20
-147.5410505186703
 10
98.85048275589186
 20
-147.5410505186703
 10
98.85048275589186
 20
-147.5410505186703
 10
93.85162177231231
 20
-147.5410505186703
 10
93.85162177231231
 20
-147.5410505186703
 97
        0
 97
        0
 75
     2
 76
     1
 98
        0
  0
POLYLINE
  5
43
330
1F
100
AcDbEntity
  8
_U+30EC_U+30A4_U+30E4_U+30FC 1
 62
     7
420
 16777215
370
     9
100
AcDb2dPolyline
 66
     1
 10
0.0
 20
0.0
 30
0.0
  0
VERTEX
  5
44
330
43
100
AcDbEntity
  8
_U+30EC_U+30A4_U+30E4_U+30FC 1
 62
     7
420
 16777215
370
     9
100
AcDbVertex
100
AcDb2dVertex
 10
68.84987498278753
 20
-152.4130880174521
 30
0.0
  0
VERTEX
  5
45
330
43
100
AcDbEntity
  8
_U+30EC_U+30A4_U+30E4_U+30FC 1
 62
     7
420
 16777215
370
     9
100
AcDbVertex
100
AcDb2dVertex
 10
98.84977720035431
 20
-152.4130880174521
 30
0.0
  0
SEQEND
  5
46
330
43
100
AcDbEntity
  8
_U+30EC_U+30A4_U+30E4_U+30FC 1
 62
     7
420
 16777215
370
     9
  0
POLYLINE
  5
47
330
1F
100
AcDbEntity
  8
_U+30EC_U+30A4_U+30E4_U+30FC 1
 62
     7
420
 16777215
370
     9
100
AcDb2dPolyline
 66
     1
 10
0.0
 20
0.0
 30
0.0
  0
VERTEX
  5
48
330
47
100
AcDbEntity
  8
_U+30EC_U+30A4_U+30E4_U+30FC 1
 62
     7
420
 16777215
370
     9
100
AcDbVertex
100
AcDb2dVertex
 10
68.84987498278753
 20
-154.5628452391371
 30
0.0
  0
VERTEX
  5
49
330
47
100
AcDbEntity
  8
_U+30EC_U+30A4_U+30E4_U+30FC 1
 62
     7
420
 16777215
370
     9
100
AcDbVertex
100
AcDb2dVertex
 10
68.84987498278753
 20
-128.2409310790509
 30
0.0
  0
SEQEND
  5
4A
330
47
100
AcDbEntity
  8
_U+30EC_U+30A4_U+30E4_U+30FC 1
 62
     7
420
 16777215
370
     9
  0
INSERT
  5
4C
330
1F
100
AcDbEntity
  8
_U+30EC_U+30A4_U+30E4_U+30FC 1
100
AcDbBlockReference
  2
block 2
 10
0.0
 20
0.0
 30
0.0
  0
POLYLINE
  5
53
330
1F
100
AcDbEntity
  8
_U+30EC_U+30A4_U+30E4_U+30FC 1
 62
     7
420
 16777215
370
     9
100
AcDb2dPolyline
 66
     1
 10
0.0
 20
0.0
 30
0.0
  0
VERTEX
  5
54
330
53
100
AcDbEntity
  8
_U+30EC_U+30A4_U+30E4_U+30FC 1
 62
     7
420
 16777215
370
     9
100
AcDbVertex
100
AcDb2dVertex
 10
93.8499284390222
 20
-154.3533657947448
 30
0.0
  0
VERTEX
  5
55
330
53
100
AcDbEntity
  8
_U+30EC_U+30A4_U+30E4_U+30FC 1
 62
     7
420
 16777215
370
     9
100
AcDbVertex
100
AcDb2dVertex
 10
93.8499284390222
 20
-151.3705944066019
 30
0.0
  0
SEQEND
  5
56
330
53
100
AcDbEntity
  8
_U+30EC_U+30A4_U+30E4_U+30FC 1
 62
     7
420
 16777215
370
     9
  0
POLYLINE
  5
57
330
1F
100
AcDbEntity
  8
_U+30EC_U+30A4_U+30E4_U+30FC 1
 62
     7
420
 16777215
370
     9
100
AcDb2dPolyline
 66
     1
 10
0.0
 20
0.0
 30
0.0
  0
VERTEX
  5
58
330
57
100
AcDbEntity
  8
_U+30EC_U+30A4_U+30E4_U+30FC 1
 62
     7
420
 16777215
370
     9
100
AcDbVertex
100
AcDb2dVertex
 10
98.85048275589186
 20
-154.3533657947448
 30
0.0
  0
VERTEX
  5
59
330
57
100
AcDbEntity
  8
_U+30EC_U+30A4_U+30E4_U+30FC 1
 62
     7
420
 16777215
370
     9
100
AcDbVertex
100
AcDb2dVertex
 10
98.85048275589186
 20
-151.3705944066019
 30
0.0
  0
SEQEND
  5
5A
330
57
100
AcDbEntity
  8
_U+30EC_U+30A4_U+30E4_U+30FC 1
 62
     7
420
 16777215
370
     9
  0
INSERT
  5
5C
330
1F
100
AcDbEntity
  8
_U+30EC_U+30A4_U+30E4_U+30FC 1
100
AcDbBlockReference
  2
block 3
 10
0.0
 20
0.0
 30
0.0
  0
POLYLINE
  5
61
330
1F
100
AcDbEntity
  8
_U+30EC_U+30A4_U+30E4_U+30FC 1
 62
     7
420
 16777215
370
     9
100
AcDb2dPolyline
 66
     1
 10
0.0
 20
0.0
 30
0.0
  0
VERTEX
  5
62
330
61
100
AcDbEntity
  8
_U+30EC_U+30A4_U+30E4_U+30FC 1
 62
     7
420
 16777215
370
     9
100
AcDbVertex
100
AcDb2dVertex
 10
64.82894751274243
 20
-117.3902627484301
 30
0.0
  0
VERTEX
  5
63
330
61
100
AcDbEntity
  8
_U+30EC_U+30A4_U+30E4_U+30FC 1
 62
     7
420
 16777215
370
     9
100
AcDbVertex
100
AcDb2dVertex
 10
64.82894751274243
 20
-102.7031360854355
 30
0.0
  0
SEQEND
  5
64
330
61
100
AcDbEntity
  8
_U+30EC_U+30A4_U+30E4_U+30FC 1
 62
     7
420
 16777215
370
     9
  0
POLYLINE
  5
65
330
1F
100
AcDbEntity
  8
_U+30EC_U+30A4_U+30E4_U+30FC 1
 62
     7
420
 16777215
370
     9
100
AcDb2dPolyline
 66
     1
 10
0.0
 20
0.0
 30
0.0
  0
VERTEX
  5
66
330
65
100
AcDbEntity
  8
_U+30EC_U+30A4_U+30E4_U+30FC 1
 62
     7
420
 16777215
370
     9
100
AcDbVertex
100
AcDb2dVertex
 10
64.82894751274243
 20
-147.5410505186703
 30
0.0
  0
VERTEX
  5
67
330
65
100
AcDbEntity
  8
_U+30EC_U+30A4_U+30E4_U+30FC 1
 62
     7
420
 16777215
370
     9
100
AcDbVertex
100
AcDb2dVertex
 10
64.82894751274243
 20
-117.3902627484301
 30
0.0
  0
SEQEND
  5
68
330
65
100
AcDbEntity
  8
_U+30EC_U+30A4_U+30E4_U+30FC 1
 62
     7
420
 16777215
370
     9
  0
POLYLINE
  5
69
330
1F
100
AcDbEntity
  8
_U+30EC_U+30A4_U+30E4_U+30FC 1
 62
     7
420
 16777215
370
     9
100
AcDb2dPolyline
 66
     1
 10
0.0
 20
0.0
 30
0.0
  0
VERTEX
  5
6A
330
69
100
AcDbEntity
  8
_U+30EC_U+30A4_U+30E4_U+30FC 1
 62
     7
420
 16777215
370
     9
100
AcDbVertex
100
AcDb2dVertex
 10
88.22802663800441
 20
-147.5410505186703
 30
0.0
  0
VERTEX
  5
6B
330
69
100
AcDbEntity
  8
_U+30EC_U+30A4_U+30E4_U+30FC 1
 62
     7
420
 16777215
370
     9
100
AcDbVertex
100
AcDb2dVertex
 10
63.3565236614182
 20
-147.5410505186703
 30
0.0
  0
SEQEND
  5
6C
330
69
100
AcDbEntity
  8
_U+30EC_U+30A4_U+30E4_U+30FC 1
 62
     7
420
 16777215
370
     9
  0
POLYLINE
  5
6D
330
1F
100
AcDbEntity
  8
_U+30EC_U+30A4_U+30E4_U+30FC 1
 62
     7
420
 16777215
370
     9
100
AcDb2dPolyline
 66
     1
 10
0.0
 20
0.0
 30
0.0
  0
VERTEX
  5
6E
330
6D
100
AcDbEntity
  8
_U+30EC_U+30A4_U+30E4_U+30FC 1
 62
     7
420
 16777215
370
     9
100
AcDbVertex
100
AcDb2dVertex
 10
68.23960298128492
 20
-117.5411458039481
 30
0.0
  0
VERTEX
  5
6F
330
6D
100
AcDbEntity
  8
_U+30EC_U+30A4_U+30E4_U+30FC 1
 62
     7
420
 16777215
370
     9
100
AcDbVertex
100
AcDb2dVertex
 10
63.23488588674366
 20
-117.5411458039481
 30
0.0
  0
SEQEND
  5
70
330
6D
100
AcDbEntity
  8
_U+30EC_U+30A4_U+30E4_U+30FC 1
 62
     7
420
 16777215
370
     9
  0
POLYLINE
  5
71
330
1F
100
AcDbEntity
  8
_U+30EC_U+30A4_U+30E4_U+30FC 1
 62
     7
420
 16777215
370
     9
100
AcDb2dPolyline
 66
     1
 10
0.0
 20
0.0
 30
0.0
  0
VERTEX
  5
72
330
71
100
AcDbEntity
  8
_U+30EC_U+30A4_U+30E4_U+30FC 1
 62
     7
420
 16777215
370
     9
100
AcDbVertex
100
AcDb2dVertex
 10
80.60333488808206
 20
-102.5405055299205
 30
0.0
  0
VERTEX
  5
73
330
71
100
AcDbEntity
  8
_U+30EC_U+30A4_U+30E4_U+30FC 1
 62
     7
420
 16777215
370
     9
100
AcDbVertex
100
AcDb2dVertex
 10
63.23488588674366
 20
-102.5405055299205
 30
0.0
  0
SEQEND
  5
74
330
71
100
AcDbEntity
  8
_U+30EC_U+30A4_U+30E4_U+30FC 1
 62
     7
420
 16777215
370
     9
  0
INSERT
  5
76
330
1F
100
AcDbEntity
  8
_U+30EC_U+30A4_U+30E4_U+30FC 1
100
AcDbBlockReference
  2
block 4
 10
0.0
 20
0.0
 30
0.0
  0
INSERT
  5
7F
330
1F
100
AcDbEntity
  8
_U+30EC_U+30A4_U+30E4_U+30FC 1
100
AcDbBlockReference
  2
block 5
 10
0.0
 20
0.0
 30
0.0
  0
POLYLINE
  5
86
330
1F
100
AcDbEntity
  8
_U+30EC_U+30A4_U+30E4_U+30FC 1
 62
     7
420
 16777215
370
     9
100
AcDb2dPolyline
 66
     1
 10
0.0
 20
0.0
 30
0.0
  0
VERTEX
  5
87
330
86
100
AcDbEntity
  8
_U+30EC_U+30A4_U+30E4_U+30FC 1
 62
     7
420
 16777215
370
     9
100
AcDbVertex
100
AcDb2dVertex
 10
118.067557821179
 20
-134.5282071885901
 30
0.0
  0
VERTEX
  5
88
330
86
100
AcDbEntity
  8
_U+30EC_U+30A4_U+30E4_U+30FC 1
 62
     7
420
 16777215
370
     9
100
AcDbVertex
100
AcDb2dVertex
 10
118.067557821179
 20
-133.5084677444003
 30
0.0
  0
SEQEND
  5
89
330
86
100
AcDbEntity
  8
_U+30EC_U+30A4_U+30E4_U+30FC 1
 62
     7
420
 16777215
370
     9
  0
POLYLINE
  5
8A
330
1F
100
AcDbEntity
  8
_U+30EC_U+30A4_U+30E4_U+30FC 1
 62
     7
420
 16777215
370
     9
100
AcDb2dPolyline
 66
     1
 10
0.0
 20
0.0
 30
0.0
  0
VERTEX
  5
8B
330
8A
100
AcDbEntity
  8
_U+30EC_U+30A4_U+30E4_U+30FC 1
 62
     7
420
 16777215
370
     9
100
AcDbVertex
100
AcDb2dVertex
 10
118.0668522656414
 20
-147.5320899631168
 30
0.0
  0
VERTEX
  5
8C
330
8A
100
AcDbEntity
  8
_U+30EC_U+30A4_U+30E4_U+30FC 1
 62
     7
420
 16777215
370
     9
100
AcDbVertex
100
AcDb2dVertex
 10
118.0668522656414
 20
-134.5282071885901
 30
0.0
  0
SEQEND
  5
8D
330
8A
100
AcDbEntity
  8
_U+30EC_U+30A4_U+30E4_U+30FC 1
 62
     7
420
 16777215
370
     9
  0
POLYLINE
  5
8E
330
1F
100
AcDbEntity
  8
_U+30EC_U+30A4_U+30E4_U+30FC 1
 62
     7
420
 16777215
370
     9
100
AcDb2dPolyline
 66
     1
 10
0.0
 20
0.0
 30
0.0
  0
VERTEX
  5
8F
330
8E
100
AcDbEntity
  8
_U+30EC_U+30A4_U+30E4_U+30FC 1
 62
     7
420
 16777215
370
     9
100
AcDbVertex
100
AcDb2dVertex
 10
119.419402231135
 20
-147.5410505186703
 30
0.0
  0
VERTEX
  5
90
330
8E
100
AcDbEntity
  8
_U+30EC_U+30A4_U+30E4_U+30FC 1
 62
     7
420
 16777215
370
     9
100
AcDbVertex
100
AcDb2dVertex
 10
100.0004324487764
 20
-147.5410505186703
 30
0.0
  0
SEQEND
  5
91
330
8E
100
AcDbEntity
  8
_U+30EC_U+30A4_U+30E4_U+30FC 1
 62
     7
420
 16777215
370
     9
  0
POLYLINE
  5
92
330
1F
100
AcDbEntity
  8
_U+30EC_U+30A4_U+30E4_U+30FC 1
 62
     7
420
 16777215
370
     9
100
AcDb2dPolyline
 66
     1
 10
0.0
 20
0.0
 30
0.0
  0
VERTEX
  5
93
330
92
100
AcDbEntity
  8
_U+30EC_U+30A4_U+30E4_U+30FC 1
 62
     7
420
 16777215
370
     9
100
AcDbVertex
100
AcDb2dVertex
 10
120.0064597161579
 20
-134.5413305219204
 30
0.0
  0
VERTEX
  5
94
330
92
100
AcDbEntity
  8
_U+30EC_U+30A4_U+30E4_U+30FC 1
 62
     7
420
 16777215
370
     9
100
AcDbVertex
100
AcDb2dVertex
 10
115.0007195660872
 20
-134.5413305219204
 30
0.0
  0
SEQEND
  5
95
330
92
100
AcDbEntity
  8
_U+30EC_U+30A4_U+30E4_U+30FC 1
 62
     7
420
 16777215
370
     9
  0
POLYLINE
  5
96
330
1F
100
AcDbEntity
  8
_U+30EC_U+30A4_U+30E4_U+30FC 1
 62
     7
420
 16777215
370
     9
100
AcDb2dPolyline
 66
     1
 10
0.0
 20
0.0
 30
0.0
  0
VERTEX
  5
97
330
96
100
AcDbEntity
  8
_U+30EC_U+30A4_U+30E4_U+30FC 1
 62
     7
420
 16777215
370
     9
100
AcDbVertex
100
AcDb2dVertex
 10
120.0064597161579
 20
-133.5408527443923
 30
0.0
  0
VERTEX
  5
98
330
96
100
AcDbEntity
  8
_U+30EC_U+30A4_U+30E4_U+30FC 1
 62
     7
420
 16777215
370
     9
100
AcDbVertex
100
AcDb2dVertex
 10
115.0007195660872
 20
-133.5408527443923
 30
0.0
  0
SEQEND
  5
99
330
96
100
AcDbEntity
  8
_U+30EC_U+30A4_U+30E4_U+30FC 1
 62
     7
420
 16777215
370
     9
  0
INSERT
  5
9B
330
1F
100
AcDbEntity
  8
_U+30EC_U+30A4_U+30E4_U+30FC 1
100
AcDbBlockReference
  2
block 6
 10
0.0
 20
0.0
 30
0.0
  0
INSERT
  5
A3
330
1F
100
AcDbEntity
  8
_U+30EC_U+30A4_U+30E4_U+30FC 1
100
AcDbBlockReference
  2
block 7
 10
0.0
 20
0.0
 30
0.0
  0
SPLINE
  5
A8
330
1F
100
AcDbEntity
  8
_U+30EC_U+30A4_U+30E4_U+30FC 1
 62
     7
420
 16777215
370
     9
100
AcDbSpline
210
0.0
220
0.0
230
1.0
 70
    11
 71
     3
 72
    17
 73
    13
 74
     0
 42
0.0000000001
 43
0.0000000001
 12
1.0
 22
0.0
 32
0.0
 13
1.0
 23
0.0
 33
0.0
 40
0.0
 40
0.0
 40
0.0
 40
0.0
 40
1.0
 40
1.0
 40
1.0
 40
2.0
 40
2.0
 40
2.0
 40
3.0
 40
3.0
 40
3.0
 40
4.0
 40
4.0
 40
4.0
 40
4.0
 10
64.93333609487782
 20
-102.5715146965792
 30
0.0
 10
64.93333609487782
 20
-102.5164108077043
 30
0.0
 10
64.8885333171111
 20
-102.4723135854931
 30
0.0
 10
64.83325140152151
 20
-102.4723135854931
 30
0.0
 10
64.77828862514595
 20
-102.4723135854931
 30
0.0
 10
64.73352112628807
 20
-102.5164108077043
 30
0.0
 10
64.73352112628807
 20
-102.5715146965792
 30
0.0
 10
64.73352112628807
 20
-102.6266538632323
 30
0.0
 10
64.77828862514595
 20
-102.6714213632209
 30
0.0
 10
64.83325140152151
 20
-102.6714213632209
 30
0.0
 10
64.8885333171111
 20
-102.6714213632209
 30
0.0
 10
64.93333609487782
 20
-102.6266538632323
 30
0.0
 10
64.93333609487782
 20
-102.5715146965792
 30
0.0
  0
SPLINE
  5
A9
330
1F
100
AcDbEntity
  8
_U+30EC_U+30A4_U+30E4_U+30FC 1
 62
     7
420
 16777215
370
     9
100
AcDbSpline
210
0.0
220
0.0
230
1.0
 70
    11
 71
     3
 72
    17
 73
    13
 74
     0
 42
0.0000000001
 43
0.0000000001
 12
1.0
 22
0.0
 32
0.0
 13
1.0
 23
0.0
 33
0.0
 40
0.0
 40
0.0
 40
0.0
 40
0.0
 40
1.0
 40
1.0
 40
1.0
 40
2.0
 40
2.0
 40
2.0
 40
3.0
 40
3.0
 40
3.0
 40
4.0
 40
4.0
 40
4.0
 40
4.0
 10
64.95019723187131
 20
-117.5390644150596
 30
0.0
 10
64.95019723187131
 20
-117.4839605261847
 30
0.0
 10
64.90542973301342
 20
-117.439157748418
 30
0.0
 10
64.85029056775348
 20
-117.439157748418
 30
0.0
 10
64.79536306915479
 20
-117.439157748418
 30
0.0
 10
64.75056029252003
 20
-117.4839605261847
 30
0.0
 10
64.75056029252003
 20
-117.5390644150596
 30
0.0
 10
64.75056029252003
 20
-117.5948738594901
 30
0.0
 10
64.79536306915479
 20
-117.6389710817013
 30
0.0
 10
64.85029056775348
 20
-117.6389710817013
 30
0.0
 10
64.90542973301342
 20
-117.6389710817013
 30
0.0
 10
64.95019723187131
 20
-117.5948738594901
 30
0.0
 10
64.95019723187131
 20
-117.5390644150596
 30
0.0
  0
SPLINE
  5
AA
330
1F
100
AcDbEntity
  8
_U+30EC_U+30A4_U+30E4_U+30FC 1
 62
     7
420
 16777215
370
     9
100
AcDbSpline
210
0.0
220
0.0
230
1.0
 70
    11
 71
     3
 72
    17
 73
    13
 74
     0
 42
0.0000000001
 43
0.0000000001
 12
1.0
 22
0.0
 32
0.0
 13
1.0
 23
0.0
 33
0.0
 40
0.0
 40
0.0
 40
0.0
 40
0.0
 40
1.0
 40
1.0
 40
1.0
 40
2.0
 40
2.0
 40
2.0
 40
3.0
 40
3.0
 40
3.0
 40
4.0
 40
4.0
 40
4.0
 40
4.0
 10
64.92246889924539
 20
-147.5017510742358
 30
0.0
 10
64.92246889924539
 20
-147.4466471853608
 30
0.0
 10
64.87787778927189
 20
-147.4025499631496
 30
0.0
 10
64.82273862401193
 20
-147.4025499631496
 30
0.0
 10
64.7672819587601
 20
-147.4025499631496
 30
0.0
 10
64.72283195989411
 20
-147.4466471853608
 30
0.0
 10
64.72283195989411
 20
-147.5017510742358
 30
0.0
 10
64.72283195989411
 20
-147.5575605186662
 30
0.0
 10
64.7672819587601
 20
-147.6023632964329
 30
0.0
 10
64.82273862401193
 20
-147.6023632964329
 30
0.0
 10
64.87787778927189
 20
-147.6023632964329
 30
0.0
 10
64.92246889924539
 20
-147.5575605186662
 30
0.0
 10
64.92246889924539
 20
-147.5017510742358
 30
0.0
  0
SPLINE
  5
AB
330
1F
100
AcDbEntity
  8
_U+30EC_U+30A4_U+30E4_U+30FC 1
 62
     7
420
 16777215
370
     9
100
AcDbSpline
210
0.0
220
0.0
230
1.0
 70
    11
 71
     3
 72
    17
 73
    13
 74
     0
 42
0.0000000001
 43
0.0000000001
 12
1.0
 22
0.0
 32
0.0
 13
1.0
 23
0.0
 33
0.0
 40
0.0
 40
0.0
 40
0.0
 40
0.0
 40
1.0
 40
1.0
 40
1.0
 40
2.0
 40
2.0
 40
2.0
 40
3.0
 40
3.0
 40
3.0
 40
4.0
 40
4.0
 40
4.0
 40
4.0
 10
68.96565490720623
 20
-152.4013757952329
 30
0.0
 10
68.96565490720623
 20
-152.346271906358
 30
0.0
 10
68.92085213057146
 20
-152.3014691285913
 30
0.0
 10
68.865571854204
 20
-152.3014691285913
 30
0.0
 10
68.81060907782845
 20
-152.3014691285913
 30
0.0
 10
68.76584157897055
 20
-152.346271906358
 30
0.0
 10
68.76584157897055
 20
-152.4013757952329
 30
0.0
 10
68.76584157897055
 20
-152.4571852396633
 30
0.0
 10
68.81060907782845
 20
-152.5012824618745
 30
0.0
 10
68.865571854204
 20
-152.5012824618745
 30
0.0
 10
68.92085213057146
 20
-152.5012824618745
 30
0.0
 10
68.96565490720623
 20
-152.4571852396633
 30
0.0
 10
68.96565490720623
 20
-152.4013757952329
 30
0.0
  0
SPLINE
  5
AC
330
1F
100
AcDbEntity
  8
_U+30EC_U+30A4_U+30E4_U+30FC 1
 62
     7
420
 16777215
370
     9
100
AcDbSpline
210
0.0
220
0.0
230
1.0
 70
    11
 71
     3
 72
    17
 73
    13
 74
     0
 42
0.0000000001
 43
0.0000000001
 12
1.0
 22
0.0
 32
0.0
 13
1.0
 23
0.0
 33
0.0
 40
0.0
 40
0.0
 40
0.0
 40
0.0
 40
1.0
 40
1.0
 40
1.0
 40
2.0
 40
2.0
 40
2.0
 40
3.0
 40
3.0
 40
3.0
 40
4.0
 40
4.0
 40
4.0
 40
4.0
 10
93.96877926932338
 20
-152.4130880174521
 30
0.0
 10
93.96877926932338
 20
-152.3579841285772
 30
0.0
 10
93.92397649268862
 20
-152.3131813508105
 30
0.0
 10
93.86919010519745
 20
-152.3131813508105
 30
0.0
 10
93.8137334399456
 20
-152.3131813508105
 30
0.0
 10
93.76928344107961
 20
-152.3579841285772
 30
0.0
 10
93.76928344107961
 20
-152.4130880174521
 30
0.0
 10
93.76928344107961
 20
-152.4682271841052
 30
0.0
 10
93.8137334399456
 20
-152.5129946840938
 30
0.0
 10
93.86919010519745
 20
-152.5129946840938
 30
0.0
 10
93.92397649268862
 20
-152.5129946840938
 30
0.0
 10
93.96877926932338
 20
-152.4682271841052
 30
0.0
 10
93.96877926932338
 20
-152.4130880174521
 30
0.0
  0
SPLINE
  5
AD
330
1F
100
AcDbEntity
  8
_U+30EC_U+30A4_U+30E4_U+30FC 1
 62
     7
420
 16777215
370
     9
100
AcDbSpline
210
0.0
220
0.0
230
1.0
 70
    11
 71
     3
 72
    17
 73
    13
 74
     0
 42
0.0000000001
 43
0.0000000001
 12
1.0
 22
0.0
 32
0.0
 13
1.0
 23
0.0
 33
0.0
 40
0.0
 40
0.0
 40
0.0
 40
0.0
 40
1.0
 40
1.0
 40
1.0
 40
2.0
 40
2.0
 40
2.0
 40
3.0
 40
3.0
 40
3.0
 40
4.0
 40
4.0
 40
4.0
 40
4.0
 10
98.94315747574976
 20
-152.4130880174521
 30
0.0
 10
98.94315747574976
 20
-152.3579841285772
 30
0.0
 10
98.89800192134621
 20
-152.3131813508105
 30
0.0
 10
98.84321553385504
 20
-152.3131813508105
 30
0.0
 10
98.78811164637197
 20
-152.3131813508105
 30
0.0
 10
98.7433088697372
 20
-152.3579841285772
 30
0.0
 10
98.7433088697372
 20
-152.4130880174521
 30
0.0
 10
98.7433088697372
 20
-152.4682271841052
 30
0.0
 10
98.78811164637197
 20
-152.5129946840938
 30
0.0
 10
98.84321553385504
 20
-152.5129946840938
 30
0.0
 10
98.89800192134621
 20
-152.5129946840938
 30
0.0
 10
98.94315747574976
 20
-152.4682271841052
 30
0.0
 10
98.94315747574976
 20
-152.4130880174521
 30
0.0
  0
SPLINE
  5
AE
330
1F
100
AcDbEntity
  8
_U+30EC_U+30A4_U+30E4_U+30FC 1
 62
     7
420
 16777215
370
     9
100
AcDbSpline
210
0.0
220
0.0
230
1.0
 70
    11
 71
     3
 72
    17
 73
    13
 74
     0
 42
0.0000000001
 43
0.0000000001
 12
1.0
 22
0.0
 32
0.0
 13
1.0
 23
0.0
 33
0.0
 40
0.0
 40
0.0
 40
0.0
 40
0.0
 40
1.0
 40
1.0
 40
1.0
 40
2.0
 40
2.0
 40
2.0
 40
3.0
 40
3.0
 40
3.0
 40
4.0
 40
4.0
 40
4.0
 40
4.0
 10
118.1688403185951
 20
-147.5320899631168
 30
0.0
 10
118.1688403185951
 20
-147.4769507964644
 30
0.0
 10
118.1240375419603
 20
-147.4321832964752
 30
0.0
 10
118.0689336544772
 20
-147.4321832964752
 30
0.0
 10
118.0137944892173
 20
-147.4321832964752
 30
0.0
 10
117.9696972681201
 20
-147.4769507964644
 30
0.0
 10
117.9696972681201
 20
-147.5320899631168
 30
0.0
 10
117.9696972681201
 20
-147.5871938519924
 30
0.0
 10
118.0137944892173
 20
-147.6319966297584
 30
0.0
 10
118.0689336544772
 20
-147.6319966297584
 30
0.0
 10
118.1240375419603
 20
-147.6319966297584
 30
0.0
 10
118.1688403185951
 20
-147.5871938519924
 30
0.0
 10
118.1688403185951
 20
-147.5320899631168
 30
0.0
  0
SPLINE
  5
AF
330
1F
100
AcDbEntity
  8
_U+30EC_U+30A4_U+30E4_U+30FC 1
 62
     7
420
 16777215
370
     9
100
AcDbSpline
210
0.0
220
0.0
230
1.0
 70
    11
 71
     3
 72
    17
 73
    13
 74
     0
 42
0.0000000001
 43
0.0000000001
 12
1.0
 22
0.0
 32
0.0
 13
1.0
 23
0.0
 33
0.0
 40
0.0
 40
0.0
 40
0.0
 40
0.0
 40
1.0
 40
1.0
 40
1.0
 40
2.0
 40
2.0
 40
2.0
 40
3.0
 40
3.0
 40
3.0
 40
4.0
 40
4.0
 40
4.0
 40
4.0
 10
118.1688403185951
 20
-134.5061585774845
 30
0.0
 10
118.1688403185951
 20
-134.4510546886096
 30
0.0
 10
118.1240375419603
 20
-134.4062519108429
 30
0.0
 10
118.0689336544772
 20
-134.4062519108429
 30
0.0
 10
118.0137944892173
 20
-134.4062519108429
 30
0.0
 10
117.9696972681201
 20
-134.4510546886096
 30
0.0
 10
117.9696972681201
 20
-134.5061585774845
 30
0.0
 10
117.9696972681201
 20
-134.5612977441376
 30
0.0
 10
118.0137944892173
 20
-134.6060652441261
 30
0.0
 10
118.0689336544772
 20
-134.6060652441261
 30
0.0
 10
118.1240375419603
 20
-134.6060652441261
 30
0.0
 10
118.1688403185951
 20
-134.5612977441376
 30
0.0
 10
118.1688403185951
 20
-134.5061585774845
 30
0.0
  0
SPLINE
  5
B0
330
1F
100
AcDbEntity
  8
_U+30EC_U+30A4_U+30E4_U+30FC 1
 62
     7
420
 16777215
370
     9
100
AcDbSpline
210
0.0
220
0.0
230
1.0
 70
    11
 71
     3
 72
    17
 73
    13
 74
     0
 42
0.0000000001
 43
0.0000000001
 12
1.0
 22
0.0
 32
0.0
 13
1.0
 23
0.0
 33
0.0
 40
0.0
 40
0.0
 40
0.0
 40
0.0
 40
1.0
 40
1.0
 40
1.0
 40
2.0
 40
2.0
 40
2.0
 40
3.0
 40
3.0
 40
3.0
 40
4.0
 40
4.0
 40
4.0
 40
4.0
 10
118.1688403185951
 20
-133.5546463555
 30
0.0
 10
118.1688403185951
 20
-133.4995071888475
 30
0.0
 10
118.1240375419603
 20
-133.4547396888583
 30
0.0
 10
118.0689336544772
 20
-133.4547396888583
 30
0.0
 10
118.0137944892173
 20
-133.4547396888583
 30
0.0
 10
117.9696972681201
 20
-133.4995071888475
 30
0.0
 10
117.9696972681201
 20
-133.5546463555
 30
0.0
 10
117.9696972681201
 20
-133.610455799931
 30
0.0
 10
118.0137944892173
 20
-133.6545530221422
 30
0.0
 10
118.0689336544772
 20
-133.6545530221422
 30
0.0
 10
118.1240375419603
 20
-133.6545530221422
 30
0.0
 10
118.1688403185951
 20
-133.610455799931
 30
0.0
 10
118.1688403185951
 20
-133.5546463555
 30
0.0
  0
POLYLINE
  5
B1
330
1F
100
AcDbEntity
  8
_U+30EC_U+30A4_U+30E4_U+30FC 1
 62
     7
420
 16777215
370
     9
100
AcDb2dPolyline
 66
     1
 10
0.0
 20
0.0
 30
0.0
  0
VERTEX
  5
B2
330
B1
100
AcDbEntity
  8
_U+30EC_U+30A4_U+30E4_U+30FC 1
 62
     7
420
 16777215
370
     9
100
AcDbVertex
100
AcDb2dVertex
 10
75.99055389465279
 20
-139.9907594094464
 30
0.0
  0
VERTEX
  5
B3
330
B1
100
AcDbEntity
  8
_U+30EC_U+30A4_U+30E4_U+30FC 1
 62
     7
420
 16777215
370
     9
100
AcDbVertex
100
AcDb2dVertex
 10
76.89348859383922
 20
-139.4691774651326
 30
0.0
  0
SEQEND
  5
B4
330
B1
100
AcDbEntity
  8
_U+30EC_U+30A4_U+30E4_U+30FC 1
 62
     7
420
 16777215
370
     9
  0
POLYLINE
  5
B5
330
1F
100
AcDbEntity
  8
_U+30EC_U+30A4_U+30E4_U+30FC 1
 62
     7
420
 16777215
370
     9
100
AcDb2dPolyline
 66
     1
 10
0.0
 20
0.0
 30
0.0
  0
VERTEX
  5
B6
330
B5
100
AcDbEntity
  8
_U+30EC_U+30A4_U+30E4_U+30FC 1
 62
     7
420
 16777215
370
     9
100
AcDbVertex
100
AcDb2dVertex
 10
75.99055389465279
 20
-139.9907594094464
 30
0.0
  0
VERTEX
  5
B7
330
B5
100
AcDbEntity
  8
_U+30EC_U+30A4_U+30E4_U+30FC 1
 62
     7
420
 16777215
370
     9
100
AcDbVertex
100
AcDb2dVertex
 10
90.17811386634422
 20
-125.2774566353472
 30
0.0
  0
SEQEND
  5
B8
330
B5
100
AcDbEntity
  8
_U+30EC_U+30A4_U+30E4_U+30FC 1
 62
     7
420
 16777215
370
     9
  0
POLYLINE
  5
B9
330
1F
100
AcDbEntity
  8
_U+30EC_U+30A4_U+30E4_U+30FC 1
 62
     7
420
 16777215
370
     9
100
AcDb2dPolyline
 66
     1
 10
0.0
 20
0.0
 30
0.0
  0
VERTEX
  5
BA
330
B9
100
AcDbEntity
  8
_U+30EC_U+30A4_U+30E4_U+30FC 1
 62
     7
420
 16777215
370
     9
100
AcDbVertex
100
AcDb2dVertex
 10
75.99055389465279
 20
-139.9907594094464
 30
0.0
  0
VERTEX
  5
BB
330
B9
100
AcDbEntity
  8
_U+30EC_U+30A4_U+30E4_U+30FC 1
 62
     7
420
 16777215
370
     9
100
AcDbVertex
100
AcDb2dVertex
 10
76.51213582579057
 20
-139.0874719096724
 30
0.0
  0
SEQEND
  5
BC
330
B9
100
AcDbEntity
  8
_U+30EC_U+30A4_U+30E4_U+30FC 1
 62
     7
420
 16777215
370
     9
  0
INSERT
  5
BE
330
1F
100
AcDbEntity
  8
_U+30EC_U+30A4_U+30E4_U+30FC 1
100
AcDbBlockReference
  2
block 8
 10
0.0
 20
0.0
 30
0.0
  0
ENDSEC
  0
SECTION
  2
OBJECTS
  0
DICTIONARY
  5
C
330
0
100
AcDbDictionary
281
     1
  3
ACAD_GROUP
350
D
  3
ACAD_LAYOUT
350
1A
  3
ACAD_MATERIAL
350
3B
  3
ACAD_MLEADERSTYLE
350
C9
  3
ACAD_MLINESTYLE
350
17
  3
ACAD_PLOTSETTINGS
350
19
  3
ACAD_PLOTSTYLENAME
350
E
  3
ACAD_TABLESTYLE
350
C8
  3
ACAD_VISUALSTYLE
350
2A
  0
SUN
  5
3F
330
29
100
AcDbSun
 90
        1
290
     0
 63
     7
421
 16777215
 40
1.0
291
     1
 91
  2455826
 92
 54000000
292
     0
 70
     2
 71
   256
280
     1
  0
DICTIONARY
  5
D
102
{ACAD_REACTORS
330
C
102
}
330
C
100
AcDbDictionary
281
     1
  0
DICTIONARY
  5
1A
102
{ACAD_REACTORS
330
C
102
}
330
C
100
AcDbDictionary
281
     1
  3
Layout1
350
1E
  3
Layout2
350
26
  3
Model
350
22
  0
DICTIONARY
  5
3B
102
{ACAD_REACTORS
330
C
102
}
330
C
100
AcDbDictionary
281
     1
  3
ByBlock
350
3D
  3
ByLayer
350
3C
  3
Global
350
3E
  0
DICTIONARY
  5
C9
102
{ACAD_REACTORS
330
C
102
}
330
C
100
AcDbDictionary
281
     1
  0
DICTIONARY
  5
17
102
{ACAD_REACTORS
330
C
102
}
330
C
100
AcDbDictionary
281
     1
  3
Standard
350
18
  0
DICTIONARY
  5
19
102
{ACAD_REACTORS
330
C
102
}
330
C
100
AcDbDictionary
281
     1
  0
ACDBDICTIONARYWDFLT
  5
E
102
{ACAD_REACTORS
330
C
102
}
330
C
100
AcDbDictionary
281
     1
  3
Normal
350
F
100
AcDbDictionaryWithDefault
340
F
  0
DICTIONARY
  5
C8
102
{ACAD_REACTORS
330
C
102
}
330
C
100
AcDbDictionary
281
     1
  0
DICTIONARY
  5
2A
102
{ACAD_REACTORS
330
C
102
}
330
C
100
AcDbDictionary
281
     1
  3
2dWireframe
350
2F
  3
3D Hidden
350
31
  3
3dWireframe
350
30
  3
Basic
350
32
  3
Brighten
350
36
  3
ColorChange
350
3A
  3
Conceptual
350
34
  3
Dim
350
35
  3
Facepattern
350
39
  3
Flat
350
2B
  3
FlatWithEdges
350
2C
  3
Gouraud
350
2D
  3
GouraudWithEdges
350
2E
  3
Linepattern
350
38
  3
Realistic
350
33
  3
Thicken
350
37
  0
LAYOUT
  5
1E
102
{ACAD_REACTORS
330
1A
102
}
330
1A
100
AcDbPlotSettings
  1

  2
none_device
  4

  6

 40
0.0
 41
0.0
 42
0.0
 43
0.0
 44
0.0
 45
0.0
 46
0.0
 47
0.0
 48
0.0
 49
0.0
140
0.0
141
0.0
142
1.0
143
1.0
 70
   688
 72
     0
 73
     0
 74
     5
  7

 75
    16
 76
     0
 77
     2
 78
   300
147
1.0
148
0.0
149
0.0
100
AcDbLayout
  1
Layout1
 70
     1
 71
     1
 10
0.0
 20
0.0
 11
12.0
 21
9.0
 12
0.0
 22
0.0
 32
0.0
 14
1.000000000000000E+20
 24
1.000000000000000E+20
 34
1.000000000000000E+20
 15
-1.000000000000000E+20
 25
-1.000000000000000E+20
 35
-1.000000000000000E+20
146
0.0
 13
0.0
 23
0.0
 33
0.0
 16
1.0
 26
0.0
 36
0.0
 17
0.0
 27
1.0
 37
0.0
 76
     0
330
1B
  0
LAYOUT
  5
26
102
{ACAD_REACTORS
330
1A
102
}
330
1A
100
AcDbPlotSettings
  1

  2
none_device
  4

  6

 40
0.0
 41
0.0
 42
0.0
 43
0.0
 44
0.0
 45
0.0
 46
0.0
 47
0.0
 48
0.0
 49
0.0
140
0.0
141
0.0
142
1.0
143
1.0
 70
   688
 72
     0
 73
     0
 74
     5
  7

 75
    16
 76
     0
 77
     2
 78
   300
147
1.0
148
0.0
149
0.0
100
AcDbLayout
  1
Layout2
 70
     1
 71
     2
 10
0.0
 20
0.0
 11
0.0
 21
0.0
 12
0.0
 22
0.0
 32
0.0
 14
0.0
 24
0.0
 34
0.0
 15
0.0
 25
0.0
 35
0.0
146
0.0
 13
0.0
 23
0.0
 33
0.0
 16
1.0
 26
0.0
 36
0.0
 17
0.0
 27
1.0
 37
0.0
 76
     0
330
23
  0
LAYOUT
  5
22
102
{ACAD_REACTORS
330
1A
102
}
330
1A
100
AcDbPlotSettings
  1

  2
none_device
  4

  6

 40
0.0
 41
0.0
 42
0.0
 43
0.0
 44
0.0
 45
0.0
 46
0.0
 47
0.0
 48
0.0
 49
0.0
140
0.0
141
0.0
142
1.0
143
1.0
 70
  1712
 72
     0
 73
     0
 74
     0
  7

 75
     0
 76
     0
 77
     2
 78
   300
147
1.0
148
0.0
149
0.0
100
AcDbLayout
  1
Model
 70
     1
 71
     0
 10
0.0
 20
0.0
 11
12.0
 21
9.0
 12
0.0
 22
0.0
 32
0.0
 14
1.000000000000000E+20
 24
1.000000000000000E+20
 34
1.000000000000000E+20
 15
-1.000000000000000E+20
 25
-1.000000000000000E+20
 35
-1.000000000000000E+20
146
0.0
 13
0.0
 23
0.0
 33
0.0
 16
1.0
 26
0.0
 36
0.0
 17
0.0
 27
1.0
 37
0.0
 76
     0
330
1F
331
29
  0
MATERIAL
  5
3D
102
{ACAD_REACTORS
330
3B
102
}
330
3B
100
AcDbMaterial
  1
ByBlock
 72
     1
 94
      127
  0
MATERIAL
  5
3C
102
{ACAD_REACTORS
330
3B
102
}
330
3B
100
AcDbMaterial
  1
ByLayer
 72
     1
 94
      127
  0
MATERIAL
  5
3E
102
{ACAD_REACTORS
330
3B
102
}
330
3B
100
AcDbMaterial
  1
Global
 72
     1
 94
      127
  0
MLINESTYLE
  5
18
102
{ACAD_REACTORS
330
17
102
}
330
17
100
AcDbMlineStyle
  2
Standard
 70
     0
  3

 62
   256
 51
90.0
 52
90.0
 71
     2
 49
0.5
 62
   256
  6
BYLAYER
 49
-0.5
 62
   256
  6
BYLAYER
  0
ACDBPLACEHOLDER
  5
F
102
{ACAD_REACTORS
330
E
102
}
330
E
  0
VISUALSTYLE
  5
2F
102
{ACAD_REACTORS
330
2A
102
}
330
2A
100
AcDbVisualStyle
  2
2dWireframe
 70
     4
177
     2
291
     0
 71
     0
176
     1
 72
     2
176
     1
 73
     0
176
     1
 90
        0
176
     1
 40
-0.6
176
     1
 41
-30.0
176
     1
 62
     5
 63
     7
421
 16777215
176
     1
 74
     1
176
     1
 91
        4
176
     1
 64
     7
176
     1
 65
   257
176
     1
 75
     1
176
     1
175
     1
176
     1
 42
1.0
176
     1
 92
        0
176
     1
 66
   257
176
     1
 43
1.0
176
     1
 76
     1
176
     1
 77
     6
176
     1
 78
     2
176
     1
 67
     7
176
     1
 79
     5
176
     1
170
     0
176
     1
171
     0
176
     1
290
     0
176
     1
 93
        1
176
     1
 44
0.0
176
     1
173
     0
176
     1
  0
VISUALSTYLE
  5
31
102
{ACAD_REACTORS
330
2A
102
}
330
2A
100
AcDbVisualStyle
  2
3D Hidden
 70
     6
177
     2
291
     0
 71
     1
176
     1
 72
     2
176
     1
 73
     2
176
     1
 90
        0
176
     1
 40
-0.6
176
     1
 41
-30.0
176
     1
 62
     5
 63
     7
421
 16777215
176
     1
 74
     2
176
     1
 91
        2
176
     1
 64
     7
176
     1
 65
   257
176
     1
 75
     2
176
     1
175
     1
176
     1
 42
40.0
176
     1
 92
        0
176
     1
 66
   257
176
     1
 43
1.0
176
     1
 76
     1
176
     1
 77
     6
176
     1
 78
     2
176
     1
 67
     7
176
     1
 79
     3
176
     1
170
     0
176
     1
171
     0
176
     1
290
     0
176
     1
 93
        1
176
     1
 44
0.0
176
     1
173
     0
176
     1
  0
VISUALSTYLE
  5
30
102
{ACAD_REACTORS
330
2A
102
}
330
2A
100
AcDbVisualStyle
  2
3dWireframe
 70
     5
177
     2
291
     0
 71
     0
176
     1
 72
     2
176
     1
 73
     0
176
     1
 90
        0
176
     1
 40
-0.6
176
     1
 41
-30.0
176
     1
 62
     5
 63
     7
421
 16777215
176
     1
 74
     1
176
     1
 91
        4
176
     1
 64
     7
176
     1
 65
   257
176
     1
 75
     1
176
     1
175
     1
176
     1
 42
1.0
176
     1
 92
        0
176
     1
 66
   257
176
     1
 43
1.0
176
     1
 76
     1
176
     1
 77
     6
176
     1
 78
     2
176
     1
 67
     7
176
     1
 79
     5
176
     1
170
     0
176
     1
171
     0
176
     1
290
     0
176
     1
 93
        1
176
     1
 44
0.0
176
     1
173
     0
176
     1
  0
VISUALSTYLE
  5
32
102
{ACAD_REACTORS
330
2A
102
}
330
2A
100
AcDbVisualStyle
  2
Basic
 70
     7
177
     2
291
     1
 71
     1
176
     1
 72
     0
176
     1
 73
     1
176
     1
 90
        0
176
     1
 40
-0.6
176
     1
 41
-30.0
176
     1
 62
     5
 63
     7
421
 16777215
176
     1
 74
     0
176
     1
 91
        4
176
     1
 64
     7
176
     1
 65
   257
176
     1
 75
     1
176
     1
175
     1
176
     1
 42
1.0
176
     1
 92
        8
176
     1
 66
     7
176
     1
 43
1.0
176
     1
 76
     1
176
     1
 77
     6
176
     1
 78
     2
176
     1
 67
     7
176
     1
 79
     5
176
     1
170
     0
176
     1
171
     0
176
     1
290
     0
176
     1
 93
        1
176
     1
 44
0.0
176
     1
173
     0
176
     1
  0
VISUALSTYLE
  5
36
102
{ACAD_REACTORS
330
2A
102
}
330
2A
100
AcDbVisualStyle
  2
Brighten
 70
    12
177
     2
291
     1
 71
     2
176
     1
 72
     2
176
     1
 73
     0
176
     1
 90
        0
176
     1
 40
-0.6
176
     1
 41
-30.0
176
     1
 62
     5
 63
     7
421
 16777215
176
     1
 74
     1
176
     1
 91
        4
176
     1
 64
     7
176
     1
 65
   257
176
     1
 75
     1
176
     1
175
     1
176
     1
 42
1.0
176
     1
 92
        8
176
     1
 66
     7
176
     1
 43
1.0
176
     1
 76
     1
176
     1
 77
     6
176
     1
 78
     2
176
     1
 67
     7
176
     1
 79
     5
176
     1
170
     0
176
     1
171
     0
176
     1
290
     0
176
     1
 93
        1
176
     1
 44
50.0
176
     1
173
     0
176
     1
  0
VISUALSTYLE
  5
3A
102
{ACAD_REACTORS
330
2A
102
}
330
2A
100
AcDbVisualStyle
  2
ColorChange
 70
    16
177
     2
291
     1
 71
     2
176
     1
 72
     2
176
     1
 73
     3
176
     1
 90
        0
176
     1
 40
-0.6
176
     1
 41
-30.0
176
     1
 62
     5
 63
     8
421
  8421504
176
     1
 74
     1
176
     1
 91
        4
176
     1
 64
     7
176
     1
 65
   257
176
     1
 75
     1
176
     1
175
     1
176
     1
 42
1.0
176
     1
 92
        8
176
     1
 66
     8
424
  8421504
176
     1
 43
1.0
176
     1
 76
     1
176
     1
 77
     6
176
     1
 78
     2
176
     1
 67
     7
176
     1
 79
     5
176
     1
170
     0
176
     1
171
     0
176
     1
290
     0
176
     1
 93
        1
176
     1
 44
0.0
176
     1
173
     0
176
     1
  0
VISUALSTYLE
  5
34
102
{ACAD_REACTORS
330
2A
102
}
330
2A
100
AcDbVisualStyle
  2
Conceptual
 70
     9
177
     2
291
     0
 71
     3
176
     1
 72
     2
176
     1
 73
     0
176
     1
 90
        0
176
     1
 40
-0.6
176
     1
 41
-30.0
176
     1
 62
     5
 63
     7
421
 16777215
176
     1
 74
     2
176
     1
 91
        2
176
     1
 64
     7
176
     1
 65
   257
176
     1
 75
     1
176
     1
175
     1
176
     1
 42
40.0
176
     1
 92
        8
176
     1
 66
     7
176
     1
 43
1.0
176
     1
 76
     1
176
     1
 77
     6
176
     1
 78
     2
176
     1
 67
     7
176
     1
 79
     3
176
     1
170
     0
176
     1
171
     0
176
     1
290
     0
176
     1
 93
        1
176
     1
 44
0.0
176
     1
173
     0
176
     1
  0
VISUALSTYLE
  5
35
102
{ACAD_REACTORS
330
2A
102
}
330
2A
100
AcDbVisualStyle
  2
Dim
 70
    11
177
     2
291
     1
 71
     2
176
     1
 72
     2
176
     1
 73
     0
176
     1
 90
        0
176
     1
 40
-0.6
176
     1
 41
-30.0
176
     1
 62
     5
 63
     7
421
 16777215
176
     1
 74
     1
176
     1
 91
        4
176
     1
 64
     7
176
     1
 65
   257
176
     1
 75
     1
176
     1
175
     1
176
     1
 42
1.0
176
     1
 92
        8
176
     1
 66
     7
176
     1
 43
1.0
176
     1
 76
     1
176
     1
 77
     6
176
     1
 78
     2
176
     1
 67
     7
176
     1
 79
     5
176
     1
170
     0
176
     1
171
     0
176
     1
290
     0
176
     1
 93
        1
176
     1
 44
-50.0
176
     1
173
     0
176
     1
  0
VISUALSTYLE
  5
39
102
{ACAD_REACTORS
330
2A
102
}
330
2A
100
AcDbVisualStyle
  2
Facepattern
 70
    15
177
     2
291
     1
 71
     2
176
     1
 72
     2
176
     1
 73
     0
176
     1
 90
        0
176
     1
 40
-0.6
176
     1
 41
-30.0
176
     1
 62
     5
 63
     7
421
 16777215
176
     1
 74
     1
176
     1
 91
        4
176
     1
 64
     7
176
     1
 65
   257
176
     1
 75
     1
176
     1
175
     1
176
     1
 42
1.0
176
     1
 92
        8
176
     1
 66
     7
176
     1
 43
1.0
176
     1
 76
     1
176
     1
 77
     6
176
     1
 78
     2
176
     1
 67
     7
176
     1
 79
     5
176
     1
170
     0
176
     1
171
     0
176
     1
290
     0
176
     1
 93
        1
176
     1
 44
0.0
176
     1
173
     0
176
     1
  0
VISUALSTYLE
  5
2B
102
{ACAD_REACTORS
330
2A
102
}
330
2A
100
AcDbVisualStyle
  2
Flat
 70
     0
177
     2
291
     1
 71
     2
176
     1
 72
     1
176
     1
 73
     1
176
     1
 90
        2
176
     1
 40
-0.6
176
     1
 41
30.0
176
     1
 62
     5
 63
     7
421
 16777215
176
     1
 74
     0
176
     1
 91
        4
176
     1
 64
     7
176
     1
 65
   257
176
     1
 75
     1
176
     1
175
     1
176
     1
 42
1.0
176
     1
 92
        8
176
     1
 66
     7
176
     1
 43
1.0
176
     1
 76
     1
176
     1
 77
     6
176
     1
 78
     2
176
     1
 67
     7
176
     1
 79
     5
176
     1
170
     0
176
     1
171
     0
176
     1
290
     0
176
     1
 93
       13
176
     1
 44
0.0
176
     1
173
     0
176
     1
  0
VISUALSTYLE
  5
2C
102
{ACAD_REACTORS
330
2A
102
}
330
2A
100
AcDbVisualStyle
  2
FlatWithEdges
 70
     1
177
     2
291
     1
 71
     2
176
     1
 72
     1
176
     1
 73
     1
176
     1
 90
        2
176
     1
 40
-0.6
176
     1
 41
30.0
176
     1
 62
     5
 63
     7
421
 16777215
176
     1
 74
     1
176
     1
 91
        4
176
     1
 64
     7
176
     1
 65
   257
176
     1
 75
     1
176
     1
175
     1
176
     1
 42
1.0
176
     1
 92
        0
176
     1
 66
   257
176
     1
 43
1.0
176
     1
 76
     1
176
     1
 77
     6
176
     1
 78
     2
176
     1
 67
     7
176
     1
 79
     5
176
     1
170
     0
176
     1
171
     0
176
     1
290
     0
176
     1
 93
       13
176
     1
 44
0.0
176
     1
173
     0
176
     1
  0
VISUALSTYLE
  5
2D
102
{ACAD_REACTORS
330
2A
102
}
330
2A
100
AcDbVisualStyle
  2
Gouraud
 70
     2
177
     2
291
     1
 71
     2
176
     1
 72
     2
176
     1
 73
     1
176
     1
 90
        2
176
     1
 40
-0.6
176
     1
 41
30.0
176
     1
 62
     5
 63
     7
421
 16777215
176
     1
 74
     0
176
     1
 91
        4
176
     1
 64
     7
176
     1
 65
   257
176
     1
 75
     1
176
     1
175
     1
176
     1
 42
1.0
176
     1
 92
        0
176
     1
 66
     7
176
     1
 43
1.0
176
     1
 76
     1
176
     1
 77
     6
176
     1
 78
     2
176
     1
 67
     7
176
     1
 79
     5
176
     1
170
     0
176
     1
171
     0
176
     1
290
     0
176
     1
 93
       13
176
     1
 44
0.0
176
     1
173
     0
176
     1
  0
VISUALSTYLE
  5
2E
102
{ACAD_REACTORS
330
2A
102
}
330
2A
100
AcDbVisualStyle
  2
GouraudWithEdges
 70
     3
177
     2
291
     1
 71
     2
176
     1
 72
     2
176
     1
 73
     1
176
     1
 90
        2
176
     1
 40
-0.6
176
     1
 41
30.0
176
     1
 62
     5
 63
     7
421
 16777215
176
     1
 74
     1
176
     1
 91
        4
176
     1
 64
     7
176
     1
 65
   257
176
     1
 75
     1
176
     1
175
     1
176
     1
 42
1.0
176
     1
 92
        0
176
     1
 66
   257
176
     1
 43
1.0
176
     1
 76
     1
176
     1
 77
     6
176
     1
 78
     2
176
     1
 67
     7
176
     1
 79
     5
176
     1
170
     0
176
     1
171
     0
176
     1
290
     0
176
     1
 93
       13
176
     1
 44
0.0
176
     1
173
     0
176
     1
  0
VISUALSTYLE
  5
38
102
{ACAD_REACTORS
330
2A
102
}
330
2A
100
AcDbVisualStyle
  2
Linepattern
 70
    14
177
     2
291
     1
 71
     2
176
     1
 72
     2
176
     1
 73
     0
176
     1
 90
        0
176
     1
 40
-0.6
176
     1
 41
-30.0
176
     1
 62
     5
 63
     7
421
 16777215
176
     1
 74
     1
176
     1
 91
        4
176
     1
 64
     7
176
     1
 65
   257
176
     1
 75
     7
176
     1
175
     7
176
     1
 42
1.0
176
     1
 92
        8
176
     1
 66
     7
176
     1
 43
1.0
176
     1
 76
     1
176
     1
 77
     6
176
     1
 78
     2
176
     1
 67
     7
176
     1
 79
     5
176
     1
170
     0
176
     1
171
     0
176
     1
290
     0
176
     1
 93
        1
176
     1
 44
0.0
176
     1
173
     0
176
     1
  0
VISUALSTYLE
  5
33
102
{ACAD_REACTORS
330
2A
102
}
330
2A
100
AcDbVisualStyle
  2
Realistic
 70
     8
177
     2
291
     0
 71
     2
176
     1
 72
     2
176
     1
 73
     0
176
     1
 90
        0
176
     1
 40
-0.6
176
     1
 41
-30.0
176
     1
 62
     5
 63
     7
421
 16777215
176
     1
 74
     1
176
     1
 91
        0
176
     1
 64
     7
176
     1
 65
   257
176
     1
 75
     1
176
     1
175
     1
176
     1
 42
1.0
176
     1
 92
        8
176
     1
 66
     8
424
  7895160
176
     1
 43
1.0
176
     1
 76
     1
176
     1
 77
     6
176
     1
 78
     2
176
     1
 67
     7
176
     1
 79
     5
176
     1
170
     0
176
     1
171
     0
176
     1
290
     0
176
     1
 93
       13
176
     1
 44
0.0
176
     1
173
     0
176
     1
  0
VISUALSTYLE
  5
37
102
{ACAD_REACTORS
330
2A
102
}
330
2A
100
AcDbVisualStyle
  2
Thicken
 70
    13
177
     2
291
     1
 71
     2
176
     1
 72
     2
176
     1
 73
     0
176
     1
 90
        0
176
     1
 40
-0.6
176
     1
 41
-30.0
176
     1
 62
     5
 63
     7
421
 16777215
176
     1
 74
     1
176
     1
 91
        4
176
     1
 64
     7
176
     1
 65
   257
176
     1
 75
     1
176
     1
175
     1
176
     1
 42
1.0
176
     1
 92
       12
176
     1
 66
     7
176
     1
 43
1.0
176
     1
 76
     1
176
     1
 77
     6
176
     1
 78
     2
176
     1
 67
     7
176
     1
 79
     5
176
     1
170
     0
176
     1
171
     0
176
     1
290
     0
176
     1
 93
        1
176
     1
 44
0.0
176
     1
173
     0
176
     1
  0
ENDSEC
  0
EOF
