  0
SECTION
  2
HEADER
  9
$ACADVER
  1
AC1024
  9
$ACADMAINTVER
 70
     6
  9
$DWGCODEPAGE
  3
UNDEFINED
  9
$INSBASE
 10
0.0
 20
0.0
 30
0.0
  9
$EXTMIN
 10
1.000000000000000E+20
 20
1.000000000000000E+20
 30
1.000000000000000E+20
  9
$EXTMAX
 10
-1.000000000000000E+20
 20
-1.000000000000000E+20
 30
-1.000000000000000E+20
  9
$LIMMIN
 10
0.0
 20
0.0
  9
$LIMMAX
 10
12.0
 20
9.0
  9
$ORTHOMODE
 70
     0
  9
$REGENMODE
 70
     1
  9
$FILLMODE
 70
     1
  9
$QTEXTMODE
 70
     0
  9
$MIRRTEXT
 70
     1
  9
$LTSCALE
 40
1.0
  9
$ATTMODE
 70
     1
  9
$TEXTSIZE
 40
0.2
  9
$TRACEWID
 40
0.05
  9
$TEXTSTYLE
  7
Standard
  9
$CLAYER
  8
0
  9
$CELTYPE
  6
ByLayer
  9
$CECOLOR
 62
   256
  9
$CELTSCALE
 40
1.0
  9
$DISPSILH
 70
     0
  9
$DIMSCALE
 40
1.0
  9
$DIMASZ
 40
0.18
  9
$DIMEXO
 40
0.0625
  9
$DIMDLI
 40
0.38
  9
$DIMRND
 40
0.0
  9
$DIMDLE
 40
0.0
  9
$DIMEXE
 40
0.18
  9
$DIMTP
 40
0.0
  9
$DIMTM
 40
0.0
  9
$DIMTXT
 40
0.18
  9
$DIMCEN
 40
0.09
  9
$DIMTSZ
 40
0.0
  9
$DIMTOL
 70
     0
  9
$DIMLIM
 70
     0
  9
$DIMTIH
 70
     1
  9
$DIMTOH
 70
     1
  9
$DIMSE1
 70
     0
  9
$DIMSE2
 70
     0
  9
$DIMTAD
 70
     0
  9
$DIMZIN
 70
     0
  9
$DIMBLK
  1

  9
$DIMASO
 70
     1
  9
$DIMSHO
 70
     1
  9
$DIMPOST
  1

  9
$DIMAPOST
  1

  9
$DIMALT
 70
     0
  9
$DIMALTD
 70
     2
  9
$DIMALTF
 40
25.4
  9
$DIMLFAC
 40
1.0
  9
$DIMTOFL
 70
     0
  9
$DIMTVP
 40
0.0
  9
$DIMTIX
 70
     0
  9
$DIMSOXD
 70
     0
  9
$DIMSAH
 70
     0
  9
$DIMBLK1
  1

  9
$DIMBLK2
  1

  9
$DIMSTYLE
  2
Standard
  9
$DIMCLRD
 70
     0
  9
$DIMCLRE
 70
     0
  9
$DIMCLRT
 70
     0
  9
$DIMTFAC
 40
1.0
  9
$DIMGAP
 40
0.09
  9
$DIMJUST
 70
     0
  9
$DIMSD1
 70
     0
  9
$DIMSD2
 70
     0
  9
$DIMTOLJ
 70
     1
  9
$DIMTZIN
 70
     0
  9
$DIMALTZ
 70
     0
  9
$DIMALTTZ
 70
     0
  9
$DIMUPT
 70
     0
  9
$DIMDEC
 70
     4
  9
$DIMTDEC
 70
     4
  9
$DIMALTU
 70
     2
  9
$DIMALTTD
 70
     2
  9
$DIMTXSTY
  7
Standard
  9
$DIMAUNIT
 70
     0
  9
$DIMADEC
 70
     0
  9
$DIMALTRND
 40
0.0
  9
$DIMAZIN
 70
     0
  9
$DIMDSEP
 70
    46
  9
$DIMATFIT
 70
     3
  9
$DIMFRAC
 70
     0
  9
$DIMLDRBLK
  1

  9
$DIMLUNIT
 70
     2
  9
$DIMLWD
 70
    -2
  9
$DIMLWE
 70
    -2
  9
$DIMTMOVE
 70
     0
  9
$DIMFXL
 40
1.0
  9
$DIMFXLON
 70
     0
  9
$DIMJOGANG
 40
0.7853981633974483
  9
$DIMTFILL
 70
     0
  9
$DIMTFILLCLR
 70
     0
  9
$DIMARCSYM
 70
     0
  9
$DIMLTYPE
  6

  9
$DIMLTEX1
  6

  9
$DIMLTEX2
  6

  9
$DIMTXTDIRECTION
 70
     0
  9
$LUNITS
 70
     2
  9
$LUPREC
 70
     4
  9
$SKETCHINC
 40
0.1
  9
$FILLETRAD
 40
0.5
  9
$AUNITS
 70
     0
  9
$AUPREC
 70
     0
  9
$MENU
  1
.
  9
$ELEVATION
 40
0.0
  9
$PELEVATION
 40
0.0
  9
$THICKNESS
 40
0.0
  9
$LIMCHECK
 70
     0
  9
$CHAMFERA
 40
0.5
  9
$CHAMFERB
 40
0.5
  9
$CHAMFERC
 40
1.0
  9
$CHAMFERD
 40
0.0
  9
$SKPOLY
 70
     0
  9
$TDCREATE
 40
2457917.616516192
  9
$TDUCREATE
 40
2457917.241516204
  9
$TDUPDATE
 40
2457917.616516192
  9
$TDUUPDATE
 40
2457917.241516204
  9
$TDINDWG
 40
0.0000000116
  9
$TDUSRTIMER
 40
0.0000000116
  9
$USRTIMER
 70
     1
  9
$ANGBASE
 50
0.0
  9
$ANGDIR
 70
     0
  9
$PDMODE
 70
     0
  9
$PDSIZE
 40
0.0
  9
$PLINEWID
 40
0.0
  9
$SPLFRAME
 70
     0
  9
$SPLINETYPE
 70
     6
  9
$SPLINESEGS
 70
     8
  9
$HANDSEED
  5
102
  9
$SURFTAB1
 70
     6
  9
$SURFTAB2
 70
     6
  9
$SURFTYPE
 70
     6
  9
$SURFU
 70
     6
  9
$SURFV
 70
     6
  9
$UCSBASE
  2

  9
$UCSNAME
  2

  9
$UCSORG
 10
0.0
 20
0.0
 30
0.0
  9
$UCSXDIR
 10
1.0
 20
0.0
 30
0.0
  9
$UCSYDIR
 10
0.0
 20
1.0
 30
0.0
  9
$UCSORTHOREF
  2

  9
$UCSORTHOVIEW
 70
     0
  9
$UCSORGTOP
 10
0.0
 20
0.0
 30
0.0
  9
$UCSORGBOTTOM
 10
0.0
 20
0.0
 30
0.0
  9
$UCSORGLEFT
 10
0.0
 20
0.0
 30
0.0
  9
$UCSORGRIGHT
 10
0.0
 20
0.0
 30
0.0
  9
$UCSORGFRONT
 10
0.0
 20
0.0
 30
0.0
  9
$UCSORGBACK
 10
0.0
 20
0.0
 30
0.0
  9
$PUCSBASE
  2

  9
$PUCSNAME
  2

  9
$PUCSORG
 10
0.0
 20
0.0
 30
0.0
  9
$PUCSXDIR
 10
1.0
 20
0.0
 30
0.0
  9
$PUCSYDIR
 10
0.0
 20
1.0
 30
0.0
  9
$PUCSORTHOREF
  2

  9
$PUCSORTHOVIEW
 70
     0
  9
$PUCSORGTOP
 10
0.0
 20
0.0
 30
0.0
  9
$PUCSORGBOTTOM
 10
0.0
 20
0.0
 30
0.0
  9
$PUCSORGLEFT
 10
0.0
 20
0.0
 30
0.0
  9
$PUCSORGRIGHT
 10
0.0
 20
0.0
 30
0.0
  9
$PUCSORGFRONT
 10
0.0
 20
0.0
 30
0.0
  9
$PUCSORGBACK
 10
0.0
 20
0.0
 30
0.0
  9
$USERI1
 70
     0
  9
$USERI2
 70
     0
  9
$USERI3
 70
     0
  9
$USERI4
 70
     0
  9
$USERI5
 70
     0
  9
$USERR1
 40
0.0
  9
$USERR2
 40
0.0
  9
$USERR3
 40
0.0
  9
$USERR4
 40
0.0
  9
$USERR5
 40
0.0
  9
$WORLDVIEW
 70
     1
  9
$SHADEDGE
 70
     3
  9
$SHADEDIF
 70
    70
  9
$TILEMODE
 70
     1
  9
$MAXACTVP
 70
    64
  9
$PINSBASE
 10
0.0
 20
0.0
 30
0.0
  9
$PLIMCHECK
 70
     0
  9
$PEXTMIN
 10
1.000000000000000E+20
 20
1.000000000000000E+20
 30
1.000000000000000E+20
  9
$PEXTMAX
 10
-1.000000000000000E+20
 20
-1.000000000000000E+20
 30
-1.000000000000000E+20
  9
$PLIMMIN
 10
0.0
 20
0.0
  9
$PLIMMAX
 10
12.0
 20
9.0
  9
$UNITMODE
 70
     0
  9
$VISRETAIN
 70
     1
  9
$PLINEGEN
 70
     0
  9
$PSLTSCALE
 70
     1
  9
$TREEDEPTH
 70
  3020
  9
$CMLSTYLE
  2
Standard
  9
$CMLJUST
 70
     0
  9
$CMLSCALE
 40
1.0
  9
$PROXYGRAPHICS
 70
     1
  9
$MEASUREMENT
 70
     0
  9
$CELWEIGHT
370
    -1
  9
$ENDCAPS
280
     0
  9
$JOINSTYLE
280
     0
  9
$LWDISPLAY
290
     1
  9
$INSUNITS
 70
     1
  9
$HYPERLINKBASE
  1

  9
$STYLESHEET
  1

  9
$XEDIT
290
     1
  9
$CEPSNTYPE
380
     0
  9
$PSTYLEMODE
290
     1
  9
$FINGERPRINTGUID
  2
{62318DD3-BCB2-7707-A5F4-9FA69AAF2801}
  9
$VERSIONGUID
  2
{FAEB1C32-E019-11D5-929B-00C0DF256EC4}
  9
$EXTNAMES
290
     1
  9
$PSVPSCALE
 40
0.0
  9
$OLESTARTUP
290
     0
  9
$SORTENTS
280
   127
  9
$INDEXCTL
280
     0
  9
$HIDETEXT
280
     1
  9
$XCLIPFRAME
280
     2
  9
$HALOGAP
280
     0
  9
$OBSCOLOR
 70
   257
  9
$OBSLTYPE
280
     0
  9
$INTERSECTIONDISPLAY
280
     0
  9
$INTERSECTIONCOLOR
 70
   257
  9
$DIMASSOC
280
     2
  9
$PROJECTNAME
  1

  9
$CAMERADISPLAY
290
     0
  9
$LENSLENGTH
 40
50.0
  9
$CAMERAHEIGHT
 40
0.0
  9
$STEPSPERSEC
 40
2.0
  9
$STEPSIZE
 40
6.0
  9
$3DDWFPREC
 40
2.0
  9
$PSOLWIDTH
 40
0.25
  9
$PSOLHEIGHT
 40
4.0
  9
$LOFTANG1
 40
1.570796326794897
  9
$LOFTANG2
 40
1.570796326794897
  9
$LOFTMAG1
 40
0.0
  9
$LOFTMAG2
 40
0.0
  9
$LOFTPARAM
 70
     7
  9
$LOFTNORMALS
280
     1
  9
$LATITUDE
 40
37.795
  9
$LONGITUDE
 40
-122.394
  9
$NORTHDIRECTION
 40
0.0
  9
$TIMEZONE
 70
 -8000
  9
$LIGHTGLYPHDISPLAY
280
     1
  9
$TILEMODELIGHTSYNCH
280
     1
  9
$CMATERIAL
347
3C
  9
$SOLIDHIST
280
     1
  9
$SHOWHIST
280
     1
  9
$DWFFRAME
280
     2
  9
$DGNFRAME
280
     2
  9
$REALWORLDSCALE
290
     1
  9
$INTERFERECOLOR
 62
   256
  9
$CSHADOW
280
     0
  9
$SHADOWPLANELOCATION
 40
0.0
  0
ENDSEC
  0
SECTION
  2
CLASSES
  0
CLASS
  1
ACDBDICTIONARYWDFLT
  2
AcDbDictionaryWithDefault
  3
ObjectDBX Classes
 90
        0
 91
        4
280
     0
281
     0
  0
CLASS
  1
VISUALSTYLE
  2
AcDbVisualStyle
  3
ObjectDBX Classes
 90
     4095
 91
        4
280
     0
281
     0
  0
CLASS
  1
MATERIAL
  2
AcDbMaterial
  3
ObjectDBX Classes
 90
     1153
 91
        4
280
     0
281
     0
  0
CLASS
  1
SUN
  2
AcDbSun
  3
SCENEOE
 90
     1024
 91
        4
280
     0
281
     0
  0
ENDSEC
  0
SECTION
  2
TABLES
  0
TABLE
  2
VPORT
  5
8
330
0
100
AcDbSymbolTable
 70
     1
  0
VPORT
  5
29
330
8
100
AcDbSymbolTableRecord
100
AcDbViewportTableRecord
  2
*Active
 70
     0
 10
0.0
 20
0.0
 11
1.0
 21
1.0
 12
0.0
 22
0.0
 13
0.0
 23
0.0
 14
0.5
 24
0.5
 15
0.5
 25
0.5
 16
0.0
 26
0.0
 36
1.0
 17
91.00082462281999
 27
-128.4993055234307
 37
0.0
 40
256.9986110468615
 41
0.7081814508812795
 42
50.0
 43
0.0
 44
0.0
 50
0.0
 51
0.0
 71
     0
 72
   100
 73
     1
 74
     3
 75
     0
 76
     0
 77
     0
 78
     0
281
     0
 65
     1
110
0.0
120
0.0
130
0.0
111
1.0
121
0.0
131
0.0
112
0.0
122
1.0
132
0.0
 79
     0
146
0.0
 60
     3
 61
     5
292
     1
282
     1
141
0.0
142
0.0
 63
   250
361
3F
  0
ENDTAB
  0
TABLE
  2
LTYPE
  5
5
330
0
100
AcDbSymbolTable
 70
     1
  0
LTYPE
  5
14
330
5
100
AcDbSymbolTableRecord
100
AcDbLinetypeTableRecord
  2
ByBlock
 70
     0
  3

 72
    65
 73
     0
 40
0.0
  0
LTYPE
  5
15
330
5
100
AcDbSymbolTableRecord
100
AcDbLinetypeTableRecord
  2
ByLayer
 70
     0
  3

 72
    65
 73
     0
 40
0.0
  0
LTYPE
  5
16
330
5
100
AcDbSymbolTableRecord
100
AcDbLinetypeTableRecord
  2
Continuous
 70
     0
  3
Solid line
 72
    65
 73
     0
 40
0.0
  0
ENDTAB
  0
TABLE
  2
LAYER
  5
2
330
0
100
AcDbSymbolTable
 70
     2
  0
LAYER
  5
10
330
2
100
AcDbSymbolTableRecord
100
AcDbLayerTableRecord
  2
0
 70
     0
 62
     7
  6
Continuous
370
    -3
390
F
347
3E
  0
LAYER
  5
40
330
2
100
AcDbSymbolTableRecord
100
AcDbLayerTableRecord
  2
_U+30EC_U+30A4_U+30E4_U+30FC 1
 70
     0
 62
     7
  6
Continuous
370
    -3
390
F
347
3E
  0
ENDTAB
  0
TABLE
  2
STYLE
  5
3
330
0
100
AcDbSymbolTable
 70
     1
  0
STYLE
  5
11
330
3
100
AcDbSymbolTableRecord
100
AcDbTextStyleTableRecord
  2
Standard
 70
     0
 40
0.0
 41
1.0
 50
0.0
 71
     0
 42
0.2
  3
txt
  4

  0
ENDTAB
  0
TABLE
  2
VIEW
  5
6
330
0
100
AcDbSymbolTable
 70
     0
  0
ENDTAB
  0
TABLE
  2
UCS
  5
7
330
0
100
AcDbSymbolTable
 70
     0
  0
ENDTAB
  0
TABLE
  2
APPID
  5
9
330
0
100
AcDbSymbolTable
 70
     1
  0
APPID
  5
12
330
9
100
AcDbSymbolTableRecord
100
AcDbRegAppTableRecord
  2
ACAD
 70
     0
  0
ENDTAB
  0
TABLE
  2
DIMSTYLE
  5
A
330
0
100
AcDbSymbolTable
 70
     1
100
AcDbDimStyleTable
  0
DIMSTYLE
105
27
330
A
100
AcDbSymbolTableRecord
100
AcDbDimStyleTableRecord
  2
Standard
 70
     0
178
     0
340
11
  0
ENDTAB
  0
TABLE
  2
BLOCK_RECORD
  5
1
330
0
100
AcDbSymbolTable
 70
     7
  0
BLOCK_RECORD
  5
1F
330
1
100
AcDbSymbolTableRecord
100
AcDbBlockTableRecord
  2
*Model_Space
340
22
 70
     0
280
     1
281
     0
  0
BLOCK_RECORD
  5
1B
330
1
100
AcDbSymbolTableRecord
100
AcDbBlockTableRecord
  2
*Paper_Space
340
1E
 70
     0
280
     1
281
     0
  0
BLOCK_RECORD
  5
23
330
1
100
AcDbSymbolTableRecord
100
AcDbBlockTableRecord
  2
*Paper_Space0
340
26
 70
     0
280
     1
281
     0
  0
BLOCK_RECORD
  5
67
330
1
100
AcDbSymbolTableRecord
100
AcDbBlockTableRecord
  2
block 2
340
0
102
{BLKREFS
331
68
102
}
 70
     0
280
     1
281
     0
  0
BLOCK_RECORD
  5
76
330
1
100
AcDbSymbolTableRecord
100
AcDbBlockTableRecord
  2
block 3
340
0
102
{BLKREFS
331
77
102
}
 70
     0
280
     1
281
     0
  0
BLOCK_RECORD
  5
A8
330
1
100
AcDbSymbolTableRecord
100
AcDbBlockTableRecord
  2
block 4
340
0
102
{BLKREFS
331
A9
102
}
 70
     0
280
     1
281
     0
  0
BLOCK_RECORD
  5
AE
330
1
100
AcDbSymbolTableRecord
100
AcDbBlockTableRecord
  2
block 5
340
0
102
{BLKREFS
331
AF
102
}
 70
     0
280
     1
281
     0
  0
BLOCK_RECORD
  5
CC
330
1
100
AcDbSymbolTableRecord
100
AcDbBlockTableRecord
  2
block 6
340
0
102
{BLKREFS
331
CD
102
}
 70
     0
280
     1
281
     0
  0
BLOCK_RECORD
  5
E0
330
1
100
AcDbSymbolTableRecord
100
AcDbBlockTableRecord
  2
block 7
340
0
102
{BLKREFS
331
E1
102
}
 70
     0
280
     1
281
     0
  0
ENDTAB
  0
ENDSEC
  0
SECTION
  2
BLOCKS
  0
BLOCK
  5
20
330
1F
100
AcDbEntity
  8
0
100
AcDbBlockBegin
  2
*Model_Space
 70
     0
 10
0.0
 20
0.0
 30
0.0
  3
*Model_Space
  1

  0
ENDBLK
  5
21
330
1F
100
AcDbEntity
  8
0
100
AcDbBlockEnd
  0
BLOCK
  5
1C
330
1B
100
AcDbEntity
 67
     1
  8
0
100
AcDbBlockBegin
  2
*Paper_Space
 70
     0
 10
0.0
 20
0.0
 30
0.0
  3
*Paper_Space
  1

  0
ENDBLK
  5
1D
330
1B
100
AcDbEntity
 67
     1
  8
0
100
AcDbBlockEnd
  0
BLOCK
  5
24
330
23
100
AcDbEntity
  8
0
100
AcDbBlockBegin
  2
*Paper_Space0
 70
     0
 10
0.0
 20
0.0
 30
0.0
  3
*Paper_Space0
  1

  0
ENDBLK
  5
25
330
23
100
AcDbEntity
  8
0
100
AcDbBlockEnd
  0
BLOCK
  5
69
330
67
100
AcDbEntity
  8
0
100
AcDbBlockBegin
  2
block 2
 70
     0
 10
0.0
 20
0.0
 30
0.0
  3
block 2
  1

  0
SPLINE
  5
6B
330
67
100
AcDbEntity
  8
_U+30EC_U+30A4_U+30E4_U+30FC 1
370
     0
100
AcDbSpline
210
0.0
220
0.0
230
1.0
 70
    11
 71
     3
 72
    62
 73
    58
 74
     0
 42
0.0000000001
 43
0.0000000001
 12
1.0
 22
0.0
 32
0.0
 13
1.0
 23
0.0
 33
0.0
 40
0.0
 40
0.0
 40
0.0
 40
0.0
 40
1.0
 40
1.0
 40
1.0
 40
2.0
 40
2.0
 40
2.0
 40
3.0
 40
3.0
 40
3.0
 40
4.0
 40
4.0
 40
4.0
 40
5.0
 40
5.0
 40
5.0
 40
6.0
 40
6.0
 40
6.0
 40
7.0
 40
7.0
 40
7.0
 40
8.0
 40
8.0
 40
8.0
 40
9.0
 40
9.0
 40
9.0
 40
10.0
 40
10.0
 40
10.0
 40
11.0
 40
11.0
 40
11.0
 40
12.0
 40
12.0
 40
12.0
 40
13.0
 40
13.0
 40
13.0
 40
14.0
 40
14.0
 40
14.0
 40
15.0
 40
15.0
 40
15.0
 40
16.0
 40
16.0
 40
16.0
 40
17.0
 40
17.0
 40
17.0
 40
18.0
 40
18.0
 40
18.0
 40
19.0
 40
19.0
 40
19.0
 40
19.0
 10
101.1028726960784
 20
-125.8238443695857
 30
0.0
 10
101.1028726960784
 20
-125.9192735145271
 30
0.0
 10
101.0818576136184
 20
-126.1370035491949
 30
0.0
 10
100.8958224574149
 20
-126.2620605153095
 30
0.0
 10
100.7835123445958
 20
-126.3361300682424
 30
0.0
 10
100.6842935946206
 20
-126.3402641828247
 30
0.0
 10
100.5995442456834
 20
-126.344398297407
 30
0.0
 10
100.5995442456834
 20
-126.344398297407
 30
0.0
 10
100.5995442456834
 20
-126.1242566958995
 30
0.0
 10
100.5995442456834
 20
-126.1242566958995
 30
0.0
 10
100.6736137986163
 20
-126.1221896386083
 30
0.0
 10
100.9082248011618
 20
-126.1118543521526
 30
0.0
 10
100.9082248011618
 20
-125.8283229937165
 30
0.0
 10
100.9082248011618
 20
-125.6908636838551
 30
0.0
 10
100.8386338723598
 20
-125.5382459538585
 30
0.0
 10
100.6102240416877
 20
-125.5382459538585
 30
0.0
 10
100.4937798142863
 20
-125.5382459538585
 30
0.0
 10
100.4452039679443
 20
-125.5764865137448
 30
0.0
 10
100.41350908948
 20
-125.6081813922091
 30
0.0
 10
100.3394395365471
 20
-125.6822509451419
 30
0.0
 10
100.3266926832517
 20
-125.7986951725434
 30
0.0
 10
100.3266926832517
 20
-125.8534721907589
 30
0.0
 10
100.3266926832517
 20
-125.8727647254763
 30
0.0
 10
100.3287597405428
 20
-125.9085937185229
 30
0.0
 10
100.3328938551251
 20
-125.9361544824049
 30
0.0
 10
100.3328938551251
 20
-125.9361544824049
 30
0.0
 10
100.1382459602085
 20
-125.9361544824049
 30
0.0
 10
100.1382459602085
 20
-125.9361544824049
 30
0.0
 10
100.1447916416305
 20
-125.8979139225186
 30
0.0
 10
100.1468586989216
 20
-125.8558837575985
 30
0.0
 10
100.1468586989216
 20
-125.8493380761766
 30
0.0
 10
100.1468586989216
 20
-125.7838812619568
 30
0.0
 10
100.1254991069131
 20
-125.5850992524579
 30
0.0
 10
99.8888210470764
 20
-125.5850992524579
 30
0.0
 10
99.71105412003752
 20
-125.5850992524579
 30
0.0
 10
99.65593259227352
 20
-125.7160128808974
 30
0.0
 10
99.65593259227352
 20
-125.8262559364254
 30
0.0
 10
99.65593259227352
 20
-126.0904947601441
 30
0.0
 10
99.8888210470764
 20
-126.0991074988572
 30
0.0
 10
99.9604790331696
 20
-126.1032416134395
 30
0.0
 10
99.9604790331696
 20
-126.1032416134395
 30
0.0
 10
99.9604790331696
 20
-126.3065022470692
 30
0.0
 10
99.9604790331696
 20
-126.3065022470692
 30
0.0
 10
99.83576657660356
 20
-126.2978895083561
 30
0.0
 10
99.45921764006576
 20
-126.2703287444741
 30
0.0
 10
99.45921764006576
 20
-125.81350908313
 30
0.0
 10
99.45921764006576
 20
-125.5892333670402
 30
0.0
 10
99.58634166347147
 20
-125.3480766830727
 30
0.0
 10
99.88227536565444
 20
-125.3480766830727
 30
0.0
 10
100.0686550314065
 20
-125.3480766830727
 30
0.0
 10
100.1509928135039
 20
-125.4431613184656
 30
0.0
 10
100.2123155131414
 20
-125.5427245779893
 30
0.0
 10
100.2398762770234
 20
-125.4814018783519
 30
0.0
 10
100.3201470018297
 20
-125.2995008367307
 30
0.0
 10
100.5974771883923
 20
-125.2995008367307
 30
0.0
 10
100.9357855650438
 20
-125.2995008367307
 30
0.0
 10
101.1028726960784
 20
-125.5468586925716
 30
0.0
 10
101.1028726960784
 20
-125.8238443695857
 30
0.0
  0
HATCH
  5
6C
330
67
100
AcDbEntity
  8
_U+30EC_U+30A4_U+30E4_U+30FC 1
 62
     7
420
 16777215
100
AcDbHatch
 10
0.0
 20
0.0
 30
0.0
210
0.0
220
0.0
230
1.0
  2
SOLID
 70
     1
 71
     0
 91
        1
 92
        1
 93
        1
 72
     4
 94
        3
 73
     0
 74
     1
 95
       62
 96
       58
 40
0.0
 40
0.0
 40
0.0
 40
0.0
 40
1.0
 40
1.0
 40
1.0
 40
2.0
 40
2.0
 40
2.0
 40
3.0
 40
3.0
 40
3.0
 40
4.0
 40
4.0
 40
4.0
 40
5.0
 40
5.0
 40
5.0
 40
6.0
 40
6.0
 40
6.0
 40
7.0
 40
7.0
 40
7.0
 40
8.0
 40
8.0
 40
8.0
 40
9.0
 40
9.0
 40
9.0
 40
10.0
 40
10.0
 40
10.0
 40
11.0
 40
11.0
 40
11.0
 40
12.0
 40
12.0
 40
12.0
 40
13.0
 40
13.0
 40
13.0
 40
14.0
 40
14.0
 40
14.0
 40
15.0
 40
15.0
 40
15.0
 40
16.0
 40
16.0
 40
16.0
 40
17.0
 40
17.0
 40
17.0
 40
18.0
 40
18.0
 40
18.0
 40
19.0
 40
19.0
 40
19.0
 40
19.0
 10
101.1028726960784
 20
-125.8238443695857
 10
101.1028726960784
 20
-125.9192735145271
 10
101.0818576136184
 20
-126.1370035491949
 10
100.8958224574149
 20
-126.2620605153095
 10
100.7835123445958
 20
-126.3361300682424
 10
100.6842935946206
 20
-126.3402641828247
 10
100.5995442456834
 20
-126.344398297407
 10
100.5995442456834
 20
-126.344398297407
 10
100.5995442456834
 20
-126.1242566958995
 10
100.5995442456834
 20
-126.1242566958995
 10
100.6736137986163
 20
-126.1221896386083
 10
100.9082248011618
 20
-126.1118543521526
 10
100.9082248011618
 20
-125.8283229937165
 10
100.9082248011618
 20
-125.6908636838551
 10
100.8386338723598
 20
-125.5382459538585
 10
100.6102240416877
 20
-125.5382459538585
 10
100.4937798142863
 20
-125.5382459538585
 10
100.4452039679443
 20
-125.5764865137448
 10
100.41350908948
 20
-125.6081813922091
 10
100.3394395365471
 20
-125.6822509451419
 10
100.3266926832517
 20
-125.7986951725434
 10
100.3266926832517
 20
-125.8534721907589
 10
100.3266926832517
 20
-125.8727647254763
 10
100.3287597405428
 20
-125.9085937185229
 10
100.3328938551251
 20
-125.9361544824049
 10
100.3328938551251
 20
-125.9361544824049
 10
100.1382459602085
 20
-125.9361544824049
 10
100.1382459602085
 20
-125.9361544824049
 10
100.1447916416305
 20
-125.8979139225186
 10
100.1468586989216
 20
-125.8558837575985
 10
100.1468586989216
 20
-125.8493380761766
 10
100.1468586989216
 20
-125.7838812619568
 10
100.1254991069131
 20
-125.5850992524579
 10
99.8888210470764
 20
-125.5850992524579
 10
99.71105412003752
 20
-125.5850992524579
 10
99.65593259227352
 20
-125.7160128808974
 10
99.65593259227352
 20
-125.8262559364254
 10
99.65593259227352
 20
-126.0904947601441
 10
99.8888210470764
 20
-126.0991074988572
 10
99.9604790331696
 20
-126.1032416134395
 10
99.9604790331696
 20
-126.1032416134395
 10
99.9604790331696
 20
-126.3065022470692
 10
99.9604790331696
 20
-126.3065022470692
 10
99.83576657660356
 20
-126.2978895083561
 10
99.45921764006576
 20
-126.2703287444741
 10
99.45921764006576
 20
-125.81350908313
 10
99.45921764006576
 20
-125.5892333670402
 10
99.58634166347147
 20
-125.3480766830727
 10
99.88227536565444
 20
-125.3480766830727
 10
100.0686550314065
 20
-125.3480766830727
 10
100.1509928135039
 20
-125.4431613184656
 10
100.2123155131414
 20
-125.5427245779893
 10
100.2398762770234
 20
-125.4814018783519
 10
100.3201470018297
 20
-125.2995008367307
 10
100.5974771883923
 20
-125.2995008367307
 10
100.9357855650438
 20
-125.2995008367307
 10
101.1028726960784
 20
-125.5468586925716
 10
101.1028726960784
 20
-125.8238443695857
 97
        0
 97
        0
 75
     2
 76
     1
 98
        0
  0
ENDBLK
  5
6A
330
67
100
AcDbEntity
  8
0
100
AcDbBlockEnd
  0
BLOCK
  5
78
330
76
100
AcDbEntity
  8
0
100
AcDbBlockBegin
  2
block 3
 70
     0
 10
0.0
 20
0.0
 30
0.0
  3
block 3
  1

  0
POLYLINE
  5
7A
330
76
100
AcDbEntity
  8
_U+30EC_U+30A4_U+30E4_U+30FC 1
370
     0
100
AcDb2dPolyline
 66
     1
 10
0.0
 20
0.0
 30
0.0
  0
VERTEX
  5
7B
330
7A
100
AcDbEntity
  8
_U+30EC_U+30A4_U+30E4_U+30FC 1
370
     0
100
AcDbVertex
100
AcDb2dVertex
 10
100.7053086770806
 20
-130.2004936740471
 30
0.0
  0
VERTEX
  5
7C
330
7A
100
AcDbEntity
  8
_U+30EC_U+30A4_U+30E4_U+30FC 1
370
     0
100
AcDbVertex
100
AcDb2dVertex
 10
101.0522297924453
 20
-130.2004936740471
 30
0.0
  0
VERTEX
  5
7D
330
7A
100
AcDbEntity
  8
_U+30EC_U+30A4_U+30E4_U+30FC 1
370
     0
100
AcDbVertex
100
AcDb2dVertex
 10
101.0522297924453
 20
-130.4182237087149
 30
0.0
  0
VERTEX
  5
7E
330
7A
100
AcDbEntity
  8
_U+30EC_U+30A4_U+30E4_U+30FC 1
370
     0
100
AcDbVertex
100
AcDb2dVertex
 10
100.7053086770806
 20
-130.4182237087149
 30
0.0
  0
VERTEX
  5
7F
330
7A
100
AcDbEntity
  8
_U+30EC_U+30A4_U+30E4_U+30FC 1
370
     0
100
AcDbVertex
100
AcDb2dVertex
 10
100.7053086770806
 20
-131.0741698891065
 30
0.0
  0
VERTEX
  5
80
330
7A
100
AcDbEntity
  8
_U+30EC_U+30A4_U+30E4_U+30FC 1
370
     0
100
AcDbVertex
100
AcDb2dVertex
 10
100.4810329609909
 20
-131.0741698891065
 30
0.0
  0
VERTEX
  5
81
330
7A
100
AcDbEntity
  8
_U+30EC_U+30A4_U+30E4_U+30FC 1
370
     0
100
AcDbVertex
100
AcDb2dVertex
 10
99.50779348640778
 20
-130.3951415689637
 30
0.0
  0
VERTEX
  5
82
330
7A
100
AcDbEntity
  8
_U+30EC_U+30A4_U+30E4_U+30FC 1
370
     0
100
AcDbVertex
100
AcDb2dVertex
 10
99.50779348640778
 20
-130.2004936740471
 30
0.0
  0
VERTEX
  5
83
330
7A
100
AcDbEntity
  8
_U+30EC_U+30A4_U+30E4_U+30FC 1
370
     0
100
AcDbVertex
100
AcDb2dVertex
 10
100.5065266675817
 20
-130.2004936740471
 30
0.0
  0
VERTEX
  5
84
330
7A
100
AcDbEntity
  8
_U+30EC_U+30A4_U+30E4_U+30FC 1
370
     0
100
AcDbVertex
100
AcDb2dVertex
 10
100.5065266675817
 20
-129.9930989258351
 30
0.0
  0
VERTEX
  5
85
330
7A
100
AcDbEntity
  8
_U+30EC_U+30A4_U+30E4_U+30FC 1
370
     0
100
AcDbVertex
100
AcDb2dVertex
 10
100.7053086770806
 20
-129.9930989258351
 30
0.0
  0
VERTEX
  5
86
330
7A
100
AcDbEntity
  8
_U+30EC_U+30A4_U+30E4_U+30FC 1
370
     0
100
AcDbVertex
100
AcDb2dVertex
 10
100.7053086770806
 20
-130.2004936740471
 30
0.0
  0
SEQEND
  5
87
330
7A
100
AcDbEntity
  8
_U+30EC_U+30A4_U+30E4_U+30FC 1
370
     0
  0
POLYLINE
  5
88
330
76
100
AcDbEntity
  8
_U+30EC_U+30A4_U+30E4_U+30FC 1
370
     0
100
AcDb2dPolyline
 66
     1
 10
0.0
 20
0.0
 30
0.0
  0
VERTEX
  5
89
330
88
100
AcDbEntity
  8
_U+30EC_U+30A4_U+30E4_U+30FC 1
370
     0
100
AcDbVertex
100
AcDb2dVertex
 10
99.85058048719014
 20
-130.4182237087149
 30
0.0
  0
VERTEX
  5
8A
330
88
100
AcDbEntity
  8
_U+30EC_U+30A4_U+30E4_U+30FC 1
370
     0
100
AcDbVertex
100
AcDb2dVertex
 10
100.5065266675817
 20
-130.8753878796076
 30
0.0
  0
VERTEX
  5
8B
330
88
100
AcDbEntity
  8
_U+30EC_U+30A4_U+30E4_U+30FC 1
370
     0
100
AcDbVertex
100
AcDb2dVertex
 10
100.5065266675817
 20
-130.4182237087149
 30
0.0
  0
VERTEX
  5
8C
330
88
100
AcDbEntity
  8
_U+30EC_U+30A4_U+30E4_U+30FC 1
370
     0
100
AcDbVertex
100
AcDb2dVertex
 10
99.85058048719014
 20
-130.4182237087149
 30
0.0
  0
SEQEND
  5
8D
330
88
100
AcDbEntity
  8
_U+30EC_U+30A4_U+30E4_U+30FC 1
370
     0
  0
HATCH
  5
8E
330
76
100
AcDbEntity
  8
_U+30EC_U+30A4_U+30E4_U+30FC 1
 62
     7
420
 16777215
100
AcDbHatch
 10
0.0
 20
0.0
 30
0.0
210
0.0
220
0.0
230
1.0
  2
SOLID
 70
     1
 71
     0
 91
        2
 92
        1
 93
       11
 72
     1
 10
100.7053086770806
 20
-130.2004936740471
 11
101.0522297924453
 21
-130.2004936740471
 72
     1
 10
101.0522297924453
 20
-130.2004936740471
 11
101.0522297924453
 21
-130.4182237087149
 72
     1
 10
101.0522297924453
 20
-130.4182237087149
 11
100.7053086770806
 21
-130.4182237087149
 72
     1
 10
100.7053086770806
 20
-130.4182237087149
 11
100.7053086770806
 21
-131.0741698891065
 72
     1
 10
100.7053086770806
 20
-131.0741698891065
 11
100.4810329609909
 21
-131.0741698891065
 72
     1
 10
100.4810329609909
 20
-131.0741698891065
 11
99.50779348640778
 21
-130.3951415689637
 72
     1
 10
99.50779348640778
 20
-130.3951415689637
 11
99.50779348640778
 21
-130.2004936740471
 72
     1
 10
99.50779348640778
 20
-130.2004936740471
 11
100.5065266675817
 21
-130.2004936740471
 72
     1
 10
100.5065266675817
 20
-130.2004936740471
 11
100.5065266675817
 21
-129.9930989258351
 72
     1
 10
100.5065266675817
 20
-129.9930989258351
 11
100.7053086770806
 21
-129.9930989258351
 72
     1
 10
100.7053086770806
 20
-129.9930989258351
 11
100.7053086770806
 21
-130.2004936740471
 97
        0
 92
        1
 93
        3
 72
     1
 10
99.85058048719014
 20
-130.4182237087149
 11
100.5065266675817
 21
-130.8753878796076
 72
     1
 10
100.5065266675817
 20
-130.8753878796076
 11
100.5065266675817
 21
-130.4182237087149
 72
     1
 10
100.5065266675817
 20
-130.4182237087149
 11
99.85058048719014
 21
-130.4182237087149
 97
        0
 75
     2
 76
     1
 98
        0
  0
POLYLINE
  5
8F
330
76
100
AcDbEntity
  8
_U+30EC_U+30A4_U+30E4_U+30FC 1
370
     0
100
AcDb2dPolyline
 66
     1
 10
0.0
 20
0.0
 30
0.0
  0
VERTEX
  5
90
330
8F
100
AcDbEntity
  8
_U+30EC_U+30A4_U+30E4_U+30FC 1
370
     0
100
AcDbVertex
100
AcDb2dVertex
 10
101.0522297924453
 20
-129.7956949545303
 30
0.0
  0
VERTEX
  5
91
330
8F
100
AcDbEntity
  8
_U+30EC_U+30A4_U+30E4_U+30FC 1
370
     0
100
AcDbVertex
100
AcDb2dVertex
 10
100.8003933124735
 20
-129.7956949545303
 30
0.0
  0
VERTEX
  5
92
330
8F
100
AcDbEntity
  8
_U+30EC_U+30A4_U+30E4_U+30FC 1
370
     0
100
AcDbVertex
100
AcDb2dVertex
 10
100.8003933124735
 20
-129.5438584745585
 30
0.0
  0
VERTEX
  5
93
330
8F
100
AcDbEntity
  8
_U+30EC_U+30A4_U+30E4_U+30FC 1
370
     0
100
AcDbVertex
100
AcDb2dVertex
 10
101.0522297924453
 20
-129.5438584745585
 30
0.0
  0
VERTEX
  5
94
330
8F
100
AcDbEntity
  8
_U+30EC_U+30A4_U+30E4_U+30FC 1
370
     0
100
AcDbVertex
100
AcDb2dVertex
 10
101.0522297924453
 20
-129.7956949545303
 30
0.0
  0
SEQEND
  5
95
330
8F
100
AcDbEntity
  8
_U+30EC_U+30A4_U+30E4_U+30FC 1
370
     0
  0
HATCH
  5
96
330
76
100
AcDbEntity
  8
_U+30EC_U+30A4_U+30E4_U+30FC 1
 62
     7
420
 16777215
100
AcDbHatch
 10
0.0
 20
0.0
 30
0.0
210
0.0
220
0.0
230
1.0
  2
SOLID
 70
     1
 71
     0
 91
        1
 92
        1
 93
        4
 72
     1
 10
101.0522297924453
 20
-129.7956949545303
 11
100.8003933124735
 21
-129.7956949545303
 72
     1
 10
100.8003933124735
 20
-129.7956949545303
 11
100.8003933124735
 21
-129.5438584745585
 72
     1
 10
100.8003933124735
 20
-129.5438584745585
 11
101.0522297924453
 21
-129.5438584745585
 72
     1
 10
101.0522297924453
 20
-129.5438584745585
 11
101.0522297924453
 21
-129.7956949545303
 97
        0
 75
     2
 76
     1
 98
        0
  0
SPLINE
  5
97
330
76
100
AcDbEntity
  8
_U+30EC_U+30A4_U+30E4_U+30FC 1
370
     0
100
AcDbSpline
210
0.0
220
0.0
230
1.0
 70
    11
 71
     3
 72
    53
 73
    49
 74
     0
 42
0.0000000001
 43
0.0000000001
 12
1.0
 22
0.0
 32
0.0
 13
1.0
 23
0.0
 33
0.0
 40
0.0
 40
0.0
 40
0.0
 40
0.0
 40
1.0
 40
1.0
 40
1.0
 40
2.0
 40
2.0
 40
2.0
 40
3.0
 40
3.0
 40
3.0
 40
4.0
 40
4.0
 40
4.0
 40
5.0
 40
5.0
 40
5.0
 40
6.0
 40
6.0
 40
6.0
 40
7.0
 40
7.0
 40
7.0
 40
8.0
 40
8.0
 40
8.0
 40
9.0
 40
9.0
 40
9.0
 40
10.0
 40
10.0
 40
10.0
 40
11.0
 40
11.0
 40
11.0
 40
12.0
 40
12.0
 40
12.0
 40
13.0
 40
13.0
 40
13.0
 40
14.0
 40
14.0
 40
14.0
 40
15.0
 40
15.0
 40
15.0
 40
16.0
 40
16.0
 40
16.0
 40
16.0
 10
101.1028726960784
 20
-128.8265895945295
 30
0.0
 10
101.1028726960784
 20
-128.9047932620446
 30
0.0
 10
101.0859917282007
 20
-129.0064235788595
 30
0.0
 10
101.0226019712721
 20
-129.1080538956744
 30
0.0
 10
100.9127034252927
 20
-129.2813421985825
 30
0.0
 10
100.7814452873046
 20
-129.302701790591
 30
0.0
 10
100.6736137986163
 20
-129.3216498157599
 30
0.0
 10
100.6736137986163
 20
-129.3216498157599
 30
0.0
 10
100.6736137986163
 20
-129.0994411569613
 30
0.0
 10
100.6736137986163
 20
-129.0994411569613
 30
0.0
 10
100.8723958081152
 20
-129.0446641387458
 30
0.0
 10
100.9020236292884
 20
-128.9175401153401
 30
0.0
 10
100.9020236292884
 20
-128.8245225372383
 30
0.0
 10
100.9020236292884
 20
-128.6849961700857
 30
0.0
 10
100.8024603697647
 20
-128.5327229496376
 30
0.0
 10
100.5699164245103
 20
-128.5327229496376
 30
0.0
 10
100.3139458299562
 20
-128.5327229496376
 30
0.0
 10
100.2440103916057
 20
-128.7125569339677
 30
0.0
 10
100.2440103916057
 20
-128.8331352759514
 30
0.0
 10
100.2440103916057
 20
-128.8648301544158
 30
0.0
 10
100.2440103916057
 20
-129.0064235788595
 30
0.0
 10
100.3732014723025
 20
-129.0953070423789
 30
0.0
 10
100.3732014723025
 20
-129.0953070423789
 30
0.0
 10
100.3542534471337
 20
-129.2710069121267
 30
0.0
 10
100.3542534471337
 20
-129.2710069121267
 30
0.0
 10
100.3542534471337
 20
-129.2710069121267
 30
0.0
 10
99.50779348640778
 20
-129.150428570143
 30
0.0
 10
99.50779348640778
 20
-129.150428570143
 30
0.0
 10
99.50779348640778
 20
-129.150428570143
 30
0.0
 10
99.50779348640778
 20
-128.3718369904765
 30
0.0
 10
99.50779348640778
 20
-128.3718369904765
 30
0.0
 10
99.50779348640778
 20
-128.3718369904765
 30
0.0
 10
99.70244138132439
 20
-128.3718369904765
 30
0.0
 10
99.70244138132439
 20
-128.3718369904765
 30
0.0
 10
99.70244138132439
 20
-128.3718369904765
 30
0.0
 10
99.70244138132439
 20
-128.9874755536906
 30
0.0
 10
99.70244138132439
 20
-128.9874755536906
 30
0.0
 10
99.70244138132439
 20
-128.9874755536906
 30
0.0
 10
100.1254991069131
 20
-129.0529323679104
 30
0.0
 10
100.1254991069131
 20
-129.0529323679104
 30
0.0
 10
100.0917371711576
 20
-128.9916096682729
 30
0.0
 10
100.0514295539802
 20
-128.9092718861755
 30
0.0
 10
100.0514295539802
 20
-128.7907606014829
 30
0.0
 10
100.0514295539802
 20
-128.53685706422
 30
0.0
 10
100.2378092197322
 20
-128.2998344948348
 30
0.0
 10
100.5509683993414
 20
-128.2998344948348
 30
0.0
 10
100.8682616935329
 20
-128.2998344948348
 30
0.0
 10
101.1028726960784
 20
-128.5241102109245
 30
0.0
 10
101.1028726960784
 20
-128.8265895945295
 30
0.0
  0
HATCH
  5
98
330
76
100
AcDbEntity
  8
_U+30EC_U+30A4_U+30E4_U+30FC 1
 62
     7
420
 16777215
100
AcDbHatch
 10
0.0
 20
0.0
 30
0.0
210
0.0
220
0.0
230
1.0
  2
SOLID
 70
     1
 71
     0
 91
        1
 92
        1
 93
        1
 72
     4
 94
        3
 73
     0
 74
     1
 95
       53
 96
       49
 40
0.0
 40
0.0
 40
0.0
 40
0.0
 40
1.0
 40
1.0
 40
1.0
 40
2.0
 40
2.0
 40
2.0
 40
3.0
 40
3.0
 40
3.0
 40
4.0
 40
4.0
 40
4.0
 40
5.0
 40
5.0
 40
5.0
 40
6.0
 40
6.0
 40
6.0
 40
7.0
 40
7.0
 40
7.0
 40
8.0
 40
8.0
 40
8.0
 40
9.0
 40
9.0
 40
9.0
 40
10.0
 40
10.0
 40
10.0
 40
11.0
 40
11.0
 40
11.0
 40
12.0
 40
12.0
 40
12.0
 40
13.0
 40
13.0
 40
13.0
 40
14.0
 40
14.0
 40
14.0
 40
15.0
 40
15.0
 40
15.0
 40
16.0
 40
16.0
 40
16.0
 40
16.0
 10
101.1028726960784
 20
-128.8265895945295
 10
101.1028726960784
 20
-128.9047932620446
 10
101.0859917282007
 20
-129.0064235788595
 10
101.0226019712721
 20
-129.1080538956744
 10
100.9127034252927
 20
-129.2813421985825
 10
100.7814452873046
 20
-129.302701790591
 10
100.6736137986163
 20
-129.3216498157599
 10
100.6736137986163
 20
-129.3216498157599
 10
100.6736137986163
 20
-129.0994411569613
 10
100.6736137986163
 20
-129.0994411569613
 10
100.8723958081152
 20
-129.0446641387458
 10
100.9020236292884
 20
-128.9175401153401
 10
100.9020236292884
 20
-128.8245225372383
 10
100.9020236292884
 20
-128.6849961700857
 10
100.8024603697647
 20
-128.5327229496376
 10
100.5699164245103
 20
-128.5327229496376
 10
100.3139458299562
 20
-128.5327229496376
 10
100.2440103916057
 20
-128.7125569339677
 10
100.2440103916057
 20
-128.8331352759514
 10
100.2440103916057
 20
-128.8648301544158
 10
100.2440103916057
 20
-129.0064235788595
 10
100.3732014723025
 20
-129.0953070423789
 10
100.3732014723025
 20
-129.0953070423789
 10
100.3542534471337
 20
-129.2710069121267
 10
100.3542534471337
 20
-129.2710069121267
 10
100.3542534471337
 20
-129.2710069121267
 10
99.50779348640778
 20
-129.150428570143
 10
99.50779348640778
 20
-129.150428570143
 10
99.50779348640778
 20
-129.150428570143
 10
99.50779348640778
 20
-128.3718369904765
 10
99.50779348640778
 20
-128.3718369904765
 10
99.50779348640778
 20
-128.3718369904765
 10
99.70244138132439
 20
-128.3718369904765
 10
99.70244138132439
 20
-128.3718369904765
 10
99.70244138132439
 20
-128.3718369904765
 10
99.70244138132439
 20
-128.9874755536906
 10
99.70244138132439
 20
-128.9874755536906
 10
99.70244138132439
 20
-128.9874755536906
 10
100.1254991069131
 20
-129.0529323679104
 10
100.1254991069131
 20
-129.0529323679104
 10
100.0917371711576
 20
-128.9916096682729
 10
100.0514295539802
 20
-128.9092718861755
 10
100.0514295539802
 20
-128.7907606014829
 10
100.0514295539802
 20
-128.53685706422
 10
100.2378092197322
 20
-128.2998344948348
 10
100.5509683993414
 20
-128.2998344948348
 10
100.8682616935329
 20
-128.2998344948348
 10
101.1028726960784
 20
-128.5241102109245
 10
101.1028726960784
 20
-128.8265895945295
 97
        0
 97
        0
 75
     2
 76
     1
 98
        0
  0
ENDBLK
  5
79
330
76
100
AcDbEntity
  8
0
100
AcDbBlockEnd
  0
BLOCK
  5
AA
330
A8
100
AcDbEntity
  8
0
100
AcDbBlockBegin
  2
block 4
 70
     0
 10
0.0
 20
0.0
 30
0.0
  3
block 4
  1

  0
SPLINE
  5
AC
330
A8
100
AcDbEntity
  8
_U+30EC_U+30A4_U+30E4_U+30FC 1
370
     0
100
AcDbSpline
210
0.0
220
0.0
230
1.0
 70
    11
 71
     3
 72
    26
 73
    22
 74
     0
 42
0.0000000001
 43
0.0000000001
 12
1.0
 22
0.0
 32
0.0
 13
1.0
 23
0.0
 33
0.0
 40
0.0
 40
0.0
 40
0.0
 40
0.0
 40
1.0
 40
1.0
 40
1.0
 40
2.0
 40
2.0
 40
2.0
 40
3.0
 40
3.0
 40
3.0
 40
4.0
 40
4.0
 40
4.0
 40
5.0
 40
5.0
 40
5.0
 40
6.0
 40
6.0
 40
6.0
 40
7.0
 40
7.0
 40
7.0
 40
7.0
 10
104.4311794443783
 20
-132.5135307828438
 30
0.0
 10
104.4311794443783
 20
-132.5135307828438
 30
0.0
 10
103.3270263413557
 20
-132.5135307828438
 30
0.0
 10
103.3270263413557
 20
-132.5135307828438
 30
0.0
 10
103.3270263413557
 20
-132.5135307828438
 30
0.0
 10
103.3270263413557
 20
-132.8435709303308
 30
0.0
 10
103.3270263413557
 20
-132.8435709303308
 30
0.0
 10
103.3270263413557
 20
-132.8435709303308
 30
0.0
 10
103.17888723549
 20
-132.8435709303308
 30
0.0
 10
103.17888723549
 20
-132.8435709303308
 30
0.0
 10
103.1640733249034
 20
-132.5114637255527
 30
0.0
 10
103.0011203084511
 20
-132.4649549365018
 30
0.0
 10
102.8867431383408
 20
-132.4353271153287
 30
0.0
 10
102.8867431383408
 20
-132.4353271153287
 30
0.0
 10
102.8867431383408
 20
-132.2892550667541
 30
0.0
 10
102.8867431383408
 20
-132.2892550667541
 30
0.0
 10
102.8867431383408
 20
-132.2892550667541
 30
0.0
 10
104.4311794443783
 20
-132.2892550667541
 30
0.0
 10
104.4311794443783
 20
-132.2892550667541
 30
0.0
 10
104.4311794443783
 20
-132.2892550667541
 30
0.0
 10
104.4311794443783
 20
-132.5135307828438
 30
0.0
 10
104.4311794443783
 20
-132.5135307828438
 30
0.0
  0
HATCH
  5
AD
330
A8
100
AcDbEntity
  8
_U+30EC_U+30A4_U+30E4_U+30FC 1
 62
     7
420
 16777215
100
AcDbHatch
 10
0.0
 20
0.0
 30
0.0
210
0.0
220
0.0
230
1.0
  2
SOLID
 70
     1
 71
     0
 91
        1
 92
        1
 93
        1
 72
     4
 94
        3
 73
     0
 74
     1
 95
       26
 96
       22
 40
0.0
 40
0.0
 40
0.0
 40
0.0
 40
1.0
 40
1.0
 40
1.0
 40
2.0
 40
2.0
 40
2.0
 40
3.0
 40
3.0
 40
3.0
 40
4.0
 40
4.0
 40
4.0
 40
5.0
 40
5.0
 40
5.0
 40
6.0
 40
6.0
 40
6.0
 40
7.0
 40
7.0
 40
7.0
 40
7.0
 10
104.4311794443783
 20
-132.5135307828438
 10
104.4311794443783
 20
-132.5135307828438
 10
103.3270263413557
 20
-132.5135307828438
 10
103.3270263413557
 20
-132.5135307828438
 10
103.3270263413557
 20
-132.5135307828438
 10
103.3270263413557
 20
-132.8435709303308
 10
103.3270263413557
 20
-132.8435709303308
 10
103.3270263413557
 20
-132.8435709303308
 10
103.17888723549
 20
-132.8435709303308
 10
103.17888723549
 20
-132.8435709303308
 10
103.1640733249034
 20
-132.5114637255527
 10
103.0011203084511
 20
-132.4649549365018
 10
102.8867431383408
 20
-132.4353271153287
 10
102.8867431383408
 20
-132.4353271153287
 10
102.8867431383408
 20
-132.2892550667541
 10
102.8867431383408
 20
-132.2892550667541
 10
102.8867431383408
 20
-132.2892550667541
 10
104.4311794443783
 20
-132.2892550667541
 10
104.4311794443783
 20
-132.2892550667541
 10
104.4311794443783
 20
-132.2892550667541
 10
104.4311794443783
 20
-132.5135307828438
 10
104.4311794443783
 20
-132.5135307828438
 97
        0
 97
        0
 75
     2
 76
     1
 98
        0
  0
ENDBLK
  5
AB
330
A8
100
AcDbEntity
  8
0
100
AcDbBlockEnd
  0
BLOCK
  5
B0
330
AE
100
AcDbEntity
  8
0
100
AcDbBlockBegin
  2
block 5
 70
     0
 10
0.0
 20
0.0
 30
0.0
  3
block 5
  1

  0
SPLINE
  5
B2
330
AE
100
AcDbEntity
  8
_U+30EC_U+30A4_U+30E4_U+30FC 1
370
     0
100
AcDbSpline
210
0.0
220
0.0
230
1.0
 70
    11
 71
     3
 72
    26
 73
    22
 74
     0
 42
0.0000000001
 43
0.0000000001
 12
1.0
 22
0.0
 32
0.0
 13
1.0
 23
0.0
 33
0.0
 40
0.0
 40
0.0
 40
0.0
 40
0.0
 40
1.0
 40
1.0
 40
1.0
 40
2.0
 40
2.0
 40
2.0
 40
3.0
 40
3.0
 40
3.0
 40
4.0
 40
4.0
 40
4.0
 40
5.0
 40
5.0
 40
5.0
 40
6.0
 40
6.0
 40
6.0
 40
7.0
 40
7.0
 40
7.0
 40
7.0
 10
104.4311794443783
 20
-129.1214897680669
 30
0.0
 10
104.4311794443783
 20
-129.1214897680669
 30
0.0
 10
104.4311794443783
 20
-129.3585123374521
 30
0.0
 10
104.4311794443783
 20
-129.3585123374521
 30
0.0
 10
104.1221543793514
 20
-129.3330186308612
 30
0.0
 10
103.6040120183698
 20
-129.1404377932357
 30
0.0
 10
103.0982720011352
 20
-128.7342610355248
 30
0.0
 10
103.0982720011352
 20
-128.7342610355248
 30
0.0
 10
103.0982720011352
 20
-129.5721082575375
 30
0.0
 10
103.0982720011352
 20
-129.5721082575375
 30
0.0
 10
103.0982720011352
 20
-129.5721082575375
 30
0.0
 10
102.8867431383408
 20
-129.5721082575375
 30
0.0
 10
102.8867431383408
 20
-129.5721082575375
 30
0.0
 10
102.8867431383408
 20
-129.5721082575375
 30
0.0
 10
102.8867431383408
 20
-128.4972384661396
 30
0.0
 10
102.8867431383408
 20
-128.4972384661396
 30
0.0
 10
102.8867431383408
 20
-128.4972384661396
 30
0.0
 10
103.0982720011352
 20
-128.4972384661396
 30
0.0
 10
103.0982720011352
 20
-128.4972384661396
 30
0.0
 10
103.3883490409932
 20
-128.8210774417531
 30
0.0
 10
103.9805609549076
 20
-129.0877278323114
 30
0.0
 10
104.4311794443783
 20
-129.1214897680669
 30
0.0
  0
HATCH
  5
B3
330
AE
100
AcDbEntity
  8
_U+30EC_U+30A4_U+30E4_U+30FC 1
 62
     7
420
 16777215
100
AcDbHatch
 10
0.0
 20
0.0
 30
0.0
210
0.0
220
0.0
230
1.0
  2
SOLID
 70
     1
 71
     0
 91
        1
 92
        1
 93
        1
 72
     4
 94
        3
 73
     0
 74
     1
 95
       26
 96
       22
 40
0.0
 40
0.0
 40
0.0
 40
0.0
 40
1.0
 40
1.0
 40
1.0
 40
2.0
 40
2.0
 40
2.0
 40
3.0
 40
3.0
 40
3.0
 40
4.0
 40
4.0
 40
4.0
 40
5.0
 40
5.0
 40
5.0
 40
6.0
 40
6.0
 40
6.0
 40
7.0
 40
7.0
 40
7.0
 40
7.0
 10
104.4311794443783
 20
-129.1214897680669
 10
104.4311794443783
 20
-129.1214897680669
 10
104.4311794443783
 20
-129.3585123374521
 10
104.4311794443783
 20
-129.3585123374521
 10
104.1221543793514
 20
-129.3330186308612
 10
103.6040120183698
 20
-129.1404377932357
 10
103.0982720011352
 20
-128.7342610355248
 10
103.0982720011352
 20
-128.7342610355248
 10
103.0982720011352
 20
-129.5721082575375
 10
103.0982720011352
 20
-129.5721082575375
 10
103.0982720011352
 20
-129.5721082575375
 10
102.8867431383408
 20
-129.5721082575375
 10
102.8867431383408
 20
-129.5721082575375
 10
102.8867431383408
 20
-129.5721082575375
 10
102.8867431383408
 20
-128.4972384661396
 10
102.8867431383408
 20
-128.4972384661396
 10
102.8867431383408
 20
-128.4972384661396
 10
103.0982720011352
 20
-128.4972384661396
 10
103.0982720011352
 20
-128.4972384661396
 10
103.3883490409932
 20
-128.8210774417531
 10
103.9805609549076
 20
-129.0877278323114
 10
104.4311794443783
 20
-129.1214897680669
 97
        0
 97
        0
 75
     2
 76
     1
 98
        0
  0
POLYLINE
  5
B4
330
AE
100
AcDbEntity
  8
_U+30EC_U+30A4_U+30E4_U+30FC 1
370
     0
100
AcDb2dPolyline
 66
     1
 10
0.0
 20
0.0
 30
0.0
  0
VERTEX
  5
B5
330
B4
100
AcDbEntity
  8
_U+30EC_U+30A4_U+30E4_U+30FC 1
370
     0
100
AcDbVertex
100
AcDb2dVertex
 10
104.4311794443783
 20
-128.2957003802525
 30
0.0
  0
VERTEX
  5
B6
330
B4
100
AcDbEntity
  8
_U+30EC_U+30A4_U+30E4_U+30FC 1
370
     0
100
AcDbVertex
100
AcDb2dVertex
 10
104.1793429644066
 20
-128.2957003802525
 30
0.0
  0
VERTEX
  5
B7
330
B4
100
AcDbEntity
  8
_U+30EC_U+30A4_U+30E4_U+30FC 1
370
     0
100
AcDbVertex
100
AcDb2dVertex
 10
104.1793429644066
 20
-128.0438639002807
 30
0.0
  0
VERTEX
  5
B8
330
B4
100
AcDbEntity
  8
_U+30EC_U+30A4_U+30E4_U+30FC 1
370
     0
100
AcDbVertex
100
AcDb2dVertex
 10
104.4311794443783
 20
-128.0438639002807
 30
0.0
  0
VERTEX
  5
B9
330
B4
100
AcDbEntity
  8
_U+30EC_U+30A4_U+30E4_U+30FC 1
370
     0
100
AcDbVertex
100
AcDb2dVertex
 10
104.4311794443783
 20
-128.2957003802525
 30
0.0
  0
SEQEND
  5
BA
330
B4
100
AcDbEntity
  8
_U+30EC_U+30A4_U+30E4_U+30FC 1
370
     0
  0
HATCH
  5
BB
330
AE
100
AcDbEntity
  8
_U+30EC_U+30A4_U+30E4_U+30FC 1
 62
     7
420
 16777215
100
AcDbHatch
 10
0.0
 20
0.0
 30
0.0
210
0.0
220
0.0
230
1.0
  2
SOLID
 70
     1
 71
     0
 91
        1
 92
        1
 93
        4
 72
     1
 10
104.4311794443783
 20
-128.2957003802525
 11
104.1793429644066
 21
-128.2957003802525
 72
     1
 10
104.1793429644066
 20
-128.2957003802525
 11
104.1793429644066
 21
-128.0438639002807
 72
     1
 10
104.1793429644066
 20
-128.0438639002807
 11
104.4311794443783
 21
-128.0438639002807
 72
     1
 10
104.4311794443783
 20
-128.0438639002807
 11
104.4311794443783
 21
-128.2957003802525
 97
        0
 75
     2
 76
     1
 98
        0
  0
SPLINE
  5
BC
330
AE
100
AcDbEntity
  8
_U+30EC_U+30A4_U+30E4_U+30FC 1
370
     0
100
AcDbSpline
210
0.0
220
0.0
230
1.0
 70
    11
 71
     3
 72
    53
 73
    49
 74
     0
 42
0.0000000001
 43
0.0000000001
 12
1.0
 22
0.0
 32
0.0
 13
1.0
 23
0.0
 33
0.0
 40
0.0
 40
0.0
 40
0.0
 40
0.0
 40
1.0
 40
1.0
 40
1.0
 40
2.0
 40
2.0
 40
2.0
 40
3.0
 40
3.0
 40
3.0
 40
4.0
 40
4.0
 40
4.0
 40
5.0
 40
5.0
 40
5.0
 40
6.0
 40
6.0
 40
6.0
 40
7.0
 40
7.0
 40
7.0
 40
8.0
 40
8.0
 40
8.0
 40
9.0
 40
9.0
 40
9.0
 40
10.0
 40
10.0
 40
10.0
 40
11.0
 40
11.0
 40
11.0
 40
12.0
 40
12.0
 40
12.0
 40
13.0
 40
13.0
 40
13.0
 40
14.0
 40
14.0
 40
14.0
 40
15.0
 40
15.0
 40
15.0
 40
16.0
 40
16.0
 40
16.0
 40
16.0
 10
104.4818223480115
 20
-127.3265950202517
 30
0.0
 10
104.4818223480115
 20
-127.4047986877669
 30
0.0
 10
104.4649413801338
 20
-127.5064290045817
 30
0.0
 10
104.4015516232052
 20
-127.6080593213966
 30
0.0
 10
104.2916530772257
 20
-127.7813476243047
 30
0.0
 10
104.1603949392377
 20
-127.8027072163132
 30
0.0
 10
104.0525634505494
 20
-127.8216552414821
 30
0.0
 10
104.0525634505494
 20
-127.8216552414821
 30
0.0
 10
104.0525634505494
 20
-127.5994465826835
 30
0.0
 10
104.0525634505494
 20
-127.5994465826835
 30
0.0
 10
104.2513454600483
 20
-127.544669564468
 30
0.0
 10
104.2809732812214
 20
-127.4175455410623
 30
0.0
 10
104.2809732812214
 20
-127.3245279629605
 30
0.0
 10
104.2809732812214
 20
-127.1850015958079
 30
0.0
 10
104.1814100216977
 20
-127.0327283753599
 30
0.0
 10
103.9488660764433
 20
-127.0327283753599
 30
0.0
 10
103.6928954818893
 20
-127.0327283753599
 30
0.0
 10
103.6229600435387
 20
-127.2125623596899
 30
0.0
 10
103.6229600435387
 20
-127.3331407016737
 30
0.0
 10
103.6229600435387
 20
-127.364835580138
 30
0.0
 10
103.6229600435387
 20
-127.5064290045817
 30
0.0
 10
103.7521511242356
 20
-127.5953124681012
 30
0.0
 10
103.7521511242356
 20
-127.5953124681012
 30
0.0
 10
103.7332030990667
 20
-127.7710123378489
 30
0.0
 10
103.7332030990667
 20
-127.7710123378489
 30
0.0
 10
103.7332030990667
 20
-127.7710123378489
 30
0.0
 10
102.8867431383408
 20
-127.6504339958652
 30
0.0
 10
102.8867431383408
 20
-127.6504339958652
 30
0.0
 10
102.8867431383408
 20
-127.6504339958652
 30
0.0
 10
102.8867431383408
 20
-126.8718424161987
 30
0.0
 10
102.8867431383408
 20
-126.8718424161987
 30
0.0
 10
102.8867431383408
 20
-126.8718424161987
 30
0.0
 10
103.0813910332574
 20
-126.8718424161987
 30
0.0
 10
103.0813910332574
 20
-126.8718424161987
 30
0.0
 10
103.0813910332574
 20
-126.8718424161987
 30
0.0
 10
103.0813910332574
 20
-127.4874809794129
 30
0.0
 10
103.0813910332574
 20
-127.4874809794129
 30
0.0
 10
103.0813910332574
 20
-127.4874809794129
 30
0.0
 10
103.5044487588461
 20
-127.5529377936326
 30
0.0
 10
103.5044487588461
 20
-127.5529377936326
 30
0.0
 10
103.4706868230907
 20
-127.4916150939952
 30
0.0
 10
103.4303792059132
 20
-127.4092773118977
 30
0.0
 10
103.4303792059132
 20
-127.2907660272051
 30
0.0
 10
103.4303792059132
 20
-127.0368624899422
 30
0.0
 10
103.6167588716653
 20
-126.799839920557
 30
0.0
 10
103.9299180512745
 20
-126.799839920557
 30
0.0
 10
104.247211345466
 20
-126.799839920557
 30
0.0
 10
104.4818223480115
 20
-127.0241156366468
 30
0.0
 10
104.4818223480115
 20
-127.3265950202517
 30
0.0
  0
HATCH
  5
BD
330
AE
100
AcDbEntity
  8
_U+30EC_U+30A4_U+30E4_U+30FC 1
 62
     7
420
 16777215
100
AcDbHatch
 10
0.0
 20
0.0
 30
0.0
210
0.0
220
0.0
230
1.0
  2
SOLID
 70
     1
 71
     0
 91
        1
 92
        1
 93
        1
 72
     4
 94
        3
 73
     0
 74
     1
 95
       53
 96
       49
 40
0.0
 40
0.0
 40
0.0
 40
0.0
 40
1.0
 40
1.0
 40
1.0
 40
2.0
 40
2.0
 40
2.0
 40
3.0
 40
3.0
 40
3.0
 40
4.0
 40
4.0
 40
4.0
 40
5.0
 40
5.0
 40
5.0
 40
6.0
 40
6.0
 40
6.0
 40
7.0
 40
7.0
 40
7.0
 40
8.0
 40
8.0
 40
8.0
 40
9.0
 40
9.0
 40
9.0
 40
10.0
 40
10.0
 40
10.0
 40
11.0
 40
11.0
 40
11.0
 40
12.0
 40
12.0
 40
12.0
 40
13.0
 40
13.0
 40
13.0
 40
14.0
 40
14.0
 40
14.0
 40
15.0
 40
15.0
 40
15.0
 40
16.0
 40
16.0
 40
16.0
 40
16.0
 10
104.4818223480115
 20
-127.3265950202517
 10
104.4818223480115
 20
-127.4047986877669
 10
104.4649413801338
 20
-127.5064290045817
 10
104.4015516232052
 20
-127.6080593213966
 10
104.2916530772257
 20
-127.7813476243047
 10
104.1603949392377
 20
-127.8027072163132
 10
104.0525634505494
 20
-127.8216552414821
 10
104.0525634505494
 20
-127.8216552414821
 10
104.0525634505494
 20
-127.5994465826835
 10
104.0525634505494
 20
-127.5994465826835
 10
104.2513454600483
 20
-127.544669564468
 10
104.2809732812214
 20
-127.4175455410623
 10
104.2809732812214
 20
-127.3245279629605
 10
104.2809732812214
 20
-127.1850015958079
 10
104.1814100216977
 20
-127.0327283753599
 10
103.9488660764433
 20
-127.0327283753599
 10
103.6928954818893
 20
-127.0327283753599
 10
103.6229600435387
 20
-127.2125623596899
 10
103.6229600435387
 20
-127.3331407016737
 10
103.6229600435387
 20
-127.364835580138
 10
103.6229600435387
 20
-127.5064290045817
 10
103.7521511242356
 20
-127.5953124681012
 10
103.7521511242356
 20
-127.5953124681012
 10
103.7332030990667
 20
-127.7710123378489
 10
103.7332030990667
 20
-127.7710123378489
 10
103.7332030990667
 20
-127.7710123378489
 10
102.8867431383408
 20
-127.6504339958652
 10
102.8867431383408
 20
-127.6504339958652
 10
102.8867431383408
 20
-127.6504339958652
 10
102.8867431383408
 20
-126.8718424161987
 10
102.8867431383408
 20
-126.8718424161987
 10
102.8867431383408
 20
-126.8718424161987
 10
103.0813910332574
 20
-126.8718424161987
 10
103.0813910332574
 20
-126.8718424161987
 10
103.0813910332574
 20
-126.8718424161987
 10
103.0813910332574
 20
-127.4874809794129
 10
103.0813910332574
 20
-127.4874809794129
 10
103.0813910332574
 20
-127.4874809794129
 10
103.5044487588461
 20
-127.5529377936326
 10
103.5044487588461
 20
-127.5529377936326
 10
103.4706868230907
 20
-127.4916150939952
 10
103.4303792059132
 20
-127.4092773118977
 10
103.4303792059132
 20
-127.2907660272051
 10
103.4303792059132
 20
-127.0368624899422
 10
103.6167588716653
 20
-126.799839920557
 10
103.9299180512745
 20
-126.799839920557
 10
104.247211345466
 20
-126.799839920557
 10
104.4818223480115
 20
-127.0241156366468
 10
104.4818223480115
 20
-127.3265950202517
 97
        0
 97
        0
 75
     2
 76
     1
 98
        0
  0
ENDBLK
  5
B1
330
AE
100
AcDbEntity
  8
0
100
AcDbBlockEnd
  0
BLOCK
  5
CE
330
CC
100
AcDbEntity
  8
0
100
AcDbBlockBegin
  2
block 6
 70
     0
 10
0.0
 20
0.0
 30
0.0
  3
block 6
  1

  0
SPLINE
  5
D0
330
CC
100
AcDbEntity
  8
_U+30EC_U+30A4_U+30E4_U+30FC 1
370
     0
100
AcDbSpline
210
0.0
220
0.0
230
1.0
 70
    11
 71
     3
 72
    62
 73
    58
 74
     0
 42
0.0000000001
 43
0.0000000001
 12
1.0
 22
0.0
 32
0.0
 13
1.0
 23
0.0
 33
0.0
 40
0.0
 40
0.0
 40
0.0
 40
0.0
 40
1.0
 40
1.0
 40
1.0
 40
2.0
 40
2.0
 40
2.0
 40
3.0
 40
3.0
 40
3.0
 40
4.0
 40
4.0
 40
4.0
 40
5.0
 40
5.0
 40
5.0
 40
6.0
 40
6.0
 40
6.0
 40
7.0
 40
7.0
 40
7.0
 40
8.0
 40
8.0
 40
8.0
 40
9.0
 40
9.0
 40
9.0
 40
10.0
 40
10.0
 40
10.0
 40
11.0
 40
11.0
 40
11.0
 40
12.0
 40
12.0
 40
12.0
 40
13.0
 40
13.0
 40
13.0
 40
14.0
 40
14.0
 40
14.0
 40
15.0
 40
15.0
 40
15.0
 40
16.0
 40
16.0
 40
16.0
 40
17.0
 40
17.0
 40
17.0
 40
18.0
 40
18.0
 40
18.0
 40
19.0
 40
19.0
 40
19.0
 40
19.0
 10
87.5328138344536
 20
-121.8764539625865
 30
0.0
 10
87.43738468951219
 20
-121.8764539625865
 30
0.0
 10
87.21965465484439
 20
-121.8554388801264
 30
0.0
 10
87.09459768872982
 20
-121.6694037239229
 30
0.0
 10
87.02052813579695
 20
-121.5570936111038
 30
0.0
 10
87.01639402121465
 20
-121.4578748611286
 30
0.0
 10
87.01225990663235
 20
-121.3731255121915
 30
0.0
 10
87.01225990663235
 20
-121.3731255121915
 30
0.0
 10
87.23240150813982
 20
-121.3731255121915
 30
0.0
 10
87.23240150813982
 20
-121.3731255121915
 30
0.0
 10
87.23446856543097
 20
-121.4471950651243
 30
0.0
 10
87.24480385188672
 20
-121.6818060676698
 30
0.0
 10
87.52833521032278
 20
-121.6818060676698
 30
0.0
 10
87.66579452018425
 20
-121.6818060676698
 30
0.0
 10
87.81841225018081
 20
-121.6122151388678
 30
0.0
 10
87.81841225018081
 20
-121.3838053081957
 30
0.0
 10
87.81841225018081
 20
-121.2673610807943
 30
0.0
 10
87.78017169029455
 20
-121.2187852344523
 30
0.0
 10
87.74847681183024
 20
-121.187090355988
 30
0.0
 10
87.67440725889738
 20
-121.1130208030551
 30
0.0
 10
87.55796303149593
 20
-121.1002739497597
 30
0.0
 10
87.50318601328046
 20
-121.1002739497597
 30
0.0
 10
87.48389347856306
 20
-121.1002739497597
 30
0.0
 10
87.44806448551645
 20
-121.1023410070508
 30
0.0
 10
87.42050372163446
 20
-121.1064751216331
 30
0.0
 10
87.42050372163446
 20
-121.1064751216331
 30
0.0
 10
87.42050372163446
 20
-120.9118272267165
 30
0.0
 10
87.42050372163446
 20
-120.9118272267165
 30
0.0
 10
87.45874428152074
 20
-120.9183729081385
 30
0.0
 10
87.50077444644079
 20
-120.9204399654296
 30
0.0
 10
87.50732012786276
 20
-120.9204399654296
 30
0.0
 10
87.5727769420825
 20
-120.9204399654296
 30
0.0
 10
87.77155895158143
 20
-120.8990803734211
 30
0.0
 10
87.77155895158143
 20
-120.6624023135844
 30
0.0
 10
87.77155895158143
 20
-120.4846353865455
 30
0.0
 10
87.64064532314192
 20
-120.4295138587815
 30
0.0
 10
87.53040226761394
 20
-120.4295138587815
 30
0.0
 10
87.26616344389527
 20
-120.4295138587815
 30
0.0
 10
87.25755070518214
 20
-120.6624023135844
 30
0.0
 10
87.25341659059984
 20
-120.7340602996776
 30
0.0
 10
87.25341659059984
 20
-120.7340602996776
 30
0.0
 10
87.0501559569701
 20
-120.7340602996776
 30
0.0
 10
87.0501559569701
 20
-120.7340602996776
 30
0.0
 10
87.05876869568323
 20
-120.6093478431116
 30
0.0
 10
87.08632945956522
 20
-120.2327989065737
 30
0.0
 10
87.54314912090936
 20
-120.2327989065737
 30
0.0
 10
87.76742483699913
 20
-120.2327989065737
 30
0.0
 10
88.00858152096662
 20
-120.3599229299795
 30
0.0
 10
88.00858152096662
 20
-120.6558566321624
 30
0.0
 10
88.00858152096662
 20
-120.8422362979144
 30
0.0
 10
87.91349688557371
 20
-120.9245740800119
 30
0.0
 10
87.81393362604999
 20
-120.9858967796494
 30
0.0
 10
87.87525632568745
 20
-121.0134575435314
 30
0.0
 10
88.05715736730863
 20
-121.0937282683377
 30
0.0
 10
88.05715736730863
 20
-121.3710584549003
 30
0.0
 10
88.05715736730863
 20
-121.7093668315518
 30
0.0
 10
87.80979951146769
 20
-121.8764539625865
 30
0.0
 10
87.5328138344536
 20
-121.8764539625865
 30
0.0
  0
HATCH
  5
D1
330
CC
100
AcDbEntity
  8
_U+30EC_U+30A4_U+30E4_U+30FC 1
 62
     7
420
 16777215
100
AcDbHatch
 10
0.0
 20
0.0
 30
0.0
210
0.0
220
0.0
230
1.0
  2
SOLID
 70
     1
 71
     0
 91
        1
 92
        1
 93
        1
 72
     4
 94
        3
 73
     0
 74
     1
 95
       62
 96
       58
 40
0.0
 40
0.0
 40
0.0
 40
0.0
 40
1.0
 40
1.0
 40
1.0
 40
2.0
 40
2.0
 40
2.0
 40
3.0
 40
3.0
 40
3.0
 40
4.0
 40
4.0
 40
4.0
 40
5.0
 40
5.0
 40
5.0
 40
6.0
 40
6.0
 40
6.0
 40
7.0
 40
7.0
 40
7.0
 40
8.0
 40
8.0
 40
8.0
 40
9.0
 40
9.0
 40
9.0
 40
10.0
 40
10.0
 40
10.0
 40
11.0
 40
11.0
 40
11.0
 40
12.0
 40
12.0
 40
12.0
 40
13.0
 40
13.0
 40
13.0
 40
14.0
 40
14.0
 40
14.0
 40
15.0
 40
15.0
 40
15.0
 40
16.0
 40
16.0
 40
16.0
 40
17.0
 40
17.0
 40
17.0
 40
18.0
 40
18.0
 40
18.0
 40
19.0
 40
19.0
 40
19.0
 40
19.0
 10
87.5328138344536
 20
-121.8764539625865
 10
87.43738468951219
 20
-121.8764539625865
 10
87.21965465484439
 20
-121.8554388801264
 10
87.09459768872982
 20
-121.6694037239229
 10
87.02052813579695
 20
-121.5570936111038
 10
87.01639402121465
 20
-121.4578748611286
 10
87.01225990663235
 20
-121.3731255121915
 10
87.01225990663235
 20
-121.3731255121915
 10
87.23240150813982
 20
-121.3731255121915
 10
87.23240150813982
 20
-121.3731255121915
 10
87.23446856543097
 20
-121.4471950651243
 10
87.24480385188672
 20
-121.6818060676698
 10
87.52833521032278
 20
-121.6818060676698
 10
87.66579452018425
 20
-121.6818060676698
 10
87.81841225018081
 20
-121.6122151388678
 10
87.81841225018081
 20
-121.3838053081957
 10
87.81841225018081
 20
-121.2673610807943
 10
87.78017169029455
 20
-121.2187852344523
 10
87.74847681183024
 20
-121.187090355988
 10
87.67440725889738
 20
-121.1130208030551
 10
87.55796303149593
 20
-121.1002739497597
 10
87.50318601328046
 20
-121.1002739497597
 10
87.48389347856306
 20
-121.1002739497597
 10
87.44806448551645
 20
-121.1023410070508
 10
87.42050372163446
 20
-121.1064751216331
 10
87.42050372163446
 20
-121.1064751216331
 10
87.42050372163446
 20
-120.9118272267165
 10
87.42050372163446
 20
-120.9118272267165
 10
87.45874428152074
 20
-120.9183729081385
 10
87.50077444644079
 20
-120.9204399654296
 10
87.50732012786276
 20
-120.9204399654296
 10
87.5727769420825
 20
-120.9204399654296
 10
87.77155895158143
 20
-120.8990803734211
 10
87.77155895158143
 20
-120.6624023135844
 10
87.77155895158143
 20
-120.4846353865455
 10
87.64064532314192
 20
-120.4295138587815
 10
87.53040226761394
 20
-120.4295138587815
 10
87.26616344389527
 20
-120.4295138587815
 10
87.25755070518214
 20
-120.6624023135844
 10
87.25341659059984
 20
-120.7340602996776
 10
87.25341659059984
 20
-120.7340602996776
 10
87.0501559569701
 20
-120.7340602996776
 10
87.0501559569701
 20
-120.7340602996776
 10
87.05876869568323
 20
-120.6093478431116
 10
87.08632945956522
 20
-120.2327989065737
 10
87.54314912090936
 20
-120.2327989065737
 10
87.76742483699913
 20
-120.2327989065737
 10
88.00858152096662
 20
-120.3599229299795
 10
88.00858152096662
 20
-120.6558566321624
 10
88.00858152096662
 20
-120.8422362979144
 10
87.91349688557371
 20
-120.9245740800119
 10
87.81393362604999
 20
-120.9858967796494
 10
87.87525632568745
 20
-121.0134575435314
 10
88.05715736730863
 20
-121.0937282683377
 10
88.05715736730863
 20
-121.3710584549003
 10
88.05715736730863
 20
-121.7093668315518
 10
87.80979951146769
 20
-121.8764539625865
 10
87.5328138344536
 20
-121.8764539625865
 97
        0
 97
        0
 75
     2
 76
     1
 98
        0
  0
ENDBLK
  5
CF
330
CC
100
AcDbEntity
  8
0
100
AcDbBlockEnd
  0
BLOCK
  5
E2
330
E0
100
AcDbEntity
  8
0
100
AcDbBlockBegin
  2
block 7
 70
     0
 10
0.0
 20
0.0
 30
0.0
  3
block 7
  1

  0
SPLINE
  5
E4
330
E0
100
AcDbEntity
  8
_U+30EC_U+30A4_U+30E4_U+30FC 1
370
     0
100
AcDbSpline
210
0.0
220
0.0
230
1.0
 70
    11
 71
     3
 72
    44
 73
    40
 74
     0
 42
0.0000000001
 43
0.0000000001
 12
1.0
 22
0.0
 32
0.0
 13
1.0
 23
0.0
 33
0.0
 40
0.0
 40
0.0
 40
0.0
 40
0.0
 40
1.0
 40
1.0
 40
1.0
 40
2.0
 40
2.0
 40
2.0
 40
3.0
 40
3.0
 40
3.0
 40
4.0
 40
4.0
 40
4.0
 40
5.0
 40
5.0
 40
5.0
 40
6.0
 40
6.0
 40
6.0
 40
7.0
 40
7.0
 40
7.0
 40
8.0
 40
8.0
 40
8.0
 40
9.0
 40
9.0
 40
9.0
 40
10.0
 40
10.0
 40
10.0
 40
11.0
 40
11.0
 40
11.0
 40
12.0
 40
12.0
 40
12.0
 40
13.0
 40
13.0
 40
13.0
 40
13.0
 10
87.16918400598549
 20
-134.9643717110506
 30
0.0
 10
86.95145397131769
 20
-135.1231906129206
 30
0.0
 10
86.85843639321595
 20
-135.1972601658535
 30
0.0
 10
86.80951603732541
 20
-135.3409206475884
 30
0.0
 10
86.80951603732541
 20
-135.3409206475884
 30
0.0
 10
87.58810761699186
 20
-135.3409206475884
 30
0.0
 10
87.58810761699186
 20
-135.3409206475884
 30
0.0
 10
87.58810761699186
 20
-135.3409206475884
 30
0.0
 10
87.58810761699186
 20
-135.5462483385093
 30
0.0
 10
87.58810761699186
 20
-135.5462483385093
 30
0.0
 10
87.58810761699186
 20
-135.5462483385093
 30
0.0
 10
86.56009112419332
 20
-135.5462483385093
 30
0.0
 10
86.56009112419332
 20
-135.5462483385093
 30
0.0
 10
86.59178600265761
 20
-135.1886474271404
 30
0.0
 10
86.65724281687736
 20
-135.1104437596252
 30
0.0
 10
87.0424044921283
 20
-134.8120984906026
 30
0.0
 10
87.29837508668236
 20
-134.6133164811036
 30
0.0
 10
87.3638319009021
 20
-134.5454481000442
 30
0.0
 10
87.3638319009021
 20
-134.4079887901827
 30
0.0
 10
87.3638319009021
 20
-134.2894775054901
 30
0.0
 10
87.29182940526039
 20
-134.1585638770507
 30
0.0
 10
87.09511445305262
 20
-134.1585638770507
 30
0.0
 10
86.83500974391625
 20
-134.1585638770507
 30
0.0
 10
86.82639700520313
 20
-134.3890407650138
 30
0.0
 10
86.82226289062082
 20
-134.5054849924153
 30
0.0
 10
86.82226289062082
 20
-134.5054849924153
 30
0.0
 10
86.59798717453106
 20
-134.5054849924153
 30
0.0
 10
86.59798717453106
 20
-134.5054849924153
 30
0.0
 10
86.60659991324418
 20
-134.3783609690096
 30
0.0
 10
86.61727970924846
 20
-134.266395365739
 30
0.0
 10
86.69755043405479
 20
-134.1478840810464
 30
0.0
 10
86.80744898003425
 20
-133.9869981218852
 30
0.0
 10
86.99382864578627
 20
-133.9532361861297
 30
0.0
 10
87.10992836363918
 20
-133.9532361861297
 30
0.0
 10
87.3872585502018
 20
-133.9532361861297
 30
0.0
 10
87.59465329841385
 20
-134.1372042850421
 30
0.0
 10
87.59465329841385
 20
-134.4100558474739
 30
0.0
 10
87.59465329841385
 20
-134.6388101876945
 30
0.0
 10
87.4782090710124
 20
-134.7380289376697
 30
0.0
 10
87.16918400598549
 20
-134.9643717110506
 30
0.0
  0
HATCH
  5
E5
330
E0
100
AcDbEntity
  8
_U+30EC_U+30A4_U+30E4_U+30FC 1
 62
     7
420
 16777215
100
AcDbHatch
 10
0.0
 20
0.0
 30
0.0
210
0.0
220
0.0
230
1.0
  2
SOLID
 70
     1
 71
     0
 91
        1
 92
        1
 93
        1
 72
     4
 94
        3
 73
     0
 74
     1
 95
       44
 96
       40
 40
0.0
 40
0.0
 40
0.0
 40
0.0
 40
1.0
 40
1.0
 40
1.0
 40
2.0
 40
2.0
 40
2.0
 40
3.0
 40
3.0
 40
3.0
 40
4.0
 40
4.0
 40
4.0
 40
5.0
 40
5.0
 40
5.0
 40
6.0
 40
6.0
 40
6.0
 40
7.0
 40
7.0
 40
7.0
 40
8.0
 40
8.0
 40
8.0
 40
9.0
 40
9.0
 40
9.0
 40
10.0
 40
10.0
 40
10.0
 40
11.0
 40
11.0
 40
11.0
 40
12.0
 40
12.0
 40
12.0
 40
13.0
 40
13.0
 40
13.0
 40
13.0
 10
87.16918400598549
 20
-134.9643717110506
 10
86.95145397131769
 20
-135.1231906129206
 10
86.85843639321595
 20
-135.1972601658535
 10
86.80951603732541
 20
-135.3409206475884
 10
86.80951603732541
 20
-135.3409206475884
 10
87.58810761699186
 20
-135.3409206475884
 10
87.58810761699186
 20
-135.3409206475884
 10
87.58810761699186
 20
-135.3409206475884
 10
87.58810761699186
 20
-135.5462483385093
 10
87.58810761699186
 20
-135.5462483385093
 10
87.58810761699186
 20
-135.5462483385093
 10
86.56009112419332
 20
-135.5462483385093
 10
86.56009112419332
 20
-135.5462483385093
 10
86.59178600265761
 20
-135.1886474271404
 10
86.65724281687736
 20
-135.1104437596252
 10
87.0424044921283
 20
-134.8120984906026
 10
87.29837508668236
 20
-134.6133164811036
 10
87.3638319009021
 20
-134.5454481000442
 10
87.3638319009021
 20
-134.4079887901827
 10
87.3638319009021
 20
-134.2894775054901
 10
87.29182940526039
 20
-134.1585638770507
 10
87.09511445305262
 20
-134.1585638770507
 10
86.83500974391625
 20
-134.1585638770507
 10
86.82639700520313
 20
-134.3890407650138
 10
86.82226289062082
 20
-134.5054849924153
 10
86.82226289062082
 20
-134.5054849924153
 10
86.59798717453106
 20
-134.5054849924153
 10
86.59798717453106
 20
-134.5054849924153
 10
86.60659991324418
 20
-134.3783609690096
 10
86.61727970924846
 20
-134.266395365739
 10
86.69755043405479
 20
-134.1478840810464
 10
86.80744898003425
 20
-133.9869981218852
 10
86.99382864578627
 20
-133.9532361861297
 10
87.10992836363918
 20
-133.9532361861297
 10
87.3872585502018
 20
-133.9532361861297
 10
87.59465329841385
 20
-134.1372042850421
 10
87.59465329841385
 20
-134.4100558474739
 10
87.59465329841385
 20
-134.6388101876945
 10
87.4782090710124
 20
-134.7380289376697
 10
87.16918400598549
 20
-134.9643717110506
 97
        0
 97
        0
 75
     2
 76
     1
 98
        0
  0
SPLINE
  5
E6
330
E0
100
AcDbEntity
  8
_U+30EC_U+30A4_U+30E4_U+30FC 1
370
     0
100
AcDbSpline
210
0.0
220
0.0
230
1.0
 70
    11
 71
     3
 72
    62
 73
    58
 74
     0
 42
0.0000000001
 43
0.0000000001
 12
1.0
 22
0.0
 32
0.0
 13
1.0
 23
0.0
 33
0.0
 40
0.0
 40
0.0
 40
0.0
 40
0.0
 40
1.0
 40
1.0
 40
1.0
 40
2.0
 40
2.0
 40
2.0
 40
3.0
 40
3.0
 40
3.0
 40
4.0
 40
4.0
 40
4.0
 40
5.0
 40
5.0
 40
5.0
 40
6.0
 40
6.0
 40
6.0
 40
7.0
 40
7.0
 40
7.0
 40
8.0
 40
8.0
 40
8.0
 40
9.0
 40
9.0
 40
9.0
 40
10.0
 40
10.0
 40
10.0
 40
11.0
 40
11.0
 40
11.0
 40
12.0
 40
12.0
 40
12.0
 40
13.0
 40
13.0
 40
13.0
 40
14.0
 40
14.0
 40
14.0
 40
15.0
 40
15.0
 40
15.0
 40
16.0
 40
16.0
 40
16.0
 40
17.0
 40
17.0
 40
17.0
 40
18.0
 40
18.0
 40
18.0
 40
19.0
 40
19.0
 40
19.0
 40
19.0
 10
88.24474281648048
 20
-135.5968912421424
 30
0.0
 10
88.14931367153906
 20
-135.5968912421424
 30
0.0
 10
87.93158363687128
 20
-135.5758761596824
 30
0.0
 10
87.80652667075671
 20
-135.3898410034789
 30
0.0
 10
87.73245711782383
 20
-135.2775308906598
 30
0.0
 10
87.72832300324153
 20
-135.1783121406846
 30
0.0
 10
87.72418888865923
 20
-135.0935627917474
 30
0.0
 10
87.72418888865923
 20
-135.0935627917474
 30
0.0
 10
87.9443304901667
 20
-135.0935627917474
 30
0.0
 10
87.9443304901667
 20
-135.0935627917474
 30
0.0
 10
87.94639754745785
 20
-135.1676323446803
 30
0.0
 10
87.9567328339136
 20
-135.4022433472258
 30
0.0
 10
88.24026419234966
 20
-135.4022433472258
 30
0.0
 10
88.37772350221113
 20
-135.4022433472258
 30
0.0
 10
88.53034123220769
 20
-135.3326524184238
 30
0.0
 10
88.53034123220769
 20
-135.1042425877517
 30
0.0
 10
88.53034123220769
 20
-134.9877983603503
 30
0.0
 10
88.49210067232143
 20
-134.9392225140083
 30
0.0
 10
88.46040579385712
 20
-134.907527635544
 30
0.0
 10
88.38633624092425
 20
-134.8334580826111
 30
0.0
 10
88.2698920135228
 20
-134.8207112293157
 30
0.0
 10
88.21511499530733
 20
-134.8207112293157
 30
0.0
 10
88.19582246058994
 20
-134.8207112293157
 30
0.0
 10
88.15999346754334
 20
-134.8227782866068
 30
0.0
 10
88.13243270366134
 20
-134.8269124011891
 30
0.0
 10
88.13243270366134
 20
-134.8269124011891
 30
0.0
 10
88.13243270366134
 20
-134.6322645062725
 30
0.0
 10
88.13243270366134
 20
-134.6322645062725
 30
0.0
 10
88.17067326354761
 20
-134.6388101876945
 30
0.0
 10
88.21270342846766
 20
-134.6408772449856
 30
0.0
 10
88.21924910988963
 20
-134.6408772449856
 30
0.0
 10
88.28470592410939
 20
-134.6408772449856
 30
0.0
 10
88.4834879336083
 20
-134.6195176529771
 30
0.0
 10
88.4834879336083
 20
-134.3828395931404
 30
0.0
 10
88.4834879336083
 20
-134.2050726661015
 30
0.0
 10
88.3525743051688
 20
-134.1499511383375
 30
0.0
 10
88.24233124964081
 20
-134.1499511383375
 30
0.0
 10
87.97809242592214
 20
-134.1499511383375
 30
0.0
 10
87.96947968720902
 20
-134.3828395931404
 30
0.0
 10
87.96534557262672
 20
-134.4544975792336
 30
0.0
 10
87.96534557262672
 20
-134.4544975792336
 30
0.0
 10
87.76208493899698
 20
-134.4544975792336
 30
0.0
 10
87.76208493899698
 20
-134.4544975792336
 30
0.0
 10
87.7706976777101
 20
-134.3297851226676
 30
0.0
 10
87.79825844159211
 20
-133.9532361861297
 30
0.0
 10
88.25507810293624
 20
-133.9532361861297
 30
0.0
 10
88.479353819026
 20
-133.9532361861297
 30
0.0
 10
88.72051050299349
 20
-134.0803602095355
 30
0.0
 10
88.72051050299349
 20
-134.3762939117184
 30
0.0
 10
88.72051050299349
 20
-134.5626735774705
 30
0.0
 10
88.6254258676006
 20
-134.6450113595679
 30
0.0
 10
88.52586260807688
 20
-134.7063340592054
 30
0.0
 10
88.58718530771432
 20
-134.7338948230874
 30
0.0
 10
88.76908634933551
 20
-134.8141655478937
 30
0.0
 10
88.76908634933551
 20
-135.0914957344563
 30
0.0
 10
88.76908634933551
 20
-135.4298041111078
 30
0.0
 10
88.52172849349458
 20
-135.5968912421424
 30
0.0
 10
88.24474281648048
 20
-135.5968912421424
 30
0.0
  0
HATCH
  5
E7
330
E0
100
AcDbEntity
  8
_U+30EC_U+30A4_U+30E4_U+30FC 1
 62
     7
420
 16777215
100
AcDbHatch
 10
0.0
 20
0.0
 30
0.0
210
0.0
220
0.0
230
1.0
  2
SOLID
 70
     1
 71
     0
 91
        1
 92
        1
 93
        1
 72
     4
 94
        3
 73
     0
 74
     1
 95
       62
 96
       58
 40
0.0
 40
0.0
 40
0.0
 40
0.0
 40
1.0
 40
1.0
 40
1.0
 40
2.0
 40
2.0
 40
2.0
 40
3.0
 40
3.0
 40
3.0
 40
4.0
 40
4.0
 40
4.0
 40
5.0
 40
5.0
 40
5.0
 40
6.0
 40
6.0
 40
6.0
 40
7.0
 40
7.0
 40
7.0
 40
8.0
 40
8.0
 40
8.0
 40
9.0
 40
9.0
 40
9.0
 40
10.0
 40
10.0
 40
10.0
 40
11.0
 40
11.0
 40
11.0
 40
12.0
 40
12.0
 40
12.0
 40
13.0
 40
13.0
 40
13.0
 40
14.0
 40
14.0
 40
14.0
 40
15.0
 40
15.0
 40
15.0
 40
16.0
 40
16.0
 40
16.0
 40
17.0
 40
17.0
 40
17.0
 40
18.0
 40
18.0
 40
18.0
 40
19.0
 40
19.0
 40
19.0
 40
19.0
 10
88.24474281648048
 20
-135.5968912421424
 10
88.14931367153906
 20
-135.5968912421424
 10
87.93158363687128
 20
-135.5758761596824
 10
87.80652667075671
 20
-135.3898410034789
 10
87.73245711782383
 20
-135.2775308906598
 10
87.72832300324153
 20
-135.1783121406846
 10
87.72418888865923
 20
-135.0935627917474
 10
87.72418888865923
 20
-135.0935627917474
 10
87.9443304901667
 20
-135.0935627917474
 10
87.9443304901667
 20
-135.0935627917474
 10
87.94639754745785
 20
-135.1676323446803
 10
87.9567328339136
 20
-135.4022433472258
 10
88.24026419234966
 20
-135.4022433472258
 10
88.37772350221113
 20
-135.4022433472258
 10
88.53034123220769
 20
-135.3326524184238
 10
88.53034123220769
 20
-135.1042425877517
 10
88.53034123220769
 20
-134.9877983603503
 10
88.49210067232143
 20
-134.9392225140083
 10
88.46040579385712
 20
-134.907527635544
 10
88.38633624092425
 20
-134.8334580826111
 10
88.2698920135228
 20
-134.8207112293157
 10
88.21511499530733
 20
-134.8207112293157
 10
88.19582246058994
 20
-134.8207112293157
 10
88.15999346754334
 20
-134.8227782866068
 10
88.13243270366134
 20
-134.8269124011891
 10
88.13243270366134
 20
-134.8269124011891
 10
88.13243270366134
 20
-134.6322645062725
 10
88.13243270366134
 20
-134.6322645062725
 10
88.17067326354761
 20
-134.6388101876945
 10
88.21270342846766
 20
-134.6408772449856
 10
88.21924910988963
 20
-134.6408772449856
 10
88.28470592410939
 20
-134.6408772449856
 10
88.4834879336083
 20
-134.6195176529771
 10
88.4834879336083
 20
-134.3828395931404
 10
88.4834879336083
 20
-134.2050726661015
 10
88.3525743051688
 20
-134.1499511383375
 10
88.24233124964081
 20
-134.1499511383375
 10
87.97809242592214
 20
-134.1499511383375
 10
87.96947968720902
 20
-134.3828395931404
 10
87.96534557262672
 20
-134.4544975792336
 10
87.96534557262672
 20
-134.4544975792336
 10
87.76208493899698
 20
-134.4544975792336
 10
87.76208493899698
 20
-134.4544975792336
 10
87.7706976777101
 20
-134.3297851226676
 10
87.79825844159211
 20
-133.9532361861297
 10
88.25507810293624
 20
-133.9532361861297
 10
88.479353819026
 20
-133.9532361861297
 10
88.72051050299349
 20
-134.0803602095355
 10
88.72051050299349
 20
-134.3762939117184
 10
88.72051050299349
 20
-134.5626735774705
 10
88.6254258676006
 20
-134.6450113595679
 10
88.52586260807688
 20
-134.7063340592054
 10
88.58718530771432
 20
-134.7338948230874
 10
88.76908634933551
 20
-134.8141655478937
 10
88.76908634933551
 20
-135.0914957344563
 10
88.76908634933551
 20
-135.4298041111078
 10
88.52172849349458
 20
-135.5968912421424
 10
88.24474281648048
 20
-135.5968912421424
 97
        0
 97
        0
 75
     2
 76
     1
 98
        0
  0
ENDBLK
  5
E3
330
E0
100
AcDbEntity
  8
0
100
AcDbBlockEnd
  0
ENDSEC
  0
SECTION
  2
ENTITIES
  0
POLYLINE
  5
41
330
1F
100
AcDbEntity
  8
_U+30EC_U+30A4_U+30E4_U+30FC 1
370
     0
100
AcDb2dPolyline
 66
     1
 10
0.0
 20
0.0
 30
0.0
  0
VERTEX
  5
42
330
41
100
AcDbEntity
  8
_U+30EC_U+30A4_U+30E4_U+30FC 1
370
     0
100
AcDbVertex
100
AcDb2dVertex
 10
88.89689328760686
 20
-127.358986634827
 30
0.0
  0
VERTEX
  5
43
330
41
100
AcDbEntity
  8
_U+30EC_U+30A4_U+30E4_U+30FC 1
370
     0
100
AcDbVertex
100
AcDb2dVertex
 10
85.99335586168228
 20
-127.358986634827
 30
0.0
  0
VERTEX
  5
44
330
41
100
AcDbEntity
  8
_U+30EC_U+30A4_U+30E4_U+30FC 1
370
     0
100
AcDbVertex
100
AcDb2dVertex
 10
85.99335586168228
 20
-124.4020385800105
 30
0.0
  0
VERTEX
  5
45
330
41
100
AcDbEntity
  8
_U+30EC_U+30A4_U+30E4_U+30FC 1
370
     0
100
AcDbVertex
100
AcDb2dVertex
 10
88.89689328760686
 20
-124.4020385800105
 30
0.0
  0
VERTEX
  5
46
330
41
100
AcDbEntity
  8
_U+30EC_U+30A4_U+30E4_U+30FC 1
370
     0
100
AcDbVertex
100
AcDb2dVertex
 10
88.89689328760686
 20
-127.358986634827
 30
0.0
  0
SEQEND
  5
48
330
41
100
AcDbEntity
  8
_U+30EC_U+30A4_U+30E4_U+30FC 1
370
     0
  0
HATCH
  5
47
330
1F
100
AcDbEntity
  8
_U+30EC_U+30A4_U+30E4_U+30FC 1
 62
   253
420
 11711154
100
AcDbHatch
 10
0.0
 20
0.0
 30
0.0
210
0.0
220
0.0
230
1.0
  2
SOLID
 70
     1
 71
     0
 91
        1
 92
        1
 93
        4
 72
     1
 10
88.89689328760686
 20
-127.358986634827
 11
85.99335586168228
 21
-127.358986634827
 72
     1
 10
85.99335586168228
 20
-127.358986634827
 11
85.99335586168228
 21
-124.4020385800105
 72
     1
 10
85.99335586168228
 20
-124.4020385800105
 11
88.89689328760686
 21
-124.4020385800105
 72
     1
 10
88.89689328760686
 20
-124.4020385800105
 11
88.89689328760686
 21
-127.358986634827
 97
        0
 75
     2
 76
     1
 98
        0
  0
POLYLINE
  5
49
330
1F
100
AcDbEntity
  8
_U+30EC_U+30A4_U+30E4_U+30FC 1
370
     0
100
AcDb2dPolyline
 66
     1
 10
0.0
 20
0.0
 30
0.0
  0
VERTEX
  5
4A
330
49
100
AcDbEntity
  8
_U+30EC_U+30A4_U+30E4_U+30FC 1
370
     0
100
AcDbVertex
100
AcDb2dVertex
 10
87.87542525811112
 20
-132.4129516335636
 30
0.0
  0
VERTEX
  5
4B
330
49
100
AcDbEntity
  8
_U+30EC_U+30A4_U+30E4_U+30FC 1
370
     0
100
AcDbVertex
100
AcDb2dVertex
 10
86.96144861476195
 20
-132.4129516335636
 30
0.0
  0
VERTEX
  5
4C
330
49
100
AcDbEntity
  8
_U+30EC_U+30A4_U+30E4_U+30FC 1
370
     0
100
AcDbVertex
100
AcDb2dVertex
 10
86.96144861476195
 20
-126.1225358018028
 30
0.0
  0
VERTEX
  5
4D
330
49
100
AcDbEntity
  8
_U+30EC_U+30A4_U+30E4_U+30FC 1
370
     0
100
AcDbVertex
100
AcDb2dVertex
 10
87.87542525811112
 20
-126.1225358018028
 30
0.0
  0
VERTEX
  5
4E
330
49
100
AcDbEntity
  8
_U+30EC_U+30A4_U+30E4_U+30FC 1
370
     0
100
AcDbVertex
100
AcDb2dVertex
 10
87.87542525811112
 20
-132.4129516335636
 30
0.0
  0
SEQEND
  5
50
330
49
100
AcDbEntity
  8
_U+30EC_U+30A4_U+30E4_U+30FC 1
370
     0
  0
HATCH
  5
4F
330
1F
100
AcDbEntity
  8
_U+30EC_U+30A4_U+30E4_U+30FC 1
 62
   253
420
 11711154
100
AcDbHatch
 10
0.0
 20
0.0
 30
0.0
210
0.0
220
0.0
230
1.0
  2
SOLID
 70
     1
 71
     0
 91
        1
 92
        1
 93
        4
 72
     1
 10
87.87542525811112
 20
-132.4129516335636
 11
86.96144861476195
 21
-132.4129516335636
 72
     1
 10
86.96144861476195
 20
-132.4129516335636
 11
86.96144861476195
 21
-126.1225358018028
 72
     1
 10
86.96144861476195
 20
-126.1225358018028
 11
87.87542525811112
 21
-126.1225358018028
 72
     1
 10
87.87542525811112
 20
-126.1225358018028
 11
87.87542525811112
 21
-132.4129516335636
 97
        0
 75
     2
 76
     1
 98
        0
  0
POLYLINE
  5
51
330
1F
100
AcDbEntity
  8
_U+30EC_U+30A4_U+30E4_U+30FC 1
370
     0
100
AcDb2dPolyline
 66
     1
 10
0.0
 20
0.0
 30
0.0
  0
VERTEX
  5
52
330
51
100
AcDbEntity
  8
_U+30EC_U+30A4_U+30E4_U+30FC 1
370
     0
100
AcDbVertex
100
AcDb2dVertex
 10
98.95105969777038
 20
-132.7891538556917
 30
0.0
  0
VERTEX
  5
53
330
51
100
AcDbEntity
  8
_U+30EC_U+30A4_U+30E4_U+30FC 1
370
     0
100
AcDbVertex
100
AcDb2dVertex
 10
75.93918945151876
 20
-132.7891538556917
 30
0.0
  0
VERTEX
  5
54
330
51
100
AcDbEntity
  8
_U+30EC_U+30A4_U+30E4_U+30FC 1
370
     0
100
AcDbVertex
100
AcDb2dVertex
 10
75.93918945151876
 20
-131.9289052447956
 30
0.0
  0
VERTEX
  5
55
330
51
100
AcDbEntity
  8
_U+30EC_U+30A4_U+30E4_U+30FC 1
370
     0
100
AcDbVertex
100
AcDb2dVertex
 10
98.95105969777038
 20
-131.9289052447956
 30
0.0
  0
VERTEX
  5
56
330
51
100
AcDbEntity
  8
_U+30EC_U+30A4_U+30E4_U+30FC 1
370
     0
100
AcDbVertex
100
AcDb2dVertex
 10
98.95105969777038
 20
-132.7891538556917
 30
0.0
  0
SEQEND
  5
58
330
51
100
AcDbEntity
  8
_U+30EC_U+30A4_U+30E4_U+30FC 1
370
     0
  0
HATCH
  5
57
330
1F
100
AcDbEntity
  8
_U+30EC_U+30A4_U+30E4_U+30FC 1
 62
   253
420
 11711154
100
AcDbHatch
 10
0.0
 20
0.0
 30
0.0
210
0.0
220
0.0
230
1.0
  2
SOLID
 70
     1
 71
     0
 91
        1
 92
        1
 93
        4
 72
     1
 10
98.95105969777038
 20
-132.7891538556917
 11
75.93918945151876
 21
-132.7891538556917
 72
     1
 10
75.93918945151876
 20
-132.7891538556917
 11
75.93918945151876
 21
-131.9289052447956
 72
     1
 10
75.93918945151876
 20
-131.9289052447956
 11
98.95105969777038
 21
-131.9289052447956
 72
     1
 10
98.95105969777038
 20
-131.9289052447956
 11
98.95105969777038
 21
-132.7891538556917
 97
        0
 75
     2
 76
     1
 98
        0
  0
SPLINE
  5
59
330
1F
100
AcDbEntity
  8
_U+30EC_U+30A4_U+30E4_U+30FC 1
 62
     7
420
 16777215
370
     9
100
AcDbSpline
210
0.0
220
0.0
230
1.0
 70
    11
 71
     3
 72
    17
 73
    13
 74
     0
 42
0.0000000001
 43
0.0000000001
 12
1.0
 22
0.0
 32
0.0
 13
1.0
 23
0.0
 33
0.0
 40
0.0
 40
0.0
 40
0.0
 40
0.0
 40
1.0
 40
1.0
 40
1.0
 40
2.0
 40
2.0
 40
2.0
 40
3.0
 40
3.0
 40
3.0
 40
4.0
 40
4.0
 40
4.0
 40
4.0
 10
101.7484815708466
 20
-127.3748263570452
 30
0.0
 10
101.7484815708466
 20
-127.31972246817
 30
0.0
 10
101.7036787942119
 20
-127.2749196904036
 30
0.0
 10
101.6485749067288
 20
-127.2749196904036
 30
0.0
 10
101.5934357414689
 20
-127.2749196904036
 30
0.0
 10
101.548668242611
 20
-127.31972246817
 30
0.0
 10
101.548668242611
 20
-127.3748263570452
 30
0.0
 10
101.548668242611
 20
-127.4306358014756
 30
0.0
 10
101.5934357414689
 20
-127.4754385792424
 30
0.0
 10
101.6485749067288
 20
-127.4754385792424
 30
0.0
 10
101.7036787942119
 20
-127.4754385792424
 30
0.0
 10
101.7484815708466
 20
-127.4306358014756
 30
0.0
 10
101.7484815708466
 20
-127.3748263570452
 30
0.0
  0
POLYLINE
  5
5A
330
1F
100
AcDbEntity
  8
_U+30EC_U+30A4_U+30E4_U+30FC 1
 62
     7
420
 16777215
370
     9
100
AcDb2dPolyline
 66
     1
 10
0.0
 20
0.0
 30
0.0
  0
VERTEX
  5
5B
330
5A
100
AcDbEntity
  8
_U+30EC_U+30A4_U+30E4_U+30FC 1
 62
     7
420
 16777215
370
     9
100
AcDbVertex
100
AcDb2dVertex
 10
101.6485749067288
 20
-127.2749196904036
 30
0.0
  0
VERTEX
  5
5C
330
5A
100
AcDbEntity
  8
_U+30EC_U+30A4_U+30E4_U+30FC 1
 62
     7
420
 16777215
370
     9
100
AcDbVertex
100
AcDb2dVertex
 10
101.6485749067288
 20
-124.2749327467092
 30
0.0
  0
SEQEND
  5
5D
330
5A
100
AcDbEntity
  8
_U+30EC_U+30A4_U+30E4_U+30FC 1
 62
     7
420
 16777215
370
     9
  0
POLYLINE
  5
5E
330
1F
100
AcDbEntity
  8
_U+30EC_U+30A4_U+30E4_U+30FC 1
 62
     7
420
 16777215
370
     9
100
AcDb2dPolyline
 66
     1
 10
0.0
 20
0.0
 30
0.0
  0
VERTEX
  5
5F
330
5E
100
AcDbEntity
  8
_U+30EC_U+30A4_U+30E4_U+30FC 1
 62
     7
420
 16777215
370
     9
100
AcDbVertex
100
AcDb2dVertex
 10
90.46580185869178
 20
-127.3748263570452
 30
0.0
  0
VERTEX
  5
60
330
5E
100
AcDbEntity
  8
_U+30EC_U+30A4_U+30E4_U+30FC 1
 62
     7
420
 16777215
370
     9
100
AcDbVertex
100
AcDb2dVertex
 10
102.3620679440816
 20
-127.3748263570452
 30
0.0
  0
SEQEND
  5
61
330
5E
100
AcDbEntity
  8
_U+30EC_U+30A4_U+30E4_U+30FC 1
 62
     7
420
 16777215
370
     9
  0
SPLINE
  5
62
330
1F
100
AcDbEntity
  8
_U+30EC_U+30A4_U+30E4_U+30FC 1
 62
     7
420
 16777215
370
     9
100
AcDbSpline
210
0.0
220
0.0
230
1.0
 70
    11
 71
     3
 72
    17
 73
    13
 74
     0
 42
0.0000000001
 43
0.0000000001
 12
1.0
 22
0.0
 32
0.0
 13
1.0
 23
0.0
 33
0.0
 40
0.0
 40
0.0
 40
0.0
 40
0.0
 40
1.0
 40
1.0
 40
1.0
 40
2.0
 40
2.0
 40
2.0
 40
3.0
 40
3.0
 40
3.0
 40
4.0
 40
4.0
 40
4.0
 40
4.0
 10
101.7484815708466
 20
-124.3748394133508
 30
0.0
 10
101.7484815708466
 20
-124.3197002466978
 30
0.0
 10
101.7036787942119
 20
-124.2749327467092
 30
0.0
 10
101.6485749067288
 20
-124.2749327467092
 30
0.0
 10
101.5934357414689
 20
-124.2749327467092
 30
0.0
 10
101.548668242611
 20
-124.3197002466978
 30
0.0
 10
101.548668242611
 20
-124.3748394133508
 30
0.0
 10
101.548668242611
 20
-124.4306488577813
 30
0.0
 10
101.5934357414689
 20
-124.4754516355477
 30
0.0
 10
101.6485749067288
 20
-124.4754516355477
 30
0.0
 10
101.7036787942119
 20
-124.4754516355477
 30
0.0
 10
101.7484815708466
 20
-124.4306488577813
 30
0.0
 10
101.7484815708466
 20
-124.3748394133508
 30
0.0
  0
POLYLINE
  5
63
330
1F
100
AcDbEntity
  8
_U+30EC_U+30A4_U+30E4_U+30FC 1
 62
     7
420
 16777215
370
     9
100
AcDb2dPolyline
 66
     1
 10
0.0
 20
0.0
 30
0.0
  0
VERTEX
  5
64
330
63
100
AcDbEntity
  8
_U+30EC_U+30A4_U+30E4_U+30FC 1
 62
     7
420
 16777215
370
     9
100
AcDbVertex
100
AcDb2dVertex
 10
90.46580185869178
 20
-124.3748394133508
 30
0.0
  0
VERTEX
  5
65
330
63
100
AcDbEntity
  8
_U+30EC_U+30A4_U+30E4_U+30FC 1
 62
     7
420
 16777215
370
     9
100
AcDbVertex
100
AcDb2dVertex
 10
106.0638003496426
 20
-124.3748394133508
 30
0.0
  0
SEQEND
  5
66
330
63
100
AcDbEntity
  8
_U+30EC_U+30A4_U+30E4_U+30FC 1
 62
     7
420
 16777215
370
     9
  0
INSERT
  5
68
330
1F
100
AcDbEntity
  8
_U+30EC_U+30A4_U+30E4_U+30FC 1
100
AcDbBlockReference
  2
block 2
 10
0.0
 20
0.0
 30
0.0
  0
SPLINE
  5
6D
330
1F
100
AcDbEntity
  8
_U+30EC_U+30A4_U+30E4_U+30FC 1
 62
     7
420
 16777215
370
     9
100
AcDbSpline
210
0.0
220
0.0
230
1.0
 70
    11
 71
     3
 72
    17
 73
    13
 74
     0
 42
0.0000000001
 43
0.0000000001
 12
1.0
 22
0.0
 32
0.0
 13
1.0
 23
0.0
 33
0.0
 40
0.0
 40
0.0
 40
0.0
 40
0.0
 40
1.0
 40
1.0
 40
1.0
 40
2.0
 40
2.0
 40
2.0
 40
3.0
 40
3.0
 40
3.0
 40
4.0
 40
4.0
 40
4.0
 40
4.0
 10
101.7484815708466
 20
-131.76422857817
 30
0.0
 10
101.7484815708466
 20
-131.7090894115169
 30
0.0
 10
101.7036787942119
 20
-131.6643219115284
 30
0.0
 10
101.6485749067288
 20
-131.6643219115284
 30
0.0
 10
101.5934357414689
 20
-131.6643219115284
 30
0.0
 10
101.548668242611
 20
-131.7090894115169
 30
0.0
 10
101.548668242611
 20
-131.76422857817
 30
0.0
 10
101.548668242611
 20
-131.8200380226005
 30
0.0
 10
101.5934357414689
 20
-131.8648055225897
 30
0.0
 10
101.6485749067288
 20
-131.8648055225897
 30
0.0
 10
101.7036787942119
 20
-131.8648055225897
 30
0.0
 10
101.7484815708466
 20
-131.8200380226005
 30
0.0
 10
101.7484815708466
 20
-131.76422857817
 30
0.0
  0
POLYLINE
  5
6E
330
1F
100
AcDbEntity
  8
_U+30EC_U+30A4_U+30E4_U+30FC 1
 62
     7
420
 16777215
370
     9
100
AcDb2dPolyline
 66
     1
 10
0.0
 20
0.0
 30
0.0
  0
VERTEX
  5
6F
330
6E
100
AcDbEntity
  8
_U+30EC_U+30A4_U+30E4_U+30FC 1
 62
     7
420
 16777215
370
     9
100
AcDbVertex
100
AcDb2dVertex
 10
101.6485749067288
 20
-131.6643219115284
 30
0.0
  0
VERTEX
  5
70
330
6E
100
AcDbEntity
  8
_U+30EC_U+30A4_U+30E4_U+30FC 1
 62
     7
420
 16777215
370
     9
100
AcDbVertex
100
AcDb2dVertex
 10
101.6485749067288
 20
-127.4096102459255
 30
0.0
  0
SEQEND
  5
71
330
6E
100
AcDbEntity
  8
_U+30EC_U+30A4_U+30E4_U+30FC 1
 62
     7
420
 16777215
370
     9
  0
POLYLINE
  5
72
330
1F
100
AcDbEntity
  8
_U+30EC_U+30A4_U+30E4_U+30FC 1
 62
     7
420
 16777215
370
     9
100
AcDb2dPolyline
 66
     1
 10
0.0
 20
0.0
 30
0.0
  0
VERTEX
  5
73
330
72
100
AcDbEntity
  8
_U+30EC_U+30A4_U+30E4_U+30FC 1
 62
     7
420
 16777215
370
     9
100
AcDbVertex
100
AcDb2dVertex
 10
100.1885360860639
 20
-131.76422857817
 30
0.0
  0
VERTEX
  5
74
330
72
100
AcDbEntity
  8
_U+30EC_U+30A4_U+30E4_U+30FC 1
 62
     7
420
 16777215
370
     9
100
AcDbVertex
100
AcDb2dVertex
 10
105.9749356296875
 20
-131.76422857817
 30
0.0
  0
SEQEND
  5
75
330
72
100
AcDbEntity
  8
_U+30EC_U+30A4_U+30E4_U+30FC 1
 62
     7
420
 16777215
370
     9
  0
INSERT
  5
77
330
1F
100
AcDbEntity
  8
_U+30EC_U+30A4_U+30E4_U+30FC 1
100
AcDbBlockReference
  2
block 3
 10
0.0
 20
0.0
 30
0.0
  0
SPLINE
  5
99
330
1F
100
AcDbEntity
  8
_U+30EC_U+30A4_U+30E4_U+30FC 1
 62
     7
420
 16777215
370
     9
100
AcDbSpline
210
0.0
220
0.0
230
1.0
 70
    11
 71
     3
 72
    17
 73
    13
 74
     0
 42
0.0000000001
 43
0.0000000001
 12
1.0
 22
0.0
 32
0.0
 13
1.0
 23
0.0
 33
0.0
 40
0.0
 40
0.0
 40
0.0
 40
0.0
 40
1.0
 40
1.0
 40
1.0
 40
2.0
 40
2.0
 40
2.0
 40
3.0
 40
3.0
 40
3.0
 40
4.0
 40
4.0
 40
4.0
 40
4.0
 10
104.9937548213862
 20
-131.7345952448438
 30
0.0
 10
104.9937548213862
 20
-131.6794560781914
 30
0.0
 10
104.9489873225283
 20
-131.6346885782022
 30
0.0
 10
104.8938481572683
 20
-131.6346885782022
 30
0.0
 10
104.8387442697853
 20
-131.6346885782022
 30
0.0
 10
104.7939414931505
 20
-131.6794560781914
 30
0.0
 10
104.7939414931505
 20
-131.7345952448438
 30
0.0
 10
104.7939414931505
 20
-131.7904046892749
 30
0.0
 10
104.8387442697853
 20
-131.835207467041
 30
0.0
 10
104.8938481572683
 20
-131.835207467041
 30
0.0
 10
104.9489873225283
 20
-131.835207467041
 30
0.0
 10
104.9937548213862
 20
-131.7904046892749
 30
0.0
 10
104.9937548213862
 20
-131.7345952448438
 30
0.0
  0
POLYLINE
  5
9A
330
1F
100
AcDbEntity
  8
_U+30EC_U+30A4_U+30E4_U+30FC 1
 62
     7
420
 16777215
370
     9
100
AcDb2dPolyline
 66
     1
 10
0.0
 20
0.0
 30
0.0
  0
VERTEX
  5
9B
330
9A
100
AcDbEntity
  8
_U+30EC_U+30A4_U+30E4_U+30FC 1
 62
     7
420
 16777215
370
     9
100
AcDbVertex
100
AcDb2dVertex
 10
104.8938481572683
 20
-131.76422857817
 30
0.0
  0
VERTEX
  5
9C
330
9A
100
AcDbEntity
  8
_U+30EC_U+30A4_U+30E4_U+30FC 1
 62
     7
420
 16777215
370
     9
100
AcDbVertex
100
AcDb2dVertex
 10
104.8938481572683
 20
-124.5092124688728
 30
0.0
  0
SEQEND
  5
9D
330
9A
100
AcDbEntity
  8
_U+30EC_U+30A4_U+30E4_U+30FC 1
 62
     7
420
 16777215
370
     9
  0
SPLINE
  5
9E
330
1F
100
AcDbEntity
  8
_U+30EC_U+30A4_U+30E4_U+30FC 1
 62
     7
420
 16777215
370
     9
100
AcDbSpline
210
0.0
220
0.0
230
1.0
 70
    11
 71
     3
 72
    17
 73
    13
 74
     0
 42
0.0000000001
 43
0.0000000001
 12
1.0
 22
0.0
 32
0.0
 13
1.0
 23
0.0
 33
0.0
 40
0.0
 40
0.0
 40
0.0
 40
0.0
 40
1.0
 40
1.0
 40
1.0
 40
2.0
 40
2.0
 40
2.0
 40
3.0
 40
3.0
 40
3.0
 40
4.0
 40
4.0
 40
4.0
 40
4.0
 10
104.9937548213862
 20
-124.3744866355731
 30
0.0
 10
104.9937548213862
 20
-124.3193827466978
 30
0.0
 10
104.9489873225283
 20
-124.2745799689314
 30
0.0
 10
104.8938481572683
 20
-124.2745799689314
 30
0.0
 10
104.8387442697853
 20
-124.2745799689314
 30
0.0
 10
104.7939414931505
 20
-124.3193827466978
 30
0.0
 10
104.7939414931505
 20
-124.3744866355731
 30
0.0
 10
104.7939414931505
 20
-124.4302960800035
 30
0.0
 10
104.8387442697853
 20
-124.4750988577702
 30
0.0
 10
104.8938481572683
 20
-124.4750988577702
 30
0.0
 10
104.9489873225283
 20
-124.4750988577702
 30
0.0
 10
104.9937548213862
 20
-124.4302960800035
 30
0.0
 10
104.9937548213862
 20
-124.3744866355731
 30
0.0
  0
SPLINE
  5
9F
330
1F
100
AcDbEntity
  8
_U+30EC_U+30A4_U+30E4_U+30FC 1
 62
     7
420
 16777215
370
     9
100
AcDbSpline
210
0.0
220
0.0
230
1.0
 70
    11
 71
     3
 72
    17
 73
    13
 74
     0
 42
0.0000000001
 43
0.0000000001
 12
1.0
 22
0.0
 32
0.0
 13
1.0
 23
0.0
 33
0.0
 40
0.0
 40
0.0
 40
0.0
 40
0.0
 40
1.0
 40
1.0
 40
1.0
 40
2.0
 40
2.0
 40
2.0
 40
3.0
 40
3.0
 40
3.0
 40
4.0
 40
4.0
 40
4.0
 40
4.0
 10
104.9937548213862
 20
-132.9982452445281
 30
0.0
 10
104.9937548213862
 20
-132.9431413556531
 30
0.0
 10
104.9489873225283
 20
-132.8983385778864
 30
0.0
 10
104.8938481572683
 20
-132.8983385778864
 30
0.0
 10
104.8387442697853
 20
-132.8983385778864
 30
0.0
 10
104.7939414931505
 20
-132.9431413556531
 30
0.0
 10
104.7939414931505
 20
-132.9982452445281
 30
0.0
 10
104.7939414931505
 20
-133.0540546889585
 30
0.0
 10
104.8387442697853
 20
-133.0988574667252
 30
0.0
 10
104.8938481572683
 20
-133.0988574667252
 30
0.0
 10
104.9489873225283
 20
-133.0988574667252
 30
0.0
 10
104.9937548213862
 20
-133.0540546889585
 30
0.0
 10
104.9937548213862
 20
-132.9982452445281
 30
0.0
  0
POLYLINE
  5
A0
330
1F
100
AcDbEntity
  8
_U+30EC_U+30A4_U+30E4_U+30FC 1
 62
     7
420
 16777215
370
     9
100
AcDb2dPolyline
 66
     1
 10
0.0
 20
0.0
 30
0.0
  0
VERTEX
  5
A1
330
A0
100
AcDbEntity
  8
_U+30EC_U+30A4_U+30E4_U+30FC 1
 62
     7
420
 16777215
370
     9
100
AcDbVertex
100
AcDb2dVertex
 10
104.8938481572683
 20
-132.8983385778864
 30
0.0
  0
VERTEX
  5
A2
330
A0
100
AcDbEntity
  8
_U+30EC_U+30A4_U+30E4_U+30FC 1
 62
     7
420
 16777215
370
     9
100
AcDbVertex
100
AcDb2dVertex
 10
104.8938481572683
 20
-131.8985663559145
 30
0.0
  0
SEQEND
  5
A3
330
A0
100
AcDbEntity
  8
_U+30EC_U+30A4_U+30E4_U+30FC 1
 62
     7
420
 16777215
370
     9
  0
POLYLINE
  5
A4
330
1F
100
AcDbEntity
  8
_U+30EC_U+30A4_U+30E4_U+30FC 1
 62
     7
420
 16777215
370
     9
100
AcDb2dPolyline
 66
     1
 10
0.0
 20
0.0
 30
0.0
  0
VERTEX
  5
A5
330
A4
100
AcDbEntity
  8
_U+30EC_U+30A4_U+30E4_U+30FC 1
 62
     7
420
 16777215
370
     9
100
AcDbVertex
100
AcDb2dVertex
 10
103.4338068056282
 20
-132.9982452445281
 30
0.0
  0
VERTEX
  5
A6
330
A4
100
AcDbEntity
  8
_U+30EC_U+30A4_U+30E4_U+30FC 1
 62
     7
420
 16777215
370
     9
100
AcDbVertex
100
AcDb2dVertex
 10
105.8936203539842
 20
-132.9982452445281
 30
0.0
  0
SEQEND
  5
A7
330
A4
100
AcDbEntity
  8
_U+30EC_U+30A4_U+30E4_U+30FC 1
 62
     7
420
 16777215
370
     9
  0
INSERT
  5
A9
330
1F
100
AcDbEntity
  8
_U+30EC_U+30A4_U+30E4_U+30FC 1
100
AcDbBlockReference
  2
block 4
 10
0.0
 20
0.0
 30
0.0
  0
INSERT
  5
AF
330
1F
100
AcDbEntity
  8
_U+30EC_U+30A4_U+30E4_U+30FC 1
100
AcDbBlockReference
  2
block 5
 10
0.0
 20
0.0
 30
0.0
  0
SPLINE
  5
BE
330
1F
100
AcDbEntity
  8
_U+30EC_U+30A4_U+30E4_U+30FC 1
 62
     7
420
 16777215
370
     9
100
AcDbSpline
210
0.0
220
0.0
230
1.0
 70
     8
 71
     3
 72
    17
 73
    13
 74
     0
 42
0.0000000001
 43
0.0000000001
 12
1.0
 22
0.0
 32
0.0
 13
1.0
 23
0.0
 33
0.0
 40
0.0
 40
0.0
 40
0.0
 40
0.0
 40
1.0
 40
1.0
 40
1.0
 40
2.0
 40
2.0
 40
2.0
 40
3.0
 40
3.0
 40
3.0
 40
4.0
 40
4.0
 40
4.0
 40
4.0
 10
89.05225661697655
 20
-122.3515177471898
 30
0.0
 10
89.01299245131159
 20
-122.3122535805331
 30
0.0
 10
88.95030384179981
 20
-122.3122535805331
 30
0.0
 10
88.91103967613485
 20
-122.3515177471898
 30
0.0
 10
88.87174023269301
 20
-122.3908171916244
 30
0.0
 10
88.87174023269301
 20
-122.4535058027199
 30
0.0
 10
88.91103967613485
 20
-122.4927699693769
 30
0.0
 10
88.95030384179981
 20
-122.5320694138114
 30
0.0
 10
89.01299245131159
 20
-122.5320694138114
 30
0.0
 10
89.05225661697655
 20
-122.4927699693769
 30
0.0
 10
89.07088328316802
 20
-122.4741785804926
 30
0.0
 10
89.08188994955387
 20
-122.4486727471657
 30
0.0
 10
89.08188994955387
 20
-122.4218263582835
 30
0.0
  0
SPLINE
  5
BF
330
1F
100
AcDbEntity
  8
_U+30EC_U+30A4_U+30E4_U+30FC 1
 62
     7
420
 16777215
370
     9
100
AcDbSpline
210
0.0
220
0.0
230
1.0
 70
    11
 71
     3
 72
    17
 73
    13
 74
     0
 42
0.0000000001
 43
0.0000000001
 12
1.0
 22
0.0
 32
0.0
 13
1.0
 23
0.0
 33
0.0
 40
0.0
 40
0.0
 40
0.0
 40
0.0
 40
1.0
 40
1.0
 40
1.0
 40
2.0
 40
2.0
 40
2.0
 40
3.0
 40
3.0
 40
3.0
 40
4.0
 40
4.0
 40
4.0
 40
4.0
 10
86.1818097457633
 20
-122.4218263582835
 30
0.0
 10
86.1818097457633
 20
-122.3666871916307
 30
0.0
 10
86.13704442291007
 20
-122.3219196916418
 30
0.0
 10
86.08190308164546
 20
-122.3219196916418
 30
0.0
 10
86.0267991941624
 20
-122.3219196916418
 30
0.0
 10
85.98199641752764
 20
-122.3666871916307
 30
0.0
 10
85.98199641752764
 20
-122.4218263582835
 30
0.0
 10
85.98199641752764
 20
-122.4776358027139
 30
0.0
 10
86.0267991941624
 20
-122.5224033027028
 30
0.0
 10
86.08190308164546
 20
-122.5224033027028
 30
0.0
 10
86.13704442291007
 20
-122.5224033027028
 30
0.0
 10
86.1818097457633
 20
-122.4776358027139
 30
0.0
 10
86.1818097457633
 20
-122.4218263582835
 30
0.0
  0
POLYLINE
  5
C0
330
1F
100
AcDbEntity
  8
_U+30EC_U+30A4_U+30E4_U+30FC 1
 62
     7
420
 16777215
370
     9
100
AcDb2dPolyline
 66
     1
 10
0.0
 20
0.0
 30
0.0
  0
VERTEX
  5
C1
330
C0
100
AcDbEntity
  8
_U+30EC_U+30A4_U+30E4_U+30FC 1
 62
     7
420
 16777215
370
     9
100
AcDbVertex
100
AcDb2dVertex
 10
86.08190308164546
 20
-122.4218263582835
 30
0.0
  0
VERTEX
  5
C2
330
C0
100
AcDbEntity
  8
_U+30EC_U+30A4_U+30E4_U+30FC 1
 62
     7
420
 16777215
370
     9
100
AcDbVertex
100
AcDb2dVertex
 10
89.08188994955387
 20
-122.4218263582835
 30
0.0
  0
SEQEND
  5
C3
330
C0
100
AcDbEntity
  8
_U+30EC_U+30A4_U+30E4_U+30FC 1
 62
     7
420
 16777215
370
     9
  0
POLYLINE
  5
C4
330
1F
100
AcDbEntity
  8
_U+30EC_U+30A4_U+30E4_U+30FC 1
 62
     7
420
 16777215
370
     9
100
AcDb2dPolyline
 66
     1
 10
0.0
 20
0.0
 30
0.0
  0
VERTEX
  5
C5
330
C4
100
AcDbEntity
  8
_U+30EC_U+30A4_U+30E4_U+30FC 1
 62
     7
420
 16777215
370
     9
100
AcDbVertex
100
AcDb2dVertex
 10
86.08190308164546
 20
-120.9617849697594
 30
0.0
  0
VERTEX
  5
C6
330
C4
100
AcDbEntity
  8
_U+30EC_U+30A4_U+30E4_U+30FC 1
 62
     7
420
 16777215
370
     9
100
AcDbVertex
100
AcDb2dVertex
 10
86.08190308164546
 20
-123.4222688580333
 30
0.0
  0
SEQEND
  5
C7
330
C4
100
AcDbEntity
  8
_U+30EC_U+30A4_U+30E4_U+30FC 1
 62
     7
420
 16777215
370
     9
  0
POLYLINE
  5
C8
330
1F
100
AcDbEntity
  8
_U+30EC_U+30A4_U+30E4_U+30FC 1
 62
     7
420
 16777215
370
     9
100
AcDb2dPolyline
 66
     1
 10
0.0
 20
0.0
 30
0.0
  0
VERTEX
  5
C9
330
C8
100
AcDbEntity
  8
_U+30EC_U+30A4_U+30E4_U+30FC 1
 62
     7
420
 16777215
370
     9
100
AcDbVertex
100
AcDb2dVertex
 10
88.98131300767535
 20
-120.9617849697594
 30
0.0
  0
VERTEX
  5
CA
330
C8
100
AcDbEntity
  8
_U+30EC_U+30A4_U+30E4_U+30FC 1
 62
     7
420
 16777215
370
     9
100
AcDbVertex
100
AcDb2dVertex
 10
88.98131300767535
 20
-123.4222688580333
 30
0.0
  0
SEQEND
  5
CB
330
C8
100
AcDbEntity
  8
_U+30EC_U+30A4_U+30E4_U+30FC 1
 62
     7
420
 16777215
370
     9
  0
INSERT
  5
CD
330
1F
100
AcDbEntity
  8
_U+30EC_U+30A4_U+30E4_U+30FC 1
100
AcDbBlockReference
  2
block 6
 10
0.0
 20
0.0
 30
0.0
  0
SPLINE
  5
D2
330
1F
100
AcDbEntity
  8
_U+30EC_U+30A4_U+30E4_U+30FC 1
 62
     7
420
 16777215
370
     9
100
AcDbSpline
210
0.0
220
0.0
230
1.0
 70
     8
 71
     3
 72
    17
 73
    13
 74
     0
 42
0.0000000001
 43
0.0000000001
 12
1.0
 22
0.0
 32
0.0
 13
1.0
 23
0.0
 33
0.0
 40
0.0
 40
0.0
 40
0.0
 40
0.0
 40
1.0
 40
1.0
 40
1.0
 40
2.0
 40
2.0
 40
2.0
 40
3.0
 40
3.0
 40
3.0
 40
4.0
 40
4.0
 40
4.0
 40
4.0
 10
99.21634857989118
 20
-136.071609965982
 30
0.0
 10
99.17704913644936
 20
-136.032345799325
 30
0.0
 10
99.11436052693756
 20
-136.032345799325
 30
0.0
 10
99.0750963612726
 20
-136.071609965982
 30
0.0
 10
99.03579691783077
 20
-136.1109094104166
 30
0.0
 10
99.03579691783077
 20
-136.173598021512
 30
0.0
 10
99.0750963612726
 20
-136.2128621881691
 30
0.0
 10
99.11436052693756
 20
-136.2521616326036
 30
0.0
 10
99.17704913644936
 20
-136.2521616326036
 30
0.0
 10
99.21634857989118
 20
-136.2128621881691
 30
0.0
 10
99.23493996830577
 20
-136.1942707992848
 30
0.0
 10
99.24594663469162
 20
-136.1687649659579
 30
0.0
 10
99.24594663469162
 20
-136.1419185770756
 30
0.0
  0
SPLINE
  5
D3
330
1F
100
AcDbEntity
  8
_U+30EC_U+30A4_U+30E4_U+30FC 1
 62
     7
420
 16777215
370
     9
100
AcDbSpline
210
0.0
220
0.0
230
1.0
 70
    11
 71
     3
 72
    17
 73
    13
 74
     0
 42
0.0000000001
 43
0.0000000001
 12
1.0
 22
0.0
 32
0.0
 13
1.0
 23
0.0
 33
0.0
 40
0.0
 40
0.0
 40
0.0
 40
0.0
 40
1.0
 40
1.0
 40
1.0
 40
2.0
 40
2.0
 40
2.0
 40
3.0
 40
3.0
 40
3.0
 40
4.0
 40
4.0
 40
4.0
 40
4.0
 10
76.34573055225815
 20
-136.1419185770756
 30
0.0
 10
76.34573055225815
 20
-136.0867794104225
 30
0.0
 10
76.30092777562338
 20
-136.042011910434
 30
0.0
 10
76.24582388814031
 20
-136.042011910434
 30
0.0
 10
76.19068472288036
 20
-136.042011910434
 30
0.0
 10
76.14591722402247
 20
-136.0867794104225
 30
0.0
 10
76.14591722402247
 20
-136.1419185770756
 30
0.0
 10
76.14591722402247
 20
-136.1977280215061
 30
0.0
 10
76.19068472288036
 20
-136.2424955214946
 30
0.0
 10
76.24582388814031
 20
-136.2424955214946
 30
0.0
 10
76.30092777562338
 20
-136.2424955214946
 30
0.0
 10
76.34573055225815
 20
-136.1977280215061
 30
0.0
 10
76.34573055225815
 20
-136.1419185770756
 30
0.0
  0
POLYLINE
  5
D4
330
1F
100
AcDbEntity
  8
_U+30EC_U+30A4_U+30E4_U+30FC 1
 62
     7
420
 16777215
370
     9
100
AcDb2dPolyline
 66
     1
 10
0.0
 20
0.0
 30
0.0
  0
VERTEX
  5
D5
330
D4
100
AcDbEntity
  8
_U+30EC_U+30A4_U+30E4_U+30FC 1
 62
     7
420
 16777215
370
     9
100
AcDbVertex
100
AcDb2dVertex
 10
76.24582388814031
 20
-136.1419185770756
 30
0.0
  0
VERTEX
  5
D6
330
D4
100
AcDbEntity
  8
_U+30EC_U+30A4_U+30E4_U+30FC 1
 62
     7
420
 16777215
370
     9
100
AcDbVertex
100
AcDb2dVertex
 10
99.24594663469162
 20
-136.1419185770756
 30
0.0
  0
SEQEND
  5
D7
330
D4
100
AcDbEntity
  8
_U+30EC_U+30A4_U+30E4_U+30FC 1
 62
     7
420
 16777215
370
     9
  0
POLYLINE
  5
D8
330
1F
100
AcDbEntity
  8
_U+30EC_U+30A4_U+30E4_U+30FC 1
 62
     7
420
 16777215
370
     9
100
AcDb2dPolyline
 66
     1
 10
0.0
 20
0.0
 30
0.0
  0
VERTEX
  5
D9
330
D8
100
AcDbEntity
  8
_U+30EC_U+30A4_U+30E4_U+30FC 1
 62
     7
420
 16777215
370
     9
100
AcDbVertex
100
AcDb2dVertex
 10
76.24582388814031
 20
-134.6818771885519
 30
0.0
  0
VERTEX
  5
DA
330
D8
100
AcDbEntity
  8
_U+30EC_U+30A4_U+30E4_U+30FC 1
 62
     7
420
 16777215
370
     9
100
AcDbVertex
100
AcDb2dVertex
 10
76.24582388814031
 20
-137.1423610768255
 30
0.0
  0
SEQEND
  5
DB
330
D8
100
AcDbEntity
  8
_U+30EC_U+30A4_U+30E4_U+30FC 1
 62
     7
420
 16777215
370
     9
  0
POLYLINE
  5
DC
330
1F
100
AcDbEntity
  8
_U+30EC_U+30A4_U+30E4_U+30FC 1
 62
     7
420
 16777215
370
     9
100
AcDb2dPolyline
 66
     1
 10
0.0
 20
0.0
 30
0.0
  0
VERTEX
  5
DD
330
DC
100
AcDbEntity
  8
_U+30EC_U+30A4_U+30E4_U+30FC 1
 62
     7
420
 16777215
370
     9
100
AcDbVertex
100
AcDb2dVertex
 10
99.14537219743569
 20
-134.6818771885519
 30
0.0
  0
VERTEX
  5
DE
330
DC
100
AcDbEntity
  8
_U+30EC_U+30A4_U+30E4_U+30FC 1
 62
     7
420
 16777215
370
     9
100
AcDbVertex
100
AcDb2dVertex
 10
99.14537219743569
 20
-137.1423610768255
 30
0.0
  0
SEQEND
  5
DF
330
DC
100
AcDbEntity
  8
_U+30EC_U+30A4_U+30E4_U+30FC 1
 62
     7
420
 16777215
370
     9
  0
INSERT
  5
E1
330
1F
100
AcDbEntity
  8
_U+30EC_U+30A4_U+30E4_U+30FC 1
100
AcDbBlockReference
  2
block 7
 10
0.0
 20
0.0
 30
0.0
  0
POLYLINE
  5
E8
330
1F
100
AcDbEntity
  8
_U+30EC_U+30A4_U+30E4_U+30FC 1
 62
     7
420
 16777215
370
    25
100
AcDb2dPolyline
 66
     1
 10
0.0
 20
0.0
 30
0.0
  0
VERTEX
  5
E9
330
E8
100
AcDbEntity
  8
_U+30EC_U+30A4_U+30E4_U+30FC 1
 62
     7
420
 16777215
370
    25
100
AcDbVertex
100
AcDb2dVertex
 10
86.96349472582087
 20
-127.3748263570452
 30
0.0
  0
VERTEX
  5
EA
330
E8
100
AcDbEntity
  8
_U+30EC_U+30A4_U+30E4_U+30FC 1
 62
     7
420
 16777215
370
    25
100
AcDbVertex
100
AcDb2dVertex
 10
85.98199641752764
 20
-127.3748263570452
 30
0.0
  0
VERTEX
  5
EB
330
E8
100
AcDbEntity
  8
_U+30EC_U+30A4_U+30E4_U+30FC 1
 62
     7
420
 16777215
370
    25
100
AcDbVertex
100
AcDb2dVertex
 10
85.98199641752764
 20
-124.3748394133508
 30
0.0
  0
VERTEX
  5
EC
330
E8
100
AcDbEntity
  8
_U+30EC_U+30A4_U+30E4_U+30FC 1
 62
     7
420
 16777215
370
    25
100
AcDbVertex
100
AcDb2dVertex
 10
88.98198328543603
 20
-124.3748394133508
 30
0.0
  0
VERTEX
  5
ED
330
E8
100
AcDbEntity
  8
_U+30EC_U+30A4_U+30E4_U+30FC 1
 62
     7
420
 16777215
370
    25
100
AcDbVertex
100
AcDb2dVertex
 10
88.98198328543603
 20
-127.3748263570452
 30
0.0
  0
VERTEX
  5
EE
330
E8
100
AcDbEntity
  8
_U+30EC_U+30A4_U+30E4_U+30FC 1
 62
     7
420
 16777215
370
    25
100
AcDbVertex
100
AcDb2dVertex
 10
87.98189358872823
 20
-127.3748263570452
 30
0.0
  0
SEQEND
  5
EF
330
E8
100
AcDbEntity
  8
_U+30EC_U+30A4_U+30E4_U+30FC 1
 62
     7
420
 16777215
370
    25
  0
POLYLINE
  5
F0
330
1F
100
AcDbEntity
  8
_U+30EC_U+30A4_U+30E4_U+30FC 1
 62
     7
420
 16777215
370
    25
100
AcDb2dPolyline
 66
     1
 10
0.0
 20
0.0
 30
0.0
  0
VERTEX
  5
F1
330
F0
100
AcDbEntity
  8
_U+30EC_U+30A4_U+30E4_U+30FC 1
 62
     7
420
 16777215
370
    25
100
AcDbVertex
100
AcDb2dVertex
 10
87.98189358872823
 20
-127.3748263570452
 30
0.0
  0
VERTEX
  5
F2
330
F0
100
AcDbEntity
  8
_U+30EC_U+30A4_U+30E4_U+30FC 1
 62
     7
420
 16777215
370
    25
100
AcDbVertex
100
AcDb2dVertex
 10
87.98189358872823
 20
-131.8741188559203
 30
0.0
  0
SEQEND
  5
F3
330
F0
100
AcDbEntity
  8
_U+30EC_U+30A4_U+30E4_U+30FC 1
 62
     7
420
 16777215
370
    25
  0
POLYLINE
  5
F4
330
1F
100
AcDbEntity
  8
_U+30EC_U+30A4_U+30E4_U+30FC 1
 62
     7
420
 16777215
370
    25
100
AcDb2dPolyline
 66
     1
 10
0.0
 20
0.0
 30
0.0
  0
VERTEX
  5
F5
330
F4
100
AcDbEntity
  8
_U+30EC_U+30A4_U+30E4_U+30FC 1
 62
     7
420
 16777215
370
    25
100
AcDbVertex
100
AcDb2dVertex
 10
86.98212139201232
 20
-131.8741188559203
 30
0.0
  0
VERTEX
  5
F6
330
F4
100
AcDbEntity
  8
_U+30EC_U+30A4_U+30E4_U+30FC 1
 62
     7
420
 16777215
370
    25
100
AcDbVertex
100
AcDb2dVertex
 10
86.98212139201232
 20
-127.3748263570452
 30
0.0
  0
SEQEND
  5
F7
330
F4
100
AcDbEntity
  8
_U+30EC_U+30A4_U+30E4_U+30FC 1
 62
     7
420
 16777215
370
    25
  0
POLYLINE
  5
F8
330
1F
100
AcDbEntity
  8
_U+30EC_U+30A4_U+30E4_U+30FC 1
 62
     7
420
 16777215
370
    25
100
AcDb2dPolyline
 66
     1
 10
0.0
 20
0.0
 30
0.0
  0
VERTEX
  5
F9
330
F8
100
AcDbEntity
  8
_U+30EC_U+30A4_U+30E4_U+30FC 1
 62
     7
420
 16777215
370
    25
100
AcDbVertex
100
AcDb2dVertex
 10
87.98189358872823
 20
-131.8741188559203
 30
0.0
  0
VERTEX
  5
FA
330
F8
100
AcDbEntity
  8
_U+30EC_U+30A4_U+30E4_U+30FC 1
 62
     7
420
 16777215
370
    25
100
AcDbVertex
100
AcDb2dVertex
 10
98.98206886364594
 20
-131.8741188559203
 30
0.0
  0
VERTEX
  5
FB
330
F8
100
AcDbEntity
  8
_U+30EC_U+30A4_U+30E4_U+30FC 1
 62
     7
420
 16777215
370
    25
100
AcDbVertex
100
AcDb2dVertex
 10
98.98206886364594
 20
-132.8738910778928
 30
0.0
  0
VERTEX
  5
FC
330
F8
100
AcDbEntity
  8
_U+30EC_U+30A4_U+30E4_U+30FC 1
 62
     7
420
 16777215
370
    25
100
AcDbVertex
100
AcDb2dVertex
 10
75.98191083931773
 20
-132.8738910778928
 30
0.0
  0
VERTEX
  5
FD
330
F8
100
AcDbEntity
  8
_U+30EC_U+30A4_U+30E4_U+30FC 1
 62
     7
420
 16777215
370
    25
100
AcDbVertex
100
AcDb2dVertex
 10
75.98191083931773
 20
-131.8741188559203
 30
0.0
  0
VERTEX
  5
FE
330
F8
100
AcDbEntity
  8
_U+30EC_U+30A4_U+30E4_U+30FC 1
 62
     7
420
 16777215
370
    25
100
AcDbVertex
100
AcDb2dVertex
 10
86.9021819496073
 20
-131.8741188559203
 30
0.0
  0
SEQEND
  5
FF
330
F8
100
AcDbEntity
  8
_U+30EC_U+30A4_U+30E4_U+30FC 1
 62
     7
420
 16777215
370
    25
  0
ENDSEC
  0
SECTION
  2
OBJECTS
  0
DICTIONARY
  5
C
330
0
100
AcDbDictionary
281
     1
  3
ACAD_GROUP
350
D
  3
ACAD_LAYOUT
350
1A
  3
ACAD_MATERIAL
350
3B
  3
ACAD_MLEADERSTYLE
350
101
  3
ACAD_MLINESTYLE
350
17
  3
ACAD_PLOTSETTINGS
350
19
  3
ACAD_PLOTSTYLENAME
350
E
  3
ACAD_TABLESTYLE
350
100
  3
ACAD_VISUALSTYLE
350
2A
  0
SUN
  5
3F
330
29
100
AcDbSun
 90
        1
290
     0
 63
     7
421
 16777215
 40
1.0
291
     1
 91
  2455826
 92
 54000000
292
     0
 70
     2
 71
   256
280
     1
  0
DICTIONARY
  5
D
102
{ACAD_REACTORS
330
C
102
}
330
C
100
AcDbDictionary
281
     1
  0
DICTIONARY
  5
1A
102
{ACAD_REACTORS
330
C
102
}
330
C
100
AcDbDictionary
281
     1
  3
Layout1
350
1E
  3
Layout2
350
26
  3
Model
350
22
  0
DICTIONARY
  5
3B
102
{ACAD_REACTORS
330
C
102
}
330
C
100
AcDbDictionary
281
     1
  3
ByBlock
350
3D
  3
ByLayer
350
3C
  3
Global
350
3E
  0
DICTIONARY
  5
101
102
{ACAD_REACTORS
330
C
102
}
330
C
100
AcDbDictionary
281
     1
  0
DICTIONARY
  5
17
102
{ACAD_REACTORS
330
C
102
}
330
C
100
AcDbDictionary
281
     1
  3
Standard
350
18
  0
DICTIONARY
  5
19
102
{ACAD_REACTORS
330
C
102
}
330
C
100
AcDbDictionary
281
     1
  0
ACDBDICTIONARYWDFLT
  5
E
102
{ACAD_REACTORS
330
C
102
}
330
C
100
AcDbDictionary
281
     1
  3
Normal
350
F
100
AcDbDictionaryWithDefault
340
F
  0
DICTIONARY
  5
100
102
{ACAD_REACTORS
330
C
102
}
330
C
100
AcDbDictionary
281
     1
  0
DICTIONARY
  5
2A
102
{ACAD_REACTORS
330
C
102
}
330
C
100
AcDbDictionary
281
     1
  3
2dWireframe
350
2F
  3
3D Hidden
350
31
  3
3dWireframe
350
30
  3
Basic
350
32
  3
Brighten
350
36
  3
ColorChange
350
3A
  3
Conceptual
350
34
  3
Dim
350
35
  3
Facepattern
350
39
  3
Flat
350
2B
  3
FlatWithEdges
350
2C
  3
Gouraud
350
2D
  3
GouraudWithEdges
350
2E
  3
Linepattern
350
38
  3
Realistic
350
33
  3
Thicken
350
37
  0
LAYOUT
  5
1E
102
{ACAD_REACTORS
330
1A
102
}
330
1A
100
AcDbPlotSettings
  1

  2
none_device
  4

  6

 40
0.0
 41
0.0
 42
0.0
 43
0.0
 44
0.0
 45
0.0
 46
0.0
 47
0.0
 48
0.0
 49
0.0
140
0.0
141
0.0
142
1.0
143
1.0
 70
   688
 72
     0
 73
     0
 74
     5
  7

 75
    16
 76
     0
 77
     2
 78
   300
147
1.0
148
0.0
149
0.0
100
AcDbLayout
  1
Layout1
 70
     1
 71
     1
 10
0.0
 20
0.0
 11
12.0
 21
9.0
 12
0.0
 22
0.0
 32
0.0
 14
1.000000000000000E+20
 24
1.000000000000000E+20
 34
1.000000000000000E+20
 15
-1.000000000000000E+20
 25
-1.000000000000000E+20
 35
-1.000000000000000E+20
146
0.0
 13
0.0
 23
0.0
 33
0.0
 16
1.0
 26
0.0
 36
0.0
 17
0.0
 27
1.0
 37
0.0
 76
     0
330
1B
  0
LAYOUT
  5
26
102
{ACAD_REACTORS
330
1A
102
}
330
1A
100
AcDbPlotSettings
  1

  2
none_device
  4

  6

 40
0.0
 41
0.0
 42
0.0
 43
0.0
 44
0.0
 45
0.0
 46
0.0
 47
0.0
 48
0.0
 49
0.0
140
0.0
141
0.0
142
1.0
143
1.0
 70
   688
 72
     0
 73
     0
 74
     5
  7

 75
    16
 76
     0
 77
     2
 78
   300
147
1.0
148
0.0
149
0.0
100
AcDbLayout
  1
Layout2
 70
     1
 71
     2
 10
0.0
 20
0.0
 11
0.0
 21
0.0
 12
0.0
 22
0.0
 32
0.0
 14
0.0
 24
0.0
 34
0.0
 15
0.0
 25
0.0
 35
0.0
146
0.0
 13
0.0
 23
0.0
 33
0.0
 16
1.0
 26
0.0
 36
0.0
 17
0.0
 27
1.0
 37
0.0
 76
     0
330
23
  0
LAYOUT
  5
22
102
{ACAD_REACTORS
330
1A
102
}
330
1A
100
AcDbPlotSettings
  1

  2
none_device
  4

  6

 40
0.0
 41
0.0
 42
0.0
 43
0.0
 44
0.0
 45
0.0
 46
0.0
 47
0.0
 48
0.0
 49
0.0
140
0.0
141
0.0
142
1.0
143
1.0
 70
  1712
 72
     0
 73
     0
 74
     0
  7

 75
     0
 76
     0
 77
     2
 78
   300
147
1.0
148
0.0
149
0.0
100
AcDbLayout
  1
Model
 70
     1
 71
     0
 10
0.0
 20
0.0
 11
12.0
 21
9.0
 12
0.0
 22
0.0
 32
0.0
 14
1.000000000000000E+20
 24
1.000000000000000E+20
 34
1.000000000000000E+20
 15
-1.000000000000000E+20
 25
-1.000000000000000E+20
 35
-1.000000000000000E+20
146
0.0
 13
0.0
 23
0.0
 33
0.0
 16
1.0
 26
0.0
 36
0.0
 17
0.0
 27
1.0
 37
0.0
 76
     0
330
1F
331
29
  0
MATERIAL
  5
3D
102
{ACAD_REACTORS
330
3B
102
}
330
3B
100
AcDbMaterial
  1
ByBlock
 72
     1
 94
      127
  0
MATERIAL
  5
3C
102
{ACAD_REACTORS
330
3B
102
}
330
3B
100
AcDbMaterial
  1
ByLayer
 72
     1
 94
      127
  0
MATERIAL
  5
3E
102
{ACAD_REACTORS
330
3B
102
}
330
3B
100
AcDbMaterial
  1
Global
 72
     1
 94
      127
  0
MLINESTYLE
  5
18
102
{ACAD_REACTORS
330
17
102
}
330
17
100
AcDbMlineStyle
  2
Standard
 70
     0
  3

 62
   256
 51
90.0
 52
90.0
 71
     2
 49
0.5
 62
   256
  6
BYLAYER
 49
-0.5
 62
   256
  6
BYLAYER
  0
ACDBPLACEHOLDER
  5
F
102
{ACAD_REACTORS
330
E
102
}
330
E
  0
VISUALSTYLE
  5
2F
102
{ACAD_REACTORS
330
2A
102
}
330
2A
100
AcDbVisualStyle
  2
2dWireframe
 70
     4
177
     2
291
     0
 71
     0
176
     1
 72
     2
176
     1
 73
     0
176
     1
 90
        0
176
     1
 40
-0.6
176
     1
 41
-30.0
176
     1
 62
     5
 63
     7
421
 16777215
176
     1
 74
     1
176
     1
 91
        4
176
     1
 64
     7
176
     1
 65
   257
176
     1
 75
     1
176
     1
175
     1
176
     1
 42
1.0
176
     1
 92
        0
176
     1
 66
   257
176
     1
 43
1.0
176
     1
 76
     1
176
     1
 77
     6
176
     1
 78
     2
176
     1
 67
     7
176
     1
 79
     5
176
     1
170
     0
176
     1
171
     0
176
     1
290
     0
176
     1
 93
        1
176
     1
 44
0.0
176
     1
173
     0
176
     1
  0
VISUALSTYLE
  5
31
102
{ACAD_REACTORS
330
2A
102
}
330
2A
100
AcDbVisualStyle
  2
3D Hidden
 70
     6
177
     2
291
     0
 71
     1
176
     1
 72
     2
176
     1
 73
     2
176
     1
 90
        0
176
     1
 40
-0.6
176
     1
 41
-30.0
176
     1
 62
     5
 63
     7
421
 16777215
176
     1
 74
     2
176
     1
 91
        2
176
     1
 64
     7
176
     1
 65
   257
176
     1
 75
     2
176
     1
175
     1
176
     1
 42
40.0
176
     1
 92
        0
176
     1
 66
   257
176
     1
 43
1.0
176
     1
 76
     1
176
     1
 77
     6
176
     1
 78
     2
176
     1
 67
     7
176
     1
 79
     3
176
     1
170
     0
176
     1
171
     0
176
     1
290
     0
176
     1
 93
        1
176
     1
 44
0.0
176
     1
173
     0
176
     1
  0
VISUALSTYLE
  5
30
102
{ACAD_REACTORS
330
2A
102
}
330
2A
100
AcDbVisualStyle
  2
3dWireframe
 70
     5
177
     2
291
     0
 71
     0
176
     1
 72
     2
176
     1
 73
     0
176
     1
 90
        0
176
     1
 40
-0.6
176
     1
 41
-30.0
176
     1
 62
     5
 63
     7
421
 16777215
176
     1
 74
     1
176
     1
 91
        4
176
     1
 64
     7
176
     1
 65
   257
176
     1
 75
     1
176
     1
175
     1
176
     1
 42
1.0
176
     1
 92
        0
176
     1
 66
   257
176
     1
 43
1.0
176
     1
 76
     1
176
     1
 77
     6
176
     1
 78
     2
176
     1
 67
     7
176
     1
 79
     5
176
     1
170
     0
176
     1
171
     0
176
     1
290
     0
176
     1
 93
        1
176
     1
 44
0.0
176
     1
173
     0
176
     1
  0
VISUALSTYLE
  5
32
102
{ACAD_REACTORS
330
2A
102
}
330
2A
100
AcDbVisualStyle
  2
Basic
 70
     7
177
     2
291
     1
 71
     1
176
     1
 72
     0
176
     1
 73
     1
176
     1
 90
        0
176
     1
 40
-0.6
176
     1
 41
-30.0
176
     1
 62
     5
 63
     7
421
 16777215
176
     1
 74
     0
176
     1
 91
        4
176
     1
 64
     7
176
     1
 65
   257
176
     1
 75
     1
176
     1
175
     1
176
     1
 42
1.0
176
     1
 92
        8
176
     1
 66
     7
176
     1
 43
1.0
176
     1
 76
     1
176
     1
 77
     6
176
     1
 78
     2
176
     1
 67
     7
176
     1
 79
     5
176
     1
170
     0
176
     1
171
     0
176
     1
290
     0
176
     1
 93
        1
176
     1
 44
0.0
176
     1
173
     0
176
     1
  0
VISUALSTYLE
  5
36
102
{ACAD_REACTORS
330
2A
102
}
330
2A
100
AcDbVisualStyle
  2
Brighten
 70
    12
177
     2
291
     1
 71
     2
176
     1
 72
     2
176
     1
 73
     0
176
     1
 90
        0
176
     1
 40
-0.6
176
     1
 41
-30.0
176
     1
 62
     5
 63
     7
421
 16777215
176
     1
 74
     1
176
     1
 91
        4
176
     1
 64
     7
176
     1
 65
   257
176
     1
 75
     1
176
     1
175
     1
176
     1
 42
1.0
176
     1
 92
        8
176
     1
 66
     7
176
     1
 43
1.0
176
     1
 76
     1
176
     1
 77
     6
176
     1
 78
     2
176
     1
 67
     7
176
     1
 79
     5
176
     1
170
     0
176
     1
171
     0
176
     1
290
     0
176
     1
 93
        1
176
     1
 44
50.0
176
     1
173
     0
176
     1
  0
VISUALSTYLE
  5
3A
102
{ACAD_REACTORS
330
2A
102
}
330
2A
100
AcDbVisualStyle
  2
ColorChange
 70
    16
177
     2
291
     1
 71
     2
176
     1
 72
     2
176
     1
 73
     3
176
     1
 90
        0
176
     1
 40
-0.6
176
     1
 41
-30.0
176
     1
 62
     5
 63
     8
421
  8421504
176
     1
 74
     1
176
     1
 91
        4
176
     1
 64
     7
176
     1
 65
   257
176
     1
 75
     1
176
     1
175
     1
176
     1
 42
1.0
176
     1
 92
        8
176
     1
 66
     8
424
  8421504
176
     1
 43
1.0
176
     1
 76
     1
176
     1
 77
     6
176
     1
 78
     2
176
     1
 67
     7
176
     1
 79
     5
176
     1
170
     0
176
     1
171
     0
176
     1
290
     0
176
     1
 93
        1
176
     1
 44
0.0
176
     1
173
     0
176
     1
  0
VISUALSTYLE
  5
34
102
{ACAD_REACTORS
330
2A
102
}
330
2A
100
AcDbVisualStyle
  2
Conceptual
 70
     9
177
     2
291
     0
 71
     3
176
     1
 72
     2
176
     1
 73
     0
176
     1
 90
        0
176
     1
 40
-0.6
176
     1
 41
-30.0
176
     1
 62
     5
 63
     7
421
 16777215
176
     1
 74
     2
176
     1
 91
        2
176
     1
 64
     7
176
     1
 65
   257
176
     1
 75
     1
176
     1
175
     1
176
     1
 42
40.0
176
     1
 92
        8
176
     1
 66
     7
176
     1
 43
1.0
176
     1
 76
     1
176
     1
 77
     6
176
     1
 78
     2
176
     1
 67
     7
176
     1
 79
     3
176
     1
170
     0
176
     1
171
     0
176
     1
290
     0
176
     1
 93
        1
176
     1
 44
0.0
176
     1
173
     0
176
     1
  0
VISUALSTYLE
  5
35
102
{ACAD_REACTORS
330
2A
102
}
330
2A
100
AcDbVisualStyle
  2
Dim
 70
    11
177
     2
291
     1
 71
     2
176
     1
 72
     2
176
     1
 73
     0
176
     1
 90
        0
176
     1
 40
-0.6
176
     1
 41
-30.0
176
     1
 62
     5
 63
     7
421
 16777215
176
     1
 74
     1
176
     1
 91
        4
176
     1
 64
     7
176
     1
 65
   257
176
     1
 75
     1
176
     1
175
     1
176
     1
 42
1.0
176
     1
 92
        8
176
     1
 66
     7
176
     1
 43
1.0
176
     1
 76
     1
176
     1
 77
     6
176
     1
 78
     2
176
     1
 67
     7
176
     1
 79
     5
176
     1
170
     0
176
     1
171
     0
176
     1
290
     0
176
     1
 93
        1
176
     1
 44
-50.0
176
     1
173
     0
176
     1
  0
VISUALSTYLE
  5
39
102
{ACAD_REACTORS
330
2A
102
}
330
2A
100
AcDbVisualStyle
  2
Facepattern
 70
    15
177
     2
291
     1
 71
     2
176
     1
 72
     2
176
     1
 73
     0
176
     1
 90
        0
176
     1
 40
-0.6
176
     1
 41
-30.0
176
     1
 62
     5
 63
     7
421
 16777215
176
     1
 74
     1
176
     1
 91
        4
176
     1
 64
     7
176
     1
 65
   257
176
     1
 75
     1
176
     1
175
     1
176
     1
 42
1.0
176
     1
 92
        8
176
     1
 66
     7
176
     1
 43
1.0
176
     1
 76
     1
176
     1
 77
     6
176
     1
 78
     2
176
     1
 67
     7
176
     1
 79
     5
176
     1
170
     0
176
     1
171
     0
176
     1
290
     0
176
     1
 93
        1
176
     1
 44
0.0
176
     1
173
     0
176
     1
  0
VISUALSTYLE
  5
2B
102
{ACAD_REACTORS
330
2A
102
}
330
2A
100
AcDbVisualStyle
  2
Flat
 70
     0
177
     2
291
     1
 71
     2
176
     1
 72
     1
176
     1
 73
     1
176
     1
 90
        2
176
     1
 40
-0.6
176
     1
 41
30.0
176
     1
 62
     5
 63
     7
421
 16777215
176
     1
 74
     0
176
     1
 91
        4
176
     1
 64
     7
176
     1
 65
   257
176
     1
 75
     1
176
     1
175
     1
176
     1
 42
1.0
176
     1
 92
        8
176
     1
 66
     7
176
     1
 43
1.0
176
     1
 76
     1
176
     1
 77
     6
176
     1
 78
     2
176
     1
 67
     7
176
     1
 79
     5
176
     1
170
     0
176
     1
171
     0
176
     1
290
     0
176
     1
 93
       13
176
     1
 44
0.0
176
     1
173
     0
176
     1
  0
VISUALSTYLE
  5
2C
102
{ACAD_REACTORS
330
2A
102
}
330
2A
100
AcDbVisualStyle
  2
FlatWithEdges
 70
     1
177
     2
291
     1
 71
     2
176
     1
 72
     1
176
     1
 73
     1
176
     1
 90
        2
176
     1
 40
-0.6
176
     1
 41
30.0
176
     1
 62
     5
 63
     7
421
 16777215
176
     1
 74
     1
176
     1
 91
        4
176
     1
 64
     7
176
     1
 65
   257
176
     1
 75
     1
176
     1
175
     1
176
     1
 42
1.0
176
     1
 92
        0
176
     1
 66
   257
176
     1
 43
1.0
176
     1
 76
     1
176
     1
 77
     6
176
     1
 78
     2
176
     1
 67
     7
176
     1
 79
     5
176
     1
170
     0
176
     1
171
     0
176
     1
290
     0
176
     1
 93
       13
176
     1
 44
0.0
176
     1
173
     0
176
     1
  0
VISUALSTYLE
  5
2D
102
{ACAD_REACTORS
330
2A
102
}
330
2A
100
AcDbVisualStyle
  2
Gouraud
 70
     2
177
     2
291
     1
 71
     2
176
     1
 72
     2
176
     1
 73
     1
176
     1
 90
        2
176
     1
 40
-0.6
176
     1
 41
30.0
176
     1
 62
     5
 63
     7
421
 16777215
176
     1
 74
     0
176
     1
 91
        4
176
     1
 64
     7
176
     1
 65
   257
176
     1
 75
     1
176
     1
175
     1
176
     1
 42
1.0
176
     1
 92
        0
176
     1
 66
     7
176
     1
 43
1.0
176
     1
 76
     1
176
     1
 77
     6
176
     1
 78
     2
176
     1
 67
     7
176
     1
 79
     5
176
     1
170
     0
176
     1
171
     0
176
     1
290
     0
176
     1
 93
       13
176
     1
 44
0.0
176
     1
173
     0
176
     1
  0
VISUALSTYLE
  5
2E
102
{ACAD_REACTORS
330
2A
102
}
330
2A
100
AcDbVisualStyle
  2
GouraudWithEdges
 70
     3
177
     2
291
     1
 71
     2
176
     1
 72
     2
176
     1
 73
     1
176
     1
 90
        2
176
     1
 40
-0.6
176
     1
 41
30.0
176
     1
 62
     5
 63
     7
421
 16777215
176
     1
 74
     1
176
     1
 91
        4
176
     1
 64
     7
176
     1
 65
   257
176
     1
 75
     1
176
     1
175
     1
176
     1
 42
1.0
176
     1
 92
        0
176
     1
 66
   257
176
     1
 43
1.0
176
     1
 76
     1
176
     1
 77
     6
176
     1
 78
     2
176
     1
 67
     7
176
     1
 79
     5
176
     1
170
     0
176
     1
171
     0
176
     1
290
     0
176
     1
 93
       13
176
     1
 44
0.0
176
     1
173
     0
176
     1
  0
VISUALSTYLE
  5
38
102
{ACAD_REACTORS
330
2A
102
}
330
2A
100
AcDbVisualStyle
  2
Linepattern
 70
    14
177
     2
291
     1
 71
     2
176
     1
 72
     2
176
     1
 73
     0
176
     1
 90
        0
176
     1
 40
-0.6
176
     1
 41
-30.0
176
     1
 62
     5
 63
     7
421
 16777215
176
     1
 74
     1
176
     1
 91
        4
176
     1
 64
     7
176
     1
 65
   257
176
     1
 75
     7
176
     1
175
     7
176
     1
 42
1.0
176
     1
 92
        8
176
     1
 66
     7
176
     1
 43
1.0
176
     1
 76
     1
176
     1
 77
     6
176
     1
 78
     2
176
     1
 67
     7
176
     1
 79
     5
176
     1
170
     0
176
     1
171
     0
176
     1
290
     0
176
     1
 93
        1
176
     1
 44
0.0
176
     1
173
     0
176
     1
  0
VISUALSTYLE
  5
33
102
{ACAD_REACTORS
330
2A
102
}
330
2A
100
AcDbVisualStyle
  2
Realistic
 70
     8
177
     2
291
     0
 71
     2
176
     1
 72
     2
176
     1
 73
     0
176
     1
 90
        0
176
     1
 40
-0.6
176
     1
 41
-30.0
176
     1
 62
     5
 63
     7
421
 16777215
176
     1
 74
     1
176
     1
 91
        0
176
     1
 64
     7
176
     1
 65
   257
176
     1
 75
     1
176
     1
175
     1
176
     1
 42
1.0
176
     1
 92
        8
176
     1
 66
     8
424
  7895160
176
     1
 43
1.0
176
     1
 76
     1
176
     1
 77
     6
176
     1
 78
     2
176
     1
 67
     7
176
     1
 79
     5
176
     1
170
     0
176
     1
171
     0
176
     1
290
     0
176
     1
 93
       13
176
     1
 44
0.0
176
     1
173
     0
176
     1
  0
VISUALSTYLE
  5
37
102
{ACAD_REACTORS
330
2A
102
}
330
2A
100
AcDbVisualStyle
  2
Thicken
 70
    13
177
     2
291
     1
 71
     2
176
     1
 72
     2
176
     1
 73
     0
176
     1
 90
        0
176
     1
 40
-0.6
176
     1
 41
-30.0
176
     1
 62
     5
 63
     7
421
 16777215
176
     1
 74
     1
176
     1
 91
        4
176
     1
 64
     7
176
     1
 65
   257
176
     1
 75
     1
176
     1
175
     1
176
     1
 42
1.0
176
     1
 92
       12
176
     1
 66
     7
176
     1
 43
1.0
176
     1
 76
     1
176
     1
 77
     6
176
     1
 78
     2
176
     1
 67
     7
176
     1
 79
     5
176
     1
170
     0
176
     1
171
     0
176
     1
290
     0
176
     1
 93
        1
176
     1
 44
0.0
176
     1
173
     0
176
     1
  0
ENDSEC
  0
EOF
