  0
SECTION
  2
HEADER
  9
$ACADVER
  1
AC1024
  9
$ACADMAINTVER
 70
     6
  9
$DWGCODEPAGE
  3
UNDEFINED
  9
$INSBASE
 10
0.0
 20
0.0
 30
0.0
  9
$EXTMIN
 10
1.000000000000000E+20
 20
1.000000000000000E+20
 30
1.000000000000000E+20
  9
$EXTMAX
 10
-1.000000000000000E+20
 20
-1.000000000000000E+20
 30
-1.000000000000000E+20
  9
$LIMMIN
 10
0.0
 20
0.0
  9
$LIMMAX
 10
12.0
 20
9.0
  9
$ORTHOMODE
 70
     0
  9
$REGENMODE
 70
     1
  9
$FILLMODE
 70
     1
  9
$QTEXTMODE
 70
     0
  9
$MIRRTEXT
 70
     1
  9
$LTSCALE
 40
1.0
  9
$ATTMODE
 70
     1
  9
$TEXTSIZE
 40
0.2
  9
$TRACEWID
 40
0.05
  9
$TEXTSTYLE
  7
Standard
  9
$CLAYER
  8
0
  9
$CELTYPE
  6
ByLayer
  9
$CECOLOR
 62
   256
  9
$CELTSCALE
 40
1.0
  9
$DISPSILH
 70
     0
  9
$DIMSCALE
 40
1.0
  9
$DIMASZ
 40
0.18
  9
$DIMEXO
 40
0.0625
  9
$DIMDLI
 40
0.38
  9
$DIMRND
 40
0.0
  9
$DIMDLE
 40
0.0
  9
$DIMEXE
 40
0.18
  9
$DIMTP
 40
0.0
  9
$DIMTM
 40
0.0
  9
$DIMTXT
 40
0.18
  9
$DIMCEN
 40
0.09
  9
$DIMTSZ
 40
0.0
  9
$DIMTOL
 70
     0
  9
$DIMLIM
 70
     0
  9
$DIMTIH
 70
     1
  9
$DIMTOH
 70
     1
  9
$DIMSE1
 70
     0
  9
$DIMSE2
 70
     0
  9
$DIMTAD
 70
     0
  9
$DIMZIN
 70
     0
  9
$DIMBLK
  1

  9
$DIMASO
 70
     1
  9
$DIMSHO
 70
     1
  9
$DIMPOST
  1

  9
$DIMAPOST
  1

  9
$DIMALT
 70
     0
  9
$DIMALTD
 70
     2
  9
$DIMALTF
 40
25.4
  9
$DIMLFAC
 40
1.0
  9
$DIMTOFL
 70
     0
  9
$DIMTVP
 40
0.0
  9
$DIMTIX
 70
     0
  9
$DIMSOXD
 70
     0
  9
$DIMSAH
 70
     0
  9
$DIMBLK1
  1

  9
$DIMBLK2
  1

  9
$DIMSTYLE
  2
Standard
  9
$DIMCLRD
 70
     0
  9
$DIMCLRE
 70
     0
  9
$DIMCLRT
 70
     0
  9
$DIMTFAC
 40
1.0
  9
$DIMGAP
 40
0.09
  9
$DIMJUST
 70
     0
  9
$DIMSD1
 70
     0
  9
$DIMSD2
 70
     0
  9
$DIMTOLJ
 70
     1
  9
$DIMTZIN
 70
     0
  9
$DIMALTZ
 70
     0
  9
$DIMALTTZ
 70
     0
  9
$DIMUPT
 70
     0
  9
$DIMDEC
 70
     4
  9
$DIMTDEC
 70
     4
  9
$DIMALTU
 70
     2
  9
$DIMALTTD
 70
     2
  9
$DIMTXSTY
  7
Standard
  9
$DIMAUNIT
 70
     0
  9
$DIMADEC
 70
     0
  9
$DIMALTRND
 40
0.0
  9
$DIMAZIN
 70
     0
  9
$DIMDSEP
 70
    46
  9
$DIMATFIT
 70
     3
  9
$DIMFRAC
 70
     0
  9
$DIMLDRBLK
  1

  9
$DIMLUNIT
 70
     2
  9
$DIMLWD
 70
    -2
  9
$DIMLWE
 70
    -2
  9
$DIMTMOVE
 70
     0
  9
$DIMFXL
 40
1.0
  9
$DIMFXLON
 70
     0
  9
$DIMJOGANG
 40
0.7853981633974483
  9
$DIMTFILL
 70
     0
  9
$DIMTFILLCLR
 70
     0
  9
$DIMARCSYM
 70
     0
  9
$DIMLTYPE
  6

  9
$DIMLTEX1
  6

  9
$DIMLTEX2
  6

  9
$DIMTXTDIRECTION
 70
     0
  9
$LUNITS
 70
     2
  9
$LUPREC
 70
     4
  9
$SKETCHINC
 40
0.1
  9
$FILLETRAD
 40
0.5
  9
$AUNITS
 70
     0
  9
$AUPREC
 70
     0
  9
$MENU
  1
.
  9
$ELEVATION
 40
0.0
  9
$PELEVATION
 40
0.0
  9
$THICKNESS
 40
0.0
  9
$LIMCHECK
 70
     0
  9
$CHAMFERA
 40
0.5
  9
$CHAMFERB
 40
0.5
  9
$CHAMFERC
 40
1.0
  9
$CHAMFERD
 40
0.0
  9
$SKPOLY
 70
     0
  9
$TDCREATE
 40
2457917.616342581
  9
$TDUCREATE
 40
2457917.241342593
  9
$TDUPDATE
 40
2457917.616342581
  9
$TDUUPDATE
 40
2457917.241342593
  9
$TDINDWG
 40
0.0000000116
  9
$TDUSRTIMER
 40
0.0000000116
  9
$USRTIMER
 70
     1
  9
$ANGBASE
 50
0.0
  9
$ANGDIR
 70
     0
  9
$PDMODE
 70
     0
  9
$PDSIZE
 40
0.0
  9
$PLINEWID
 40
0.0
  9
$SPLFRAME
 70
     0
  9
$SPLINETYPE
 70
     6
  9
$SPLINESEGS
 70
     8
  9
$HANDSEED
  5
ED
  9
$SURFTAB1
 70
     6
  9
$SURFTAB2
 70
     6
  9
$SURFTYPE
 70
     6
  9
$SURFU
 70
     6
  9
$SURFV
 70
     6
  9
$UCSBASE
  2

  9
$UCSNAME
  2

  9
$UCSORG
 10
0.0
 20
0.0
 30
0.0
  9
$UCSXDIR
 10
1.0
 20
0.0
 30
0.0
  9
$UCSYDIR
 10
0.0
 20
1.0
 30
0.0
  9
$UCSORTHOREF
  2

  9
$UCSORTHOVIEW
 70
     0
  9
$UCSORGTOP
 10
0.0
 20
0.0
 30
0.0
  9
$UCSORGBOTTOM
 10
0.0
 20
0.0
 30
0.0
  9
$UCSORGLEFT
 10
0.0
 20
0.0
 30
0.0
  9
$UCSORGRIGHT
 10
0.0
 20
0.0
 30
0.0
  9
$UCSORGFRONT
 10
0.0
 20
0.0
 30
0.0
  9
$UCSORGBACK
 10
0.0
 20
0.0
 30
0.0
  9
$PUCSBASE
  2

  9
$PUCSNAME
  2

  9
$PUCSORG
 10
0.0
 20
0.0
 30
0.0
  9
$PUCSXDIR
 10
1.0
 20
0.0
 30
0.0
  9
$PUCSYDIR
 10
0.0
 20
1.0
 30
0.0
  9
$PUCSORTHOREF
  2

  9
$PUCSORTHOVIEW
 70
     0
  9
$PUCSORGTOP
 10
0.0
 20
0.0
 30
0.0
  9
$PUCSORGBOTTOM
 10
0.0
 20
0.0
 30
0.0
  9
$PUCSORGLEFT
 10
0.0
 20
0.0
 30
0.0
  9
$PUCSORGRIGHT
 10
0.0
 20
0.0
 30
0.0
  9
$PUCSORGFRONT
 10
0.0
 20
0.0
 30
0.0
  9
$PUCSORGBACK
 10
0.0
 20
0.0
 30
0.0
  9
$USERI1
 70
     0
  9
$USERI2
 70
     0
  9
$USERI3
 70
     0
  9
$USERI4
 70
     0
  9
$USERI5
 70
     0
  9
$USERR1
 40
0.0
  9
$USERR2
 40
0.0
  9
$USERR3
 40
0.0
  9
$USERR4
 40
0.0
  9
$USERR5
 40
0.0
  9
$WORLDVIEW
 70
     1
  9
$SHADEDGE
 70
     3
  9
$SHADEDIF
 70
    70
  9
$TILEMODE
 70
     1
  9
$MAXACTVP
 70
    64
  9
$PINSBASE
 10
0.0
 20
0.0
 30
0.0
  9
$PLIMCHECK
 70
     0
  9
$PEXTMIN
 10
1.000000000000000E+20
 20
1.000000000000000E+20
 30
1.000000000000000E+20
  9
$PEXTMAX
 10
-1.000000000000000E+20
 20
-1.000000000000000E+20
 30
-1.000000000000000E+20
  9
$PLIMMIN
 10
0.0
 20
0.0
  9
$PLIMMAX
 10
12.0
 20
9.0
  9
$UNITMODE
 70
     0
  9
$VISRETAIN
 70
     1
  9
$PLINEGEN
 70
     0
  9
$PSLTSCALE
 70
     1
  9
$TREEDEPTH
 70
  3020
  9
$CMLSTYLE
  2
Standard
  9
$CMLJUST
 70
     0
  9
$CMLSCALE
 40
1.0
  9
$PROXYGRAPHICS
 70
     1
  9
$MEASUREMENT
 70
     0
  9
$CELWEIGHT
370
    -1
  9
$ENDCAPS
280
     0
  9
$JOINSTYLE
280
     0
  9
$LWDISPLAY
290
     1
  9
$INSUNITS
 70
     1
  9
$HYPERLINKBASE
  1

  9
$STYLESHEET
  1

  9
$XEDIT
290
     1
  9
$CEPSNTYPE
380
     0
  9
$PSTYLEMODE
290
     1
  9
$FINGERPRINTGUID
  2
{476DC6A7-8B9F-9208-BB91-1D4118B82836}
  9
$VERSIONGUID
  2
{FAEB1C32-E019-11D5-929B-00C0DF256EC4}
  9
$EXTNAMES
290
     1
  9
$PSVPSCALE
 40
0.0
  9
$OLESTARTUP
290
     0
  9
$SORTENTS
280
   127
  9
$INDEXCTL
280
     0
  9
$HIDETEXT
280
     1
  9
$XCLIPFRAME
280
     2
  9
$HALOGAP
280
     0
  9
$OBSCOLOR
 70
   257
  9
$OBSLTYPE
280
     0
  9
$INTERSECTIONDISPLAY
280
     0
  9
$INTERSECTIONCOLOR
 70
   257
  9
$DIMASSOC
280
     2
  9
$PROJECTNAME
  1

  9
$CAMERADISPLAY
290
     0
  9
$LENSLENGTH
 40
50.0
  9
$CAMERAHEIGHT
 40
0.0
  9
$STEPSPERSEC
 40
2.0
  9
$STEPSIZE
 40
6.0
  9
$3DDWFPREC
 40
2.0
  9
$PSOLWIDTH
 40
0.25
  9
$PSOLHEIGHT
 40
4.0
  9
$LOFTANG1
 40
1.570796326794897
  9
$LOFTANG2
 40
1.570796326794897
  9
$LOFTMAG1
 40
0.0
  9
$LOFTMAG2
 40
0.0
  9
$LOFTPARAM
 70
     7
  9
$LOFTNORMALS
280
     1
  9
$LATITUDE
 40
37.795
  9
$LONGITUDE
 40
-122.394
  9
$NORTHDIRECTION
 40
0.0
  9
$TIMEZONE
 70
 -8000
  9
$LIGHTGLYPHDISPLAY
280
     1
  9
$TILEMODELIGHTSYNCH
280
     1
  9
$CMATERIAL
347
3C
  9
$SOLIDHIST
280
     1
  9
$SHOWHIST
280
     1
  9
$DWFFRAME
280
     2
  9
$DGNFRAME
280
     2
  9
$REALWORLDSCALE
290
     1
  9
$INTERFERECOLOR
 62
   256
  9
$CSHADOW
280
     0
  9
$SHADOWPLANELOCATION
 40
0.0
  0
ENDSEC
  0
SECTION
  2
CLASSES
  0
CLASS
  1
ACDBDICTIONARYWDFLT
  2
AcDbDictionaryWithDefault
  3
ObjectDBX Classes
 90
        0
 91
        4
280
     0
281
     0
  0
CLASS
  1
VISUALSTYLE
  2
AcDbVisualStyle
  3
ObjectDBX Classes
 90
     4095
 91
        4
280
     0
281
     0
  0
CLASS
  1
MATERIAL
  2
AcDbMaterial
  3
ObjectDBX Classes
 90
     1153
 91
        4
280
     0
281
     0
  0
CLASS
  1
SUN
  2
AcDbSun
  3
SCENEOE
 90
     1024
 91
        4
280
     0
281
     0
  0
ENDSEC
  0
SECTION
  2
TABLES
  0
TABLE
  2
VPORT
  5
8
330
0
100
AcDbSymbolTable
 70
     1
  0
VPORT
  5
29
330
8
100
AcDbSymbolTableRecord
100
AcDbViewportTableRecord
  2
*Active
 70
     0
 10
0.0
 20
0.0
 11
1.0
 21
1.0
 12
0.0
 22
0.0
 13
0.0
 23
0.0
 14
0.5
 24
0.5
 15
0.5
 25
0.5
 16
0.0
 26
0.0
 36
1.0
 17
91.00082462281999
 27
-128.4993055234307
 37
0.0
 40
256.9986110468615
 41
0.7081814508812795
 42
50.0
 43
0.0
 44
0.0
 50
0.0
 51
0.0
 71
     0
 72
   100
 73
     1
 74
     3
 75
     0
 76
     0
 77
     0
 78
     0
281
     0
 65
     1
110
0.0
120
0.0
130
0.0
111
1.0
121
0.0
131
0.0
112
0.0
122
1.0
132
0.0
 79
     0
146
0.0
 60
     3
 61
     5
292
     1
282
     1
141
0.0
142
0.0
 63
   250
361
3F
  0
ENDTAB
  0
TABLE
  2
LTYPE
  5
5
330
0
100
AcDbSymbolTable
 70
     1
  0
LTYPE
  5
14
330
5
100
AcDbSymbolTableRecord
100
AcDbLinetypeTableRecord
  2
ByBlock
 70
     0
  3

 72
    65
 73
     0
 40
0.0
  0
LTYPE
  5
15
330
5
100
AcDbSymbolTableRecord
100
AcDbLinetypeTableRecord
  2
ByLayer
 70
     0
  3

 72
    65
 73
     0
 40
0.0
  0
LTYPE
  5
16
330
5
100
AcDbSymbolTableRecord
100
AcDbLinetypeTableRecord
  2
Continuous
 70
     0
  3
Solid line
 72
    65
 73
     0
 40
0.0
  0
ENDTAB
  0
TABLE
  2
LAYER
  5
2
330
0
100
AcDbSymbolTable
 70
     2
  0
LAYER
  5
10
330
2
100
AcDbSymbolTableRecord
100
AcDbLayerTableRecord
  2
0
 70
     0
 62
     7
  6
Continuous
370
    -3
390
F
347
3E
  0
LAYER
  5
40
330
2
100
AcDbSymbolTableRecord
100
AcDbLayerTableRecord
  2
_U+30EC_U+30A4_U+30E4_U+30FC 1
 70
     0
 62
     7
  6
Continuous
370
    -3
390
F
347
3E
  0
ENDTAB
  0
TABLE
  2
STYLE
  5
3
330
0
100
AcDbSymbolTable
 70
     1
  0
STYLE
  5
11
330
3
100
AcDbSymbolTableRecord
100
AcDbTextStyleTableRecord
  2
Standard
 70
     0
 40
0.0
 41
1.0
 50
0.0
 71
     0
 42
0.2
  3
txt
  4

  0
ENDTAB
  0
TABLE
  2
VIEW
  5
6
330
0
100
AcDbSymbolTable
 70
     0
  0
ENDTAB
  0
TABLE
  2
UCS
  5
7
330
0
100
AcDbSymbolTable
 70
     0
  0
ENDTAB
  0
TABLE
  2
APPID
  5
9
330
0
100
AcDbSymbolTable
 70
     1
  0
APPID
  5
12
330
9
100
AcDbSymbolTableRecord
100
AcDbRegAppTableRecord
  2
ACAD
 70
     0
  0
ENDTAB
  0
TABLE
  2
DIMSTYLE
  5
A
330
0
100
AcDbSymbolTable
 70
     1
100
AcDbDimStyleTable
  0
DIMSTYLE
105
27
330
A
100
AcDbSymbolTableRecord
100
AcDbDimStyleTableRecord
  2
Standard
 70
     0
178
     0
340
11
  0
ENDTAB
  0
TABLE
  2
BLOCK_RECORD
  5
1
330
0
100
AcDbSymbolTable
 70
     7
  0
BLOCK_RECORD
  5
1F
330
1
100
AcDbSymbolTableRecord
100
AcDbBlockTableRecord
  2
*Model_Space
340
22
 70
     0
280
     1
281
     0
  0
BLOCK_RECORD
  5
1B
330
1
100
AcDbSymbolTableRecord
100
AcDbBlockTableRecord
  2
*Paper_Space
340
1E
 70
     0
280
     1
281
     0
  0
BLOCK_RECORD
  5
23
330
1
100
AcDbSymbolTableRecord
100
AcDbBlockTableRecord
  2
*Paper_Space0
340
26
 70
     0
280
     1
281
     0
  0
BLOCK_RECORD
  5
41
330
1
100
AcDbSymbolTableRecord
100
AcDbBlockTableRecord
  2
block 2
340
0
102
{BLKREFS
331
42
102
}
 70
     0
280
     1
281
     0
  0
BLOCK_RECORD
  5
8F
330
1
100
AcDbSymbolTableRecord
100
AcDbBlockTableRecord
  2
block 3
340
0
102
{BLKREFS
331
90
102
}
 70
     0
280
     1
281
     0
  0
BLOCK_RECORD
  5
A5
330
1
100
AcDbSymbolTableRecord
100
AcDbBlockTableRecord
  2
block 4
340
0
102
{BLKREFS
331
A6
102
}
 70
     0
280
     1
281
     0
  0
BLOCK_RECORD
  5
BE
330
1
100
AcDbSymbolTableRecord
100
AcDbBlockTableRecord
  2
block 5
340
0
102
{BLKREFS
331
BF
102
}
 70
     0
280
     1
281
     0
  0
BLOCK_RECORD
  5
CC
330
1
100
AcDbSymbolTableRecord
100
AcDbBlockTableRecord
  2
block 6
340
0
102
{BLKREFS
331
CD
102
}
 70
     0
280
     1
281
     0
  0
BLOCK_RECORD
  5
E5
330
1
100
AcDbSymbolTableRecord
100
AcDbBlockTableRecord
  2
block 7
340
0
102
{BLKREFS
331
E6
102
}
 70
     0
280
     1
281
     0
  0
ENDTAB
  0
ENDSEC
  0
SECTION
  2
BLOCKS
  0
BLOCK
  5
20
330
1F
100
AcDbEntity
  8
0
100
AcDbBlockBegin
  2
*Model_Space
 70
     0
 10
0.0
 20
0.0
 30
0.0
  3
*Model_Space
  1

  0
ENDBLK
  5
21
330
1F
100
AcDbEntity
  8
0
100
AcDbBlockEnd
  0
BLOCK
  5
1C
330
1B
100
AcDbEntity
 67
     1
  8
0
100
AcDbBlockBegin
  2
*Paper_Space
 70
     0
 10
0.0
 20
0.0
 30
0.0
  3
*Paper_Space
  1

  0
ENDBLK
  5
1D
330
1B
100
AcDbEntity
 67
     1
  8
0
100
AcDbBlockEnd
  0
BLOCK
  5
24
330
23
100
AcDbEntity
  8
0
100
AcDbBlockBegin
  2
*Paper_Space0
 70
     0
 10
0.0
 20
0.0
 30
0.0
  3
*Paper_Space0
  1

  0
ENDBLK
  5
25
330
23
100
AcDbEntity
  8
0
100
AcDbBlockEnd
  0
BLOCK
  5
43
330
41
100
AcDbEntity
  8
0
100
AcDbBlockBegin
  2
block 2
 70
     0
 10
0.0
 20
0.0
 30
0.0
  3
block 2
  1

  0
POLYLINE
  5
45
330
41
100
AcDbEntity
  8
_U+30EC_U+30A4_U+30E4_U+30FC 1
370
     0
100
AcDb2dPolyline
 66
     1
 10
0.0
 20
0.0
 30
0.0
  0
VERTEX
  5
46
330
45
100
AcDbEntity
  8
_U+30EC_U+30A4_U+30E4_U+30FC 1
370
     0
100
AcDbVertex
100
AcDb2dVertex
 10
76.77774220790327
 20
-134.4227971886163
 30
0.0
  0
VERTEX
  5
47
330
45
100
AcDbEntity
  8
_U+30EC_U+30A4_U+30E4_U+30FC 1
370
     0
100
AcDbVertex
100
AcDb2dVertex
 10
86.78230806377665
 20
-134.4227971886163
 30
0.0
  0
VERTEX
  5
48
330
45
100
AcDbEntity
  8
_U+30EC_U+30A4_U+30E4_U+30FC 1
370
     0
100
AcDbVertex
100
AcDb2dVertex
 10
86.72374695415955
 20
-132.4825194113236
 30
0.0
  0
VERTEX
  5
49
330
45
100
AcDbEntity
  8
_U+30EC_U+30A4_U+30E4_U+30FC 1
370
     0
100
AcDbVertex
100
AcDb2dVertex
 10
85.75360809002098
 20
-132.5114471890942
 30
0.0
  0
VERTEX
  5
4A
330
45
100
AcDbEntity
  8
_U+30EC_U+30A4_U+30E4_U+30FC 1
370
     0
100
AcDbVertex
100
AcDb2dVertex
 10
85.72397475744364
 20
-133.4230249666444
 30
0.0
  0
VERTEX
  5
4B
330
45
100
AcDbEntity
  8
_U+30EC_U+30A4_U+30E4_U+30FC 1
370
     0
100
AcDbVertex
100
AcDb2dVertex
 10
77.77751440461918
 20
-133.4815860777406
 30
0.0
  0
VERTEX
  5
4C
330
45
100
AcDbEntity
  8
_U+30EC_U+30A4_U+30E4_U+30FC 1
370
     0
100
AcDbVertex
100
AcDb2dVertex
 10
77.77751440461918
 20
-125.8522727463149
 30
0.0
  0
VERTEX
  5
4D
330
45
100
AcDbEntity
  8
_U+30EC_U+30A4_U+30E4_U+30FC 1
370
     0
100
AcDbVertex
100
AcDb2dVertex
 10
94.77801619312247
 20
-125.8522727463149
 30
0.0
  0
VERTEX
  5
4E
330
45
100
AcDbEntity
  8
_U+30EC_U+30A4_U+30E4_U+30FC 1
370
     0
100
AcDbVertex
100
AcDb2dVertex
 10
94.77801619312247
 20
-124.8525005243423
 30
0.0
  0
VERTEX
  5
4F
330
45
100
AcDbEntity
  8
_U+30EC_U+30A4_U+30E4_U+30FC 1
370
     0
100
AcDbVertex
100
AcDb2dVertex
 10
76.77774220790327
 20
-124.8525005243423
 30
0.0
  0
VERTEX
  5
50
330
45
100
AcDbEntity
  8
_U+30EC_U+30A4_U+30E4_U+30FC 1
370
     0
100
AcDbVertex
100
AcDb2dVertex
 10
76.77774220790327
 20
-134.4227971886163
 30
0.0
  0
SEQEND
  5
52
330
45
100
AcDbEntity
  8
_U+30EC_U+30A4_U+30E4_U+30FC 1
370
     0
  0
HATCH
  5
51
330
41
100
AcDbEntity
  8
_U+30EC_U+30A4_U+30E4_U+30FC 1
 62
   253
420
 11711154
100
AcDbHatch
 10
0.0
 20
0.0
 30
0.0
210
0.0
220
0.0
230
1.0
  2
SOLID
 70
     1
 71
     0
 91
        1
 92
        1
 93
       10
 72
     1
 10
76.77774220790327
 20
-134.4227971886163
 11
86.78230806377665
 21
-134.4227971886163
 72
     1
 10
86.78230806377665
 20
-134.4227971886163
 11
86.72374695415955
 21
-132.4825194113236
 72
     1
 10
86.72374695415955
 20
-132.4825194113236
 11
85.75360809002098
 21
-132.5114471890942
 72
     1
 10
85.75360809002098
 20
-132.5114471890942
 11
85.72397475744364
 21
-133.4230249666444
 72
     1
 10
85.72397475744364
 20
-133.4230249666444
 11
77.77751440461918
 21
-133.4815860777406
 72
     1
 10
77.77751440461918
 20
-133.4815860777406
 11
77.77751440461918
 21
-125.8522727463149
 72
     1
 10
77.77751440461918
 20
-125.8522727463149
 11
94.77801619312247
 21
-125.8522727463149
 72
     1
 10
94.77801619312247
 20
-125.8522727463149
 11
94.77801619312247
 21
-124.8525005243423
 72
     1
 10
94.77801619312247
 20
-124.8525005243423
 11
76.77774220790327
 21
-124.8525005243423
 72
     1
 10
76.77774220790327
 20
-124.8525005243423
 11
76.77774220790327
 21
-134.4227971886163
 97
        0
 75
     2
 76
     1
 98
        0
  0
POLYLINE
  5
53
330
41
100
AcDbEntity
  8
_U+30EC_U+30A4_U+30E4_U+30FC 1
 62
     7
420
 16777215
370
    25
100
AcDb2dPolyline
 66
     1
 10
0.0
 20
0.0
 30
0.0
  0
VERTEX
  5
54
330
53
100
AcDbEntity
  8
_U+30EC_U+30A4_U+30E4_U+30FC 1
 62
     7
420
 16777215
370
    25
100
AcDbVertex
100
AcDb2dVertex
 10
76.77774220790327
 20
-134.3525238553008
 30
0.0
  0
VERTEX
  5
55
330
53
100
AcDbEntity
  8
_U+30EC_U+30A4_U+30E4_U+30FC 1
 62
     7
420
 16777215
370
    25
100
AcDbVertex
100
AcDb2dVertex
 10
76.77774220790327
 20
-124.8525005243423
 30
0.0
  0
SEQEND
  5
56
330
53
100
AcDbEntity
  8
_U+30EC_U+30A4_U+30E4_U+30FC 1
 62
     7
420
 16777215
370
    25
  0
POLYLINE
  5
57
330
41
100
AcDbEntity
  8
_U+30EC_U+30A4_U+30E4_U+30FC 1
 62
     7
420
 16777215
370
    25
100
AcDb2dPolyline
 66
     1
 10
0.0
 20
0.0
 30
0.0
  0
VERTEX
  5
58
330
57
100
AcDbEntity
  8
_U+30EC_U+30A4_U+30E4_U+30FC 1
 62
     7
420
 16777215
370
    25
100
AcDbVertex
100
AcDb2dVertex
 10
94.77734591536179
 20
-125.8522727463149
 30
0.0
  0
VERTEX
  5
59
330
57
100
AcDbEntity
  8
_U+30EC_U+30A4_U+30E4_U+30FC 1
 62
     7
420
 16777215
370
    25
100
AcDbVertex
100
AcDb2dVertex
 10
94.77734591536179
 20
-124.8525005243423
 30
0.0
  0
SEQEND
  5
5A
330
57
100
AcDbEntity
  8
_U+30EC_U+30A4_U+30E4_U+30FC 1
 62
     7
420
 16777215
370
    25
  0
POLYLINE
  5
5B
330
41
100
AcDbEntity
  8
_U+30EC_U+30A4_U+30E4_U+30FC 1
 62
     7
420
 16777215
370
    25
100
AcDb2dPolyline
 66
     1
 10
0.0
 20
0.0
 30
0.0
  0
VERTEX
  5
5C
330
5B
100
AcDbEntity
  8
_U+30EC_U+30A4_U+30E4_U+30FC 1
 62
     7
420
 16777215
370
    25
100
AcDbVertex
100
AcDb2dVertex
 10
77.77751440461918
 20
-125.8522727463149
 30
0.0
  0
VERTEX
  5
5D
330
5B
100
AcDbEntity
  8
_U+30EC_U+30A4_U+30E4_U+30FC 1
 62
     7
420
 16777215
370
    25
100
AcDbVertex
100
AcDb2dVertex
 10
94.77734591536179
 20
-125.8522727463149
 30
0.0
  0
SEQEND
  5
5E
330
5B
100
AcDbEntity
  8
_U+30EC_U+30A4_U+30E4_U+30FC 1
 62
     7
420
 16777215
370
    25
  0
POLYLINE
  5
5F
330
41
100
AcDbEntity
  8
_U+30EC_U+30A4_U+30E4_U+30FC 1
 62
     7
420
 16777215
370
    25
100
AcDb2dPolyline
 66
     1
 10
0.0
 20
0.0
 30
0.0
  0
VERTEX
  5
60
330
5F
100
AcDbEntity
  8
_U+30EC_U+30A4_U+30E4_U+30FC 1
 62
     7
420
 16777215
370
    25
100
AcDbVertex
100
AcDb2dVertex
 10
76.77774220790327
 20
-134.4545119108309
 30
0.0
  0
VERTEX
  5
61
330
5F
100
AcDbEntity
  8
_U+30EC_U+30A4_U+30E4_U+30FC 1
 62
     7
420
 16777215
370
    25
100
AcDbVertex
100
AcDb2dVertex
 10
86.7774750083444
 20
-134.4545119108309
 30
0.0
  0
SEQEND
  5
62
330
5F
100
AcDbEntity
  8
_U+30EC_U+30A4_U+30E4_U+30FC 1
 62
     7
420
 16777215
370
    25
  0
POLYLINE
  5
63
330
41
100
AcDbEntity
  8
_U+30EC_U+30A4_U+30E4_U+30FC 1
 62
     7
420
 16777215
370
    25
100
AcDb2dPolyline
 66
     1
 10
0.0
 20
0.0
 30
0.0
  0
VERTEX
  5
64
330
63
100
AcDbEntity
  8
_U+30EC_U+30A4_U+30E4_U+30FC 1
 62
     7
420
 16777215
370
    25
100
AcDbVertex
100
AcDb2dVertex
 10
76.77774220790327
 20
-124.8525005243423
 30
0.0
  0
VERTEX
  5
65
330
63
100
AcDbEntity
  8
_U+30EC_U+30A4_U+30E4_U+30FC 1
 62
     7
420
 16777215
370
    25
100
AcDbVertex
100
AcDb2dVertex
 10
94.77734591536179
 20
-124.8525005243423
 30
0.0
  0
SEQEND
  5
66
330
63
100
AcDbEntity
  8
_U+30EC_U+30A4_U+30E4_U+30FC 1
 62
     7
420
 16777215
370
    25
  0
POLYLINE
  5
67
330
41
100
AcDbEntity
  8
_U+30EC_U+30A4_U+30E4_U+30FC 1
 62
     7
420
 16777215
370
    25
100
AcDb2dPolyline
 66
     1
 10
0.0
 20
0.0
 30
0.0
  0
VERTEX
  5
68
330
67
100
AcDbEntity
  8
_U+30EC_U+30A4_U+30E4_U+30FC 1
 62
     7
420
 16777215
370
    25
100
AcDbVertex
100
AcDb2dVertex
 10
77.77751440461918
 20
-133.3527516333283
 30
0.0
  0
VERTEX
  5
69
330
67
100
AcDbEntity
  8
_U+30EC_U+30A4_U+30E4_U+30FC 1
 62
     7
420
 16777215
370
    25
100
AcDbVertex
100
AcDb2dVertex
 10
77.77751440461918
 20
-125.8522727463149
 30
0.0
  0
SEQEND
  5
6A
330
67
100
AcDbEntity
  8
_U+30EC_U+30A4_U+30E4_U+30FC 1
 62
     7
420
 16777215
370
    25
  0
POLYLINE
  5
6B
330
41
100
AcDbEntity
  8
_U+30EC_U+30A4_U+30E4_U+30FC 1
 62
     7
420
 16777215
370
    25
100
AcDb2dPolyline
 66
     1
 10
0.0
 20
0.0
 30
0.0
  0
VERTEX
  5
6C
330
6B
100
AcDbEntity
  8
_U+30EC_U+30A4_U+30E4_U+30FC 1
 62
     7
420
 16777215
370
    25
100
AcDbVertex
100
AcDb2dVertex
 10
85.77770281162849
 20
-132.4542619113309
 30
0.0
  0
VERTEX
  5
6D
330
6B
100
AcDbEntity
  8
_U+30EC_U+30A4_U+30E4_U+30FC 1
 62
     7
420
 16777215
370
    25
100
AcDbVertex
100
AcDb2dVertex
 10
86.7774750083444
 20
-132.4542619113309
 30
0.0
  0
SEQEND
  5
6E
330
6B
100
AcDbEntity
  8
_U+30EC_U+30A4_U+30E4_U+30FC 1
 62
     7
420
 16777215
370
    25
  0
POLYLINE
  5
6F
330
41
100
AcDbEntity
  8
_U+30EC_U+30A4_U+30E4_U+30FC 1
 62
     7
420
 16777215
370
    25
100
AcDb2dPolyline
 66
     1
 10
0.0
 20
0.0
 30
0.0
  0
VERTEX
  5
70
330
6F
100
AcDbEntity
  8
_U+30EC_U+30A4_U+30E4_U+30FC 1
 62
     7
420
 16777215
370
    25
100
AcDbVertex
100
AcDb2dVertex
 10
86.7774750083444
 20
-134.4545119108309
 30
0.0
  0
VERTEX
  5
71
330
6F
100
AcDbEntity
  8
_U+30EC_U+30A4_U+30E4_U+30FC 1
 62
     7
420
 16777215
370
    25
100
AcDbVertex
100
AcDb2dVertex
 10
86.7774750083444
 20
-132.4542619113309
 30
0.0
  0
SEQEND
  5
72
330
6F
100
AcDbEntity
  8
_U+30EC_U+30A4_U+30E4_U+30FC 1
 62
     7
420
 16777215
370
    25
  0
POLYLINE
  5
73
330
41
100
AcDbEntity
  8
_U+30EC_U+30A4_U+30E4_U+30FC 1
 62
     7
420
 16777215
370
    25
100
AcDb2dPolyline
 66
     1
 10
0.0
 20
0.0
 30
0.0
  0
VERTEX
  5
74
330
73
100
AcDbEntity
  8
_U+30EC_U+30A4_U+30E4_U+30FC 1
 62
     7
420
 16777215
370
    25
100
AcDbVertex
100
AcDb2dVertex
 10
85.77770281162849
 20
-133.4547396888583
 30
0.0
  0
VERTEX
  5
75
330
73
100
AcDbEntity
  8
_U+30EC_U+30A4_U+30E4_U+30FC 1
 62
     7
420
 16777215
370
    25
100
AcDbVertex
100
AcDb2dVertex
 10
85.77770281162849
 20
-132.4542619113309
 30
0.0
  0
SEQEND
  5
76
330
73
100
AcDbEntity
  8
_U+30EC_U+30A4_U+30E4_U+30FC 1
 62
     7
420
 16777215
370
    25
  0
POLYLINE
  5
77
330
41
100
AcDbEntity
  8
_U+30EC_U+30A4_U+30E4_U+30FC 1
 62
     7
420
 16777215
370
    25
100
AcDb2dPolyline
 66
     1
 10
0.0
 20
0.0
 30
0.0
  0
VERTEX
  5
78
330
77
100
AcDbEntity
  8
_U+30EC_U+30A4_U+30E4_U+30FC 1
 62
     7
420
 16777215
370
    25
100
AcDbVertex
100
AcDb2dVertex
 10
77.77751440461918
 20
-133.4547396888583
 30
0.0
  0
VERTEX
  5
79
330
77
100
AcDbEntity
  8
_U+30EC_U+30A4_U+30E4_U+30FC 1
 62
     7
420
 16777215
370
    25
100
AcDbVertex
100
AcDb2dVertex
 10
85.77770281162849
 20
-133.4547396888583
 30
0.0
  0
SEQEND
  5
7A
330
77
100
AcDbEntity
  8
_U+30EC_U+30A4_U+30E4_U+30FC 1
 62
     7
420
 16777215
370
    25
  0
SPLINE
  5
7B
330
41
100
AcDbEntity
  8
_U+30EC_U+30A4_U+30E4_U+30FC 1
 62
     7
420
 16777215
370
     9
100
AcDbSpline
210
0.0
220
0.0
230
1.0
 70
    11
 71
     3
 72
    17
 73
    13
 74
     0
 42
0.0000000001
 43
0.0000000001
 12
1.0
 22
0.0
 32
0.0
 13
1.0
 23
0.0
 33
0.0
 40
0.0
 40
0.0
 40
0.0
 40
0.0
 40
1.0
 40
1.0
 40
1.0
 40
2.0
 40
2.0
 40
2.0
 40
3.0
 40
3.0
 40
3.0
 40
4.0
 40
4.0
 40
4.0
 40
4.0
 10
76.87764887202111
 20
-138.8531921875088
 30
0.0
 10
76.87764887202111
 20
-138.7980882986338
 30
0.0
 10
76.83284609538634
 20
-138.7532855208671
 30
0.0
 10
76.77774220790327
 20
-138.7532855208671
 30
0.0
 10
76.72260304264333
 20
-138.7532855208671
 30
0.0
 10
76.67783554378543
 20
-138.7980882986338
 30
0.0
 10
76.67783554378543
 20
-138.8531921875088
 30
0.0
 10
76.67783554378543
 20
-138.9083313541618
 30
0.0
 10
76.72260304264333
 20
-138.9530988541504
 30
0.0
 10
76.77774220790327
 20
-138.9530988541504
 30
0.0
 10
76.83284609538634
 20
-138.9530988541504
 30
0.0
 10
76.87764887202111
 20
-138.9083313541618
 30
0.0
 10
76.87764887202111
 20
-138.8531921875088
 30
0.0
  0
SPLINE
  5
7C
330
41
100
AcDbEntity
  8
_U+30EC_U+30A4_U+30E4_U+30FC 1
 62
     7
420
 16777215
370
     9
100
AcDbSpline
210
0.0
220
0.0
230
1.0
 70
    11
 71
     3
 72
    17
 73
    13
 74
     0
 42
0.0000000001
 43
0.0000000001
 12
1.0
 22
0.0
 32
0.0
 13
1.0
 23
0.0
 33
0.0
 40
0.0
 40
0.0
 40
0.0
 40
0.0
 40
1.0
 40
1.0
 40
1.0
 40
2.0
 40
2.0
 40
2.0
 40
3.0
 40
3.0
 40
3.0
 40
4.0
 40
4.0
 40
4.0
 40
4.0
 10
86.7774750083444
 20
-138.8531921875088
 30
0.0
 10
86.7774750083444
 20
-138.7980882986338
 30
0.0
 10
86.73267223170963
 20
-138.7532855208671
 30
0.0
 10
86.67756834422656
 20
-138.7532855208671
 30
0.0
 10
86.6217610894558
 20
-138.7532855208671
 30
0.0
 10
86.57766386724461
 20
-138.7980882986338
 30
0.0
 10
86.57766386724461
 20
-138.8531921875088
 30
0.0
 10
86.57766386724461
 20
-138.9083313541618
 30
0.0
 10
86.6217610894558
 20
-138.9530988541504
 30
0.0
 10
86.67756834422656
 20
-138.9530988541504
 30
0.0
 10
86.73267223170963
 20
-138.9530988541504
 30
0.0
 10
86.7774750083444
 20
-138.9083313541618
 30
0.0
 10
86.7774750083444
 20
-138.8531921875088
 30
0.0
  0
SPLINE
  5
7D
330
41
100
AcDbEntity
  8
_U+30EC_U+30A4_U+30E4_U+30FC 1
 62
     7
420
 16777215
370
     9
100
AcDbSpline
210
0.0
220
0.0
230
1.0
 70
    11
 71
     3
 72
    17
 73
    13
 74
     0
 42
0.0000000001
 43
0.0000000001
 12
1.0
 22
0.0
 32
0.0
 13
1.0
 23
0.0
 33
0.0
 40
0.0
 40
0.0
 40
0.0
 40
0.0
 40
1.0
 40
1.0
 40
1.0
 40
2.0
 40
2.0
 40
2.0
 40
3.0
 40
3.0
 40
3.0
 40
4.0
 40
4.0
 40
4.0
 40
4.0
 10
98.87768192186462
 20
-134.4551821886082
 30
0.0
 10
98.87768192186462
 20
-134.4000782997333
 30
0.0
 10
98.83291442300674
 20
-134.3552755219666
 30
0.0
 10
98.77707219752781
 20
-134.3552755219666
 30
0.0
 10
98.72196581472616
 20
-134.3552755219666
 30
0.0
 10
98.6771630380914
 20
-134.4000782997333
 30
0.0
 10
98.6771630380914
 20
-134.4551821886082
 30
0.0
 10
98.6771630380914
 20
-134.5103213552613
 30
0.0
 10
98.72196581472616
 20
-134.5550888552499
 30
0.0
 10
98.77707219752781
 20
-134.5550888552499
 30
0.0
 10
98.83291442300674
 20
-134.5550888552499
 30
0.0
 10
98.87768192186462
 20
-134.5103213552613
 30
0.0
 10
98.87768192186462
 20
-134.4551821886082
 30
0.0
  0
SPLINE
  5
7E
330
41
100
AcDbEntity
  8
_U+30EC_U+30A4_U+30E4_U+30FC 1
 62
     7
420
 16777215
370
     9
100
AcDbSpline
210
0.0
220
0.0
230
1.0
 70
    11
 71
     3
 72
    17
 73
    13
 74
     0
 42
0.0000000001
 43
0.0000000001
 12
1.0
 22
0.0
 32
0.0
 13
1.0
 23
0.0
 33
0.0
 40
0.0
 40
0.0
 40
0.0
 40
0.0
 40
1.0
 40
1.0
 40
1.0
 40
2.0
 40
2.0
 40
2.0
 40
3.0
 40
3.0
 40
3.0
 40
4.0
 40
4.0
 40
4.0
 40
4.0
 10
98.87768192186462
 20
-132.4542619113309
 30
0.0
 10
98.87768192186462
 20
-132.399158022456
 30
0.0
 10
98.83291442300674
 20
-132.3543552446893
 30
0.0
 10
98.77707219752781
 20
-132.3543552446893
 30
0.0
 10
98.72196581472616
 20
-132.3543552446893
 30
0.0
 10
98.6771630380914
 20
-132.399158022456
 30
0.0
 10
98.6771630380914
 20
-132.4542619113309
 30
0.0
 10
98.6771630380914
 20
-132.509401077984
 30
0.0
 10
98.72196581472616
 20
-132.5541685779725
 30
0.0
 10
98.77707219752781
 20
-132.5541685779725
 30
0.0
 10
98.83291442300674
 20
-132.5541685779725
 30
0.0
 10
98.87768192186462
 20
-132.509401077984
 30
0.0
 10
98.87768192186462
 20
-132.4542619113309
 30
0.0
  0
SPLINE
  5
7F
330
41
100
AcDbEntity
  8
_U+30EC_U+30A4_U+30E4_U+30FC 1
 62
     7
420
 16777215
370
     9
100
AcDbSpline
210
0.0
220
0.0
230
1.0
 70
    11
 71
     3
 72
    17
 73
    13
 74
     0
 42
0.0000000001
 43
0.0000000001
 12
1.0
 22
0.0
 32
0.0
 13
1.0
 23
0.0
 33
0.0
 40
0.0
 40
0.0
 40
0.0
 40
0.0
 40
1.0
 40
1.0
 40
1.0
 40
2.0
 40
2.0
 40
2.0
 40
3.0
 40
3.0
 40
3.0
 40
4.0
 40
4.0
 40
4.0
 40
4.0
 10
98.87768192186462
 20
-125.8522727463149
 30
0.0
 10
98.87768192186462
 20
-125.7971335796618
 30
0.0
 10
98.83291442300674
 20
-125.7523660796729
 30
0.0
 10
98.77707219752781
 20
-125.7523660796729
 30
0.0
 10
98.72196581472616
 20
-125.7523660796729
 30
0.0
 10
98.6771630380914
 20
-125.7971335796618
 30
0.0
 10
98.6771630380914
 20
-125.8522727463149
 30
0.0
 10
98.6771630380914
 20
-125.9073766351898
 30
0.0
 10
98.72196581472616
 20
-125.9521794129565
 30
0.0
 10
98.77707219752781
 20
-125.9521794129565
 30
0.0
 10
98.83291442300674
 20
-125.9521794129565
 30
0.0
 10
98.87768192186462
 20
-125.9073766351898
 30
0.0
 10
98.87768192186462
 20
-125.8522727463149
 30
0.0
  0
SPLINE
  5
80
330
41
100
AcDbEntity
  8
_U+30EC_U+30A4_U+30E4_U+30FC 1
 62
     7
420
 16777215
370
     9
100
AcDbSpline
210
0.0
220
0.0
230
1.0
 70
    11
 71
     3
 72
    17
 73
    13
 74
     0
 42
0.0000000001
 43
0.0000000001
 12
1.0
 22
0.0
 32
0.0
 13
1.0
 23
0.0
 33
0.0
 40
0.0
 40
0.0
 40
0.0
 40
0.0
 40
1.0
 40
1.0
 40
1.0
 40
2.0
 40
2.0
 40
2.0
 40
3.0
 40
3.0
 40
3.0
 40
4.0
 40
4.0
 40
4.0
 40
4.0
 10
98.87768192186462
 20
-124.8525005243423
 30
0.0
 10
98.87768192186462
 20
-124.7966910799119
 30
0.0
 10
98.83291442300674
 20
-124.7518883021455
 30
0.0
 10
98.77707219752781
 20
-124.7518883021455
 30
0.0
 10
98.72196581472616
 20
-124.7518883021455
 30
0.0
 10
98.6771630380914
 20
-124.7966910799119
 30
0.0
 10
98.6771630380914
 20
-124.8525005243423
 30
0.0
 10
98.6771630380914
 20
-124.9076044132176
 30
0.0
 10
98.72196581472616
 20
-124.9524071909843
 30
0.0
 10
98.77707219752781
 20
-124.9524071909843
 30
0.0
 10
98.83291442300674
 20
-124.9524071909843
 30
0.0
 10
98.87768192186462
 20
-124.9076044132176
 30
0.0
 10
98.87768192186462
 20
-124.8525005243423
 30
0.0
  0
SPLINE
  5
81
330
41
100
AcDbEntity
  8
_U+30EC_U+30A4_U+30E4_U+30FC 1
 62
     7
420
 16777215
370
     9
100
AcDbSpline
210
0.0
220
0.0
230
1.0
 70
    11
 71
     3
 72
    17
 73
    13
 74
     0
 42
0.0000000001
 43
0.0000000001
 12
1.0
 22
0.0
 32
0.0
 13
1.0
 23
0.0
 33
0.0
 40
0.0
 40
0.0
 40
0.0
 40
0.0
 40
1.0
 40
1.0
 40
1.0
 40
2.0
 40
2.0
 40
2.0
 40
3.0
 40
3.0
 40
3.0
 40
4.0
 40
4.0
 40
4.0
 40
4.0
 10
94.87725257947963
 20
-120.8520710808981
 30
0.0
 10
94.87725257947963
 20
-120.7969319142453
 30
0.0
 10
94.83244980284486
 20
-120.7521644142564
 30
0.0
 10
94.77734591536179
 20
-120.7521644142564
 30
0.0
 10
94.72220675010185
 20
-120.7521644142564
 30
0.0
 10
94.67744164299745
 20
-120.7969319142453
 30
0.0
 10
94.67744164299745
 20
-120.8520710808981
 30
0.0
 10
94.67744164299745
 20
-120.9071749697733
 30
0.0
 10
94.72220675010185
 20
-120.9519777475397
 30
0.0
 10
94.77734591536179
 20
-120.9519777475397
 30
0.0
 10
94.83244980284486
 20
-120.9519777475397
 30
0.0
 10
94.87725257947963
 20
-120.9071749697733
 30
0.0
 10
94.87725257947963
 20
-120.8520710808981
 30
0.0
  0
SPLINE
  5
82
330
41
100
AcDbEntity
  8
_U+30EC_U+30A4_U+30E4_U+30FC 1
 62
     7
420
 16777215
370
     9
100
AcDbSpline
210
0.0
220
0.0
230
1.0
 70
    11
 71
     3
 72
    17
 73
    13
 74
     0
 42
0.0000000001
 43
0.0000000001
 12
1.0
 22
0.0
 32
0.0
 13
1.0
 23
0.0
 33
0.0
 40
0.0
 40
0.0
 40
0.0
 40
0.0
 40
1.0
 40
1.0
 40
1.0
 40
2.0
 40
2.0
 40
2.0
 40
3.0
 40
3.0
 40
3.0
 40
4.0
 40
4.0
 40
4.0
 40
4.0
 10
76.87764887202111
 20
-120.8520710808981
 30
0.0
 10
76.87764887202111
 20
-120.7969319142453
 30
0.0
 10
76.83284609538634
 20
-120.7521644142564
 30
0.0
 10
76.77774220790327
 20
-120.7521644142564
 30
0.0
 10
76.72260304264333
 20
-120.7521644142564
 30
0.0
 10
76.67783554378543
 20
-120.7969319142453
 30
0.0
 10
76.67783554378543
 20
-120.8520710808981
 30
0.0
 10
76.67783554378543
 20
-120.9071749697733
 30
0.0
 10
76.72260304264333
 20
-120.9519777475397
 30
0.0
 10
76.77774220790327
 20
-120.9519777475397
 30
0.0
 10
76.83284609538634
 20
-120.9519777475397
 30
0.0
 10
76.87764887202111
 20
-120.9071749697733
 30
0.0
 10
76.87764887202111
 20
-120.8520710808981
 30
0.0
  0
POLYLINE
  5
83
330
41
100
AcDbEntity
  8
_U+30EC_U+30A4_U+30E4_U+30FC 1
 62
     7
420
 16777215
370
     9
100
AcDb2dPolyline
 66
     1
 10
0.0
 20
0.0
 30
0.0
  0
VERTEX
  5
84
330
83
100
AcDbEntity
  8
_U+30EC_U+30A4_U+30E4_U+30FC 1
 62
     7
420
 16777215
370
     9
100
AcDbVertex
100
AcDb2dVertex
 10
76.77774220790327
 20
-120.8520710808981
 30
0.0
  0
VERTEX
  5
85
330
83
100
AcDbEntity
  8
_U+30EC_U+30A4_U+30E4_U+30FC 1
 62
     7
420
 16777215
370
     9
100
AcDbVertex
100
AcDb2dVertex
 10
94.77734591536179
 20
-120.8520710808981
 30
0.0
  0
SEQEND
  5
86
330
83
100
AcDbEntity
  8
_U+30EC_U+30A4_U+30E4_U+30FC 1
 62
     7
420
 16777215
370
     9
  0
POLYLINE
  5
87
330
41
100
AcDbEntity
  8
_U+30EC_U+30A4_U+30E4_U+30FC 1
 62
     7
420
 16777215
370
     9
100
AcDb2dPolyline
 66
     1
 10
0.0
 20
0.0
 30
0.0
  0
VERTEX
  5
88
330
87
100
AcDbEntity
  8
_U+30EC_U+30A4_U+30E4_U+30FC 1
 62
     7
420
 16777215
370
     9
100
AcDbVertex
100
AcDb2dVertex
 10
76.77774220790327
 20
-122.3120771916443
 30
0.0
  0
VERTEX
  5
89
330
87
100
AcDbEntity
  8
_U+30EC_U+30A4_U+30E4_U+30FC 1
 62
     7
420
 16777215
370
     9
100
AcDbVertex
100
AcDb2dVertex
 10
76.77774220790327
 20
-119.8522988589258
 30
0.0
  0
SEQEND
  5
8A
330
87
100
AcDbEntity
  8
_U+30EC_U+30A4_U+30E4_U+30FC 1
 62
     7
420
 16777215
370
     9
  0
POLYLINE
  5
8B
330
41
100
AcDbEntity
  8
_U+30EC_U+30A4_U+30E4_U+30FC 1
 62
     7
420
 16777215
370
     9
100
AcDb2dPolyline
 66
     1
 10
0.0
 20
0.0
 30
0.0
  0
VERTEX
  5
8C
330
8B
100
AcDbEntity
  8
_U+30EC_U+30A4_U+30E4_U+30FC 1
 62
     7
420
 16777215
370
     9
100
AcDbVertex
100
AcDb2dVertex
 10
94.77734591536179
 20
-122.3120771916443
 30
0.0
  0
VERTEX
  5
8D
330
8B
100
AcDbEntity
  8
_U+30EC_U+30A4_U+30E4_U+30FC 1
 62
     7
420
 16777215
370
     9
100
AcDbVertex
100
AcDb2dVertex
 10
94.77734591536179
 20
-119.8522988589258
 30
0.0
  0
SEQEND
  5
8E
330
8B
100
AcDbEntity
  8
_U+30EC_U+30A4_U+30E4_U+30FC 1
 62
     7
420
 16777215
370
     9
  0
INSERT
  5
90
330
41
100
AcDbEntity
  8
_U+30EC_U+30A4_U+30E4_U+30FC 1
100
AcDbBlockReference
  2
block 3
 10
0.0
 20
0.0
 30
0.0
  0
POLYLINE
  5
99
330
41
100
AcDbEntity
  8
_U+30EC_U+30A4_U+30E4_U+30FC 1
 62
     7
420
 16777215
370
     9
100
AcDb2dPolyline
 66
     1
 10
0.0
 20
0.0
 30
0.0
  0
VERTEX
  5
9A
330
99
100
AcDbEntity
  8
_U+30EC_U+30A4_U+30E4_U+30FC 1
 62
     7
420
 16777215
370
     9
100
AcDbVertex
100
AcDb2dVertex
 10
76.77774220790327
 20
-138.8531921875088
 30
0.0
  0
VERTEX
  5
9B
330
99
100
AcDbEntity
  8
_U+30EC_U+30A4_U+30E4_U+30FC 1
 62
     7
420
 16777215
370
     9
100
AcDbVertex
100
AcDb2dVertex
 10
86.7774750083444
 20
-138.8531921875088
 30
0.0
  0
SEQEND
  5
9C
330
99
100
AcDbEntity
  8
_U+30EC_U+30A4_U+30E4_U+30FC 1
 62
     7
420
 16777215
370
     9
  0
POLYLINE
  5
9D
330
41
100
AcDbEntity
  8
_U+30EC_U+30A4_U+30E4_U+30FC 1
 62
     7
420
 16777215
370
     9
100
AcDb2dPolyline
 66
     1
 10
0.0
 20
0.0
 30
0.0
  0
VERTEX
  5
9E
330
9D
100
AcDbEntity
  8
_U+30EC_U+30A4_U+30E4_U+30FC 1
 62
     7
420
 16777215
370
     9
100
AcDbVertex
100
AcDb2dVertex
 10
76.77774220790327
 20
-137.3931507989851
 30
0.0
  0
VERTEX
  5
9F
330
9D
100
AcDbEntity
  8
_U+30EC_U+30A4_U+30E4_U+30FC 1
 62
     7
420
 16777215
370
     9
100
AcDbVertex
100
AcDb2dVertex
 10
76.77774220790327
 20
-139.8529644094813
 30
0.0
  0
SEQEND
  5
A0
330
9D
100
AcDbEntity
  8
_U+30EC_U+30A4_U+30E4_U+30FC 1
 62
     7
420
 16777215
370
     9
  0
POLYLINE
  5
A1
330
41
100
AcDbEntity
  8
_U+30EC_U+30A4_U+30E4_U+30FC 1
 62
     7
420
 16777215
370
     9
100
AcDb2dPolyline
 66
     1
 10
0.0
 20
0.0
 30
0.0
  0
VERTEX
  5
A2
330
A1
100
AcDbEntity
  8
_U+30EC_U+30A4_U+30E4_U+30FC 1
 62
     7
420
 16777215
370
     9
100
AcDbVertex
100
AcDb2dVertex
 10
86.67756834422656
 20
-137.3931507989851
 30
0.0
  0
VERTEX
  5
A3
330
A1
100
AcDbEntity
  8
_U+30EC_U+30A4_U+30E4_U+30FC 1
 62
     7
420
 16777215
370
     9
100
AcDbVertex
100
AcDb2dVertex
 10
86.67756834422656
 20
-139.8529644094813
 30
0.0
  0
SEQEND
  5
A4
330
A1
100
AcDbEntity
  8
_U+30EC_U+30A4_U+30E4_U+30FC 1
 62
     7
420
 16777215
370
     9
  0
INSERT
  5
A6
330
41
100
AcDbEntity
  8
_U+30EC_U+30A4_U+30E4_U+30FC 1
100
AcDbBlockReference
  2
block 4
 10
0.0
 20
0.0
 30
0.0
  0
POLYLINE
  5
AE
330
41
100
AcDbEntity
  8
_U+30EC_U+30A4_U+30E4_U+30FC 1
 62
     7
420
 16777215
370
     9
100
AcDb2dPolyline
 66
     1
 10
0.0
 20
0.0
 30
0.0
  0
VERTEX
  5
AF
330
AE
100
AcDbEntity
  8
_U+30EC_U+30A4_U+30E4_U+30FC 1
 62
     7
420
 16777215
370
     9
100
AcDbVertex
100
AcDb2dVertex
 10
98.77707219752781
 20
-124.8525005243423
 30
0.0
  0
VERTEX
  5
B0
330
AE
100
AcDbEntity
  8
_U+30EC_U+30A4_U+30E4_U+30FC 1
 62
     7
420
 16777215
370
     9
100
AcDbVertex
100
AcDb2dVertex
 10
98.77707219752781
 20
-121.0821880252849
 30
0.0
  0
SEQEND
  5
B1
330
AE
100
AcDbEntity
  8
_U+30EC_U+30A4_U+30E4_U+30FC 1
 62
     7
420
 16777215
370
     9
  0
POLYLINE
  5
B2
330
41
100
AcDbEntity
  8
_U+30EC_U+30A4_U+30E4_U+30FC 1
 62
     7
420
 16777215
370
     9
100
AcDb2dPolyline
 66
     1
 10
0.0
 20
0.0
 30
0.0
  0
VERTEX
  5
B3
330
B2
100
AcDbEntity
  8
_U+30EC_U+30A4_U+30E4_U+30FC 1
 62
     7
420
 16777215
370
     9
100
AcDbVertex
100
AcDb2dVertex
 10
98.77707219752781
 20
-124.8525005243423
 30
0.0
  0
VERTEX
  5
B4
330
B2
100
AcDbEntity
  8
_U+30EC_U+30A4_U+30E4_U+30FC 1
 62
     7
420
 16777215
370
     9
100
AcDbVertex
100
AcDb2dVertex
 10
98.77707219752781
 20
-125.8522727463149
 30
0.0
  0
SEQEND
  5
B5
330
B2
100
AcDbEntity
  8
_U+30EC_U+30A4_U+30E4_U+30FC 1
 62
     7
420
 16777215
370
     9
  0
POLYLINE
  5
B6
330
41
100
AcDbEntity
  8
_U+30EC_U+30A4_U+30E4_U+30FC 1
 62
     7
420
 16777215
370
     9
100
AcDb2dPolyline
 66
     1
 10
0.0
 20
0.0
 30
0.0
  0
VERTEX
  5
B7
330
B6
100
AcDbEntity
  8
_U+30EC_U+30A4_U+30E4_U+30FC 1
 62
     7
420
 16777215
370
     9
100
AcDbVertex
100
AcDb2dVertex
 10
97.31706362834598
 20
-124.8525005243423
 30
0.0
  0
VERTEX
  5
B8
330
B6
100
AcDbEntity
  8
_U+30EC_U+30A4_U+30E4_U+30FC 1
 62
     7
420
 16777215
370
     9
100
AcDbVertex
100
AcDb2dVertex
 10
99.77754997505588
 20
-124.8525005243423
 30
0.0
  0
SEQEND
  5
B9
330
B6
100
AcDbEntity
  8
_U+30EC_U+30A4_U+30E4_U+30FC 1
 62
     7
420
 16777215
370
     9
  0
POLYLINE
  5
BA
330
41
100
AcDbEntity
  8
_U+30EC_U+30A4_U+30E4_U+30FC 1
 62
     7
420
 16777215
370
     9
100
AcDb2dPolyline
 66
     1
 10
0.0
 20
0.0
 30
0.0
  0
VERTEX
  5
BB
330
BA
100
AcDbEntity
  8
_U+30EC_U+30A4_U+30E4_U+30FC 1
 62
     7
420
 16777215
370
     9
100
AcDbVertex
100
AcDb2dVertex
 10
97.31706362834598
 20
-125.8522727463149
 30
0.0
  0
VERTEX
  5
BC
330
BA
100
AcDbEntity
  8
_U+30EC_U+30A4_U+30E4_U+30FC 1
 62
     7
420
 16777215
370
     9
100
AcDbVertex
100
AcDb2dVertex
 10
99.77754997505588
 20
-125.8522727463149
 30
0.0
  0
SEQEND
  5
BD
330
BA
100
AcDbEntity
  8
_U+30EC_U+30A4_U+30E4_U+30FC 1
 62
     7
420
 16777215
370
     9
  0
INSERT
  5
BF
330
41
100
AcDbEntity
  8
_U+30EC_U+30A4_U+30E4_U+30FC 1
100
AcDbBlockReference
  2
block 5
 10
0.0
 20
0.0
 30
0.0
  0
POLYLINE
  5
C4
330
41
100
AcDbEntity
  8
_U+30EC_U+30A4_U+30E4_U+30FC 1
 62
     7
420
 16777215
370
     9
100
AcDb2dPolyline
 66
     1
 10
0.0
 20
0.0
 30
0.0
  0
VERTEX
  5
C5
330
C4
100
AcDbEntity
  8
_U+30EC_U+30A4_U+30E4_U+30FC 1
 62
     7
420
 16777215
370
     9
100
AcDbVertex
100
AcDb2dVertex
 10
98.77707219752781
 20
-125.8522727463149
 30
0.0
  0
VERTEX
  5
C6
330
C4
100
AcDbEntity
  8
_U+30EC_U+30A4_U+30E4_U+30FC 1
 62
     7
420
 16777215
370
     9
100
AcDbVertex
100
AcDb2dVertex
 10
98.77707219752781
 20
-132.3523091335784
 30
0.0
  0
SEQEND
  5
C7
330
C4
100
AcDbEntity
  8
_U+30EC_U+30A4_U+30E4_U+30FC 1
 62
     7
420
 16777215
370
     9
  0
POLYLINE
  5
C8
330
41
100
AcDbEntity
  8
_U+30EC_U+30A4_U+30E4_U+30FC 1
 62
     7
420
 16777215
370
     9
100
AcDb2dPolyline
 66
     1
 10
0.0
 20
0.0
 30
0.0
  0
VERTEX
  5
C9
330
C8
100
AcDbEntity
  8
_U+30EC_U+30A4_U+30E4_U+30FC 1
 62
     7
420
 16777215
370
     9
100
AcDbVertex
100
AcDb2dVertex
 10
87.31764832789676
 20
-132.4542619113309
 30
0.0
  0
VERTEX
  5
CA
330
C8
100
AcDbEntity
  8
_U+30EC_U+30A4_U+30E4_U+30FC 1
 62
     7
420
 16777215
370
     9
100
AcDbVertex
100
AcDb2dVertex
 10
99.77754997505588
 20
-132.4542619113309
 30
0.0
  0
SEQEND
  5
CB
330
C8
100
AcDbEntity
  8
_U+30EC_U+30A4_U+30E4_U+30FC 1
 62
     7
420
 16777215
370
     9
  0
INSERT
  5
CD
330
41
100
AcDbEntity
  8
_U+30EC_U+30A4_U+30E4_U+30FC 1
100
AcDbBlockReference
  2
block 6
 10
0.0
 20
0.0
 30
0.0
  0
POLYLINE
  5
DD
330
41
100
AcDbEntity
  8
_U+30EC_U+30A4_U+30E4_U+30FC 1
 62
     7
420
 16777215
370
     9
100
AcDb2dPolyline
 66
     1
 10
0.0
 20
0.0
 30
0.0
  0
VERTEX
  5
DE
330
DD
100
AcDbEntity
  8
_U+30EC_U+30A4_U+30E4_U+30FC 1
 62
     7
420
 16777215
370
     9
100
AcDbVertex
100
AcDb2dVertex
 10
98.77707219752781
 20
-134.4551821886082
 30
0.0
  0
VERTEX
  5
DF
330
DD
100
AcDbEntity
  8
_U+30EC_U+30A4_U+30E4_U+30FC 1
 62
     7
420
 16777215
370
     9
100
AcDbVertex
100
AcDb2dVertex
 10
98.77707219752781
 20
-132.4542619113309
 30
0.0
  0
SEQEND
  5
E0
330
DD
100
AcDbEntity
  8
_U+30EC_U+30A4_U+30E4_U+30FC 1
 62
     7
420
 16777215
370
     9
  0
POLYLINE
  5
E1
330
41
100
AcDbEntity
  8
_U+30EC_U+30A4_U+30E4_U+30FC 1
 62
     7
420
 16777215
370
     9
100
AcDb2dPolyline
 66
     1
 10
0.0
 20
0.0
 30
0.0
  0
VERTEX
  5
E2
330
E1
100
AcDbEntity
  8
_U+30EC_U+30A4_U+30E4_U+30FC 1
 62
     7
420
 16777215
370
     9
100
AcDbVertex
100
AcDb2dVertex
 10
87.31764832789676
 20
-134.4551821886082
 30
0.0
  0
VERTEX
  5
E3
330
E1
100
AcDbEntity
  8
_U+30EC_U+30A4_U+30E4_U+30FC 1
 62
     7
420
 16777215
370
     9
100
AcDbVertex
100
AcDb2dVertex
 10
99.77754997505588
 20
-134.4551821886082
 30
0.0
  0
SEQEND
  5
E4
330
E1
100
AcDbEntity
  8
_U+30EC_U+30A4_U+30E4_U+30FC 1
 62
     7
420
 16777215
370
     9
  0
INSERT
  5
E6
330
41
100
AcDbEntity
  8
_U+30EC_U+30A4_U+30E4_U+30FC 1
100
AcDbBlockReference
  2
block 7
 10
0.0
 20
0.0
 30
0.0
  0
ENDBLK
  5
44
330
41
100
AcDbEntity
  8
0
100
AcDbBlockEnd
  0
BLOCK
  5
91
330
8F
100
AcDbEntity
  8
0
100
AcDbBlockBegin
  2
block 3
 70
     0
 10
0.0
 20
0.0
 30
0.0
  3
block 3
  1

  0
SPLINE
  5
93
330
8F
100
AcDbEntity
  8
_U+30EC_U+30A4_U+30E4_U+30FC 1
370
     0
100
AcDbSpline
210
0.0
220
0.0
230
1.0
 70
    11
 71
     3
 72
    26
 73
    22
 74
     0
 42
0.0000000001
 43
0.0000000001
 12
1.0
 22
0.0
 32
0.0
 13
1.0
 23
0.0
 33
0.0
 40
0.0
 40
0.0
 40
0.0
 40
0.0
 40
1.0
 40
1.0
 40
1.0
 40
2.0
 40
2.0
 40
2.0
 40
3.0
 40
3.0
 40
3.0
 40
4.0
 40
4.0
 40
4.0
 40
5.0
 40
5.0
 40
5.0
 40
6.0
 40
6.0
 40
6.0
 40
7.0
 40
7.0
 40
7.0
 40
7.0
 10
85.1401950199476
 20
-120.2059271617888
 30
0.0
 10
85.1401950199476
 20
-120.2059271617888
 30
0.0
 10
85.1401950199476
 20
-119.101601803992
 30
0.0
 10
85.1401950199476
 20
-119.101601803992
 30
0.0
 10
85.1401950199476
 20
-119.101601803992
 30
0.0
 10
84.81015487246066
 20
-119.101601803992
 30
0.0
 10
84.81015487246066
 20
-119.101601803992
 30
0.0
 10
84.81015487246066
 20
-119.101601803992
 30
0.0
 10
84.81015487246066
 20
-118.9536349529005
 30
0.0
 10
84.81015487246066
 20
-118.9536349529005
 30
0.0
 10
85.14226207723874
 20
-118.9388210423139
 30
0.0
 10
85.18877086628962
 20
-118.7758680258616
 30
0.0
 10
85.21839868746277
 20
-118.6616631105256
 30
0.0
 10
85.21839868746277
 20
-118.6616631105256
 30
0.0
 10
85.36447073603736
 20
-118.6616631105256
 30
0.0
 10
85.36447073603736
 20
-118.6616631105256
 30
0.0
 10
85.36447073603736
 20
-118.6616631105256
 30
0.0
 10
85.36447073603736
 20
-120.2059271617888
 30
0.0
 10
85.36447073603736
 20
-120.2059271617888
 30
0.0
 10
85.36447073603736
 20
-120.2059271617888
 30
0.0
 10
85.1401950199476
 20
-120.2059271617888
 30
0.0
 10
85.1401950199476
 20
-120.2059271617888
 30
0.0
  0
HATCH
  5
94
330
8F
100
AcDbEntity
  8
_U+30EC_U+30A4_U+30E4_U+30FC 1
 62
     7
420
 16777215
100
AcDbHatch
 10
0.0
 20
0.0
 30
0.0
210
0.0
220
0.0
230
1.0
  2
SOLID
 70
     1
 71
     0
 91
        1
 92
        1
 93
        1
 72
     4
 94
        3
 73
     0
 74
     1
 95
       26
 96
       22
 40
0.0
 40
0.0
 40
0.0
 40
0.0
 40
1.0
 40
1.0
 40
1.0
 40
2.0
 40
2.0
 40
2.0
 40
3.0
 40
3.0
 40
3.0
 40
4.0
 40
4.0
 40
4.0
 40
5.0
 40
5.0
 40
5.0
 40
6.0
 40
6.0
 40
6.0
 40
7.0
 40
7.0
 40
7.0
 40
7.0
 10
85.1401950199476
 20
-120.2059271617888
 10
85.1401950199476
 20
-120.2059271617888
 10
85.1401950199476
 20
-119.101601803992
 10
85.1401950199476
 20
-119.101601803992
 10
85.1401950199476
 20
-119.101601803992
 10
84.81015487246066
 20
-119.101601803992
 10
84.81015487246066
 20
-119.101601803992
 10
84.81015487246066
 20
-119.101601803992
 10
84.81015487246066
 20
-118.9536349529005
 10
84.81015487246066
 20
-118.9536349529005
 10
85.14226207723874
 20
-118.9388210423139
 10
85.18877086628962
 20
-118.7758680258616
 10
85.21839868746277
 20
-118.6616631105256
 10
85.21839868746277
 20
-118.6616631105256
 10
85.36447073603736
 20
-118.6616631105256
 10
85.36447073603736
 20
-118.6616631105256
 10
85.36447073603736
 20
-118.6616631105256
 10
85.36447073603736
 20
-120.2059271617888
 10
85.36447073603736
 20
-120.2059271617888
 10
85.36447073603736
 20
-120.2059271617888
 10
85.1401950199476
 20
-120.2059271617888
 10
85.1401950199476
 20
-120.2059271617888
 97
        0
 97
        0
 75
     2
 76
     1
 98
        0
  0
SPLINE
  5
95
330
8F
100
AcDbEntity
  8
_U+30EC_U+30A4_U+30E4_U+30FC 1
370
     0
100
AcDbSpline
210
0.0
220
0.0
230
1.0
 70
    11
 71
     3
 72
    29
 73
    25
 74
     0
 42
0.0000000001
 43
0.0000000001
 12
1.0
 22
0.0
 32
0.0
 13
1.0
 23
0.0
 33
0.0
 40
0.0
 40
0.0
 40
0.0
 40
0.0
 40
1.0
 40
1.0
 40
1.0
 40
2.0
 40
2.0
 40
2.0
 40
3.0
 40
3.0
 40
3.0
 40
4.0
 40
4.0
 40
4.0
 40
5.0
 40
5.0
 40
5.0
 40
6.0
 40
6.0
 40
6.0
 40
7.0
 40
7.0
 40
7.0
 40
8.0
 40
8.0
 40
8.0
 40
8.0
 10
86.36561548405096
 20
-120.2567423201962
 30
0.0
 10
86.09896509349262
 20
-120.2567423201962
 30
0.0
 10
85.84523381100398
 20
-120.1191107555605
 30
0.0
 10
85.84523381100398
 20
-119.7701225829047
 30
0.0
 10
85.84523381100398
 20
-119.5141519883506
 30
0.0
 10
85.986999490222
 20
-119.4188950981835
 30
0.0
 10
86.09276392161918
 20
-119.357572398546
 30
0.0
 10
85.96805146505314
 20
-119.2983167561997
 30
0.0
 10
85.89174260005484
 20
-119.1841118408637
 30
0.0
 10
85.89174260005484
 20
-119.0233981364768
 30
0.0
 10
85.89174260005484
 20
-118.7483072619796
 30
0.0
 10
86.09069686432802
 20
-118.6129150094093
 30
0.0
 10
86.36561548405096
 20
-118.6129150094093
 30
0.0
 10
86.64914684248703
 20
-118.6129150094093
 30
0.0
 10
86.83966062282134
 20
-118.7567477459185
 30
0.0
 10
86.83966062282134
 20
-119.0233981364768
 30
0.0
 10
86.83966062282134
 20
-119.1841118408637
 30
0.0
 10
86.76111244575765
 20
-119.2983167561997
 30
0.0
 10
86.6363999891916
 20
-119.357572398546
 30
0.0
 10
86.72528345271104
 20
-119.4083875569535
 30
0.0
 10
86.88410235458106
 20
-119.5036444471206
 30
0.0
 10
86.88410235458106
 20
-119.7659884683224
 30
0.0
 10
86.88410235458106
 20
-120.1402980927948
 30
0.0
 10
86.6047051107273
 20
-120.2567423201962
 30
0.0
 10
86.36561548405096
 20
-120.2567423201962
 30
0.0
  0
SPLINE
  5
96
330
8F
100
AcDbEntity
  8
_U+30EC_U+30A4_U+30E4_U+30FC 1
370
     0
100
AcDbSpline
210
0.0
220
0.0
230
1.0
 70
    11
 71
     3
 72
    17
 73
    13
 74
     0
 42
0.0000000001
 43
0.0000000001
 12
1.0
 22
0.0
 32
0.0
 13
1.0
 23
0.0
 33
0.0
 40
0.0
 40
0.0
 40
0.0
 40
0.0
 40
1.0
 40
1.0
 40
1.0
 40
2.0
 40
2.0
 40
2.0
 40
3.0
 40
3.0
 40
3.0
 40
4.0
 40
4.0
 40
4.0
 40
4.0
 10
86.36561548405096
 20
-119.4655761420086
 30
0.0
 10
86.22195500231604
 20
-119.4655761420086
 30
0.0
 10
86.06933727231947
 20
-119.5522202934626
 30
0.0
 10
86.06933727231947
 20
-119.7553086723181
 30
0.0
 10
86.06933727231947
 20
-119.9604641084647
 30
0.0
 10
86.1964612957252
 20
-120.0620944252796
 30
0.0
 10
86.36561548405096
 20
-120.0620944252796
 30
0.0
 10
86.55165064025445
 20
-120.0620944252796
 30
0.0
 10
86.66189369578245
 20
-119.9394490260047
 30
0.0
 10
86.66189369578245
 20
-119.7616820989658
 30
0.0
 10
86.66189369578245
 20
-119.5394734401672
 30
0.0
 10
86.49894067933013
 20
-119.4655761420086
 30
0.0
 10
86.36561548405096
 20
-119.4655761420086
 30
0.0
  0
SPLINE
  5
97
330
8F
100
AcDbEntity
  8
_U+30EC_U+30A4_U+30E4_U+30FC 1
370
     0
100
AcDbSpline
210
0.0
220
0.0
230
1.0
 70
    11
 71
     3
 72
    17
 73
    13
 74
     0
 42
0.0000000001
 43
0.0000000001
 12
1.0
 22
0.0
 32
0.0
 13
1.0
 23
0.0
 33
0.0
 40
0.0
 40
0.0
 40
0.0
 40
0.0
 40
1.0
 40
1.0
 40
1.0
 40
2.0
 40
2.0
 40
2.0
 40
3.0
 40
3.0
 40
3.0
 40
4.0
 40
4.0
 40
4.0
 40
4.0
 10
86.36561548405096
 20
-118.8054958470347
 30
0.0
 10
86.2005954103075
 20
-118.8054958470347
 30
0.0
 10
86.11619057091887
 20
-118.9005804824276
 30
0.0
 10
86.11619057091887
 20
-119.035972734998
 30
0.0
 10
86.11619057091887
 20
-119.1587903890471
 30
0.0
 10
86.18784855701207
 20
-119.2773016737397
 30
0.0
 10
86.36561548405096
 20
-119.2773016737397
 30
0.0
 10
86.54338241108985
 20
-119.2773016737397
 30
0.0
 10
86.61538490673158
 20
-119.1587903890471
 30
0.0
 10
86.61538490673158
 20
-119.035972734998
 30
0.0
 10
86.61538490673158
 20
-118.9005804824276
 30
0.0
 10
86.52856850050328
 20
-118.8054958470347
 30
0.0
 10
86.36561548405096
 20
-118.8054958470347
 30
0.0
  0
HATCH
  5
98
330
8F
100
AcDbEntity
  8
_U+30EC_U+30A4_U+30E4_U+30FC 1
 62
     7
420
 16777215
100
AcDbHatch
 10
0.0
 20
0.0
 30
0.0
210
0.0
220
0.0
230
1.0
  2
SOLID
 70
     1
 71
     0
 91
        3
 92
        1
 93
        1
 72
     4
 94
        3
 73
     0
 74
     1
 95
       29
 96
       25
 40
0.0
 40
0.0
 40
0.0
 40
0.0
 40
1.0
 40
1.0
 40
1.0
 40
2.0
 40
2.0
 40
2.0
 40
3.0
 40
3.0
 40
3.0
 40
4.0
 40
4.0
 40
4.0
 40
5.0
 40
5.0
 40
5.0
 40
6.0
 40
6.0
 40
6.0
 40
7.0
 40
7.0
 40
7.0
 40
8.0
 40
8.0
 40
8.0
 40
8.0
 10
86.36561548405096
 20
-120.2567423201962
 10
86.09896509349262
 20
-120.2567423201962
 10
85.84523381100398
 20
-120.1191107555605
 10
85.84523381100398
 20
-119.7701225829047
 10
85.84523381100398
 20
-119.5141519883506
 10
85.986999490222
 20
-119.4188950981835
 10
86.09276392161918
 20
-119.357572398546
 10
85.96805146505314
 20
-119.2983167561997
 10
85.89174260005484
 20
-119.1841118408637
 10
85.89174260005484
 20
-119.0233981364768
 10
85.89174260005484
 20
-118.7483072619796
 10
86.09069686432802
 20
-118.6129150094093
 10
86.36561548405096
 20
-118.6129150094093
 10
86.64914684248703
 20
-118.6129150094093
 10
86.83966062282134
 20
-118.7567477459185
 10
86.83966062282134
 20
-119.0233981364768
 10
86.83966062282134
 20
-119.1841118408637
 10
86.76111244575765
 20
-119.2983167561997
 10
86.6363999891916
 20
-119.357572398546
 10
86.72528345271104
 20
-119.4083875569535
 10
86.88410235458106
 20
-119.5036444471206
 10
86.88410235458106
 20
-119.7659884683224
 10
86.88410235458106
 20
-120.1402980927948
 10
86.6047051107273
 20
-120.2567423201962
 10
86.36561548405096
 20
-120.2567423201962
 97
        0
 97
        0
 92
        1
 93
        1
 72
     4
 94
        3
 73
     0
 74
     1
 95
       17
 96
       13
 40
0.0
 40
0.0
 40
0.0
 40
0.0
 40
1.0
 40
1.0
 40
1.0
 40
2.0
 40
2.0
 40
2.0
 40
3.0
 40
3.0
 40
3.0
 40
4.0
 40
4.0
 40
4.0
 40
4.0
 10
86.36561548405096
 20
-119.4655761420086
 10
86.22195500231604
 20
-119.4655761420086
 10
86.06933727231947
 20
-119.5522202934626
 10
86.06933727231947
 20
-119.7553086723181
 10
86.06933727231947
 20
-119.9604641084647
 10
86.1964612957252
 20
-120.0620944252796
 10
86.36561548405096
 20
-120.0620944252796
 10
86.55165064025445
 20
-120.0620944252796
 10
86.66189369578245
 20
-119.9394490260047
 10
86.66189369578245
 20
-119.7616820989658
 10
86.66189369578245
 20
-119.5394734401672
 10
86.49894067933013
 20
-119.4655761420086
 10
86.36561548405096
 20
-119.4655761420086
 97
        0
 97
        0
 92
        1
 93
        1
 72
     4
 94
        3
 73
     0
 74
     1
 95
       17
 96
       13
 40
0.0
 40
0.0
 40
0.0
 40
0.0
 40
1.0
 40
1.0
 40
1.0
 40
2.0
 40
2.0
 40
2.0
 40
3.0
 40
3.0
 40
3.0
 40
4.0
 40
4.0
 40
4.0
 40
4.0
 10
86.36561548405096
 20
-118.8054958470347
 10
86.2005954103075
 20
-118.8054958470347
 10
86.11619057091887
 20
-118.9005804824276
 10
86.11619057091887
 20
-119.035972734998
 10
86.11619057091887
 20
-119.1587903890471
 10
86.18784855701207
 20
-119.2773016737397
 10
86.36561548405096
 20
-119.2773016737397
 10
86.54338241108985
 20
-119.2773016737397
 10
86.61538490673158
 20
-119.1587903890471
 10
86.61538490673158
 20
-119.035972734998
 10
86.61538490673158
 20
-118.9005804824276
 10
86.52856850050328
 20
-118.8054958470347
 10
86.36561548405096
 20
-118.8054958470347
 97
        0
 97
        0
 75
     2
 76
     1
 98
        0
  0
ENDBLK
  5
92
330
8F
100
AcDbEntity
  8
0
100
AcDbBlockEnd
  0
BLOCK
  5
A7
330
A5
100
AcDbEntity
  8
0
100
AcDbBlockBegin
  2
block 4
 70
     0
 10
0.0
 20
0.0
 30
0.0
  3
block 4
  1

  0
SPLINE
  5
A9
330
A5
100
AcDbEntity
  8
_U+30EC_U+30A4_U+30E4_U+30FC 1
370
     0
100
AcDbSpline
210
0.0
220
0.0
230
1.0
 70
    11
 71
     3
 72
    26
 73
    22
 74
     0
 42
0.0000000001
 43
0.0000000001
 12
1.0
 22
0.0
 32
0.0
 13
1.0
 23
0.0
 33
0.0
 40
0.0
 40
0.0
 40
0.0
 40
0.0
 40
1.0
 40
1.0
 40
1.0
 40
2.0
 40
2.0
 40
2.0
 40
3.0
 40
3.0
 40
3.0
 40
4.0
 40
4.0
 40
4.0
 40
5.0
 40
5.0
 40
5.0
 40
6.0
 40
6.0
 40
6.0
 40
7.0
 40
7.0
 40
7.0
 40
7.0
 10
81.14026690679827
 20
-138.2062065626707
 30
0.0
 10
81.14026690679827
 20
-138.2062065626707
 30
0.0
 10
81.14026690679827
 20
-137.1020534596481
 30
0.0
 10
81.14026690679827
 20
-137.1020534596481
 30
0.0
 10
81.14026690679827
 20
-137.1020534596481
 30
0.0
 10
80.81022675931133
 20
-137.1020534596481
 30
0.0
 10
80.81022675931133
 20
-137.1020534596481
 30
0.0
 10
80.81022675931133
 20
-137.1020534596481
 30
0.0
 10
80.81022675931133
 20
-136.9539143537824
 30
0.0
 10
80.81022675931133
 20
-136.9539143537824
 30
0.0
 10
81.14233396408942
 20
-136.9391004431958
 30
0.0
 10
81.18884275314029
 20
-136.7761474267435
 30
0.0
 10
81.21847057431344
 20
-136.6617702566332
 30
0.0
 10
81.21847057431344
 20
-136.6617702566332
 30
0.0
 10
81.36454262288804
 20
-136.6617702566332
 30
0.0
 10
81.36454262288804
 20
-136.6617702566332
 30
0.0
 10
81.36454262288804
 20
-136.6617702566332
 30
0.0
 10
81.36454262288804
 20
-138.2062065626707
 30
0.0
 10
81.36454262288804
 20
-138.2062065626707
 30
0.0
 10
81.36454262288804
 20
-138.2062065626707
 30
0.0
 10
81.14026690679827
 20
-138.2062065626707
 30
0.0
 10
81.14026690679827
 20
-138.2062065626707
 30
0.0
  0
HATCH
  5
AA
330
A5
100
AcDbEntity
  8
_U+30EC_U+30A4_U+30E4_U+30FC 1
 62
     7
420
 16777215
100
AcDbHatch
 10
0.0
 20
0.0
 30
0.0
210
0.0
220
0.0
230
1.0
  2
SOLID
 70
     1
 71
     0
 91
        1
 92
        1
 93
        1
 72
     4
 94
        3
 73
     0
 74
     1
 95
       26
 96
       22
 40
0.0
 40
0.0
 40
0.0
 40
0.0
 40
1.0
 40
1.0
 40
1.0
 40
2.0
 40
2.0
 40
2.0
 40
3.0
 40
3.0
 40
3.0
 40
4.0
 40
4.0
 40
4.0
 40
5.0
 40
5.0
 40
5.0
 40
6.0
 40
6.0
 40
6.0
 40
7.0
 40
7.0
 40
7.0
 40
7.0
 10
81.14026690679827
 20
-138.2062065626707
 10
81.14026690679827
 20
-138.2062065626707
 10
81.14026690679827
 20
-137.1020534596481
 10
81.14026690679827
 20
-137.1020534596481
 10
81.14026690679827
 20
-137.1020534596481
 10
80.81022675931133
 20
-137.1020534596481
 10
80.81022675931133
 20
-137.1020534596481
 10
80.81022675931133
 20
-137.1020534596481
 10
80.81022675931133
 20
-136.9539143537824
 10
80.81022675931133
 20
-136.9539143537824
 10
81.14233396408942
 20
-136.9391004431958
 10
81.18884275314029
 20
-136.7761474267435
 10
81.21847057431344
 20
-136.6617702566332
 10
81.21847057431344
 20
-136.6617702566332
 10
81.36454262288804
 20
-136.6617702566332
 10
81.36454262288804
 20
-136.6617702566332
 10
81.36454262288804
 20
-136.6617702566332
 10
81.36454262288804
 20
-138.2062065626707
 10
81.36454262288804
 20
-138.2062065626707
 10
81.36454262288804
 20
-138.2062065626707
 10
81.14026690679827
 20
-138.2062065626707
 10
81.14026690679827
 20
-138.2062065626707
 97
        0
 97
        0
 75
     2
 76
     1
 98
        0
  0
SPLINE
  5
AB
330
A5
100
AcDbEntity
  8
_U+30EC_U+30A4_U+30E4_U+30FC 1
370
     0
100
AcDbSpline
210
0.0
220
0.0
230
1.0
 70
    11
 71
     3
 72
    29
 73
    25
 74
     0
 42
0.0000000001
 43
0.0000000001
 12
1.0
 22
0.0
 32
0.0
 13
1.0
 23
0.0
 33
0.0
 40
0.0
 40
0.0
 40
0.0
 40
0.0
 40
1.0
 40
1.0
 40
1.0
 40
2.0
 40
2.0
 40
2.0
 40
3.0
 40
3.0
 40
3.0
 40
4.0
 40
4.0
 40
4.0
 40
5.0
 40
5.0
 40
5.0
 40
6.0
 40
6.0
 40
6.0
 40
7.0
 40
7.0
 40
7.0
 40
8.0
 40
8.0
 40
8.0
 40
8.0
 10
82.76342364467374
 20
-138.0284396356318
 30
0.0
 10
82.65559215598542
 20
-138.237901441135
 30
0.0
 10
82.48213159830308
 20
-138.2568494663039
 30
0.0
 10
82.36568737090164
 20
-138.2568494663039
 30
0.0
 10
82.20497366651473
 20
-138.2568494663039
 30
0.0
 10
82.0632079872967
 20
-138.210340677253
 30
0.0
 10
81.96795109712954
 20
-138.0284396356318
 30
0.0
 10
81.86442597779778
 20
-137.8337917407152
 30
0.0
 10
81.84530569785466
 20
-137.59676917133
 30
0.0
 10
81.84530569785466
 20
-137.4341606644262
 30
0.0
 10
81.84530569785466
 20
-137.2901556731427
 30
0.0
 10
81.86218666573238
 20
-137.038319193171
 30
0.0
 10
81.96795109712954
 20
-136.8395371836721
 30
0.0
 10
82.07595484059213
 20
-136.6366210595909
 30
0.0
 10
82.23666854497903
 20
-136.6131944102912
 30
0.0
 10
82.36568737090164
 20
-136.6131944102912
 30
0.0
 10
82.52433401799739
 20
-136.6131944102912
 30
0.0
 10
82.66816675450657
 20
-136.6576361420509
 30
0.0
 10
82.76342364467374
 20
-136.8395371836721
 30
0.0
 10
82.86281464942319
 20
-137.0321180212975
 30
0.0
 10
82.88606904394862
 20
-137.2605278519696
 30
0.0
 10
82.88606904394862
 20
-137.4341606644262
 30
0.0
 10
82.88606904394862
 20
-137.6053819100431
 30
0.0
 10
82.8650539614886
 20
-137.8358587980063
 30
0.0
 10
82.76342364467374
 20
-138.0284396356318
 30
0.0
  0
SPLINE
  5
AC
330
A5
100
AcDbEntity
  8
_U+30EC_U+30A4_U+30E4_U+30FC 1
370
     0
100
AcDbSpline
210
0.0
220
0.0
230
1.0
 70
    11
 71
     3
 72
    17
 73
    13
 74
     0
 42
0.0000000001
 43
0.0000000001
 12
1.0
 22
0.0
 32
0.0
 13
1.0
 23
0.0
 33
0.0
 40
0.0
 40
0.0
 40
0.0
 40
0.0
 40
1.0
 40
1.0
 40
1.0
 40
2.0
 40
2.0
 40
2.0
 40
3.0
 40
3.0
 40
3.0
 40
4.0
 40
4.0
 40
4.0
 40
4.0
 10
82.36568737090164
 20
-136.8057752479166
 30
0.0
 10
82.11609020299528
 20
-136.8057752479166
 30
0.0
 10
82.06958141394442
 20
-137.0893066063527
 30
0.0
 10
82.06958141394442
 20
-137.4341606644262
 30
0.0
 10
82.06958141394442
 20
-137.7535210159089
 30
0.0
 10
82.10558266176527
 20
-138.0622015713872
 30
0.0
 10
82.36568737090164
 20
-138.0622015713872
 30
0.0
 10
82.61321748151684
 20
-138.0622015713872
 30
0.0
 10
82.66196558263313
 20
-137.7810817797908
 30
0.0
 10
82.66196558263313
 20
-137.4341606644262
 30
0.0
 10
82.66196558263313
 20
-137.114455803395
 30
0.0
 10
82.62389727752111
 20
-136.8057752479166
 30
0.0
 10
82.36568737090164
 20
-136.8057752479166
 30
0.0
  0
HATCH
  5
AD
330
A5
100
AcDbEntity
  8
_U+30EC_U+30A4_U+30E4_U+30FC 1
 62
     7
420
 16777215
100
AcDbHatch
 10
0.0
 20
0.0
 30
0.0
210
0.0
220
0.0
230
1.0
  2
SOLID
 70
     1
 71
     0
 91
        2
 92
        1
 93
        1
 72
     4
 94
        3
 73
     0
 74
     1
 95
       29
 96
       25
 40
0.0
 40
0.0
 40
0.0
 40
0.0
 40
1.0
 40
1.0
 40
1.0
 40
2.0
 40
2.0
 40
2.0
 40
3.0
 40
3.0
 40
3.0
 40
4.0
 40
4.0
 40
4.0
 40
5.0
 40
5.0
 40
5.0
 40
6.0
 40
6.0
 40
6.0
 40
7.0
 40
7.0
 40
7.0
 40
8.0
 40
8.0
 40
8.0
 40
8.0
 10
82.76342364467374
 20
-138.0284396356318
 10
82.65559215598542
 20
-138.237901441135
 10
82.48213159830308
 20
-138.2568494663039
 10
82.36568737090164
 20
-138.2568494663039
 10
82.20497366651473
 20
-138.2568494663039
 10
82.0632079872967
 20
-138.210340677253
 10
81.96795109712954
 20
-138.0284396356318
 10
81.86442597779778
 20
-137.8337917407152
 10
81.84530569785466
 20
-137.59676917133
 10
81.84530569785466
 20
-137.4341606644262
 10
81.84530569785466
 20
-137.2901556731427
 10
81.86218666573238
 20
-137.038319193171
 10
81.96795109712954
 20
-136.8395371836721
 10
82.07595484059213
 20
-136.6366210595909
 10
82.23666854497903
 20
-136.6131944102912
 10
82.36568737090164
 20
-136.6131944102912
 10
82.52433401799739
 20
-136.6131944102912
 10
82.66816675450657
 20
-136.6576361420509
 10
82.76342364467374
 20
-136.8395371836721
 10
82.86281464942319
 20
-137.0321180212975
 10
82.88606904394862
 20
-137.2605278519696
 10
82.88606904394862
 20
-137.4341606644262
 10
82.88606904394862
 20
-137.6053819100431
 10
82.8650539614886
 20
-137.8358587980063
 10
82.76342364467374
 20
-138.0284396356318
 97
        0
 97
        0
 92
        1
 93
        1
 72
     4
 94
        3
 73
     0
 74
     1
 95
       17
 96
       13
 40
0.0
 40
0.0
 40
0.0
 40
0.0
 40
1.0
 40
1.0
 40
1.0
 40
2.0
 40
2.0
 40
2.0
 40
3.0
 40
3.0
 40
3.0
 40
4.0
 40
4.0
 40
4.0
 40
4.0
 10
82.36568737090164
 20
-136.8057752479166
 10
82.11609020299528
 20
-136.8057752479166
 10
82.06958141394442
 20
-137.0893066063527
 10
82.06958141394442
 20
-137.4341606644262
 10
82.06958141394442
 20
-137.7535210159089
 10
82.10558266176527
 20
-138.0622015713872
 10
82.36568737090164
 20
-138.0622015713872
 10
82.61321748151684
 20
-138.0622015713872
 10
82.66196558263313
 20
-137.7810817797908
 10
82.66196558263313
 20
-137.4341606644262
 10
82.66196558263313
 20
-137.114455803395
 10
82.62389727752111
 20
-136.8057752479166
 10
82.36568737090164
 20
-136.8057752479166
 97
        0
 97
        0
 75
     2
 76
     1
 98
        0
  0
ENDBLK
  5
A8
330
A5
100
AcDbEntity
  8
0
100
AcDbBlockEnd
  0
BLOCK
  5
C0
330
BE
100
AcDbEntity
  8
0
100
AcDbBlockBegin
  2
block 5
 70
     0
 10
0.0
 20
0.0
 30
0.0
  3
block 5
  1

  0
SPLINE
  5
C2
330
BE
100
AcDbEntity
  8
_U+30EC_U+30A4_U+30E4_U+30FC 1
370
     0
100
AcDbSpline
210
0.0
220
0.0
230
1.0
 70
    11
 71
     3
 72
    26
 73
    22
 74
     0
 42
0.0000000001
 43
0.0000000001
 12
1.0
 22
0.0
 32
0.0
 13
1.0
 23
0.0
 33
0.0
 40
0.0
 40
0.0
 40
0.0
 40
0.0
 40
1.0
 40
1.0
 40
1.0
 40
2.0
 40
2.0
 40
2.0
 40
3.0
 40
3.0
 40
3.0
 40
4.0
 40
4.0
 40
4.0
 40
5.0
 40
5.0
 40
5.0
 40
6.0
 40
6.0
 40
6.0
 40
7.0
 40
7.0
 40
7.0
 40
7.0
 10
102.7179334595636
 20
-125.4262803505879
 30
0.0
 10
102.7179334595636
 20
-125.4262803505879
 30
0.0
 10
101.613780356541
 20
-125.4262803505879
 30
0.0
 10
101.613780356541
 20
-125.4262803505879
 30
0.0
 10
101.613780356541
 20
-125.4262803505879
 30
0.0
 10
101.613780356541
 20
-125.7563204980748
 30
0.0
 10
101.613780356541
 20
-125.7563204980748
 30
0.0
 10
101.613780356541
 20
-125.7563204980748
 30
0.0
 10
101.4656412506753
 20
-125.7563204980748
 30
0.0
 10
101.4656412506753
 20
-125.7563204980748
 30
0.0
 10
101.4508273400887
 20
-125.4242132932967
 30
0.0
 10
101.2878743236364
 20
-125.3777045042459
 30
0.0
 10
101.1734971535261
 20
-125.3480766830727
 30
0.0
 10
101.1734971535261
 20
-125.3480766830727
 30
0.0
 10
101.1734971535261
 20
-125.2020046344981
 30
0.0
 10
101.1734971535261
 20
-125.2020046344981
 30
0.0
 10
101.1734971535261
 20
-125.2020046344981
 30
0.0
 10
102.7179334595636
 20
-125.2020046344981
 30
0.0
 10
102.7179334595636
 20
-125.2020046344981
 30
0.0
 10
102.7179334595636
 20
-125.2020046344981
 30
0.0
 10
102.7179334595636
 20
-125.4262803505879
 30
0.0
 10
102.7179334595636
 20
-125.4262803505879
 30
0.0
  0
HATCH
  5
C3
330
BE
100
AcDbEntity
  8
_U+30EC_U+30A4_U+30E4_U+30FC 1
 62
     7
420
 16777215
100
AcDbHatch
 10
0.0
 20
0.0
 30
0.0
210
0.0
220
0.0
230
1.0
  2
SOLID
 70
     1
 71
     0
 91
        1
 92
        1
 93
        1
 72
     4
 94
        3
 73
     0
 74
     1
 95
       26
 96
       22
 40
0.0
 40
0.0
 40
0.0
 40
0.0
 40
1.0
 40
1.0
 40
1.0
 40
2.0
 40
2.0
 40
2.0
 40
3.0
 40
3.0
 40
3.0
 40
4.0
 40
4.0
 40
4.0
 40
5.0
 40
5.0
 40
5.0
 40
6.0
 40
6.0
 40
6.0
 40
7.0
 40
7.0
 40
7.0
 40
7.0
 10
102.7179334595636
 20
-125.4262803505879
 10
102.7179334595636
 20
-125.4262803505879
 10
101.613780356541
 20
-125.4262803505879
 10
101.613780356541
 20
-125.4262803505879
 10
101.613780356541
 20
-125.4262803505879
 10
101.613780356541
 20
-125.7563204980748
 10
101.613780356541
 20
-125.7563204980748
 10
101.613780356541
 20
-125.7563204980748
 10
101.4656412506753
 20
-125.7563204980748
 10
101.4656412506753
 20
-125.7563204980748
 10
101.4508273400887
 20
-125.4242132932967
 10
101.2878743236364
 20
-125.3777045042459
 10
101.1734971535261
 20
-125.3480766830727
 10
101.1734971535261
 20
-125.3480766830727
 10
101.1734971535261
 20
-125.2020046344981
 10
101.1734971535261
 20
-125.2020046344981
 10
101.1734971535261
 20
-125.2020046344981
 10
102.7179334595636
 20
-125.2020046344981
 10
102.7179334595636
 20
-125.2020046344981
 10
102.7179334595636
 20
-125.2020046344981
 10
102.7179334595636
 20
-125.4262803505879
 10
102.7179334595636
 20
-125.4262803505879
 97
        0
 97
        0
 75
     2
 76
     1
 98
        0
  0
ENDBLK
  5
C1
330
BE
100
AcDbEntity
  8
0
100
AcDbBlockEnd
  0
BLOCK
  5
CE
330
CC
100
AcDbEntity
  8
0
100
AcDbBlockBegin
  2
block 6
 70
     0
 10
0.0
 20
0.0
 30
0.0
  3
block 6
  1

  0
SPLINE
  5
D0
330
CC
100
AcDbEntity
  8
_U+30EC_U+30A4_U+30E4_U+30FC 1
370
     0
100
AcDbSpline
210
0.0
220
0.0
230
1.0
 70
    11
 71
     3
 72
    32
 73
    28
 74
     0
 42
0.0000000001
 43
0.0000000001
 12
1.0
 22
0.0
 32
0.0
 13
1.0
 23
0.0
 33
0.0
 40
0.0
 40
0.0
 40
0.0
 40
0.0
 40
1.0
 40
1.0
 40
1.0
 40
2.0
 40
2.0
 40
2.0
 40
3.0
 40
3.0
 40
3.0
 40
4.0
 40
4.0
 40
4.0
 40
5.0
 40
5.0
 40
5.0
 40
6.0
 40
6.0
 40
6.0
 40
7.0
 40
7.0
 40
7.0
 40
8.0
 40
8.0
 40
8.0
 40
9.0
 40
9.0
 40
9.0
 40
9.0
 10
98.18246525323217
 20
-129.9589924805311
 30
0.0
 10
98.18246525323217
 20
-130.4750677842215
 30
0.0
 10
97.62849389920399
 20
-130.4836805229346
 30
0.0
 10
97.41455346956998
 20
-130.4836805229346
 30
0.0
 10
97.18407658160676
 20
-130.4836805229346
 30
0.0
 10
96.53674313992832
 20
-130.4643879882173
 30
0.0
 10
96.53674313992832
 20
-129.9207519206448
 30
0.0
 10
96.53674313992832
 20
-129.7474636177367
 30
0.0
 10
96.60667857827889
 20
-129.5018283096384
 30
0.0
 10
96.93878578305697
 20
-129.4639322593007
 30
0.0
 10
96.93878578305697
 20
-129.4639322593007
 30
0.0
 10
96.93878578305697
 20
-129.6775281793862
 30
0.0
 10
96.93878578305697
 20
-129.6775281793862
 30
0.0
 10
96.88159719800183
 20
-129.6882079753904
 30
0.0
 10
96.73345809213609
 20
-129.7199028538548
 30
0.0
 10
96.73345809213609
 20
-129.922818977936
 30
0.0
 10
96.73345809213609
 20
-130.2149630750852
 30
0.0
 10
97.06143118233187
 20
-130.2549261827141
 30
0.0
 10
97.26641436370423
 20
-130.2676730360095
 30
0.0
 10
97.18821069618906
 20
-130.1746554579077
 30
0.0
 10
97.12895505384276
 20
-130.1067870768483
 30
0.0
 10
97.12895505384276
 20
-129.9248860352271
 30
0.0
 10
97.12895505384276
 20
-129.7450520508971
 30
0.0
 10
97.2371310520796
 20
-129.4425726672922
 30
0.0
 10
97.64330780979057
 20
-129.4425726672922
 30
0.0
 10
97.96266816127323
 20
-129.4425726672922
 30
0.0
 10
98.18246525323217
 20
-129.6416991863396
 30
0.0
 10
98.18246525323217
 20
-129.9589924805311
 30
0.0
  0
SPLINE
  5
D1
330
CC
100
AcDbEntity
  8
_U+30EC_U+30A4_U+30E4_U+30FC 1
370
     0
100
AcDbSpline
210
0.0
220
0.0
230
1.0
 70
    11
 71
     3
 72
    17
 73
    13
 74
     0
 42
0.0000000001
 43
0.0000000001
 12
1.0
 22
0.0
 32
0.0
 13
1.0
 23
0.0
 33
0.0
 40
0.0
 40
0.0
 40
0.0
 40
0.0
 40
1.0
 40
1.0
 40
1.0
 40
2.0
 40
2.0
 40
2.0
 40
3.0
 40
3.0
 40
3.0
 40
4.0
 40
4.0
 40
4.0
 40
4.0
 10
97.32360294875939
 20
-129.9421115126534
 30
0.0
 10
97.32360294875939
 20
-130.2042832790809
 30
0.0
 10
97.53513181155373
 20
-130.2421793294186
 30
0.0
 10
97.65157603895517
 20
-130.2421793294186
 30
0.0
 10
97.8272759087029
 20
-130.2421793294186
 30
0.0
 10
97.99022892515522
 20
-130.1470946940257
 30
0.0
 10
97.99022892515522
 20
-129.9631265951134
 30
0.0
 10
97.99022892515522
 20
-129.8425482531296
 30
0.0
 10
97.93097328280892
 20
-129.6668483833819
 30
0.0
 10
97.64537486708171
 20
-129.6668483833819
 30
0.0
 10
97.42109915099195
 20
-129.6668483833819
 30
0.0
 10
97.32360294875939
 20
-129.8063747505345
 30
0.0
 10
97.32360294875939
 20
-129.9421115126534
 30
0.0
  0
HATCH
  5
D2
330
CC
100
AcDbEntity
  8
_U+30EC_U+30A4_U+30E4_U+30FC 1
 62
     7
420
 16777215
100
AcDbHatch
 10
0.0
 20
0.0
 30
0.0
210
0.0
220
0.0
230
1.0
  2
SOLID
 70
     1
 71
     0
 91
        2
 92
        1
 93
        1
 72
     4
 94
        3
 73
     0
 74
     1
 95
       32
 96
       28
 40
0.0
 40
0.0
 40
0.0
 40
0.0
 40
1.0
 40
1.0
 40
1.0
 40
2.0
 40
2.0
 40
2.0
 40
3.0
 40
3.0
 40
3.0
 40
4.0
 40
4.0
 40
4.0
 40
5.0
 40
5.0
 40
5.0
 40
6.0
 40
6.0
 40
6.0
 40
7.0
 40
7.0
 40
7.0
 40
8.0
 40
8.0
 40
8.0
 40
9.0
 40
9.0
 40
9.0
 40
9.0
 10
98.18246525323217
 20
-129.9589924805311
 10
98.18246525323217
 20
-130.4750677842215
 10
97.62849389920399
 20
-130.4836805229346
 10
97.41455346956998
 20
-130.4836805229346
 10
97.18407658160676
 20
-130.4836805229346
 10
96.53674313992832
 20
-130.4643879882173
 10
96.53674313992832
 20
-129.9207519206448
 10
96.53674313992832
 20
-129.7474636177367
 10
96.60667857827889
 20
-129.5018283096384
 10
96.93878578305697
 20
-129.4639322593007
 10
96.93878578305697
 20
-129.4639322593007
 10
96.93878578305697
 20
-129.6775281793862
 10
96.93878578305697
 20
-129.6775281793862
 10
96.88159719800183
 20
-129.6882079753904
 10
96.73345809213609
 20
-129.7199028538548
 10
96.73345809213609
 20
-129.922818977936
 10
96.73345809213609
 20
-130.2149630750852
 10
97.06143118233187
 20
-130.2549261827141
 10
97.26641436370423
 20
-130.2676730360095
 10
97.18821069618906
 20
-130.1746554579077
 10
97.12895505384276
 20
-130.1067870768483
 10
97.12895505384276
 20
-129.9248860352271
 10
97.12895505384276
 20
-129.7450520508971
 10
97.2371310520796
 20
-129.4425726672922
 10
97.64330780979057
 20
-129.4425726672922
 10
97.96266816127323
 20
-129.4425726672922
 10
98.18246525323217
 20
-129.6416991863396
 10
98.18246525323217
 20
-129.9589924805311
 97
        0
 97
        0
 92
        1
 93
        1
 72
     4
 94
        3
 73
     0
 74
     1
 95
       17
 96
       13
 40
0.0
 40
0.0
 40
0.0
 40
0.0
 40
1.0
 40
1.0
 40
1.0
 40
2.0
 40
2.0
 40
2.0
 40
3.0
 40
3.0
 40
3.0
 40
4.0
 40
4.0
 40
4.0
 40
4.0
 10
97.32360294875939
 20
-129.9421115126534
 10
97.32360294875939
 20
-130.2042832790809
 10
97.53513181155373
 20
-130.2421793294186
 10
97.65157603895517
 20
-130.2421793294186
 10
97.8272759087029
 20
-130.2421793294186
 10
97.99022892515522
 20
-130.1470946940257
 10
97.99022892515522
 20
-129.9631265951134
 10
97.99022892515522
 20
-129.8425482531296
 10
97.93097328280892
 20
-129.6668483833819
 10
97.64537486708171
 20
-129.6668483833819
 10
97.42109915099195
 20
-129.6668483833819
 10
97.32360294875939
 20
-129.8063747505345
 10
97.32360294875939
 20
-129.9421115126534
 97
        0
 97
        0
 75
     2
 76
     1
 98
        0
  0
POLYLINE
  5
D3
330
CC
100
AcDbEntity
  8
_U+30EC_U+30A4_U+30E4_U+30FC 1
370
     0
100
AcDb2dPolyline
 66
     1
 10
0.0
 20
0.0
 30
0.0
  0
VERTEX
  5
D4
330
D3
100
AcDbEntity
  8
_U+30EC_U+30A4_U+30E4_U+30FC 1
370
     0
100
AcDbVertex
100
AcDb2dVertex
 10
98.13182234959899
 20
-129.2262206708185
 30
0.0
  0
VERTEX
  5
D5
330
D3
100
AcDbEntity
  8
_U+30EC_U+30A4_U+30E4_U+30FC 1
370
     0
100
AcDbVertex
100
AcDb2dVertex
 10
97.87998586962723
 20
-129.2262206708185
 30
0.0
  0
VERTEX
  5
D6
330
D3
100
AcDbEntity
  8
_U+30EC_U+30A4_U+30E4_U+30FC 1
370
     0
100
AcDbVertex
100
AcDb2dVertex
 10
97.87998586962723
 20
-128.9743841908467
 30
0.0
  0
VERTEX
  5
D7
330
D3
100
AcDbEntity
  8
_U+30EC_U+30A4_U+30E4_U+30FC 1
370
     0
100
AcDbVertex
100
AcDb2dVertex
 10
98.13182234959899
 20
-128.9743841908467
 30
0.0
  0
VERTEX
  5
D8
330
D3
100
AcDbEntity
  8
_U+30EC_U+30A4_U+30E4_U+30FC 1
370
     0
100
AcDbVertex
100
AcDb2dVertex
 10
98.13182234959899
 20
-129.2262206708185
 30
0.0
  0
SEQEND
  5
D9
330
D3
100
AcDbEntity
  8
_U+30EC_U+30A4_U+30E4_U+30FC 1
370
     0
  0
HATCH
  5
DA
330
CC
100
AcDbEntity
  8
_U+30EC_U+30A4_U+30E4_U+30FC 1
 62
     7
420
 16777215
100
AcDbHatch
 10
0.0
 20
0.0
 30
0.0
210
0.0
220
0.0
230
1.0
  2
SOLID
 70
     1
 71
     0
 91
        1
 92
        1
 93
        4
 72
     1
 10
98.13182234959899
 20
-129.2262206708185
 11
97.87998586962723
 21
-129.2262206708185
 72
     1
 10
97.87998586962723
 20
-129.2262206708185
 11
97.87998586962723
 21
-128.9743841908467
 72
     1
 10
97.87998586962723
 20
-128.9743841908467
 11
98.13182234959899
 21
-128.9743841908467
 72
     1
 10
98.13182234959899
 20
-128.9743841908467
 11
98.13182234959899
 21
-129.2262206708185
 97
        0
 75
     2
 76
     1
 98
        0
  0
SPLINE
  5
DB
330
CC
100
AcDbEntity
  8
_U+30EC_U+30A4_U+30E4_U+30FC 1
370
     0
100
AcDbSpline
210
0.0
220
0.0
230
1.0
 70
    11
 71
     3
 72
    53
 73
    49
 74
     0
 42
0.0000000001
 43
0.0000000001
 12
1.0
 22
0.0
 32
0.0
 13
1.0
 23
0.0
 33
0.0
 40
0.0
 40
0.0
 40
0.0
 40
0.0
 40
1.0
 40
1.0
 40
1.0
 40
2.0
 40
2.0
 40
2.0
 40
3.0
 40
3.0
 40
3.0
 40
4.0
 40
4.0
 40
4.0
 40
5.0
 40
5.0
 40
5.0
 40
6.0
 40
6.0
 40
6.0
 40
7.0
 40
7.0
 40
7.0
 40
8.0
 40
8.0
 40
8.0
 40
9.0
 40
9.0
 40
9.0
 40
10.0
 40
10.0
 40
10.0
 40
11.0
 40
11.0
 40
11.0
 40
12.0
 40
12.0
 40
12.0
 40
13.0
 40
13.0
 40
13.0
 40
14.0
 40
14.0
 40
14.0
 40
15.0
 40
15.0
 40
15.0
 40
16.0
 40
16.0
 40
16.0
 40
16.0
 10
98.18246525323217
 20
-128.2571153108177
 30
0.0
 10
98.18246525323217
 20
-128.3353189783329
 30
0.0
 10
98.16558428535444
 20
-128.4369492951477
 30
0.0
 10
98.10219452842584
 20
-128.5385796119626
 30
0.0
 10
97.99229598244638
 20
-128.7118679148707
 30
0.0
 10
97.86103784445835
 20
-128.7332275068792
 30
0.0
 10
97.75320635577003
 20
-128.7521755320481
 30
0.0
 10
97.75320635577003
 20
-128.7521755320481
 30
0.0
 10
97.75320635577003
 20
-128.5299668732495
 30
0.0
 10
97.75320635577003
 20
-128.5299668732495
 30
0.0
 10
97.95198836526895
 20
-128.475189855034
 30
0.0
 10
97.9816161864421
 20
-128.3480658316283
 30
0.0
 10
97.9816161864421
 20
-128.2550482535265
 30
0.0
 10
97.9816161864421
 20
-128.1155218863739
 30
0.0
 10
97.88205292691838
 20
-127.9632486659259
 30
0.0
 10
97.64950898166401
 20
-127.9632486659259
 30
0.0
 10
97.39353838710996
 20
-127.9632486659259
 30
0.0
 10
97.32360294875939
 20
-128.1430826502559
 30
0.0
 10
97.32360294875939
 20
-128.2636609922396
 30
0.0
 10
97.32360294875939
 20
-128.295355870704
 30
0.0
 10
97.32360294875939
 20
-128.4369492951477
 30
0.0
 10
97.45279402945626
 20
-128.5258327586671
 30
0.0
 10
97.45279402945626
 20
-128.5258327586671
 30
0.0
 10
97.43384600428737
 20
-128.7015326284149
 30
0.0
 10
97.43384600428737
 20
-128.7015326284149
 30
0.0
 10
97.43384600428737
 20
-128.7015326284149
 30
0.0
 10
96.5873860435615
 20
-128.5809542864312
 30
0.0
 10
96.5873860435615
 20
-128.5809542864312
 30
0.0
 10
96.5873860435615
 20
-128.5809542864312
 30
0.0
 10
96.5873860435615
 20
-127.8023627067647
 30
0.0
 10
96.5873860435615
 20
-127.8023627067647
 30
0.0
 10
96.5873860435615
 20
-127.8023627067647
 30
0.0
 10
96.78203393847811
 20
-127.8023627067647
 30
0.0
 10
96.78203393847811
 20
-127.8023627067647
 30
0.0
 10
96.78203393847811
 20
-127.8023627067647
 30
0.0
 10
96.78203393847811
 20
-128.4180012699788
 30
0.0
 10
96.78203393847811
 20
-128.4180012699788
 30
0.0
 10
96.78203393847811
 20
-128.4180012699788
 30
0.0
 10
97.20509166406679
 20
-128.4834580841986
 30
0.0
 10
97.20509166406679
 20
-128.4834580841986
 30
0.0
 10
97.17132972831133
 20
-128.4221353845611
 30
0.0
 10
97.13102211113392
 20
-128.3397976024637
 30
0.0
 10
97.13102211113392
 20
-128.2212863177711
 30
0.0
 10
97.13102211113392
 20
-127.9673827805082
 30
0.0
 10
97.31740177688593
 20
-127.730360211123
 30
0.0
 10
97.63056095649515
 20
-127.730360211123
 30
0.0
 10
97.94785425068665
 20
-127.730360211123
 30
0.0
 10
98.18246525323217
 20
-127.9546359272127
 30
0.0
 10
98.18246525323217
 20
-128.2571153108177
 30
0.0
  0
HATCH
  5
DC
330
CC
100
AcDbEntity
  8
_U+30EC_U+30A4_U+30E4_U+30FC 1
 62
     7
420
 16777215
100
AcDbHatch
 10
0.0
 20
0.0
 30
0.0
210
0.0
220
0.0
230
1.0
  2
SOLID
 70
     1
 71
     0
 91
        1
 92
        1
 93
        1
 72
     4
 94
        3
 73
     0
 74
     1
 95
       53
 96
       49
 40
0.0
 40
0.0
 40
0.0
 40
0.0
 40
1.0
 40
1.0
 40
1.0
 40
2.0
 40
2.0
 40
2.0
 40
3.0
 40
3.0
 40
3.0
 40
4.0
 40
4.0
 40
4.0
 40
5.0
 40
5.0
 40
5.0
 40
6.0
 40
6.0
 40
6.0
 40
7.0
 40
7.0
 40
7.0
 40
8.0
 40
8.0
 40
8.0
 40
9.0
 40
9.0
 40
9.0
 40
10.0
 40
10.0
 40
10.0
 40
11.0
 40
11.0
 40
11.0
 40
12.0
 40
12.0
 40
12.0
 40
13.0
 40
13.0
 40
13.0
 40
14.0
 40
14.0
 40
14.0
 40
15.0
 40
15.0
 40
15.0
 40
16.0
 40
16.0
 40
16.0
 40
16.0
 10
98.18246525323217
 20
-128.2571153108177
 10
98.18246525323217
 20
-128.3353189783329
 10
98.16558428535444
 20
-128.4369492951477
 10
98.10219452842584
 20
-128.5385796119626
 10
97.99229598244638
 20
-128.7118679148707
 10
97.86103784445835
 20
-128.7332275068792
 10
97.75320635577003
 20
-128.7521755320481
 10
97.75320635577003
 20
-128.7521755320481
 10
97.75320635577003
 20
-128.5299668732495
 10
97.75320635577003
 20
-128.5299668732495
 10
97.95198836526895
 20
-128.475189855034
 10
97.9816161864421
 20
-128.3480658316283
 10
97.9816161864421
 20
-128.2550482535265
 10
97.9816161864421
 20
-128.1155218863739
 10
97.88205292691838
 20
-127.9632486659259
 10
97.64950898166401
 20
-127.9632486659259
 10
97.39353838710996
 20
-127.9632486659259
 10
97.32360294875939
 20
-128.1430826502559
 10
97.32360294875939
 20
-128.2636609922396
 10
97.32360294875939
 20
-128.295355870704
 10
97.32360294875939
 20
-128.4369492951477
 10
97.45279402945626
 20
-128.5258327586671
 10
97.45279402945626
 20
-128.5258327586671
 10
97.43384600428737
 20
-128.7015326284149
 10
97.43384600428737
 20
-128.7015326284149
 10
97.43384600428737
 20
-128.7015326284149
 10
96.5873860435615
 20
-128.5809542864312
 10
96.5873860435615
 20
-128.5809542864312
 10
96.5873860435615
 20
-128.5809542864312
 10
96.5873860435615
 20
-127.8023627067647
 10
96.5873860435615
 20
-127.8023627067647
 10
96.5873860435615
 20
-127.8023627067647
 10
96.78203393847811
 20
-127.8023627067647
 10
96.78203393847811
 20
-127.8023627067647
 10
96.78203393847811
 20
-127.8023627067647
 10
96.78203393847811
 20
-128.4180012699788
 10
96.78203393847811
 20
-128.4180012699788
 10
96.78203393847811
 20
-128.4180012699788
 10
97.20509166406679
 20
-128.4834580841986
 10
97.20509166406679
 20
-128.4834580841986
 10
97.17132972831133
 20
-128.4221353845611
 10
97.13102211113392
 20
-128.3397976024637
 10
97.13102211113392
 20
-128.2212863177711
 10
97.13102211113392
 20
-127.9673827805082
 10
97.31740177688593
 20
-127.730360211123
 10
97.63056095649515
 20
-127.730360211123
 10
97.94785425068665
 20
-127.730360211123
 10
98.18246525323217
 20
-127.9546359272127
 10
98.18246525323217
 20
-128.2571153108177
 97
        0
 97
        0
 75
     2
 76
     1
 98
        0
  0
ENDBLK
  5
CF
330
CC
100
AcDbEntity
  8
0
100
AcDbBlockEnd
  0
BLOCK
  5
E7
330
E5
100
AcDbEntity
  8
0
100
AcDbBlockBegin
  2
block 7
 70
     0
 10
0.0
 20
0.0
 30
0.0
  3
block 7
  1

  0
SPLINE
  5
E9
330
E5
100
AcDbEntity
  8
_U+30EC_U+30A4_U+30E4_U+30FC 1
370
     0
100
AcDbSpline
210
0.0
220
0.0
230
1.0
 70
    11
 71
     3
 72
    44
 73
    40
 74
     0
 42
0.0000000001
 43
0.0000000001
 12
1.0
 22
0.0
 32
0.0
 13
1.0
 23
0.0
 33
0.0
 40
0.0
 40
0.0
 40
0.0
 40
0.0
 40
1.0
 40
1.0
 40
1.0
 40
2.0
 40
2.0
 40
2.0
 40
3.0
 40
3.0
 40
3.0
 40
4.0
 40
4.0
 40
4.0
 40
5.0
 40
5.0
 40
5.0
 40
6.0
 40
6.0
 40
6.0
 40
7.0
 40
7.0
 40
7.0
 40
8.0
 40
8.0
 40
8.0
 40
9.0
 40
9.0
 40
9.0
 40
10.0
 40
10.0
 40
10.0
 40
11.0
 40
11.0
 40
11.0
 40
12.0
 40
12.0
 40
12.0
 40
13.0
 40
13.0
 40
13.0
 40
13.0
 10
97.54891219349471
 20
-133.4585204744479
 30
0.0
 10
97.70773109536474
 20
-133.6762505091157
 30
0.0
 10
97.7818006482976
 20
-133.7692680872174
 30
0.0
 10
97.92546113003253
 20
-133.818188443108
 30
0.0
 10
97.92546113003253
 20
-133.818188443108
 30
0.0
 10
97.92546113003253
 20
-133.0395968634415
 30
0.0
 10
97.92546113003253
 20
-133.0395968634415
 30
0.0
 10
97.92546113003253
 20
-133.0395968634415
 30
0.0
 10
98.13078882095341
 20
-133.0395968634415
 30
0.0
 10
98.13078882095341
 20
-133.0395968634415
 30
0.0
 10
98.13078882095341
 20
-133.0395968634415
 30
0.0
 10
98.13078882095341
 20
-134.0676133562401
 30
0.0
 10
98.13078882095341
 20
-134.0676133562401
 30
0.0
 10
97.77318790958448
 20
-134.0359184777757
 30
0.0
 10
97.69498424206931
 20
-133.970461663556
 30
0.0
 10
97.39663897304668
 20
-133.5852999883051
 30
0.0
 10
97.19785696354776
 20
-133.329329393751
 30
0.0
 10
97.12998858248834
 20
-133.2638725795313
 30
0.0
 10
96.99252927262687
 20
-133.2638725795313
 30
0.0
 10
96.87401798793428
 20
-133.2638725795313
 30
0.0
 10
96.74310435949478
 20
-133.335875075173
 30
0.0
 10
96.74310435949478
 20
-133.5325900273807
 30
0.0
 10
96.74310435949478
 20
-133.7926947365171
 30
0.0
 10
96.973581247458
 20
-133.8013074752302
 30
0.0
 10
97.09002547485944
 20
-133.8054415898125
 30
0.0
 10
97.09002547485944
 20
-133.8054415898125
 30
0.0
 10
97.09002547485944
 20
-134.0297173059023
 30
0.0
 10
97.09002547485944
 20
-134.0297173059023
 30
0.0
 10
96.96290145145372
 20
-134.0211045671892
 30
0.0
 10
96.8509358481831
 20
-134.0104247711849
 30
0.0
 10
96.73242456349051
 20
-133.9301540463786
 30
0.0
 10
96.57153860432935
 20
-133.8202555003991
 30
0.0
 10
96.5377766685739
 20
-133.6338758346471
 30
0.0
 10
96.5377766685739
 20
-133.5177761167942
 30
0.0
 10
96.5377766685739
 20
-133.2404459302316
 30
0.0
 10
96.72174476748623
 20
-133.0330511820195
 30
0.0
 10
96.99459632991802
 20
-133.0330511820195
 30
0.0
 10
97.22335067013861
 20
-133.0330511820195
 30
0.0
 10
97.32256942011381
 20
-133.149495409421
 30
0.0
 10
97.54891219349471
 20
-133.4585204744479
 30
0.0
  0
HATCH
  5
EA
330
E5
100
AcDbEntity
  8
_U+30EC_U+30A4_U+30E4_U+30FC 1
 62
     7
420
 16777215
100
AcDbHatch
 10
0.0
 20
0.0
 30
0.0
210
0.0
220
0.0
230
1.0
  2
SOLID
 70
     1
 71
     0
 91
        1
 92
        1
 93
        1
 72
     4
 94
        3
 73
     0
 74
     1
 95
       44
 96
       40
 40
0.0
 40
0.0
 40
0.0
 40
0.0
 40
1.0
 40
1.0
 40
1.0
 40
2.0
 40
2.0
 40
2.0
 40
3.0
 40
3.0
 40
3.0
 40
4.0
 40
4.0
 40
4.0
 40
5.0
 40
5.0
 40
5.0
 40
6.0
 40
6.0
 40
6.0
 40
7.0
 40
7.0
 40
7.0
 40
8.0
 40
8.0
 40
8.0
 40
9.0
 40
9.0
 40
9.0
 40
10.0
 40
10.0
 40
10.0
 40
11.0
 40
11.0
 40
11.0
 40
12.0
 40
12.0
 40
12.0
 40
13.0
 40
13.0
 40
13.0
 40
13.0
 10
97.54891219349471
 20
-133.4585204744479
 10
97.70773109536474
 20
-133.6762505091157
 10
97.7818006482976
 20
-133.7692680872174
 10
97.92546113003253
 20
-133.818188443108
 10
97.92546113003253
 20
-133.818188443108
 10
97.92546113003253
 20
-133.0395968634415
 10
97.92546113003253
 20
-133.0395968634415
 10
97.92546113003253
 20
-133.0395968634415
 10
98.13078882095341
 20
-133.0395968634415
 10
98.13078882095341
 20
-133.0395968634415
 10
98.13078882095341
 20
-133.0395968634415
 10
98.13078882095341
 20
-134.0676133562401
 10
98.13078882095341
 20
-134.0676133562401
 10
97.77318790958448
 20
-134.0359184777757
 10
97.69498424206931
 20
-133.970461663556
 10
97.39663897304668
 20
-133.5852999883051
 10
97.19785696354776
 20
-133.329329393751
 10
97.12998858248834
 20
-133.2638725795313
 10
96.99252927262687
 20
-133.2638725795313
 10
96.87401798793428
 20
-133.2638725795313
 10
96.74310435949478
 20
-133.335875075173
 10
96.74310435949478
 20
-133.5325900273807
 10
96.74310435949478
 20
-133.7926947365171
 10
96.973581247458
 20
-133.8013074752302
 10
97.09002547485944
 20
-133.8054415898125
 10
97.09002547485944
 20
-133.8054415898125
 10
97.09002547485944
 20
-134.0297173059023
 10
97.09002547485944
 20
-134.0297173059023
 10
96.96290145145372
 20
-134.0211045671892
 10
96.8509358481831
 20
-134.0104247711849
 10
96.73242456349051
 20
-133.9301540463786
 10
96.57153860432935
 20
-133.8202555003991
 10
96.5377766685739
 20
-133.6338758346471
 10
96.5377766685739
 20
-133.5177761167942
 10
96.5377766685739
 20
-133.2404459302316
 10
96.72174476748623
 20
-133.0330511820195
 10
96.99459632991802
 20
-133.0330511820195
 10
97.22335067013861
 20
-133.0330511820195
 10
97.32256942011381
 20
-133.149495409421
 10
97.54891219349471
 20
-133.4585204744479
 97
        0
 97
        0
 75
     2
 76
     1
 98
        0
  0
ENDBLK
  5
E8
330
E5
100
AcDbEntity
  8
0
100
AcDbBlockEnd
  0
ENDSEC
  0
SECTION
  2
ENTITIES
  0
INSERT
  5
42
330
1F
100
AcDbEntity
  8
_U+30EC_U+30A4_U+30E4_U+30FC 1
100
AcDbBlockReference
  2
block 2
 10
0.0
 20
0.0
 30
0.0
  0
ENDSEC
  0
SECTION
  2
OBJECTS
  0
DICTIONARY
  5
C
330
0
100
AcDbDictionary
281
     1
  3
ACAD_GROUP
350
D
  3
ACAD_LAYOUT
350
1A
  3
ACAD_MATERIAL
350
3B
  3
ACAD_MLEADERSTYLE
350
EC
  3
ACAD_MLINESTYLE
350
17
  3
ACAD_PLOTSETTINGS
350
19
  3
ACAD_PLOTSTYLENAME
350
E
  3
ACAD_TABLESTYLE
350
EB
  3
ACAD_VISUALSTYLE
350
2A
  0
SUN
  5
3F
330
29
100
AcDbSun
 90
        1
290
     0
 63
     7
421
 16777215
 40
1.0
291
     1
 91
  2455826
 92
 54000000
292
     0
 70
     2
 71
   256
280
     1
  0
DICTIONARY
  5
D
102
{ACAD_REACTORS
330
C
102
}
330
C
100
AcDbDictionary
281
     1
  0
DICTIONARY
  5
1A
102
{ACAD_REACTORS
330
C
102
}
330
C
100
AcDbDictionary
281
     1
  3
Layout1
350
1E
  3
Layout2
350
26
  3
Model
350
22
  0
DICTIONARY
  5
3B
102
{ACAD_REACTORS
330
C
102
}
330
C
100
AcDbDictionary
281
     1
  3
ByBlock
350
3D
  3
ByLayer
350
3C
  3
Global
350
3E
  0
DICTIONARY
  5
EC
102
{ACAD_REACTORS
330
C
102
}
330
C
100
AcDbDictionary
281
     1
  0
DICTIONARY
  5
17
102
{ACAD_REACTORS
330
C
102
}
330
C
100
AcDbDictionary
281
     1
  3
Standard
350
18
  0
DICTIONARY
  5
19
102
{ACAD_REACTORS
330
C
102
}
330
C
100
AcDbDictionary
281
     1
  0
ACDBDICTIONARYWDFLT
  5
E
102
{ACAD_REACTORS
330
C
102
}
330
C
100
AcDbDictionary
281
     1
  3
Normal
350
F
100
AcDbDictionaryWithDefault
340
F
  0
DICTIONARY
  5
EB
102
{ACAD_REACTORS
330
C
102
}
330
C
100
AcDbDictionary
281
     1
  0
DICTIONARY
  5
2A
102
{ACAD_REACTORS
330
C
102
}
330
C
100
AcDbDictionary
281
     1
  3
2dWireframe
350
2F
  3
3D Hidden
350
31
  3
3dWireframe
350
30
  3
Basic
350
32
  3
Brighten
350
36
  3
ColorChange
350
3A
  3
Conceptual
350
34
  3
Dim
350
35
  3
Facepattern
350
39
  3
Flat
350
2B
  3
FlatWithEdges
350
2C
  3
Gouraud
350
2D
  3
GouraudWithEdges
350
2E
  3
Linepattern
350
38
  3
Realistic
350
33
  3
Thicken
350
37
  0
LAYOUT
  5
1E
102
{ACAD_REACTORS
330
1A
102
}
330
1A
100
AcDbPlotSettings
  1

  2
none_device
  4

  6

 40
0.0
 41
0.0
 42
0.0
 43
0.0
 44
0.0
 45
0.0
 46
0.0
 47
0.0
 48
0.0
 49
0.0
140
0.0
141
0.0
142
1.0
143
1.0
 70
   688
 72
     0
 73
     0
 74
     5
  7

 75
    16
 76
     0
 77
     2
 78
   300
147
1.0
148
0.0
149
0.0
100
AcDbLayout
  1
Layout1
 70
     1
 71
     1
 10
0.0
 20
0.0
 11
12.0
 21
9.0
 12
0.0
 22
0.0
 32
0.0
 14
1.000000000000000E+20
 24
1.000000000000000E+20
 34
1.000000000000000E+20
 15
-1.000000000000000E+20
 25
-1.000000000000000E+20
 35
-1.000000000000000E+20
146
0.0
 13
0.0
 23
0.0
 33
0.0
 16
1.0
 26
0.0
 36
0.0
 17
0.0
 27
1.0
 37
0.0
 76
     0
330
1B
  0
LAYOUT
  5
26
102
{ACAD_REACTORS
330
1A
102
}
330
1A
100
AcDbPlotSettings
  1

  2
none_device
  4

  6

 40
0.0
 41
0.0
 42
0.0
 43
0.0
 44
0.0
 45
0.0
 46
0.0
 47
0.0
 48
0.0
 49
0.0
140
0.0
141
0.0
142
1.0
143
1.0
 70
   688
 72
     0
 73
     0
 74
     5
  7

 75
    16
 76
     0
 77
     2
 78
   300
147
1.0
148
0.0
149
0.0
100
AcDbLayout
  1
Layout2
 70
     1
 71
     2
 10
0.0
 20
0.0
 11
0.0
 21
0.0
 12
0.0
 22
0.0
 32
0.0
 14
0.0
 24
0.0
 34
0.0
 15
0.0
 25
0.0
 35
0.0
146
0.0
 13
0.0
 23
0.0
 33
0.0
 16
1.0
 26
0.0
 36
0.0
 17
0.0
 27
1.0
 37
0.0
 76
     0
330
23
  0
LAYOUT
  5
22
102
{ACAD_REACTORS
330
1A
102
}
330
1A
100
AcDbPlotSettings
  1

  2
none_device
  4

  6

 40
0.0
 41
0.0
 42
0.0
 43
0.0
 44
0.0
 45
0.0
 46
0.0
 47
0.0
 48
0.0
 49
0.0
140
0.0
141
0.0
142
1.0
143
1.0
 70
  1712
 72
     0
 73
     0
 74
     0
  7

 75
     0
 76
     0
 77
     2
 78
   300
147
1.0
148
0.0
149
0.0
100
AcDbLayout
  1
Model
 70
     1
 71
     0
 10
0.0
 20
0.0
 11
12.0
 21
9.0
 12
0.0
 22
0.0
 32
0.0
 14
1.000000000000000E+20
 24
1.000000000000000E+20
 34
1.000000000000000E+20
 15
-1.000000000000000E+20
 25
-1.000000000000000E+20
 35
-1.000000000000000E+20
146
0.0
 13
0.0
 23
0.0
 33
0.0
 16
1.0
 26
0.0
 36
0.0
 17
0.0
 27
1.0
 37
0.0
 76
     0
330
1F
331
29
  0
MATERIAL
  5
3D
102
{ACAD_REACTORS
330
3B
102
}
330
3B
100
AcDbMaterial
  1
ByBlock
 72
     1
 94
      127
  0
MATERIAL
  5
3C
102
{ACAD_REACTORS
330
3B
102
}
330
3B
100
AcDbMaterial
  1
ByLayer
 72
     1
 94
      127
  0
MATERIAL
  5
3E
102
{ACAD_REACTORS
330
3B
102
}
330
3B
100
AcDbMaterial
  1
Global
 72
     1
 94
      127
  0
MLINESTYLE
  5
18
102
{ACAD_REACTORS
330
17
102
}
330
17
100
AcDbMlineStyle
  2
Standard
 70
     0
  3

 62
   256
 51
90.0
 52
90.0
 71
     2
 49
0.5
 62
   256
  6
BYLAYER
 49
-0.5
 62
   256
  6
BYLAYER
  0
ACDBPLACEHOLDER
  5
F
102
{ACAD_REACTORS
330
E
102
}
330
E
  0
VISUALSTYLE
  5
2F
102
{ACAD_REACTORS
330
2A
102
}
330
2A
100
AcDbVisualStyle
  2
2dWireframe
 70
     4
177
     2
291
     0
 71
     0
176
     1
 72
     2
176
     1
 73
     0
176
     1
 90
        0
176
     1
 40
-0.6
176
     1
 41
-30.0
176
     1
 62
     5
 63
     7
421
 16777215
176
     1
 74
     1
176
     1
 91
        4
176
     1
 64
     7
176
     1
 65
   257
176
     1
 75
     1
176
     1
175
     1
176
     1
 42
1.0
176
     1
 92
        0
176
     1
 66
   257
176
     1
 43
1.0
176
     1
 76
     1
176
     1
 77
     6
176
     1
 78
     2
176
     1
 67
     7
176
     1
 79
     5
176
     1
170
     0
176
     1
171
     0
176
     1
290
     0
176
     1
 93
        1
176
     1
 44
0.0
176
     1
173
     0
176
     1
  0
VISUALSTYLE
  5
31
102
{ACAD_REACTORS
330
2A
102
}
330
2A
100
AcDbVisualStyle
  2
3D Hidden
 70
     6
177
     2
291
     0
 71
     1
176
     1
 72
     2
176
     1
 73
     2
176
     1
 90
        0
176
     1
 40
-0.6
176
     1
 41
-30.0
176
     1
 62
     5
 63
     7
421
 16777215
176
     1
 74
     2
176
     1
 91
        2
176
     1
 64
     7
176
     1
 65
   257
176
     1
 75
     2
176
     1
175
     1
176
     1
 42
40.0
176
     1
 92
        0
176
     1
 66
   257
176
     1
 43
1.0
176
     1
 76
     1
176
     1
 77
     6
176
     1
 78
     2
176
     1
 67
     7
176
     1
 79
     3
176
     1
170
     0
176
     1
171
     0
176
     1
290
     0
176
     1
 93
        1
176
     1
 44
0.0
176
     1
173
     0
176
     1
  0
VISUALSTYLE
  5
30
102
{ACAD_REACTORS
330
2A
102
}
330
2A
100
AcDbVisualStyle
  2
3dWireframe
 70
     5
177
     2
291
     0
 71
     0
176
     1
 72
     2
176
     1
 73
     0
176
     1
 90
        0
176
     1
 40
-0.6
176
     1
 41
-30.0
176
     1
 62
     5
 63
     7
421
 16777215
176
     1
 74
     1
176
     1
 91
        4
176
     1
 64
     7
176
     1
 65
   257
176
     1
 75
     1
176
     1
175
     1
176
     1
 42
1.0
176
     1
 92
        0
176
     1
 66
   257
176
     1
 43
1.0
176
     1
 76
     1
176
     1
 77
     6
176
     1
 78
     2
176
     1
 67
     7
176
     1
 79
     5
176
     1
170
     0
176
     1
171
     0
176
     1
290
     0
176
     1
 93
        1
176
     1
 44
0.0
176
     1
173
     0
176
     1
  0
VISUALSTYLE
  5
32
102
{ACAD_REACTORS
330
2A
102
}
330
2A
100
AcDbVisualStyle
  2
Basic
 70
     7
177
     2
291
     1
 71
     1
176
     1
 72
     0
176
     1
 73
     1
176
     1
 90
        0
176
     1
 40
-0.6
176
     1
 41
-30.0
176
     1
 62
     5
 63
     7
421
 16777215
176
     1
 74
     0
176
     1
 91
        4
176
     1
 64
     7
176
     1
 65
   257
176
     1
 75
     1
176
     1
175
     1
176
     1
 42
1.0
176
     1
 92
        8
176
     1
 66
     7
176
     1
 43
1.0
176
     1
 76
     1
176
     1
 77
     6
176
     1
 78
     2
176
     1
 67
     7
176
     1
 79
     5
176
     1
170
     0
176
     1
171
     0
176
     1
290
     0
176
     1
 93
        1
176
     1
 44
0.0
176
     1
173
     0
176
     1
  0
VISUALSTYLE
  5
36
102
{ACAD_REACTORS
330
2A
102
}
330
2A
100
AcDbVisualStyle
  2
Brighten
 70
    12
177
     2
291
     1
 71
     2
176
     1
 72
     2
176
     1
 73
     0
176
     1
 90
        0
176
     1
 40
-0.6
176
     1
 41
-30.0
176
     1
 62
     5
 63
     7
421
 16777215
176
     1
 74
     1
176
     1
 91
        4
176
     1
 64
     7
176
     1
 65
   257
176
     1
 75
     1
176
     1
175
     1
176
     1
 42
1.0
176
     1
 92
        8
176
     1
 66
     7
176
     1
 43
1.0
176
     1
 76
     1
176
     1
 77
     6
176
     1
 78
     2
176
     1
 67
     7
176
     1
 79
     5
176
     1
170
     0
176
     1
171
     0
176
     1
290
     0
176
     1
 93
        1
176
     1
 44
50.0
176
     1
173
     0
176
     1
  0
VISUALSTYLE
  5
3A
102
{ACAD_REACTORS
330
2A
102
}
330
2A
100
AcDbVisualStyle
  2
ColorChange
 70
    16
177
     2
291
     1
 71
     2
176
     1
 72
     2
176
     1
 73
     3
176
     1
 90
        0
176
     1
 40
-0.6
176
     1
 41
-30.0
176
     1
 62
     5
 63
     8
421
  8421504
176
     1
 74
     1
176
     1
 91
        4
176
     1
 64
     7
176
     1
 65
   257
176
     1
 75
     1
176
     1
175
     1
176
     1
 42
1.0
176
     1
 92
        8
176
     1
 66
     8
424
  8421504
176
     1
 43
1.0
176
     1
 76
     1
176
     1
 77
     6
176
     1
 78
     2
176
     1
 67
     7
176
     1
 79
     5
176
     1
170
     0
176
     1
171
     0
176
     1
290
     0
176
     1
 93
        1
176
     1
 44
0.0
176
     1
173
     0
176
     1
  0
VISUALSTYLE
  5
34
102
{ACAD_REACTORS
330
2A
102
}
330
2A
100
AcDbVisualStyle
  2
Conceptual
 70
     9
177
     2
291
     0
 71
     3
176
     1
 72
     2
176
     1
 73
     0
176
     1
 90
        0
176
     1
 40
-0.6
176
     1
 41
-30.0
176
     1
 62
     5
 63
     7
421
 16777215
176
     1
 74
     2
176
     1
 91
        2
176
     1
 64
     7
176
     1
 65
   257
176
     1
 75
     1
176
     1
175
     1
176
     1
 42
40.0
176
     1
 92
        8
176
     1
 66
     7
176
     1
 43
1.0
176
     1
 76
     1
176
     1
 77
     6
176
     1
 78
     2
176
     1
 67
     7
176
     1
 79
     3
176
     1
170
     0
176
     1
171
     0
176
     1
290
     0
176
     1
 93
        1
176
     1
 44
0.0
176
     1
173
     0
176
     1
  0
VISUALSTYLE
  5
35
102
{ACAD_REACTORS
330
2A
102
}
330
2A
100
AcDbVisualStyle
  2
Dim
 70
    11
177
     2
291
     1
 71
     2
176
     1
 72
     2
176
     1
 73
     0
176
     1
 90
        0
176
     1
 40
-0.6
176
     1
 41
-30.0
176
     1
 62
     5
 63
     7
421
 16777215
176
     1
 74
     1
176
     1
 91
        4
176
     1
 64
     7
176
     1
 65
   257
176
     1
 75
     1
176
     1
175
     1
176
     1
 42
1.0
176
     1
 92
        8
176
     1
 66
     7
176
     1
 43
1.0
176
     1
 76
     1
176
     1
 77
     6
176
     1
 78
     2
176
     1
 67
     7
176
     1
 79
     5
176
     1
170
     0
176
     1
171
     0
176
     1
290
     0
176
     1
 93
        1
176
     1
 44
-50.0
176
     1
173
     0
176
     1
  0
VISUALSTYLE
  5
39
102
{ACAD_REACTORS
330
2A
102
}
330
2A
100
AcDbVisualStyle
  2
Facepattern
 70
    15
177
     2
291
     1
 71
     2
176
     1
 72
     2
176
     1
 73
     0
176
     1
 90
        0
176
     1
 40
-0.6
176
     1
 41
-30.0
176
     1
 62
     5
 63
     7
421
 16777215
176
     1
 74
     1
176
     1
 91
        4
176
     1
 64
     7
176
     1
 65
   257
176
     1
 75
     1
176
     1
175
     1
176
     1
 42
1.0
176
     1
 92
        8
176
     1
 66
     7
176
     1
 43
1.0
176
     1
 76
     1
176
     1
 77
     6
176
     1
 78
     2
176
     1
 67
     7
176
     1
 79
     5
176
     1
170
     0
176
     1
171
     0
176
     1
290
     0
176
     1
 93
        1
176
     1
 44
0.0
176
     1
173
     0
176
     1
  0
VISUALSTYLE
  5
2B
102
{ACAD_REACTORS
330
2A
102
}
330
2A
100
AcDbVisualStyle
  2
Flat
 70
     0
177
     2
291
     1
 71
     2
176
     1
 72
     1
176
     1
 73
     1
176
     1
 90
        2
176
     1
 40
-0.6
176
     1
 41
30.0
176
     1
 62
     5
 63
     7
421
 16777215
176
     1
 74
     0
176
     1
 91
        4
176
     1
 64
     7
176
     1
 65
   257
176
     1
 75
     1
176
     1
175
     1
176
     1
 42
1.0
176
     1
 92
        8
176
     1
 66
     7
176
     1
 43
1.0
176
     1
 76
     1
176
     1
 77
     6
176
     1
 78
     2
176
     1
 67
     7
176
     1
 79
     5
176
     1
170
     0
176
     1
171
     0
176
     1
290
     0
176
     1
 93
       13
176
     1
 44
0.0
176
     1
173
     0
176
     1
  0
VISUALSTYLE
  5
2C
102
{ACAD_REACTORS
330
2A
102
}
330
2A
100
AcDbVisualStyle
  2
FlatWithEdges
 70
     1
177
     2
291
     1
 71
     2
176
     1
 72
     1
176
     1
 73
     1
176
     1
 90
        2
176
     1
 40
-0.6
176
     1
 41
30.0
176
     1
 62
     5
 63
     7
421
 16777215
176
     1
 74
     1
176
     1
 91
        4
176
     1
 64
     7
176
     1
 65
   257
176
     1
 75
     1
176
     1
175
     1
176
     1
 42
1.0
176
     1
 92
        0
176
     1
 66
   257
176
     1
 43
1.0
176
     1
 76
     1
176
     1
 77
     6
176
     1
 78
     2
176
     1
 67
     7
176
     1
 79
     5
176
     1
170
     0
176
     1
171
     0
176
     1
290
     0
176
     1
 93
       13
176
     1
 44
0.0
176
     1
173
     0
176
     1
  0
VISUALSTYLE
  5
2D
102
{ACAD_REACTORS
330
2A
102
}
330
2A
100
AcDbVisualStyle
  2
Gouraud
 70
     2
177
     2
291
     1
 71
     2
176
     1
 72
     2
176
     1
 73
     1
176
     1
 90
        2
176
     1
 40
-0.6
176
     1
 41
30.0
176
     1
 62
     5
 63
     7
421
 16777215
176
     1
 74
     0
176
     1
 91
        4
176
     1
 64
     7
176
     1
 65
   257
176
     1
 75
     1
176
     1
175
     1
176
     1
 42
1.0
176
     1
 92
        0
176
     1
 66
     7
176
     1
 43
1.0
176
     1
 76
     1
176
     1
 77
     6
176
     1
 78
     2
176
     1
 67
     7
176
     1
 79
     5
176
     1
170
     0
176
     1
171
     0
176
     1
290
     0
176
     1
 93
       13
176
     1
 44
0.0
176
     1
173
     0
176
     1
  0
VISUALSTYLE
  5
2E
102
{ACAD_REACTORS
330
2A
102
}
330
2A
100
AcDbVisualStyle
  2
GouraudWithEdges
 70
     3
177
     2
291
     1
 71
     2
176
     1
 72
     2
176
     1
 73
     1
176
     1
 90
        2
176
     1
 40
-0.6
176
     1
 41
30.0
176
     1
 62
     5
 63
     7
421
 16777215
176
     1
 74
     1
176
     1
 91
        4
176
     1
 64
     7
176
     1
 65
   257
176
     1
 75
     1
176
     1
175
     1
176
     1
 42
1.0
176
     1
 92
        0
176
     1
 66
   257
176
     1
 43
1.0
176
     1
 76
     1
176
     1
 77
     6
176
     1
 78
     2
176
     1
 67
     7
176
     1
 79
     5
176
     1
170
     0
176
     1
171
     0
176
     1
290
     0
176
     1
 93
       13
176
     1
 44
0.0
176
     1
173
     0
176
     1
  0
VISUALSTYLE
  5
38
102
{ACAD_REACTORS
330
2A
102
}
330
2A
100
AcDbVisualStyle
  2
Linepattern
 70
    14
177
     2
291
     1
 71
     2
176
     1
 72
     2
176
     1
 73
     0
176
     1
 90
        0
176
     1
 40
-0.6
176
     1
 41
-30.0
176
     1
 62
     5
 63
     7
421
 16777215
176
     1
 74
     1
176
     1
 91
        4
176
     1
 64
     7
176
     1
 65
   257
176
     1
 75
     7
176
     1
175
     7
176
     1
 42
1.0
176
     1
 92
        8
176
     1
 66
     7
176
     1
 43
1.0
176
     1
 76
     1
176
     1
 77
     6
176
     1
 78
     2
176
     1
 67
     7
176
     1
 79
     5
176
     1
170
     0
176
     1
171
     0
176
     1
290
     0
176
     1
 93
        1
176
     1
 44
0.0
176
     1
173
     0
176
     1
  0
VISUALSTYLE
  5
33
102
{ACAD_REACTORS
330
2A
102
}
330
2A
100
AcDbVisualStyle
  2
Realistic
 70
     8
177
     2
291
     0
 71
     2
176
     1
 72
     2
176
     1
 73
     0
176
     1
 90
        0
176
     1
 40
-0.6
176
     1
 41
-30.0
176
     1
 62
     5
 63
     7
421
 16777215
176
     1
 74
     1
176
     1
 91
        0
176
     1
 64
     7
176
     1
 65
   257
176
     1
 75
     1
176
     1
175
     1
176
     1
 42
1.0
176
     1
 92
        8
176
     1
 66
     8
424
  7895160
176
     1
 43
1.0
176
     1
 76
     1
176
     1
 77
     6
176
     1
 78
     2
176
     1
 67
     7
176
     1
 79
     5
176
     1
170
     0
176
     1
171
     0
176
     1
290
     0
176
     1
 93
       13
176
     1
 44
0.0
176
     1
173
     0
176
     1
  0
VISUALSTYLE
  5
37
102
{ACAD_REACTORS
330
2A
102
}
330
2A
100
AcDbVisualStyle
  2
Thicken
 70
    13
177
     2
291
     1
 71
     2
176
     1
 72
     2
176
     1
 73
     0
176
     1
 90
        0
176
     1
 40
-0.6
176
     1
 41
-30.0
176
     1
 62
     5
 63
     7
421
 16777215
176
     1
 74
     1
176
     1
 91
        4
176
     1
 64
     7
176
     1
 65
   257
176
     1
 75
     1
176
     1
175
     1
176
     1
 42
1.0
176
     1
 92
       12
176
     1
 66
     7
176
     1
 43
1.0
176
     1
 76
     1
176
     1
 77
     6
176
     1
 78
     2
176
     1
 67
     7
176
     1
 79
     5
176
     1
170
     0
176
     1
171
     0
176
     1
290
     0
176
     1
 93
        1
176
     1
 44
0.0
176
     1
173
     0
176
     1
  0
ENDSEC
  0
EOF
