  0
SECTION
  2
HEADER
  9
$ACADVER
  1
AC1024
  9
$ACADMAINTVER
 70
     6
  9
$DWGCODEPAGE
  3
UNDEFINED
  9
$INSBASE
 10
0.0
 20
0.0
 30
0.0
  9
$EXTMIN
 10
1.000000000000000E+20
 20
1.000000000000000E+20
 30
1.000000000000000E+20
  9
$EXTMAX
 10
-1.000000000000000E+20
 20
-1.000000000000000E+20
 30
-1.000000000000000E+20
  9
$LIMMIN
 10
0.0
 20
0.0
  9
$LIMMAX
 10
12.0
 20
9.0
  9
$ORTHOMODE
 70
     0
  9
$REGENMODE
 70
     1
  9
$FILLMODE
 70
     1
  9
$QTEXTMODE
 70
     0
  9
$MIRRTEXT
 70
     1
  9
$LTSCALE
 40
1.0
  9
$ATTMODE
 70
     1
  9
$TEXTSIZE
 40
0.2
  9
$TRACEWID
 40
0.05
  9
$TEXTSTYLE
  7
Standard
  9
$CLAYER
  8
0
  9
$CELTYPE
  6
ByLayer
  9
$CECOLOR
 62
   256
  9
$CELTSCALE
 40
1.0
  9
$DISPSILH
 70
     0
  9
$DIMSCALE
 40
1.0
  9
$DIMASZ
 40
0.18
  9
$DIMEXO
 40
0.0625
  9
$DIMDLI
 40
0.38
  9
$DIMRND
 40
0.0
  9
$DIMDLE
 40
0.0
  9
$DIMEXE
 40
0.18
  9
$DIMTP
 40
0.0
  9
$DIMTM
 40
0.0
  9
$DIMTXT
 40
0.18
  9
$DIMCEN
 40
0.09
  9
$DIMTSZ
 40
0.0
  9
$DIMTOL
 70
     0
  9
$DIMLIM
 70
     0
  9
$DIMTIH
 70
     1
  9
$DIMTOH
 70
     1
  9
$DIMSE1
 70
     0
  9
$DIMSE2
 70
     0
  9
$DIMTAD
 70
     0
  9
$DIMZIN
 70
     0
  9
$DIMBLK
  1

  9
$DIMASO
 70
     1
  9
$DIMSHO
 70
     1
  9
$DIMPOST
  1

  9
$DIMAPOST
  1

  9
$DIMALT
 70
     0
  9
$DIMALTD
 70
     2
  9
$DIMALTF
 40
25.4
  9
$DIMLFAC
 40
1.0
  9
$DIMTOFL
 70
     0
  9
$DIMTVP
 40
0.0
  9
$DIMTIX
 70
     0
  9
$DIMSOXD
 70
     0
  9
$DIMSAH
 70
     0
  9
$DIMBLK1
  1

  9
$DIMBLK2
  1

  9
$DIMSTYLE
  2
Standard
  9
$DIMCLRD
 70
     0
  9
$DIMCLRE
 70
     0
  9
$DIMCLRT
 70
     0
  9
$DIMTFAC
 40
1.0
  9
$DIMGAP
 40
0.09
  9
$DIMJUST
 70
     0
  9
$DIMSD1
 70
     0
  9
$DIMSD2
 70
     0
  9
$DIMTOLJ
 70
     1
  9
$DIMTZIN
 70
     0
  9
$DIMALTZ
 70
     0
  9
$DIMALTTZ
 70
     0
  9
$DIMUPT
 70
     0
  9
$DIMDEC
 70
     4
  9
$DIMTDEC
 70
     4
  9
$DIMALTU
 70
     2
  9
$DIMALTTD
 70
     2
  9
$DIMTXSTY
  7
Standard
  9
$DIMAUNIT
 70
     0
  9
$DIMADEC
 70
     0
  9
$DIMALTRND
 40
0.0
  9
$DIMAZIN
 70
     0
  9
$DIMDSEP
 70
    46
  9
$DIMATFIT
 70
     3
  9
$DIMFRAC
 70
     0
  9
$DIMLDRBLK
  1

  9
$DIMLUNIT
 70
     2
  9
$DIMLWD
 70
    -2
  9
$DIMLWE
 70
    -2
  9
$DIMTMOVE
 70
     0
  9
$DIMFXL
 40
1.0
  9
$DIMFXLON
 70
     0
  9
$DIMJOGANG
 40
0.7853981633974483
  9
$DIMTFILL
 70
     0
  9
$DIMTFILLCLR
 70
     0
  9
$DIMARCSYM
 70
     0
  9
$DIMLTYPE
  6

  9
$DIMLTEX1
  6

  9
$DIMLTEX2
  6

  9
$DIMTXTDIRECTION
 70
     0
  9
$LUNITS
 70
     2
  9
$LUPREC
 70
     4
  9
$SKETCHINC
 40
0.1
  9
$FILLETRAD
 40
0.5
  9
$AUNITS
 70
     0
  9
$AUPREC
 70
     0
  9
$MENU
  1
.
  9
$ELEVATION
 40
0.0
  9
$PELEVATION
 40
0.0
  9
$THICKNESS
 40
0.0
  9
$LIMCHECK
 70
     0
  9
$CHAMFERA
 40
0.5
  9
$CHAMFERB
 40
0.5
  9
$CHAMFERC
 40
1.0
  9
$CHAMFERD
 40
0.0
  9
$SKPOLY
 70
     0
  9
$TDCREATE
 40
2457917.616284711
  9
$TDUCREATE
 40
2457917.241284722
  9
$TDUPDATE
 40
2457917.616284711
  9
$TDUUPDATE
 40
2457917.241284722
  9
$TDINDWG
 40
0.0000000116
  9
$TDUSRTIMER
 40
0.0000000116
  9
$USRTIMER
 70
     1
  9
$ANGBASE
 50
0.0
  9
$ANGDIR
 70
     0
  9
$PDMODE
 70
     0
  9
$PDSIZE
 40
0.0
  9
$PLINEWID
 40
0.0
  9
$SPLFRAME
 70
     0
  9
$SPLINETYPE
 70
     6
  9
$SPLINESEGS
 70
     8
  9
$HANDSEED
  5
E9
  9
$SURFTAB1
 70
     6
  9
$SURFTAB2
 70
     6
  9
$SURFTYPE
 70
     6
  9
$SURFU
 70
     6
  9
$SURFV
 70
     6
  9
$UCSBASE
  2

  9
$UCSNAME
  2

  9
$UCSORG
 10
0.0
 20
0.0
 30
0.0
  9
$UCSXDIR
 10
1.0
 20
0.0
 30
0.0
  9
$UCSYDIR
 10
0.0
 20
1.0
 30
0.0
  9
$UCSORTHOREF
  2

  9
$UCSORTHOVIEW
 70
     0
  9
$UCSORGTOP
 10
0.0
 20
0.0
 30
0.0
  9
$UCSORGBOTTOM
 10
0.0
 20
0.0
 30
0.0
  9
$UCSORGLEFT
 10
0.0
 20
0.0
 30
0.0
  9
$UCSORGRIGHT
 10
0.0
 20
0.0
 30
0.0
  9
$UCSORGFRONT
 10
0.0
 20
0.0
 30
0.0
  9
$UCSORGBACK
 10
0.0
 20
0.0
 30
0.0
  9
$PUCSBASE
  2

  9
$PUCSNAME
  2

  9
$PUCSORG
 10
0.0
 20
0.0
 30
0.0
  9
$PUCSXDIR
 10
1.0
 20
0.0
 30
0.0
  9
$PUCSYDIR
 10
0.0
 20
1.0
 30
0.0
  9
$PUCSORTHOREF
  2

  9
$PUCSORTHOVIEW
 70
     0
  9
$PUCSORGTOP
 10
0.0
 20
0.0
 30
0.0
  9
$PUCSORGBOTTOM
 10
0.0
 20
0.0
 30
0.0
  9
$PUCSORGLEFT
 10
0.0
 20
0.0
 30
0.0
  9
$PUCSORGRIGHT
 10
0.0
 20
0.0
 30
0.0
  9
$PUCSORGFRONT
 10
0.0
 20
0.0
 30
0.0
  9
$PUCSORGBACK
 10
0.0
 20
0.0
 30
0.0
  9
$USERI1
 70
     0
  9
$USERI2
 70
     0
  9
$USERI3
 70
     0
  9
$USERI4
 70
     0
  9
$USERI5
 70
     0
  9
$USERR1
 40
0.0
  9
$USERR2
 40
0.0
  9
$USERR3
 40
0.0
  9
$USERR4
 40
0.0
  9
$USERR5
 40
0.0
  9
$WORLDVIEW
 70
     1
  9
$SHADEDGE
 70
     3
  9
$SHADEDIF
 70
    70
  9
$TILEMODE
 70
     1
  9
$MAXACTVP
 70
    64
  9
$PINSBASE
 10
0.0
 20
0.0
 30
0.0
  9
$PLIMCHECK
 70
     0
  9
$PEXTMIN
 10
1.000000000000000E+20
 20
1.000000000000000E+20
 30
1.000000000000000E+20
  9
$PEXTMAX
 10
-1.000000000000000E+20
 20
-1.000000000000000E+20
 30
-1.000000000000000E+20
  9
$PLIMMIN
 10
0.0
 20
0.0
  9
$PLIMMAX
 10
12.0
 20
9.0
  9
$UNITMODE
 70
     0
  9
$VISRETAIN
 70
     1
  9
$PLINEGEN
 70
     0
  9
$PSLTSCALE
 70
     1
  9
$TREEDEPTH
 70
  3020
  9
$CMLSTYLE
  2
Standard
  9
$CMLJUST
 70
     0
  9
$CMLSCALE
 40
1.0
  9
$PROXYGRAPHICS
 70
     1
  9
$MEASUREMENT
 70
     0
  9
$CELWEIGHT
370
    -1
  9
$ENDCAPS
280
     0
  9
$JOINSTYLE
280
     0
  9
$LWDISPLAY
290
     1
  9
$INSUNITS
 70
     1
  9
$HYPERLINKBASE
  1

  9
$STYLESHEET
  1

  9
$XEDIT
290
     1
  9
$CEPSNTYPE
380
     0
  9
$PSTYLEMODE
290
     1
  9
$FINGERPRINTGUID
  2
{ACC7045D-2A4C-1DE3-C6C2-BA4BD2C83076}
  9
$VERSIONGUID
  2
{FAEB1C32-E019-11D5-929B-00C0DF256EC4}
  9
$EXTNAMES
290
     1
  9
$PSVPSCALE
 40
0.0
  9
$OLESTARTUP
290
     0
  9
$SORTENTS
280
   127
  9
$INDEXCTL
280
     0
  9
$HIDETEXT
280
     1
  9
$XCLIPFRAME
280
     2
  9
$HALOGAP
280
     0
  9
$OBSCOLOR
 70
   257
  9
$OBSLTYPE
280
     0
  9
$INTERSECTIONDISPLAY
280
     0
  9
$INTERSECTIONCOLOR
 70
   257
  9
$DIMASSOC
280
     2
  9
$PROJECTNAME
  1

  9
$CAMERADISPLAY
290
     0
  9
$LENSLENGTH
 40
50.0
  9
$CAMERAHEIGHT
 40
0.0
  9
$STEPSPERSEC
 40
2.0
  9
$STEPSIZE
 40
6.0
  9
$3DDWFPREC
 40
2.0
  9
$PSOLWIDTH
 40
0.25
  9
$PSOLHEIGHT
 40
4.0
  9
$LOFTANG1
 40
1.570796326794897
  9
$LOFTANG2
 40
1.570796326794897
  9
$LOFTMAG1
 40
0.0
  9
$LOFTMAG2
 40
0.0
  9
$LOFTPARAM
 70
     7
  9
$LOFTNORMALS
280
     1
  9
$LATITUDE
 40
37.795
  9
$LONGITUDE
 40
-122.394
  9
$NORTHDIRECTION
 40
0.0
  9
$TIMEZONE
 70
 -8000
  9
$LIGHTGLYPHDISPLAY
280
     1
  9
$TILEMODELIGHTSYNCH
280
     1
  9
$CMATERIAL
347
3C
  9
$SOLIDHIST
280
     1
  9
$SHOWHIST
280
     1
  9
$DWFFRAME
280
     2
  9
$DGNFRAME
280
     2
  9
$REALWORLDSCALE
290
     1
  9
$INTERFERECOLOR
 62
   256
  9
$CSHADOW
280
     0
  9
$SHADOWPLANELOCATION
 40
0.0
  0
ENDSEC
  0
SECTION
  2
CLASSES
  0
CLASS
  1
ACDBDICTIONARYWDFLT
  2
AcDbDictionaryWithDefault
  3
ObjectDBX Classes
 90
        0
 91
        4
280
     0
281
     0
  0
CLASS
  1
VISUALSTYLE
  2
AcDbVisualStyle
  3
ObjectDBX Classes
 90
     4095
 91
        4
280
     0
281
     0
  0
CLASS
  1
MATERIAL
  2
AcDbMaterial
  3
ObjectDBX Classes
 90
     1153
 91
        4
280
     0
281
     0
  0
CLASS
  1
SUN
  2
AcDbSun
  3
SCENEOE
 90
     1024
 91
        4
280
     0
281
     0
  0
ENDSEC
  0
SECTION
  2
TABLES
  0
TABLE
  2
VPORT
  5
8
330
0
100
AcDbSymbolTable
 70
     1
  0
VPORT
  5
29
330
8
100
AcDbSymbolTableRecord
100
AcDbViewportTableRecord
  2
*Active
 70
     0
 10
0.0
 20
0.0
 11
1.0
 21
1.0
 12
0.0
 22
0.0
 13
0.0
 23
0.0
 14
0.5
 24
0.5
 15
0.5
 25
0.5
 16
0.0
 26
0.0
 36
1.0
 17
91.00082462281999
 27
-128.4993055234307
 37
0.0
 40
256.9986110468615
 41
0.7081814508812795
 42
50.0
 43
0.0
 44
0.0
 50
0.0
 51
0.0
 71
     0
 72
   100
 73
     1
 74
     3
 75
     0
 76
     0
 77
     0
 78
     0
281
     0
 65
     1
110
0.0
120
0.0
130
0.0
111
1.0
121
0.0
131
0.0
112
0.0
122
1.0
132
0.0
 79
     0
146
0.0
 60
     3
 61
     5
292
     1
282
     1
141
0.0
142
0.0
 63
   250
361
3F
  0
ENDTAB
  0
TABLE
  2
LTYPE
  5
5
330
0
100
AcDbSymbolTable
 70
     1
  0
LTYPE
  5
14
330
5
100
AcDbSymbolTableRecord
100
AcDbLinetypeTableRecord
  2
ByBlock
 70
     0
  3

 72
    65
 73
     0
 40
0.0
  0
LTYPE
  5
15
330
5
100
AcDbSymbolTableRecord
100
AcDbLinetypeTableRecord
  2
ByLayer
 70
     0
  3

 72
    65
 73
     0
 40
0.0
  0
LTYPE
  5
16
330
5
100
AcDbSymbolTableRecord
100
AcDbLinetypeTableRecord
  2
Continuous
 70
     0
  3
Solid line
 72
    65
 73
     0
 40
0.0
  0
ENDTAB
  0
TABLE
  2
LAYER
  5
2
330
0
100
AcDbSymbolTable
 70
     2
  0
LAYER
  5
10
330
2
100
AcDbSymbolTableRecord
100
AcDbLayerTableRecord
  2
0
 70
     0
 62
     7
  6
Continuous
370
    -3
390
F
347
3E
  0
LAYER
  5
40
330
2
100
AcDbSymbolTableRecord
100
AcDbLayerTableRecord
  2
_U+30EC_U+30A4_U+30E4_U+30FC 1
 70
     0
 62
     7
  6
Continuous
370
    -3
390
F
347
3E
  0
ENDTAB
  0
TABLE
  2
STYLE
  5
3
330
0
100
AcDbSymbolTable
 70
     1
  0
STYLE
  5
11
330
3
100
AcDbSymbolTableRecord
100
AcDbTextStyleTableRecord
  2
Standard
 70
     0
 40
0.0
 41
1.0
 50
0.0
 71
     0
 42
0.2
  3
txt
  4

  0
ENDTAB
  0
TABLE
  2
VIEW
  5
6
330
0
100
AcDbSymbolTable
 70
     0
  0
ENDTAB
  0
TABLE
  2
UCS
  5
7
330
0
100
AcDbSymbolTable
 70
     0
  0
ENDTAB
  0
TABLE
  2
APPID
  5
9
330
0
100
AcDbSymbolTable
 70
     1
  0
APPID
  5
12
330
9
100
AcDbSymbolTableRecord
100
AcDbRegAppTableRecord
  2
ACAD
 70
     0
  0
ENDTAB
  0
TABLE
  2
DIMSTYLE
  5
A
330
0
100
AcDbSymbolTable
 70
     1
100
AcDbDimStyleTable
  0
DIMSTYLE
105
27
330
A
100
AcDbSymbolTableRecord
100
AcDbDimStyleTableRecord
  2
Standard
 70
     0
178
     0
340
11
  0
ENDTAB
  0
TABLE
  2
BLOCK_RECORD
  5
1
330
0
100
AcDbSymbolTable
 70
     7
  0
BLOCK_RECORD
  5
1F
330
1
100
AcDbSymbolTableRecord
100
AcDbBlockTableRecord
  2
*Model_Space
340
22
 70
     0
280
     1
281
     0
  0
BLOCK_RECORD
  5
1B
330
1
100
AcDbSymbolTableRecord
100
AcDbBlockTableRecord
  2
*Paper_Space
340
1E
 70
     0
280
     1
281
     0
  0
BLOCK_RECORD
  5
23
330
1
100
AcDbSymbolTableRecord
100
AcDbBlockTableRecord
  2
*Paper_Space0
340
26
 70
     0
280
     1
281
     0
  0
BLOCK_RECORD
  5
41
330
1
100
AcDbSymbolTableRecord
100
AcDbBlockTableRecord
  2
block 2
340
0
102
{BLKREFS
331
42
102
}
 70
     0
280
     1
281
     0
  0
BLOCK_RECORD
  5
8F
330
1
100
AcDbSymbolTableRecord
100
AcDbBlockTableRecord
  2
block 3
340
0
102
{BLKREFS
331
90
102
}
 70
     0
280
     1
281
     0
  0
BLOCK_RECORD
  5
A3
330
1
100
AcDbSymbolTableRecord
100
AcDbBlockTableRecord
  2
block 4
340
0
102
{BLKREFS
331
A4
102
}
 70
     0
280
     1
281
     0
  0
BLOCK_RECORD
  5
BA
330
1
100
AcDbSymbolTableRecord
100
AcDbBlockTableRecord
  2
block 5
340
0
102
{BLKREFS
331
BB
102
}
 70
     0
280
     1
281
     0
  0
BLOCK_RECORD
  5
C8
330
1
100
AcDbSymbolTableRecord
100
AcDbBlockTableRecord
  2
block 6
340
0
102
{BLKREFS
331
C9
102
}
 70
     0
280
     1
281
     0
  0
BLOCK_RECORD
  5
E1
330
1
100
AcDbSymbolTableRecord
100
AcDbBlockTableRecord
  2
block 7
340
0
102
{BLKREFS
331
E2
102
}
 70
     0
280
     1
281
     0
  0
ENDTAB
  0
ENDSEC
  0
SECTION
  2
BLOCKS
  0
BLOCK
  5
20
330
1F
100
AcDbEntity
  8
0
100
AcDbBlockBegin
  2
*Model_Space
 70
     0
 10
0.0
 20
0.0
 30
0.0
  3
*Model_Space
  1

  0
ENDBLK
  5
21
330
1F
100
AcDbEntity
  8
0
100
AcDbBlockEnd
  0
BLOCK
  5
1C
330
1B
100
AcDbEntity
 67
     1
  8
0
100
AcDbBlockBegin
  2
*Paper_Space
 70
     0
 10
0.0
 20
0.0
 30
0.0
  3
*Paper_Space
  1

  0
ENDBLK
  5
1D
330
1B
100
AcDbEntity
 67
     1
  8
0
100
AcDbBlockEnd
  0
BLOCK
  5
24
330
23
100
AcDbEntity
  8
0
100
AcDbBlockBegin
  2
*Paper_Space0
 70
     0
 10
0.0
 20
0.0
 30
0.0
  3
*Paper_Space0
  1

  0
ENDBLK
  5
25
330
23
100
AcDbEntity
  8
0
100
AcDbBlockEnd
  0
BLOCK
  5
43
330
41
100
AcDbEntity
  8
0
100
AcDbBlockBegin
  2
block 2
 70
     0
 10
0.0
 20
0.0
 30
0.0
  3
block 2
  1

  0
POLYLINE
  5
45
330
41
100
AcDbEntity
  8
_U+30EC_U+30A4_U+30E4_U+30FC 1
370
     0
100
AcDb2dPolyline
 66
     1
 10
0.0
 20
0.0
 30
0.0
  0
VERTEX
  5
46
330
45
100
AcDbEntity
  8
_U+30EC_U+30A4_U+30E4_U+30FC 1
370
     0
100
AcDbVertex
100
AcDb2dVertex
 10
78.54163105179161
 20
-134.5302885774785
 30
0.0
  0
VERTEX
  5
47
330
45
100
AcDbEntity
  8
_U+30EC_U+30A4_U+30E4_U+30FC 1
370
     0
100
AcDbVertex
100
AcDb2dVertex
 10
84.54626145415628
 20
-134.5302885774785
 30
0.0
  0
VERTEX
  5
48
330
45
100
AcDbEntity
  8
_U+30EC_U+30A4_U+30E4_U+30FC 1
370
     0
100
AcDbVertex
100
AcDb2dVertex
 10
84.48770034453919
 20
-132.5900108001858
 30
0.0
  0
VERTEX
  5
49
330
45
100
AcDbEntity
  8
_U+30EC_U+30A4_U+30E4_U+30FC 1
370
     0
100
AcDbVertex
100
AcDb2dVertex
 10
83.5175614804006
 20
-132.6192913557342
 30
0.0
  0
VERTEX
  5
4A
330
45
100
AcDbEntity
  8
_U+30EC_U+30A4_U+30E4_U+30FC 1
370
     0
100
AcDbVertex
100
AcDb2dVertex
 10
83.48792814782328
 20
-133.5305163555059
 30
0.0
  0
VERTEX
  5
4B
330
45
100
AcDbEntity
  8
_U+30EC_U+30A4_U+30E4_U+30FC 1
370
     0
100
AcDbVertex
100
AcDb2dVertex
 10
79.54140324850752
 20
-133.5890774666028
 30
0.0
  0
VERTEX
  5
4C
330
45
100
AcDbEntity
  8
_U+30EC_U+30A4_U+30E4_U+30FC 1
370
     0
100
AcDbVertex
100
AcDb2dVertex
 10
79.54140324850752
 20
-125.9599405240656
 30
0.0
  0
VERTEX
  5
4D
330
45
100
AcDbEntity
  8
_U+30EC_U+30A4_U+30E4_U+30FC 1
370
     0
100
AcDbVertex
100
AcDb2dVertex
 10
93.5419181691024
 20
-125.9599405240656
 30
0.0
  0
VERTEX
  5
4E
330
45
100
AcDbEntity
  8
_U+30EC_U+30A4_U+30E4_U+30FC 1
370
     0
100
AcDbVertex
100
AcDb2dVertex
 10
93.5419181691024
 20
-124.9601683020934
 30
0.0
  0
VERTEX
  5
4F
330
45
100
AcDbEntity
  8
_U+30EC_U+30A4_U+30E4_U+30FC 1
370
     0
100
AcDbVertex
100
AcDb2dVertex
 10
78.54163105179161
 20
-124.9601683020934
 30
0.0
  0
VERTEX
  5
50
330
45
100
AcDbEntity
  8
_U+30EC_U+30A4_U+30E4_U+30FC 1
370
     0
100
AcDbVertex
100
AcDb2dVertex
 10
78.54163105179161
 20
-134.5302885774785
 30
0.0
  0
SEQEND
  5
52
330
45
100
AcDbEntity
  8
_U+30EC_U+30A4_U+30E4_U+30FC 1
370
     0
  0
HATCH
  5
51
330
41
100
AcDbEntity
  8
_U+30EC_U+30A4_U+30E4_U+30FC 1
 62
   253
420
 11711154
100
AcDbHatch
 10
0.0
 20
0.0
 30
0.0
210
0.0
220
0.0
230
1.0
  2
SOLID
 70
     1
 71
     0
 91
        1
 92
        1
 93
       10
 72
     1
 10
78.54163105179161
 20
-134.5302885774785
 11
84.54626145415628
 21
-134.5302885774785
 72
     1
 10
84.54626145415628
 20
-134.5302885774785
 11
84.48770034453919
 21
-132.5900108001858
 72
     1
 10
84.48770034453919
 20
-132.5900108001858
 11
83.5175614804006
 21
-132.6192913557342
 72
     1
 10
83.5175614804006
 20
-132.6192913557342
 11
83.48792814782328
 21
-133.5305163555059
 72
     1
 10
83.48792814782328
 20
-133.5305163555059
 11
79.54140324850752
 21
-133.5890774666028
 72
     1
 10
79.54140324850752
 20
-133.5890774666028
 11
79.54140324850752
 21
-125.9599405240656
 72
     1
 10
79.54140324850752
 20
-125.9599405240656
 11
93.5419181691024
 21
-125.9599405240656
 72
     1
 10
93.5419181691024
 20
-125.9599405240656
 11
93.5419181691024
 21
-124.9601683020934
 72
     1
 10
93.5419181691024
 20
-124.9601683020934
 11
78.54163105179161
 21
-124.9601683020934
 72
     1
 10
78.54163105179161
 20
-124.9601683020934
 11
78.54163105179161
 21
-134.5302885774785
 97
        0
 75
     2
 76
     1
 98
        0
  0
POLYLINE
  5
53
330
41
100
AcDbEntity
  8
_U+30EC_U+30A4_U+30E4_U+30FC 1
 62
     7
420
 16777215
370
    25
100
AcDb2dPolyline
 66
     1
 10
0.0
 20
0.0
 30
0.0
  0
VERTEX
  5
54
330
53
100
AcDbEntity
  8
_U+30EC_U+30A4_U+30E4_U+30FC 1
 62
     7
420
 16777215
370
    25
100
AcDbVertex
100
AcDb2dVertex
 10
78.54163105179161
 20
-134.460015244163
 30
0.0
  0
VERTEX
  5
55
330
53
100
AcDbEntity
  8
_U+30EC_U+30A4_U+30E4_U+30FC 1
 62
     7
420
 16777215
370
    25
100
AcDbVertex
100
AcDb2dVertex
 10
78.54163105179161
 20
-124.9601683020934
 30
0.0
  0
SEQEND
  5
56
330
53
100
AcDbEntity
  8
_U+30EC_U+30A4_U+30E4_U+30FC 1
 62
     7
420
 16777215
370
    25
  0
POLYLINE
  5
57
330
41
100
AcDbEntity
  8
_U+30EC_U+30A4_U+30E4_U+30FC 1
 62
     7
420
 16777215
370
    25
100
AcDb2dPolyline
 66
     1
 10
0.0
 20
0.0
 30
0.0
  0
VERTEX
  5
58
330
57
100
AcDbEntity
  8
_U+30EC_U+30A4_U+30E4_U+30FC 1
 62
     7
420
 16777215
370
    25
100
AcDbVertex
100
AcDb2dVertex
 10
93.54124789134173
 20
-125.9599405240656
 30
0.0
  0
VERTEX
  5
59
330
57
100
AcDbEntity
  8
_U+30EC_U+30A4_U+30E4_U+30FC 1
 62
     7
420
 16777215
370
    25
100
AcDbVertex
100
AcDb2dVertex
 10
93.54124789134173
 20
-124.9601683020934
 30
0.0
  0
SEQEND
  5
5A
330
57
100
AcDbEntity
  8
_U+30EC_U+30A4_U+30E4_U+30FC 1
 62
     7
420
 16777215
370
    25
  0
POLYLINE
  5
5B
330
41
100
AcDbEntity
  8
_U+30EC_U+30A4_U+30E4_U+30FC 1
 62
     7
420
 16777215
370
    25
100
AcDb2dPolyline
 66
     1
 10
0.0
 20
0.0
 30
0.0
  0
VERTEX
  5
5C
330
5B
100
AcDbEntity
  8
_U+30EC_U+30A4_U+30E4_U+30FC 1
 62
     7
420
 16777215
370
    25
100
AcDbVertex
100
AcDb2dVertex
 10
79.54140324850752
 20
-125.9599405240656
 30
0.0
  0
VERTEX
  5
5D
330
5B
100
AcDbEntity
  8
_U+30EC_U+30A4_U+30E4_U+30FC 1
 62
     7
420
 16777215
370
    25
100
AcDbVertex
100
AcDb2dVertex
 10
93.54124789134173
 20
-125.9599405240656
 30
0.0
  0
SEQEND
  5
5E
330
5B
100
AcDbEntity
  8
_U+30EC_U+30A4_U+30E4_U+30FC 1
 62
     7
420
 16777215
370
    25
  0
POLYLINE
  5
5F
330
41
100
AcDbEntity
  8
_U+30EC_U+30A4_U+30E4_U+30FC 1
 62
     7
420
 16777215
370
    25
100
AcDb2dPolyline
 66
     1
 10
0.0
 20
0.0
 30
0.0
  0
VERTEX
  5
60
330
5F
100
AcDbEntity
  8
_U+30EC_U+30A4_U+30E4_U+30FC 1
 62
     7
420
 16777215
370
    25
100
AcDbVertex
100
AcDb2dVertex
 10
78.54163105179161
 20
-134.5619680219149
 30
0.0
  0
VERTEX
  5
61
330
5F
100
AcDbEntity
  8
_U+30EC_U+30A4_U+30E4_U+30FC 1
 62
     7
420
 16777215
370
    25
100
AcDbVertex
100
AcDb2dVertex
 10
84.54143053442036
 20
-134.5619680219149
 30
0.0
  0
SEQEND
  5
62
330
5F
100
AcDbEntity
  8
_U+30EC_U+30A4_U+30E4_U+30FC 1
 62
     7
420
 16777215
370
    25
  0
POLYLINE
  5
63
330
41
100
AcDbEntity
  8
_U+30EC_U+30A4_U+30E4_U+30FC 1
 62
     7
420
 16777215
370
    25
100
AcDb2dPolyline
 66
     1
 10
0.0
 20
0.0
 30
0.0
  0
VERTEX
  5
64
330
63
100
AcDbEntity
  8
_U+30EC_U+30A4_U+30E4_U+30FC 1
 62
     7
420
 16777215
370
    25
100
AcDbVertex
100
AcDb2dVertex
 10
78.54163105179161
 20
-124.9601683020934
 30
0.0
  0
VERTEX
  5
65
330
63
100
AcDbEntity
  8
_U+30EC_U+30A4_U+30E4_U+30FC 1
 62
     7
420
 16777215
370
    25
100
AcDbVertex
100
AcDb2dVertex
 10
93.54124789134173
 20
-124.9601683020934
 30
0.0
  0
SEQEND
  5
66
330
63
100
AcDbEntity
  8
_U+30EC_U+30A4_U+30E4_U+30FC 1
 62
     7
420
 16777215
370
    25
  0
POLYLINE
  5
67
330
41
100
AcDbEntity
  8
_U+30EC_U+30A4_U+30E4_U+30FC 1
 62
     7
420
 16777215
370
    25
100
AcDb2dPolyline
 66
     1
 10
0.0
 20
0.0
 30
0.0
  0
VERTEX
  5
68
330
67
100
AcDbEntity
  8
_U+30EC_U+30A4_U+30E4_U+30FC 1
 62
     7
420
 16777215
370
    25
100
AcDbVertex
100
AcDb2dVertex
 10
79.54140324850752
 20
-133.4602430221905
 30
0.0
  0
VERTEX
  5
69
330
67
100
AcDbEntity
  8
_U+30EC_U+30A4_U+30E4_U+30FC 1
 62
     7
420
 16777215
370
    25
100
AcDbVertex
100
AcDb2dVertex
 10
79.54140324850752
 20
-125.9599405240656
 30
0.0
  0
SEQEND
  5
6A
330
67
100
AcDbEntity
  8
_U+30EC_U+30A4_U+30E4_U+30FC 1
 62
     7
420
 16777215
370
    25
  0
POLYLINE
  5
6B
330
41
100
AcDbEntity
  8
_U+30EC_U+30A4_U+30E4_U+30FC 1
 62
     7
420
 16777215
370
    25
100
AcDb2dPolyline
 66
     1
 10
0.0
 20
0.0
 30
0.0
  0
VERTEX
  5
6C
330
6B
100
AcDbEntity
  8
_U+30EC_U+30A4_U+30E4_U+30FC 1
 62
     7
420
 16777215
370
    25
100
AcDbVertex
100
AcDb2dVertex
 10
83.54165831244781
 20
-132.5621060779709
 30
0.0
  0
VERTEX
  5
6D
330
6B
100
AcDbEntity
  8
_U+30EC_U+30A4_U+30E4_U+30FC 1
 62
     7
420
 16777215
370
    25
100
AcDbVertex
100
AcDb2dVertex
 10
84.54143053442036
 20
-132.5621060779709
 30
0.0
  0
SEQEND
  5
6E
330
6B
100
AcDbEntity
  8
_U+30EC_U+30A4_U+30E4_U+30FC 1
 62
     7
420
 16777215
370
    25
  0
POLYLINE
  5
6F
330
41
100
AcDbEntity
  8
_U+30EC_U+30A4_U+30E4_U+30FC 1
 62
     7
420
 16777215
370
    25
100
AcDb2dPolyline
 66
     1
 10
0.0
 20
0.0
 30
0.0
  0
VERTEX
  5
70
330
6F
100
AcDbEntity
  8
_U+30EC_U+30A4_U+30E4_U+30FC 1
 62
     7
420
 16777215
370
    25
100
AcDbVertex
100
AcDb2dVertex
 10
84.54143053442036
 20
-134.5619680219149
 30
0.0
  0
VERTEX
  5
71
330
6F
100
AcDbEntity
  8
_U+30EC_U+30A4_U+30E4_U+30FC 1
 62
     7
420
 16777215
370
    25
100
AcDbVertex
100
AcDb2dVertex
 10
84.54143053442036
 20
-132.5621060779709
 30
0.0
  0
SEQEND
  5
72
330
6F
100
AcDbEntity
  8
_U+30EC_U+30A4_U+30E4_U+30FC 1
 62
     7
420
 16777215
370
    25
  0
POLYLINE
  5
73
330
41
100
AcDbEntity
  8
_U+30EC_U+30A4_U+30E4_U+30FC 1
 62
     7
420
 16777215
370
    25
100
AcDb2dPolyline
 66
     1
 10
0.0
 20
0.0
 30
0.0
  0
VERTEX
  5
74
330
73
100
AcDbEntity
  8
_U+30EC_U+30A4_U+30E4_U+30FC 1
 62
     7
420
 16777215
370
    25
100
AcDbVertex
100
AcDb2dVertex
 10
83.54165831244781
 20
-133.5622310777206
 30
0.0
  0
VERTEX
  5
75
330
73
100
AcDbEntity
  8
_U+30EC_U+30A4_U+30E4_U+30FC 1
 62
     7
420
 16777215
370
    25
100
AcDbVertex
100
AcDb2dVertex
 10
83.54165831244781
 20
-132.5621060779709
 30
0.0
  0
SEQEND
  5
76
330
73
100
AcDbEntity
  8
_U+30EC_U+30A4_U+30E4_U+30FC 1
 62
     7
420
 16777215
370
    25
  0
POLYLINE
  5
77
330
41
100
AcDbEntity
  8
_U+30EC_U+30A4_U+30E4_U+30FC 1
 62
     7
420
 16777215
370
    25
100
AcDb2dPolyline
 66
     1
 10
0.0
 20
0.0
 30
0.0
  0
VERTEX
  5
78
330
77
100
AcDbEntity
  8
_U+30EC_U+30A4_U+30E4_U+30FC 1
 62
     7
420
 16777215
370
    25
100
AcDbVertex
100
AcDb2dVertex
 10
79.54140324850752
 20
-133.5622310777206
 30
0.0
  0
VERTEX
  5
79
330
77
100
AcDbEntity
  8
_U+30EC_U+30A4_U+30E4_U+30FC 1
 62
     7
420
 16777215
370
    25
100
AcDbVertex
100
AcDb2dVertex
 10
83.54165831244781
 20
-133.5622310777206
 30
0.0
  0
SEQEND
  5
7A
330
77
100
AcDbEntity
  8
_U+30EC_U+30A4_U+30E4_U+30FC 1
 62
     7
420
 16777215
370
    25
  0
SPLINE
  5
7B
330
41
100
AcDbEntity
  8
_U+30EC_U+30A4_U+30E4_U+30FC 1
 62
     7
420
 16777215
370
     9
100
AcDbSpline
210
0.0
220
0.0
230
1.0
 70
    11
 71
     3
 72
    17
 73
    13
 74
     0
 42
0.0000000001
 43
0.0000000001
 12
1.0
 22
0.0
 32
0.0
 13
1.0
 23
0.0
 33
0.0
 40
0.0
 40
0.0
 40
0.0
 40
0.0
 40
1.0
 40
1.0
 40
1.0
 40
2.0
 40
2.0
 40
2.0
 40
3.0
 40
3.0
 40
3.0
 40
4.0
 40
4.0
 40
4.0
 40
4.0
 10
78.64153771590945
 20
-138.960683576371
 30
0.0
 10
78.64153771590945
 20
-138.9055444097179
 30
0.0
 10
78.59673493927468
 20
-138.8607769097294
 30
0.0
 10
78.54163105179161
 20
-138.8607769097294
 30
0.0
 10
78.48649188653167
 20
-138.8607769097294
 30
0.0
 10
78.44172438767377
 20
-138.9055444097179
 30
0.0
 10
78.44172438767377
 20
-138.960683576371
 30
0.0
 10
78.44172438767377
 20
-139.0157874652459
 30
0.0
 10
78.48649188653167
 20
-139.0605902430126
 30
0.0
 10
78.54163105179161
 20
-139.0605902430126
 30
0.0
 10
78.59673493927468
 20
-139.0605902430126
 30
0.0
 10
78.64153771590945
 20
-139.0157874652459
 30
0.0
 10
78.64153771590945
 20
-138.960683576371
 30
0.0
  0
SPLINE
  5
7C
330
41
100
AcDbEntity
  8
_U+30EC_U+30A4_U+30E4_U+30FC 1
 62
     7
420
 16777215
370
     9
100
AcDbSpline
210
0.0
220
0.0
230
1.0
 70
    11
 71
     3
 72
    17
 73
    13
 74
     0
 42
0.0000000001
 43
0.0000000001
 12
1.0
 22
0.0
 32
0.0
 13
1.0
 23
0.0
 33
0.0
 40
0.0
 40
0.0
 40
0.0
 40
0.0
 40
1.0
 40
1.0
 40
1.0
 40
2.0
 40
2.0
 40
2.0
 40
3.0
 40
3.0
 40
3.0
 40
4.0
 40
4.0
 40
4.0
 40
4.0
 10
84.54143053442036
 20
-138.960683576371
 30
0.0
 10
84.54143053442036
 20
-138.9055444097179
 30
0.0
 10
84.49666089986614
 20
-138.8607769097294
 30
0.0
 10
84.4415217346062
 20
-138.8607769097294
 30
0.0
 10
84.38571229158556
 20
-138.8607769097294
 30
0.0
 10
84.34161507048836
 20
-138.9055444097179
 30
0.0
 10
84.34161507048836
 20
-138.960683576371
 30
0.0
 10
84.34161507048836
 20
-139.0157874652459
 30
0.0
 10
84.38571229158556
 20
-139.0605902430126
 30
0.0
 10
84.4415217346062
 20
-139.0605902430126
 30
0.0
 10
84.49666089986614
 20
-139.0605902430126
 30
0.0
 10
84.54143053442036
 20
-139.0157874652459
 30
0.0
 10
84.54143053442036
 20
-138.960683576371
 30
0.0
  0
SPLINE
  5
7D
330
41
100
AcDbEntity
  8
_U+30EC_U+30A4_U+30E4_U+30FC 1
 62
     7
420
 16777215
370
     9
100
AcDbSpline
210
0.0
220
0.0
230
1.0
 70
    11
 71
     3
 72
    17
 73
    13
 74
     0
 42
0.0000000001
 43
0.0000000001
 12
1.0
 22
0.0
 32
0.0
 13
1.0
 23
0.0
 33
0.0
 40
0.0
 40
0.0
 40
0.0
 40
0.0
 40
1.0
 40
1.0
 40
1.0
 40
2.0
 40
2.0
 40
2.0
 40
3.0
 40
3.0
 40
3.0
 40
4.0
 40
4.0
 40
4.0
 40
4.0
 10
97.64158389784455
 20
-134.5626735774705
 30
0.0
 10
97.64158389784455
 20
-134.5075696885955
 30
0.0
 10
97.59678112120979
 20
-134.4627669108288
 30
0.0
 10
97.54097167818917
 20
-134.4627669108288
 30
0.0
 10
97.4858677907061
 20
-134.4627669108288
 30
0.0
 10
97.44106501407133
 20
-134.5075696885955
 30
0.0
 10
97.44106501407133
 20
-134.5626735774705
 30
0.0
 10
97.44106501407133
 20
-134.6178127441235
 30
0.0
 10
97.4858677907061
 20
-134.6625802441121
 30
0.0
 10
97.54097167818917
 20
-134.6625802441121
 30
0.0
 10
97.59678112120979
 20
-134.6625802441121
 30
0.0
 10
97.64158389784455
 20
-134.6178127441235
 30
0.0
 10
97.64158389784455
 20
-134.5626735774705
 30
0.0
  0
SPLINE
  5
7E
330
41
100
AcDbEntity
  8
_U+30EC_U+30A4_U+30E4_U+30FC 1
 62
     7
420
 16777215
370
     9
100
AcDbSpline
210
0.0
220
0.0
230
1.0
 70
    11
 71
     3
 72
    17
 73
    13
 74
     0
 42
0.0000000001
 43
0.0000000001
 12
1.0
 22
0.0
 32
0.0
 13
1.0
 23
0.0
 33
0.0
 40
0.0
 40
0.0
 40
0.0
 40
0.0
 40
1.0
 40
1.0
 40
1.0
 40
2.0
 40
2.0
 40
2.0
 40
3.0
 40
3.0
 40
3.0
 40
4.0
 40
4.0
 40
4.0
 40
4.0
 10
97.64158389784455
 20
-132.5621060779709
 30
0.0
 10
97.64158389784455
 20
-132.5070021890953
 30
0.0
 10
97.59678112120979
 20
-132.4621994113286
 30
0.0
 10
97.54097167818917
 20
-132.4621994113286
 30
0.0
 10
97.4858677907061
 20
-132.4621994113286
 30
0.0
 10
97.44106501407133
 20
-132.5070021890953
 30
0.0
 10
97.44106501407133
 20
-132.5621060779709
 30
0.0
 10
97.44106501407133
 20
-132.6172452446233
 30
0.0
 10
97.4858677907061
 20
-132.6620127446125
 30
0.0
 10
97.54097167818917
 20
-132.6620127446125
 30
0.0
 10
97.59678112120979
 20
-132.6620127446125
 30
0.0
 10
97.64158389784455
 20
-132.6172452446233
 30
0.0
 10
97.64158389784455
 20
-132.5621060779709
 30
0.0
  0
SPLINE
  5
7F
330
41
100
AcDbEntity
  8
_U+30EC_U+30A4_U+30E4_U+30FC 1
 62
     7
420
 16777215
370
     9
100
AcDbSpline
210
0.0
220
0.0
230
1.0
 70
    11
 71
     3
 72
    17
 73
    13
 74
     0
 42
0.0000000001
 43
0.0000000001
 12
1.0
 22
0.0
 32
0.0
 13
1.0
 23
0.0
 33
0.0
 40
0.0
 40
0.0
 40
0.0
 40
0.0
 40
1.0
 40
1.0
 40
1.0
 40
2.0
 40
2.0
 40
2.0
 40
3.0
 40
3.0
 40
3.0
 40
4.0
 40
4.0
 40
4.0
 40
4.0
 10
97.64158389784455
 20
-125.9599405240656
 30
0.0
 10
97.64158389784455
 20
-125.9048013574126
 30
0.0
 10
97.59678112120979
 20
-125.860033857424
 30
0.0
 10
97.54097167818917
 20
-125.860033857424
 30
0.0
 10
97.4858677907061
 20
-125.860033857424
 30
0.0
 10
97.44106501407133
 20
-125.9048013574126
 30
0.0
 10
97.44106501407133
 20
-125.9599405240656
 30
0.0
 10
97.44106501407133
 20
-126.0150444129406
 30
0.0
 10
97.4858677907061
 20
-126.0598471907073
 30
0.0
 10
97.54097167818917
 20
-126.0598471907073
 30
0.0
 10
97.59678112120979
 20
-126.0598471907073
 30
0.0
 10
97.64158389784455
 20
-126.0150444129406
 30
0.0
 10
97.64158389784455
 20
-125.9599405240656
 30
0.0
  0
SPLINE
  5
80
330
41
100
AcDbEntity
  8
_U+30EC_U+30A4_U+30E4_U+30FC 1
 62
     7
420
 16777215
370
     9
100
AcDbSpline
210
0.0
220
0.0
230
1.0
 70
    11
 71
     3
 72
    17
 73
    13
 74
     0
 42
0.0000000001
 43
0.0000000001
 12
1.0
 22
0.0
 32
0.0
 13
1.0
 23
0.0
 33
0.0
 40
0.0
 40
0.0
 40
0.0
 40
0.0
 40
1.0
 40
1.0
 40
1.0
 40
2.0
 40
2.0
 40
2.0
 40
3.0
 40
3.0
 40
3.0
 40
4.0
 40
4.0
 40
4.0
 40
4.0
 10
97.64158389784455
 20
-124.9601683020934
 30
0.0
 10
97.64158389784455
 20
-124.9043588576627
 30
0.0
 10
97.59678112120979
 20
-124.8595560798963
 30
0.0
 10
97.54097167818917
 20
-124.8595560798963
 30
0.0
 10
97.4858677907061
 20
-124.8595560798963
 30
0.0
 10
97.44106501407133
 20
-124.9043588576627
 30
0.0
 10
97.44106501407133
 20
-124.9601683020934
 30
0.0
 10
97.44106501407133
 20
-125.0152721909683
 30
0.0
 10
97.4858677907061
 20
-125.0600749687351
 30
0.0
 10
97.54097167818917
 20
-125.0600749687351
 30
0.0
 10
97.59678112120979
 20
-125.0600749687351
 30
0.0
 10
97.64158389784455
 20
-125.0152721909683
 30
0.0
 10
97.64158389784455
 20
-124.9601683020934
 30
0.0
  0
SPLINE
  5
81
330
41
100
AcDbEntity
  8
_U+30EC_U+30A4_U+30E4_U+30FC 1
 62
     7
420
 16777215
370
     9
100
AcDbSpline
210
0.0
220
0.0
230
1.0
 70
    11
 71
     3
 72
    17
 73
    13
 74
     0
 42
0.0000000001
 43
0.0000000001
 12
1.0
 22
0.0
 32
0.0
 13
1.0
 23
0.0
 33
0.0
 40
0.0
 40
0.0
 40
0.0
 40
0.0
 40
1.0
 40
1.0
 40
1.0
 40
2.0
 40
2.0
 40
2.0
 40
3.0
 40
3.0
 40
3.0
 40
4.0
 40
4.0
 40
4.0
 40
4.0
 10
93.64115455545956
 20
-120.9597035808713
 30
0.0
 10
93.64115455545956
 20
-120.9045996919961
 30
0.0
 10
93.5963517788248
 20
-120.8597969142294
 30
0.0
 10
93.54124789134173
 20
-120.8597969142294
 30
0.0
 10
93.48611108773959
 20
-120.8597969142294
 30
0.0
 10
93.44130830997287
 20
-120.9045996919961
 30
0.0
 10
93.44130830997287
 20
-120.9597035808713
 30
0.0
 10
93.44130830997287
 20
-121.0148427475241
 30
0.0
 10
93.48611108773959
 20
-121.059610247513
 30
0.0
 10
93.54124789134173
 20
-121.059610247513
 30
0.0
 10
93.5963517788248
 20
-121.059610247513
 30
0.0
 10
93.64115455545956
 20
-121.0148427475241
 30
0.0
 10
93.64115455545956
 20
-120.9597035808713
 30
0.0
  0
SPLINE
  5
82
330
41
100
AcDbEntity
  8
_U+30EC_U+30A4_U+30E4_U+30FC 1
 62
     7
420
 16777215
370
     9
100
AcDbSpline
210
0.0
220
0.0
230
1.0
 70
    11
 71
     3
 72
    17
 73
    13
 74
     0
 42
0.0000000001
 43
0.0000000001
 12
1.0
 22
0.0
 32
0.0
 13
1.0
 23
0.0
 33
0.0
 40
0.0
 40
0.0
 40
0.0
 40
0.0
 40
1.0
 40
1.0
 40
1.0
 40
2.0
 40
2.0
 40
2.0
 40
3.0
 40
3.0
 40
3.0
 40
4.0
 40
4.0
 40
4.0
 40
4.0
 10
78.64153771590945
 20
-120.9597035808713
 30
0.0
 10
78.64153771590945
 20
-120.9045996919961
 30
0.0
 10
78.59673493927468
 20
-120.8597969142294
 30
0.0
 10
78.54163105179161
 20
-120.8597969142294
 30
0.0
 10
78.48649188653167
 20
-120.8597969142294
 30
0.0
 10
78.44172438767377
 20
-120.9045996919961
 30
0.0
 10
78.44172438767377
 20
-120.9597035808713
 30
0.0
 10
78.44172438767377
 20
-121.0148427475241
 30
0.0
 10
78.48649188653167
 20
-121.059610247513
 30
0.0
 10
78.54163105179161
 20
-121.059610247513
 30
0.0
 10
78.59673493927468
 20
-121.059610247513
 30
0.0
 10
78.64153771590945
 20
-121.0148427475241
 30
0.0
 10
78.64153771590945
 20
-120.9597035808713
 30
0.0
  0
POLYLINE
  5
83
330
41
100
AcDbEntity
  8
_U+30EC_U+30A4_U+30E4_U+30FC 1
 62
     7
420
 16777215
370
     9
100
AcDb2dPolyline
 66
     1
 10
0.0
 20
0.0
 30
0.0
  0
VERTEX
  5
84
330
83
100
AcDbEntity
  8
_U+30EC_U+30A4_U+30E4_U+30FC 1
 62
     7
420
 16777215
370
     9
100
AcDbVertex
100
AcDb2dVertex
 10
78.54163105179161
 20
-120.9597035808713
 30
0.0
  0
VERTEX
  5
85
330
83
100
AcDbEntity
  8
_U+30EC_U+30A4_U+30E4_U+30FC 1
 62
     7
420
 16777215
370
     9
100
AcDbVertex
100
AcDb2dVertex
 10
93.54124789134173
 20
-120.9597035808713
 30
0.0
  0
SEQEND
  5
86
330
83
100
AcDbEntity
  8
_U+30EC_U+30A4_U+30E4_U+30FC 1
 62
     7
420
 16777215
370
     9
  0
POLYLINE
  5
87
330
41
100
AcDbEntity
  8
_U+30EC_U+30A4_U+30E4_U+30FC 1
 62
     7
420
 16777215
370
     9
100
AcDb2dPolyline
 66
     1
 10
0.0
 20
0.0
 30
0.0
  0
VERTEX
  5
88
330
87
100
AcDbEntity
  8
_U+30EC_U+30A4_U+30E4_U+30FC 1
 62
     7
420
 16777215
370
     9
100
AcDbVertex
100
AcDb2dVertex
 10
78.54163105179161
 20
-122.419744969395
 30
0.0
  0
VERTEX
  5
89
330
87
100
AcDbEntity
  8
_U+30EC_U+30A4_U+30E4_U+30FC 1
 62
     7
420
 16777215
370
     9
100
AcDbVertex
100
AcDb2dVertex
 10
78.54163105179161
 20
-119.9599313588988
 30
0.0
  0
SEQEND
  5
8A
330
87
100
AcDbEntity
  8
_U+30EC_U+30A4_U+30E4_U+30FC 1
 62
     7
420
 16777215
370
     9
  0
POLYLINE
  5
8B
330
41
100
AcDbEntity
  8
_U+30EC_U+30A4_U+30E4_U+30FC 1
 62
     7
420
 16777215
370
     9
100
AcDb2dPolyline
 66
     1
 10
0.0
 20
0.0
 30
0.0
  0
VERTEX
  5
8C
330
8B
100
AcDbEntity
  8
_U+30EC_U+30A4_U+30E4_U+30FC 1
 62
     7
420
 16777215
370
     9
100
AcDbVertex
100
AcDb2dVertex
 10
93.54124789134173
 20
-122.419744969395
 30
0.0
  0
VERTEX
  5
8D
330
8B
100
AcDbEntity
  8
_U+30EC_U+30A4_U+30E4_U+30FC 1
 62
     7
420
 16777215
370
     9
100
AcDbVertex
100
AcDb2dVertex
 10
93.54124789134173
 20
-119.9599313588988
 30
0.0
  0
SEQEND
  5
8E
330
8B
100
AcDbEntity
  8
_U+30EC_U+30A4_U+30E4_U+30FC 1
 62
     7
420
 16777215
370
     9
  0
INSERT
  5
90
330
41
100
AcDbEntity
  8
_U+30EC_U+30A4_U+30E4_U+30FC 1
100
AcDbBlockReference
  2
block 3
 10
0.0
 20
0.0
 30
0.0
  0
POLYLINE
  5
97
330
41
100
AcDbEntity
  8
_U+30EC_U+30A4_U+30E4_U+30FC 1
 62
     7
420
 16777215
370
     9
100
AcDb2dPolyline
 66
     1
 10
0.0
 20
0.0
 30
0.0
  0
VERTEX
  5
98
330
97
100
AcDbEntity
  8
_U+30EC_U+30A4_U+30E4_U+30FC 1
 62
     7
420
 16777215
370
     9
100
AcDbVertex
100
AcDb2dVertex
 10
78.54163105179161
 20
-138.960683576371
 30
0.0
  0
VERTEX
  5
99
330
97
100
AcDbEntity
  8
_U+30EC_U+30A4_U+30E4_U+30FC 1
 62
     7
420
 16777215
370
     9
100
AcDbVertex
100
AcDb2dVertex
 10
84.54143053442036
 20
-138.960683576371
 30
0.0
  0
SEQEND
  5
9A
330
97
100
AcDbEntity
  8
_U+30EC_U+30A4_U+30E4_U+30FC 1
 62
     7
420
 16777215
370
     9
  0
POLYLINE
  5
9B
330
41
100
AcDbEntity
  8
_U+30EC_U+30A4_U+30E4_U+30FC 1
 62
     7
420
 16777215
370
     9
100
AcDb2dPolyline
 66
     1
 10
0.0
 20
0.0
 30
0.0
  0
VERTEX
  5
9C
330
9B
100
AcDbEntity
  8
_U+30EC_U+30A4_U+30E4_U+30FC 1
 62
     7
420
 16777215
370
     9
100
AcDbVertex
100
AcDb2dVertex
 10
78.54163105179161
 20
-137.5006421878473
 30
0.0
  0
VERTEX
  5
9D
330
9B
100
AcDbEntity
  8
_U+30EC_U+30A4_U+30E4_U+30FC 1
 62
     7
420
 16777215
370
     9
100
AcDbVertex
100
AcDb2dVertex
 10
78.54163105179161
 20
-139.9604557983435
 30
0.0
  0
SEQEND
  5
9E
330
9B
100
AcDbEntity
  8
_U+30EC_U+30A4_U+30E4_U+30FC 1
 62
     7
420
 16777215
370
     9
  0
POLYLINE
  5
9F
330
41
100
AcDbEntity
  8
_U+30EC_U+30A4_U+30E4_U+30FC 1
 62
     7
420
 16777215
370
     9
100
AcDb2dPolyline
 66
     1
 10
0.0
 20
0.0
 30
0.0
  0
VERTEX
  5
A0
330
9F
100
AcDbEntity
  8
_U+30EC_U+30A4_U+30E4_U+30FC 1
 62
     7
420
 16777215
370
     9
100
AcDbVertex
100
AcDb2dVertex
 10
84.4415217346062
 20
-137.5006421878473
 30
0.0
  0
VERTEX
  5
A1
330
9F
100
AcDbEntity
  8
_U+30EC_U+30A4_U+30E4_U+30FC 1
 62
     7
420
 16777215
370
     9
100
AcDbVertex
100
AcDb2dVertex
 10
84.4415217346062
 20
-139.9604557983435
 30
0.0
  0
SEQEND
  5
A2
330
9F
100
AcDbEntity
  8
_U+30EC_U+30A4_U+30E4_U+30FC 1
 62
     7
420
 16777215
370
     9
  0
INSERT
  5
A4
330
41
100
AcDbEntity
  8
_U+30EC_U+30A4_U+30E4_U+30FC 1
100
AcDbBlockReference
  2
block 4
 10
0.0
 20
0.0
 30
0.0
  0
POLYLINE
  5
AA
330
41
100
AcDbEntity
  8
_U+30EC_U+30A4_U+30E4_U+30FC 1
 62
     7
420
 16777215
370
     9
100
AcDb2dPolyline
 66
     1
 10
0.0
 20
0.0
 30
0.0
  0
VERTEX
  5
AB
330
AA
100
AcDbEntity
  8
_U+30EC_U+30A4_U+30E4_U+30FC 1
 62
     7
420
 16777215
370
     9
100
AcDbVertex
100
AcDb2dVertex
 10
97.54097167818917
 20
-124.9601683020934
 30
0.0
  0
VERTEX
  5
AC
330
AA
100
AcDbEntity
  8
_U+30EC_U+30A4_U+30E4_U+30FC 1
 62
     7
420
 16777215
370
     9
100
AcDbVertex
100
AcDb2dVertex
 10
97.54097167818917
 20
-121.189855803036
 30
0.0
  0
SEQEND
  5
AD
330
AA
100
AcDbEntity
  8
_U+30EC_U+30A4_U+30E4_U+30FC 1
 62
     7
420
 16777215
370
     9
  0
POLYLINE
  5
AE
330
41
100
AcDbEntity
  8
_U+30EC_U+30A4_U+30E4_U+30FC 1
 62
     7
420
 16777215
370
     9
100
AcDb2dPolyline
 66
     1
 10
0.0
 20
0.0
 30
0.0
  0
VERTEX
  5
AF
330
AE
100
AcDbEntity
  8
_U+30EC_U+30A4_U+30E4_U+30FC 1
 62
     7
420
 16777215
370
     9
100
AcDbVertex
100
AcDb2dVertex
 10
97.54097167818917
 20
-124.9601683020934
 30
0.0
  0
VERTEX
  5
B0
330
AE
100
AcDbEntity
  8
_U+30EC_U+30A4_U+30E4_U+30FC 1
 62
     7
420
 16777215
370
     9
100
AcDbVertex
100
AcDb2dVertex
 10
97.54097167818917
 20
-125.9599405240656
 30
0.0
  0
SEQEND
  5
B1
330
AE
100
AcDbEntity
  8
_U+30EC_U+30A4_U+30E4_U+30FC 1
 62
     7
420
 16777215
370
     9
  0
POLYLINE
  5
B2
330
41
100
AcDbEntity
  8
_U+30EC_U+30A4_U+30E4_U+30FC 1
 62
     7
420
 16777215
370
     9
100
AcDb2dPolyline
 66
     1
 10
0.0
 20
0.0
 30
0.0
  0
VERTEX
  5
B3
330
B2
100
AcDbEntity
  8
_U+30EC_U+30A4_U+30E4_U+30FC 1
 62
     7
420
 16777215
370
     9
100
AcDbVertex
100
AcDb2dVertex
 10
96.08096560432591
 20
-124.9601683020934
 30
0.0
  0
VERTEX
  5
B4
330
B2
100
AcDbEntity
  8
_U+30EC_U+30A4_U+30E4_U+30FC 1
 62
     7
420
 16777215
370
     9
100
AcDbVertex
100
AcDb2dVertex
 10
98.54144943044263
 20
-124.9601683020934
 30
0.0
  0
SEQEND
  5
B5
330
B2
100
AcDbEntity
  8
_U+30EC_U+30A4_U+30E4_U+30FC 1
 62
     7
420
 16777215
370
     9
  0
POLYLINE
  5
B6
330
41
100
AcDbEntity
  8
_U+30EC_U+30A4_U+30E4_U+30FC 1
 62
     7
420
 16777215
370
     9
100
AcDb2dPolyline
 66
     1
 10
0.0
 20
0.0
 30
0.0
  0
VERTEX
  5
B7
330
B6
100
AcDbEntity
  8
_U+30EC_U+30A4_U+30E4_U+30FC 1
 62
     7
420
 16777215
370
     9
100
AcDbVertex
100
AcDb2dVertex
 10
96.08096560432591
 20
-125.9599405240656
 30
0.0
  0
VERTEX
  5
B8
330
B6
100
AcDbEntity
  8
_U+30EC_U+30A4_U+30E4_U+30FC 1
 62
     7
420
 16777215
370
     9
100
AcDbVertex
100
AcDb2dVertex
 10
98.54144943044263
 20
-125.9599405240656
 30
0.0
  0
SEQEND
  5
B9
330
B6
100
AcDbEntity
  8
_U+30EC_U+30A4_U+30E4_U+30FC 1
 62
     7
420
 16777215
370
     9
  0
INSERT
  5
BB
330
41
100
AcDbEntity
  8
_U+30EC_U+30A4_U+30E4_U+30FC 1
100
AcDbBlockReference
  2
block 5
 10
0.0
 20
0.0
 30
0.0
  0
POLYLINE
  5
C0
330
41
100
AcDbEntity
  8
_U+30EC_U+30A4_U+30E4_U+30FC 1
 62
     7
420
 16777215
370
     9
100
AcDb2dPolyline
 66
     1
 10
0.0
 20
0.0
 30
0.0
  0
VERTEX
  5
C1
330
C0
100
AcDbEntity
  8
_U+30EC_U+30A4_U+30E4_U+30FC 1
 62
     7
420
 16777215
370
     9
100
AcDbVertex
100
AcDb2dVertex
 10
97.54097167818917
 20
-125.9599405240656
 30
0.0
  0
VERTEX
  5
C2
330
C0
100
AcDbEntity
  8
_U+30EC_U+30A4_U+30E4_U+30FC 1
 62
     7
420
 16777215
370
     9
100
AcDbVertex
100
AcDb2dVertex
 10
97.54097167818917
 20
-132.4598005224406
 30
0.0
  0
SEQEND
  5
C3
330
C0
100
AcDbEntity
  8
_U+30EC_U+30A4_U+30E4_U+30FC 1
 62
     7
420
 16777215
370
     9
  0
POLYLINE
  5
C4
330
41
100
AcDbEntity
  8
_U+30EC_U+30A4_U+30E4_U+30FC 1
 62
     7
420
 16777215
370
     9
100
AcDb2dPolyline
 66
     1
 10
0.0
 20
0.0
 30
0.0
  0
VERTEX
  5
C5
330
C4
100
AcDbEntity
  8
_U+30EC_U+30A4_U+30E4_U+30FC 1
 62
     7
420
 16777215
370
     9
100
AcDbVertex
100
AcDb2dVertex
 10
85.08163699605328
 20
-132.5621060779709
 30
0.0
  0
VERTEX
  5
C6
330
C4
100
AcDbEntity
  8
_U+30EC_U+30A4_U+30E4_U+30FC 1
 62
     7
420
 16777215
370
     9
100
AcDbVertex
100
AcDb2dVertex
 10
98.54144943044263
 20
-132.5621060779709
 30
0.0
  0
SEQEND
  5
C7
330
C4
100
AcDbEntity
  8
_U+30EC_U+30A4_U+30E4_U+30FC 1
 62
     7
420
 16777215
370
     9
  0
INSERT
  5
C9
330
41
100
AcDbEntity
  8
_U+30EC_U+30A4_U+30E4_U+30FC 1
100
AcDbBlockReference
  2
block 6
 10
0.0
 20
0.0
 30
0.0
  0
POLYLINE
  5
D9
330
41
100
AcDbEntity
  8
_U+30EC_U+30A4_U+30E4_U+30FC 1
 62
     7
420
 16777215
370
     9
100
AcDb2dPolyline
 66
     1
 10
0.0
 20
0.0
 30
0.0
  0
VERTEX
  5
DA
330
D9
100
AcDbEntity
  8
_U+30EC_U+30A4_U+30E4_U+30FC 1
 62
     7
420
 16777215
370
     9
100
AcDbVertex
100
AcDb2dVertex
 10
97.54097167818917
 20
-134.5626735774705
 30
0.0
  0
VERTEX
  5
DB
330
D9
100
AcDbEntity
  8
_U+30EC_U+30A4_U+30E4_U+30FC 1
 62
     7
420
 16777215
370
     9
100
AcDbVertex
100
AcDb2dVertex
 10
97.54097167818917
 20
-132.5621060779709
 30
0.0
  0
SEQEND
  5
DC
330
D9
100
AcDbEntity
  8
_U+30EC_U+30A4_U+30E4_U+30FC 1
 62
     7
420
 16777215
370
     9
  0
POLYLINE
  5
DD
330
41
100
AcDbEntity
  8
_U+30EC_U+30A4_U+30E4_U+30FC 1
 62
     7
420
 16777215
370
     9
100
AcDb2dPolyline
 66
     1
 10
0.0
 20
0.0
 30
0.0
  0
VERTEX
  5
DE
330
DD
100
AcDbEntity
  8
_U+30EC_U+30A4_U+30E4_U+30FC 1
 62
     7
420
 16777215
370
     9
100
AcDbVertex
100
AcDb2dVertex
 10
85.08163699605328
 20
-134.5626735774705
 30
0.0
  0
VERTEX
  5
DF
330
DD
100
AcDbEntity
  8
_U+30EC_U+30A4_U+30E4_U+30FC 1
 62
     7
420
 16777215
370
     9
100
AcDbVertex
100
AcDb2dVertex
 10
98.54144943044263
 20
-134.5626735774705
 30
0.0
  0
SEQEND
  5
E0
330
DD
100
AcDbEntity
  8
_U+30EC_U+30A4_U+30E4_U+30FC 1
 62
     7
420
 16777215
370
     9
  0
INSERT
  5
E2
330
41
100
AcDbEntity
  8
_U+30EC_U+30A4_U+30E4_U+30FC 1
100
AcDbBlockReference
  2
block 7
 10
0.0
 20
0.0
 30
0.0
  0
ENDBLK
  5
44
330
41
100
AcDbEntity
  8
0
100
AcDbBlockEnd
  0
BLOCK
  5
91
330
8F
100
AcDbEntity
  8
0
100
AcDbBlockBegin
  2
block 3
 70
     0
 10
0.0
 20
0.0
 30
0.0
  3
block 3
  1

  0
SPLINE
  5
93
330
8F
100
AcDbEntity
  8
_U+30EC_U+30A4_U+30E4_U+30FC 1
370
     0
100
AcDbSpline
210
0.0
220
0.0
230
1.0
 70
    11
 71
     3
 72
    26
 73
    22
 74
     0
 42
0.0000000001
 43
0.0000000001
 12
1.0
 22
0.0
 32
0.0
 13
1.0
 23
0.0
 33
0.0
 40
0.0
 40
0.0
 40
0.0
 40
0.0
 40
1.0
 40
1.0
 40
1.0
 40
2.0
 40
2.0
 40
2.0
 40
3.0
 40
3.0
 40
3.0
 40
4.0
 40
4.0
 40
4.0
 40
5.0
 40
5.0
 40
5.0
 40
6.0
 40
6.0
 40
6.0
 40
7.0
 40
7.0
 40
7.0
 40
7.0
 10
85.40408933411773
 20
-120.3130696313801
 30
0.0
 10
85.40408933411773
 20
-120.3130696313801
 30
0.0
 10
85.40408933411773
 20
-119.2087442735832
 30
0.0
 10
85.40408933411773
 20
-119.2087442735832
 30
0.0
 10
85.40408933411773
 20
-119.2087442735832
 30
0.0
 10
85.0740491866308
 20
-119.2087442735832
 30
0.0
 10
85.0740491866308
 20
-119.2087442735832
 30
0.0
 10
85.0740491866308
 20
-119.2087442735832
 30
0.0
 10
85.0740491866308
 20
-119.0607774224918
 30
0.0
 10
85.0740491866308
 20
-119.0607774224918
 30
0.0
 10
85.40615639140889
 20
-119.0459635119052
 30
0.0
 10
85.45266518045976
 20
-118.8830104954529
 30
0.0
 10
85.4822930016329
 20
-118.7688055801168
 30
0.0
 10
85.4822930016329
 20
-118.7688055801168
 30
0.0
 10
85.62836505020749
 20
-118.7688055801168
 30
0.0
 10
85.62836505020749
 20
-118.7688055801168
 30
0.0
 10
85.62836505020749
 20
-118.7688055801168
 30
0.0
 10
85.62836505020749
 20
-120.3130696313801
 30
0.0
 10
85.62836505020749
 20
-120.3130696313801
 30
0.0
 10
85.62836505020749
 20
-120.3130696313801
 30
0.0
 10
85.40408933411773
 20
-120.3130696313801
 30
0.0
 10
85.40408933411773
 20
-120.3130696313801
 30
0.0
  0
HATCH
  5
94
330
8F
100
AcDbEntity
  8
_U+30EC_U+30A4_U+30E4_U+30FC 1
 62
     7
420
 16777215
100
AcDbHatch
 10
0.0
 20
0.0
 30
0.0
210
0.0
220
0.0
230
1.0
  2
SOLID
 70
     1
 71
     0
 91
        1
 92
        1
 93
        1
 72
     4
 94
        3
 73
     0
 74
     1
 95
       26
 96
       22
 40
0.0
 40
0.0
 40
0.0
 40
0.0
 40
1.0
 40
1.0
 40
1.0
 40
2.0
 40
2.0
 40
2.0
 40
3.0
 40
3.0
 40
3.0
 40
4.0
 40
4.0
 40
4.0
 40
5.0
 40
5.0
 40
5.0
 40
6.0
 40
6.0
 40
6.0
 40
7.0
 40
7.0
 40
7.0
 40
7.0
 10
85.40408933411773
 20
-120.3130696313801
 10
85.40408933411773
 20
-120.3130696313801
 10
85.40408933411773
 20
-119.2087442735832
 10
85.40408933411773
 20
-119.2087442735832
 10
85.40408933411773
 20
-119.2087442735832
 10
85.0740491866308
 20
-119.2087442735832
 10
85.0740491866308
 20
-119.2087442735832
 10
85.0740491866308
 20
-119.2087442735832
 10
85.0740491866308
 20
-119.0607774224918
 10
85.0740491866308
 20
-119.0607774224918
 10
85.40615639140889
 20
-119.0459635119052
 10
85.45266518045976
 20
-118.8830104954529
 10
85.4822930016329
 20
-118.7688055801168
 10
85.4822930016329
 20
-118.7688055801168
 10
85.62836505020749
 20
-118.7688055801168
 10
85.62836505020749
 20
-118.7688055801168
 10
85.62836505020749
 20
-118.7688055801168
 10
85.62836505020749
 20
-120.3130696313801
 10
85.62836505020749
 20
-120.3130696313801
 10
85.62836505020749
 20
-120.3130696313801
 10
85.40408933411773
 20
-120.3130696313801
 10
85.40408933411773
 20
-120.3130696313801
 97
        0
 97
        0
 75
     2
 76
     1
 98
        0
  0
SPLINE
  5
95
330
8F
100
AcDbEntity
  8
_U+30EC_U+30A4_U+30E4_U+30FC 1
370
     0
100
AcDbSpline
210
0.0
220
0.0
230
1.0
 70
    11
 71
     3
 72
    53
 73
    49
 74
     0
 42
0.0000000001
 43
0.0000000001
 12
1.0
 22
0.0
 32
0.0
 13
1.0
 23
0.0
 33
0.0
 40
0.0
 40
0.0
 40
0.0
 40
0.0
 40
1.0
 40
1.0
 40
1.0
 40
2.0
 40
2.0
 40
2.0
 40
3.0
 40
3.0
 40
3.0
 40
4.0
 40
4.0
 40
4.0
 40
5.0
 40
5.0
 40
5.0
 40
6.0
 40
6.0
 40
6.0
 40
7.0
 40
7.0
 40
7.0
 40
8.0
 40
8.0
 40
8.0
 40
9.0
 40
9.0
 40
9.0
 40
10.0
 40
10.0
 40
10.0
 40
11.0
 40
11.0
 40
11.0
 40
12.0
 40
12.0
 40
12.0
 40
13.0
 40
13.0
 40
13.0
 40
14.0
 40
14.0
 40
14.0
 40
15.0
 40
15.0
 40
15.0
 40
16.0
 40
16.0
 40
16.0
 40
16.0
 10
86.61056177305223
 20
-120.3638847897875
 30
0.0
 10
86.53235810553706
 20
-120.3638847897875
 30
0.0
 10
86.43072778872218
 20
-120.3468315671355
 30
0.0
 10
86.32909747190732
 20
-120.2834418102069
 30
0.0
 10
86.15563691422498
 20
-120.1733710094532
 30
0.0
 10
86.1344495769907
 20
-120.0422851262394
 30
0.0
 10
86.11550155182182
 20
-119.9344536375511
 30
0.0
 10
86.11550155182182
 20
-119.9344536375511
 30
0.0
 10
86.33771021062044
 20
-119.9344536375511
 30
0.0
 10
86.33771021062044
 20
-119.9344536375511
 30
0.0
 10
86.3924872288359
 20
-120.13323564705
 30
0.0
 10
86.51961125224163
 20
-120.1628634682232
 30
0.0
 10
86.61262883034337
 20
-120.1628634682232
 30
0.0
 10
86.752155197496
 20
-120.1628634682232
 30
0.0
 10
86.90442841794403
 20
-120.0634724634737
 30
0.0
 10
86.90442841794403
 20
-119.8307562634451
 30
0.0
 10
86.90442841794403
 20
-119.574785668891
 30
0.0
 10
86.724594433614
 20
-119.5050224853147
 30
0.0
 10
86.60401609163026
 20
-119.5050224853147
 30
0.0
 10
86.57232121316595
 20
-119.5050224853147
 30
0.0
 10
86.43072778872218
 20
-119.5050224853147
 30
0.0
 10
86.34184432520274
 20
-119.6340413112373
 30
0.0
 10
86.34184432520274
 20
-119.6340413112373
 30
0.0
 10
86.16631671022925
 20
-119.6149210312942
 30
0.0
 10
86.16631671022925
 20
-119.6149210312942
 30
0.0
 10
86.16631671022925
 20
-119.6149210312942
 30
0.0
 10
86.28672279743874
 20
-118.7688055801168
 30
0.0
 10
86.28672279743874
 20
-118.7688055801168
 30
0.0
 10
86.28672279743874
 20
-118.7688055801168
 30
0.0
 10
87.06531437710521
 20
-118.7688055801168
 30
0.0
 10
87.06531437710521
 20
-118.7688055801168
 30
0.0
 10
87.06531437710521
 20
-118.7688055801168
 30
0.0
 10
87.06531437710521
 20
-118.9634534750334
 30
0.0
 10
87.06531437710521
 20
-118.9634534750334
 30
0.0
 10
87.06531437710521
 20
-118.9634534750334
 30
0.0
 10
86.44967581389106
 20
-118.9634534750334
 30
0.0
 10
86.44967581389106
 20
-118.9634534750334
 30
0.0
 10
86.44967581389106
 20
-118.9634534750334
 30
0.0
 10
86.3842189996713
 20
-119.3865112006221
 30
0.0
 10
86.3842189996713
 20
-119.3865112006221
 30
0.0
 10
86.44554169930876
 20
-119.3525770100924
 30
0.0
 10
86.52787948140623
 20
-119.3124416476893
 30
0.0
 10
86.64639076609882
 20
-119.3124416476893
 30
0.0
 10
86.90029430336173
 20
-119.3124416476893
 30
0.0
 10
87.13731687274692
 20
-119.498649058667
 30
0.0
 10
87.13731687274692
 20
-119.811635983502
 30
0.0
 10
87.13731687274692
 20
-120.1291015324677
 30
0.0
 10
86.91304115665716
 20
-120.3638847897875
 30
0.0
 10
86.61056177305223
 20
-120.3638847897875
 30
0.0
  0
HATCH
  5
96
330
8F
100
AcDbEntity
  8
_U+30EC_U+30A4_U+30E4_U+30FC 1
 62
     7
420
 16777215
100
AcDbHatch
 10
0.0
 20
0.0
 30
0.0
210
0.0
220
0.0
230
1.0
  2
SOLID
 70
     1
 71
     0
 91
        1
 92
        1
 93
        1
 72
     4
 94
        3
 73
     0
 74
     1
 95
       53
 96
       49
 40
0.0
 40
0.0
 40
0.0
 40
0.0
 40
1.0
 40
1.0
 40
1.0
 40
2.0
 40
2.0
 40
2.0
 40
3.0
 40
3.0
 40
3.0
 40
4.0
 40
4.0
 40
4.0
 40
5.0
 40
5.0
 40
5.0
 40
6.0
 40
6.0
 40
6.0
 40
7.0
 40
7.0
 40
7.0
 40
8.0
 40
8.0
 40
8.0
 40
9.0
 40
9.0
 40
9.0
 40
10.0
 40
10.0
 40
10.0
 40
11.0
 40
11.0
 40
11.0
 40
12.0
 40
12.0
 40
12.0
 40
13.0
 40
13.0
 40
13.0
 40
14.0
 40
14.0
 40
14.0
 40
15.0
 40
15.0
 40
15.0
 40
16.0
 40
16.0
 40
16.0
 40
16.0
 10
86.61056177305223
 20
-120.3638847897875
 10
86.53235810553706
 20
-120.3638847897875
 10
86.43072778872218
 20
-120.3468315671355
 10
86.32909747190732
 20
-120.2834418102069
 10
86.15563691422498
 20
-120.1733710094532
 10
86.1344495769907
 20
-120.0422851262394
 10
86.11550155182182
 20
-119.9344536375511
 10
86.11550155182182
 20
-119.9344536375511
 10
86.33771021062044
 20
-119.9344536375511
 10
86.33771021062044
 20
-119.9344536375511
 10
86.3924872288359
 20
-120.13323564705
 10
86.51961125224163
 20
-120.1628634682232
 10
86.61262883034337
 20
-120.1628634682232
 10
86.752155197496
 20
-120.1628634682232
 10
86.90442841794403
 20
-120.0634724634737
 10
86.90442841794403
 20
-119.8307562634451
 10
86.90442841794403
 20
-119.574785668891
 10
86.724594433614
 20
-119.5050224853147
 10
86.60401609163026
 20
-119.5050224853147
 10
86.57232121316595
 20
-119.5050224853147
 10
86.43072778872218
 20
-119.5050224853147
 10
86.34184432520274
 20
-119.6340413112373
 10
86.34184432520274
 20
-119.6340413112373
 10
86.16631671022925
 20
-119.6149210312942
 10
86.16631671022925
 20
-119.6149210312942
 10
86.16631671022925
 20
-119.6149210312942
 10
86.28672279743874
 20
-118.7688055801168
 10
86.28672279743874
 20
-118.7688055801168
 10
86.28672279743874
 20
-118.7688055801168
 10
87.06531437710521
 20
-118.7688055801168
 10
87.06531437710521
 20
-118.7688055801168
 10
87.06531437710521
 20
-118.7688055801168
 10
87.06531437710521
 20
-118.9634534750334
 10
87.06531437710521
 20
-118.9634534750334
 10
87.06531437710521
 20
-118.9634534750334
 10
86.44967581389106
 20
-118.9634534750334
 10
86.44967581389106
 20
-118.9634534750334
 10
86.44967581389106
 20
-118.9634534750334
 10
86.3842189996713
 20
-119.3865112006221
 10
86.3842189996713
 20
-119.3865112006221
 10
86.44554169930876
 20
-119.3525770100924
 10
86.52787948140623
 20
-119.3124416476893
 10
86.64639076609882
 20
-119.3124416476893
 10
86.90029430336173
 20
-119.3124416476893
 10
87.13731687274692
 20
-119.498649058667
 10
87.13731687274692
 20
-119.811635983502
 10
87.13731687274692
 20
-120.1291015324677
 10
86.91304115665716
 20
-120.3638847897875
 10
86.61056177305223
 20
-120.3638847897875
 97
        0
 97
        0
 75
     2
 76
     1
 98
        0
  0
ENDBLK
  5
92
330
8F
100
AcDbEntity
  8
0
100
AcDbBlockEnd
  0
BLOCK
  5
A5
330
A3
100
AcDbEntity
  8
0
100
AcDbBlockBegin
  2
block 4
 70
     0
 10
0.0
 20
0.0
 30
0.0
  3
block 4
  1

  0
SPLINE
  5
A7
330
A3
100
AcDbEntity
  8
_U+30EC_U+30A4_U+30E4_U+30FC 1
370
     0
100
AcDbSpline
210
0.0
220
0.0
230
1.0
 70
    11
 71
     3
 72
    32
 73
    28
 74
     0
 42
0.0000000001
 43
0.0000000001
 12
1.0
 22
0.0
 32
0.0
 13
1.0
 23
0.0
 33
0.0
 40
0.0
 40
0.0
 40
0.0
 40
0.0
 40
1.0
 40
1.0
 40
1.0
 40
2.0
 40
2.0
 40
2.0
 40
3.0
 40
3.0
 40
3.0
 40
4.0
 40
4.0
 40
4.0
 40
5.0
 40
5.0
 40
5.0
 40
6.0
 40
6.0
 40
6.0
 40
7.0
 40
7.0
 40
7.0
 40
8.0
 40
8.0
 40
8.0
 40
9.0
 40
9.0
 40
9.0
 40
9.0
 10
81.54541013586365
 20
-138.3639919358951
 30
0.0
 10
81.02916257739896
 20
-138.3639919358951
 30
0.0
 10
81.0207220934601
 20
-137.810020581867
 30
0.0
 10
81.0207220934601
 20
-137.5960801522329
 30
0.0
 10
81.0207220934601
 20
-137.3656032642697
 30
0.0
 10
81.03984237340323
 20
-136.7182698225913
 30
0.0
 10
81.58347844097567
 20
-136.7182698225913
 30
0.0
 10
81.75693899865799
 20
-136.7182698225913
 30
0.0
 10
82.00222979720778
 20
-136.7882052609419
 30
0.0
 10
82.04047035709405
 20
-137.1203124657199
 30
0.0
 10
82.04047035709405
 20
-137.1203124657199
 30
0.0
 10
81.8267021822343
 20
-137.1203124657199
 30
0.0
 10
81.8267021822343
 20
-137.1203124657199
 30
0.0
 10
81.81619464100429
 20
-137.0631238806648
 30
0.0
 10
81.78449976254
 20
-136.9149847747991
 30
0.0
 10
81.58141138368451
 20
-136.9149847747991
 30
0.0
 10
81.28943954130959
 20
-136.9149847747991
 30
0.0
 10
81.24913192413217
 20
-137.2429578649948
 30
0.0
 10
81.236557325611
 20
-137.4479410463672
 30
0.0
 10
81.32957490371275
 20
-137.369737378852
 30
0.0
 10
81.39727102999791
 20
-137.3104817365057
 30
0.0
 10
81.5791720716191
 20
-137.3104817365057
 30
0.0
 10
81.75900605594914
 20
-137.3104817365057
 30
0.0
 10
82.06148543955408
 20
-137.4186577347426
 30
0.0
 10
82.06148543955408
 20
-137.8248344924535
 30
0.0
 10
82.06148543955408
 20
-138.1441948439362
 30
0.0
 10
81.86270343005516
 20
-138.3639919358951
 30
0.0
 10
81.54541013586365
 20
-138.3639919358951
 30
0.0
  0
SPLINE
  5
A8
330
A3
100
AcDbEntity
  8
_U+30EC_U+30A4_U+30E4_U+30FC 1
370
     0
100
AcDbSpline
210
0.0
220
0.0
230
1.0
 70
    11
 71
     3
 72
    17
 73
    13
 74
     0
 42
0.0000000001
 43
0.0000000001
 12
1.0
 22
0.0
 32
0.0
 13
1.0
 23
0.0
 33
0.0
 40
0.0
 40
0.0
 40
0.0
 40
0.0
 40
1.0
 40
1.0
 40
1.0
 40
2.0
 40
2.0
 40
2.0
 40
3.0
 40
3.0
 40
3.0
 40
4.0
 40
4.0
 40
4.0
 40
4.0
 10
81.56229110374137
 20
-137.5051296314223
 30
0.0
 10
81.2999470825396
 20
-137.5051296314223
 30
0.0
 10
81.26187877742758
 20
-137.7166584942167
 30
0.0
 10
81.26187877742758
 20
-137.8331027216181
 30
0.0
 10
81.26187877742758
 20
-138.0088025913658
 30
0.0
 10
81.35713566759475
 20
-138.1717556078182
 30
0.0
 10
81.54110376650709
 20
-138.1717556078182
 30
0.0
 10
81.66168210849084
 20
-138.1717556078182
 30
0.0
 10
81.83738197823857
 20
-138.1124999654719
 30
0.0
 10
81.83738197823857
 20
-137.8269015497447
 30
0.0
 10
81.83738197823857
 20
-137.6026258336549
 30
0.0
 10
81.6976833563117
 20
-137.5051296314223
 30
0.0
 10
81.56229110374137
 20
-137.5051296314223
 30
0.0
  0
HATCH
  5
A9
330
A3
100
AcDbEntity
  8
_U+30EC_U+30A4_U+30E4_U+30FC 1
 62
     7
420
 16777215
100
AcDbHatch
 10
0.0
 20
0.0
 30
0.0
210
0.0
220
0.0
230
1.0
  2
SOLID
 70
     1
 71
     0
 91
        2
 92
        1
 93
        1
 72
     4
 94
        3
 73
     0
 74
     1
 95
       32
 96
       28
 40
0.0
 40
0.0
 40
0.0
 40
0.0
 40
1.0
 40
1.0
 40
1.0
 40
2.0
 40
2.0
 40
2.0
 40
3.0
 40
3.0
 40
3.0
 40
4.0
 40
4.0
 40
4.0
 40
5.0
 40
5.0
 40
5.0
 40
6.0
 40
6.0
 40
6.0
 40
7.0
 40
7.0
 40
7.0
 40
8.0
 40
8.0
 40
8.0
 40
9.0
 40
9.0
 40
9.0
 40
9.0
 10
81.54541013586365
 20
-138.3639919358951
 10
81.02916257739896
 20
-138.3639919358951
 10
81.0207220934601
 20
-137.810020581867
 10
81.0207220934601
 20
-137.5960801522329
 10
81.0207220934601
 20
-137.3656032642697
 10
81.03984237340323
 20
-136.7182698225913
 10
81.58347844097567
 20
-136.7182698225913
 10
81.75693899865799
 20
-136.7182698225913
 10
82.00222979720778
 20
-136.7882052609419
 10
82.04047035709405
 20
-137.1203124657199
 10
82.04047035709405
 20
-137.1203124657199
 10
81.8267021822343
 20
-137.1203124657199
 10
81.8267021822343
 20
-137.1203124657199
 10
81.81619464100429
 20
-137.0631238806648
 10
81.78449976254
 20
-136.9149847747991
 10
81.58141138368451
 20
-136.9149847747991
 10
81.28943954130959
 20
-136.9149847747991
 10
81.24913192413217
 20
-137.2429578649948
 10
81.236557325611
 20
-137.4479410463672
 10
81.32957490371275
 20
-137.369737378852
 10
81.39727102999791
 20
-137.3104817365057
 10
81.5791720716191
 20
-137.3104817365057
 10
81.75900605594914
 20
-137.3104817365057
 10
82.06148543955408
 20
-137.4186577347426
 10
82.06148543955408
 20
-137.8248344924535
 10
82.06148543955408
 20
-138.1441948439362
 10
81.86270343005516
 20
-138.3639919358951
 10
81.54541013586365
 20
-138.3639919358951
 97
        0
 97
        0
 92
        1
 93
        1
 72
     4
 94
        3
 73
     0
 74
     1
 95
       17
 96
       13
 40
0.0
 40
0.0
 40
0.0
 40
0.0
 40
1.0
 40
1.0
 40
1.0
 40
2.0
 40
2.0
 40
2.0
 40
3.0
 40
3.0
 40
3.0
 40
4.0
 40
4.0
 40
4.0
 40
4.0
 10
81.56229110374137
 20
-137.5051296314223
 10
81.2999470825396
 20
-137.5051296314223
 10
81.26187877742758
 20
-137.7166584942167
 10
81.26187877742758
 20
-137.8331027216181
 10
81.26187877742758
 20
-138.0088025913658
 10
81.35713566759475
 20
-138.1717556078182
 10
81.54110376650709
 20
-138.1717556078182
 10
81.66168210849084
 20
-138.1717556078182
 10
81.83738197823857
 20
-138.1124999654719
 10
81.83738197823857
 20
-137.8269015497447
 10
81.83738197823857
 20
-137.6026258336549
 10
81.6976833563117
 20
-137.5051296314223
 10
81.56229110374137
 20
-137.5051296314223
 97
        0
 97
        0
 75
     2
 76
     1
 98
        0
  0
ENDBLK
  5
A6
330
A3
100
AcDbEntity
  8
0
100
AcDbBlockEnd
  0
BLOCK
  5
BC
330
BA
100
AcDbEntity
  8
0
100
AcDbBlockBegin
  2
block 5
 70
     0
 10
0.0
 20
0.0
 30
0.0
  3
block 5
  1

  0
SPLINE
  5
BE
330
BA
100
AcDbEntity
  8
_U+30EC_U+30A4_U+30E4_U+30FC 1
370
     0
100
AcDbSpline
210
0.0
220
0.0
230
1.0
 70
    11
 71
     3
 72
    26
 73
    22
 74
     0
 42
0.0000000001
 43
0.0000000001
 12
1.0
 22
0.0
 32
0.0
 13
1.0
 23
0.0
 33
0.0
 40
0.0
 40
0.0
 40
0.0
 40
0.0
 40
1.0
 40
1.0
 40
1.0
 40
2.0
 40
2.0
 40
2.0
 40
3.0
 40
3.0
 40
3.0
 40
4.0
 40
4.0
 40
4.0
 40
5.0
 40
5.0
 40
5.0
 40
6.0
 40
6.0
 40
6.0
 40
7.0
 40
7.0
 40
7.0
 40
7.0
 10
101.4818331994559
 20
-125.5337673297277
 30
0.0
 10
101.4818331994559
 20
-125.5337673297277
 30
0.0
 10
100.3776800964334
 20
-125.5337673297277
 30
0.0
 10
100.3776800964334
 20
-125.5337673297277
 30
0.0
 10
100.3776800964334
 20
-125.5337673297277
 30
0.0
 10
100.3776800964334
 20
-125.8638074772146
 30
0.0
 10
100.3776800964334
 20
-125.8638074772146
 30
0.0
 10
100.3776800964334
 20
-125.8638074772146
 30
0.0
 10
100.2295409905676
 20
-125.8638074772146
 30
0.0
 10
100.2295409905676
 20
-125.8638074772146
 30
0.0
 10
100.214727079981
 20
-125.5317002724365
 30
0.0
 10
100.0517740635287
 20
-125.4851914833856
 30
0.0
 10
99.93739689341844
 20
-125.4555636622125
 30
0.0
 10
99.93739689341844
 20
-125.4555636622125
 30
0.0
 10
99.93739689341844
 20
-125.3094916136379
 30
0.0
 10
99.93739689341844
 20
-125.3094916136379
 30
0.0
 10
99.93739689341844
 20
-125.3094916136379
 30
0.0
 10
101.4818331994559
 20
-125.3094916136379
 30
0.0
 10
101.4818331994559
 20
-125.3094916136379
 30
0.0
 10
101.4818331994559
 20
-125.3094916136379
 30
0.0
 10
101.4818331994559
 20
-125.5337673297277
 30
0.0
 10
101.4818331994559
 20
-125.5337673297277
 30
0.0
  0
HATCH
  5
BF
330
BA
100
AcDbEntity
  8
_U+30EC_U+30A4_U+30E4_U+30FC 1
 62
     7
420
 16777215
100
AcDbHatch
 10
0.0
 20
0.0
 30
0.0
210
0.0
220
0.0
230
1.0
  2
SOLID
 70
     1
 71
     0
 91
        1
 92
        1
 93
        1
 72
     4
 94
        3
 73
     0
 74
     1
 95
       26
 96
       22
 40
0.0
 40
0.0
 40
0.0
 40
0.0
 40
1.0
 40
1.0
 40
1.0
 40
2.0
 40
2.0
 40
2.0
 40
3.0
 40
3.0
 40
3.0
 40
4.0
 40
4.0
 40
4.0
 40
5.0
 40
5.0
 40
5.0
 40
6.0
 40
6.0
 40
6.0
 40
7.0
 40
7.0
 40
7.0
 40
7.0
 10
101.4818331994559
 20
-125.5337673297277
 10
101.4818331994559
 20
-125.5337673297277
 10
100.3776800964334
 20
-125.5337673297277
 10
100.3776800964334
 20
-125.5337673297277
 10
100.3776800964334
 20
-125.5337673297277
 10
100.3776800964334
 20
-125.8638074772146
 10
100.3776800964334
 20
-125.8638074772146
 10
100.3776800964334
 20
-125.8638074772146
 10
100.2295409905676
 20
-125.8638074772146
 10
100.2295409905676
 20
-125.8638074772146
 10
100.214727079981
 20
-125.5317002724365
 10
100.0517740635287
 20
-125.4851914833856
 10
99.93739689341844
 20
-125.4555636622125
 10
99.93739689341844
 20
-125.4555636622125
 10
99.93739689341844
 20
-125.3094916136379
 10
99.93739689341844
 20
-125.3094916136379
 10
99.93739689341844
 20
-125.3094916136379
 10
101.4818331994559
 20
-125.3094916136379
 10
101.4818331994559
 20
-125.3094916136379
 10
101.4818331994559
 20
-125.3094916136379
 10
101.4818331994559
 20
-125.5337673297277
 10
101.4818331994559
 20
-125.5337673297277
 97
        0
 97
        0
 75
     2
 76
     1
 98
        0
  0
ENDBLK
  5
BD
330
BA
100
AcDbEntity
  8
0
100
AcDbBlockEnd
  0
BLOCK
  5
CA
330
C8
100
AcDbEntity
  8
0
100
AcDbBlockBegin
  2
block 6
 70
     0
 10
0.0
 20
0.0
 30
0.0
  3
block 6
  1

  0
SPLINE
  5
CC
330
C8
100
AcDbEntity
  8
_U+30EC_U+30A4_U+30E4_U+30FC 1
370
     0
100
AcDbSpline
210
0.0
220
0.0
230
1.0
 70
    11
 71
     3
 72
    32
 73
    28
 74
     0
 42
0.0000000001
 43
0.0000000001
 12
1.0
 22
0.0
 32
0.0
 13
1.0
 23
0.0
 33
0.0
 40
0.0
 40
0.0
 40
0.0
 40
0.0
 40
1.0
 40
1.0
 40
1.0
 40
2.0
 40
2.0
 40
2.0
 40
3.0
 40
3.0
 40
3.0
 40
4.0
 40
4.0
 40
4.0
 40
5.0
 40
5.0
 40
5.0
 40
6.0
 40
6.0
 40
6.0
 40
7.0
 40
7.0
 40
7.0
 40
8.0
 40
8.0
 40
8.0
 40
9.0
 40
9.0
 40
9.0
 40
9.0
 10
96.94636499312452
 20
-130.0664794596709
 30
0.0
 10
96.94636499312452
 20
-130.5825547633613
 30
0.0
 10
96.39239363909635
 20
-130.5911675020744
 30
0.0
 10
96.17845320946233
 20
-130.5911675020744
 30
0.0
 10
95.94797632149913
 20
-130.5911675020744
 30
0.0
 10
95.30064287982067
 20
-130.571874967357
 30
0.0
 10
95.30064287982067
 20
-130.0282388997846
 30
0.0
 10
95.30064287982067
 20
-129.8549505968765
 30
0.0
 10
95.37057831817125
 20
-129.6093152887782
 30
0.0
 10
95.70268552294934
 20
-129.5714192384405
 30
0.0
 10
95.70268552294934
 20
-129.5714192384405
 30
0.0
 10
95.70268552294934
 20
-129.785015158526
 30
0.0
 10
95.70268552294934
 20
-129.785015158526
 30
0.0
 10
95.64549693789418
 20
-129.7956949545303
 30
0.0
 10
95.49735783202844
 20
-129.8273898329946
 30
0.0
 10
95.49735783202844
 20
-130.0303059570758
 30
0.0
 10
95.49735783202844
 20
-130.322450054225
 30
0.0
 10
95.82533092222423
 20
-130.3624131618539
 30
0.0
 10
96.0303141035966
 20
-130.3751600151493
 30
0.0
 10
95.95211043608143
 20
-130.2821424370475
 30
0.0
 10
95.89285479373513
 20
-130.2142740559881
 30
0.0
 10
95.89285479373513
 20
-130.0323730143669
 30
0.0
 10
95.89285479373513
 20
-129.8525390300369
 30
0.0
 10
96.00103079197197
 20
-129.5500596464319
 30
0.0
 10
96.40720754968292
 20
-129.5500596464319
 30
0.0
 10
96.72656790116558
 20
-129.5500596464319
 30
0.0
 10
96.94636499312452
 20
-129.7491861654794
 30
0.0
 10
96.94636499312452
 20
-130.0664794596709
 30
0.0
  0
SPLINE
  5
CD
330
C8
100
AcDbEntity
  8
_U+30EC_U+30A4_U+30E4_U+30FC 1
370
     0
100
AcDbSpline
210
0.0
220
0.0
230
1.0
 70
    11
 71
     3
 72
    17
 73
    13
 74
     0
 42
0.0000000001
 43
0.0000000001
 12
1.0
 22
0.0
 32
0.0
 13
1.0
 23
0.0
 33
0.0
 40
0.0
 40
0.0
 40
0.0
 40
0.0
 40
1.0
 40
1.0
 40
1.0
 40
2.0
 40
2.0
 40
2.0
 40
3.0
 40
3.0
 40
3.0
 40
4.0
 40
4.0
 40
4.0
 40
4.0
 10
96.08750268865174
 20
-130.0495984917931
 30
0.0
 10
96.08750268865174
 20
-130.3117702582207
 30
0.0
 10
96.29903155144608
 20
-130.3496663085584
 30
0.0
 10
96.41547577884752
 20
-130.3496663085584
 30
0.0
 10
96.59117564859527
 20
-130.3496663085584
 30
0.0
 10
96.75412866504759
 20
-130.2545816731655
 30
0.0
 10
96.75412866504759
 20
-130.0706135742532
 30
0.0
 10
96.75412866504759
 20
-129.9500352322694
 30
0.0
 10
96.69487302270129
 20
-129.7743353625217
 30
0.0
 10
96.40927460697408
 20
-129.7743353625217
 30
0.0
 10
96.18499889088432
 20
-129.7743353625217
 30
0.0
 10
96.08750268865174
 20
-129.9138617296743
 30
0.0
 10
96.08750268865174
 20
-130.0495984917931
 30
0.0
  0
HATCH
  5
CE
330
C8
100
AcDbEntity
  8
_U+30EC_U+30A4_U+30E4_U+30FC 1
 62
     7
420
 16777215
100
AcDbHatch
 10
0.0
 20
0.0
 30
0.0
210
0.0
220
0.0
230
1.0
  2
SOLID
 70
     1
 71
     0
 91
        2
 92
        1
 93
        1
 72
     4
 94
        3
 73
     0
 74
     1
 95
       32
 96
       28
 40
0.0
 40
0.0
 40
0.0
 40
0.0
 40
1.0
 40
1.0
 40
1.0
 40
2.0
 40
2.0
 40
2.0
 40
3.0
 40
3.0
 40
3.0
 40
4.0
 40
4.0
 40
4.0
 40
5.0
 40
5.0
 40
5.0
 40
6.0
 40
6.0
 40
6.0
 40
7.0
 40
7.0
 40
7.0
 40
8.0
 40
8.0
 40
8.0
 40
9.0
 40
9.0
 40
9.0
 40
9.0
 10
96.94636499312452
 20
-130.0664794596709
 10
96.94636499312452
 20
-130.5825547633613
 10
96.39239363909635
 20
-130.5911675020744
 10
96.17845320946233
 20
-130.5911675020744
 10
95.94797632149913
 20
-130.5911675020744
 10
95.30064287982067
 20
-130.571874967357
 10
95.30064287982067
 20
-130.0282388997846
 10
95.30064287982067
 20
-129.8549505968765
 10
95.37057831817125
 20
-129.6093152887782
 10
95.70268552294934
 20
-129.5714192384405
 10
95.70268552294934
 20
-129.5714192384405
 10
95.70268552294934
 20
-129.785015158526
 10
95.70268552294934
 20
-129.785015158526
 10
95.64549693789418
 20
-129.7956949545303
 10
95.49735783202844
 20
-129.8273898329946
 10
95.49735783202844
 20
-130.0303059570758
 10
95.49735783202844
 20
-130.322450054225
 10
95.82533092222423
 20
-130.3624131618539
 10
96.0303141035966
 20
-130.3751600151493
 10
95.95211043608143
 20
-130.2821424370475
 10
95.89285479373513
 20
-130.2142740559881
 10
95.89285479373513
 20
-130.0323730143669
 10
95.89285479373513
 20
-129.8525390300369
 10
96.00103079197197
 20
-129.5500596464319
 10
96.40720754968292
 20
-129.5500596464319
 10
96.72656790116558
 20
-129.5500596464319
 10
96.94636499312452
 20
-129.7491861654794
 10
96.94636499312452
 20
-130.0664794596709
 97
        0
 97
        0
 92
        1
 93
        1
 72
     4
 94
        3
 73
     0
 74
     1
 95
       17
 96
       13
 40
0.0
 40
0.0
 40
0.0
 40
0.0
 40
1.0
 40
1.0
 40
1.0
 40
2.0
 40
2.0
 40
2.0
 40
3.0
 40
3.0
 40
3.0
 40
4.0
 40
4.0
 40
4.0
 40
4.0
 10
96.08750268865174
 20
-130.0495984917931
 10
96.08750268865174
 20
-130.3117702582207
 10
96.29903155144608
 20
-130.3496663085584
 10
96.41547577884752
 20
-130.3496663085584
 10
96.59117564859527
 20
-130.3496663085584
 10
96.75412866504759
 20
-130.2545816731655
 10
96.75412866504759
 20
-130.0706135742532
 10
96.75412866504759
 20
-129.9500352322694
 10
96.69487302270129
 20
-129.7743353625217
 10
96.40927460697408
 20
-129.7743353625217
 10
96.18499889088432
 20
-129.7743353625217
 10
96.08750268865174
 20
-129.9138617296743
 10
96.08750268865174
 20
-130.0495984917931
 97
        0
 97
        0
 75
     2
 76
     1
 98
        0
  0
POLYLINE
  5
CF
330
C8
100
AcDbEntity
  8
_U+30EC_U+30A4_U+30E4_U+30FC 1
370
     0
100
AcDb2dPolyline
 66
     1
 10
0.0
 20
0.0
 30
0.0
  0
VERTEX
  5
D0
330
CF
100
AcDbEntity
  8
_U+30EC_U+30A4_U+30E4_U+30FC 1
370
     0
100
AcDbVertex
100
AcDb2dVertex
 10
96.89572208949136
 20
-129.3337076499583
 30
0.0
  0
VERTEX
  5
D1
330
CF
100
AcDbEntity
  8
_U+30EC_U+30A4_U+30E4_U+30FC 1
370
     0
100
AcDbVertex
100
AcDb2dVertex
 10
96.64388560951959
 20
-129.3337076499583
 30
0.0
  0
VERTEX
  5
D2
330
CF
100
AcDbEntity
  8
_U+30EC_U+30A4_U+30E4_U+30FC 1
370
     0
100
AcDbVertex
100
AcDb2dVertex
 10
96.64388560951959
 20
-129.0818711699865
 30
0.0
  0
VERTEX
  5
D3
330
CF
100
AcDbEntity
  8
_U+30EC_U+30A4_U+30E4_U+30FC 1
370
     0
100
AcDbVertex
100
AcDb2dVertex
 10
96.89572208949136
 20
-129.0818711699865
 30
0.0
  0
VERTEX
  5
D4
330
CF
100
AcDbEntity
  8
_U+30EC_U+30A4_U+30E4_U+30FC 1
370
     0
100
AcDbVertex
100
AcDb2dVertex
 10
96.89572208949136
 20
-129.3337076499583
 30
0.0
  0
SEQEND
  5
D5
330
CF
100
AcDbEntity
  8
_U+30EC_U+30A4_U+30E4_U+30FC 1
370
     0
  0
HATCH
  5
D6
330
C8
100
AcDbEntity
  8
_U+30EC_U+30A4_U+30E4_U+30FC 1
 62
     7
420
 16777215
100
AcDbHatch
 10
0.0
 20
0.0
 30
0.0
210
0.0
220
0.0
230
1.0
  2
SOLID
 70
     1
 71
     0
 91
        1
 92
        1
 93
        4
 72
     1
 10
96.89572208949136
 20
-129.3337076499583
 11
96.64388560951959
 21
-129.3337076499583
 72
     1
 10
96.64388560951959
 20
-129.3337076499583
 11
96.64388560951959
 21
-129.0818711699865
 72
     1
 10
96.64388560951959
 20
-129.0818711699865
 11
96.89572208949136
 21
-129.0818711699865
 72
     1
 10
96.89572208949136
 20
-129.0818711699865
 11
96.89572208949136
 21
-129.3337076499583
 97
        0
 75
     2
 76
     1
 98
        0
  0
SPLINE
  5
D7
330
C8
100
AcDbEntity
  8
_U+30EC_U+30A4_U+30E4_U+30FC 1
370
     0
100
AcDbSpline
210
0.0
220
0.0
230
1.0
 70
    11
 71
     3
 72
    53
 73
    49
 74
     0
 42
0.0000000001
 43
0.0000000001
 12
1.0
 22
0.0
 32
0.0
 13
1.0
 23
0.0
 33
0.0
 40
0.0
 40
0.0
 40
0.0
 40
0.0
 40
1.0
 40
1.0
 40
1.0
 40
2.0
 40
2.0
 40
2.0
 40
3.0
 40
3.0
 40
3.0
 40
4.0
 40
4.0
 40
4.0
 40
5.0
 40
5.0
 40
5.0
 40
6.0
 40
6.0
 40
6.0
 40
7.0
 40
7.0
 40
7.0
 40
8.0
 40
8.0
 40
8.0
 40
9.0
 40
9.0
 40
9.0
 40
10.0
 40
10.0
 40
10.0
 40
11.0
 40
11.0
 40
11.0
 40
12.0
 40
12.0
 40
12.0
 40
13.0
 40
13.0
 40
13.0
 40
14.0
 40
14.0
 40
14.0
 40
15.0
 40
15.0
 40
15.0
 40
16.0
 40
16.0
 40
16.0
 40
16.0
 10
96.94636499312452
 20
-128.3646022899575
 30
0.0
 10
96.94636499312452
 20
-128.4428059574726
 30
0.0
 10
96.9294840252468
 20
-128.5444362742875
 30
0.0
 10
96.86609426831821
 20
-128.6460665911024
 30
0.0
 10
96.75619572233873
 20
-128.8193548940104
 30
0.0
 10
96.62493758435072
 20
-128.840714486019
 30
0.0
 10
96.5171060956624
 20
-128.8596625111879
 30
0.0
 10
96.5171060956624
 20
-128.8596625111879
 30
0.0
 10
96.5171060956624
 20
-128.6374538523893
 30
0.0
 10
96.5171060956624
 20
-128.6374538523893
 30
0.0
 10
96.71588810516131
 20
-128.5826768341738
 30
0.0
 10
96.74551592633446
 20
-128.4555528107681
 30
0.0
 10
96.74551592633446
 20
-128.3625352326663
 30
0.0
 10
96.74551592633446
 20
-128.2230088655137
 30
0.0
 10
96.64595266681074
 20
-128.0707356450657
 30
0.0
 10
96.41340872155638
 20
-128.0707356450657
 30
0.0
 10
96.15743812700231
 20
-128.0707356450657
 30
0.0
 10
96.08750268865174
 20
-128.2505696293957
 30
0.0
 10
96.08750268865174
 20
-128.3711479713794
 30
0.0
 10
96.08750268865174
 20
-128.4028428498438
 30
0.0
 10
96.08750268865174
 20
-128.5444362742875
 30
0.0
 10
96.21669376934861
 20
-128.6333197378069
 30
0.0
 10
96.21669376934861
 20
-128.6333197378069
 30
0.0
 10
96.19774574417974
 20
-128.8090196075547
 30
0.0
 10
96.19774574417974
 20
-128.8090196075547
 30
0.0
 10
96.19774574417974
 20
-128.8090196075547
 30
0.0
 10
95.35128578345385
 20
-128.688441265571
 30
0.0
 10
95.35128578345385
 20
-128.688441265571
 30
0.0
 10
95.35128578345385
 20
-128.688441265571
 30
0.0
 10
95.35128578345385
 20
-127.9098496859045
 30
0.0
 10
95.35128578345385
 20
-127.9098496859045
 30
0.0
 10
95.35128578345385
 20
-127.9098496859045
 30
0.0
 10
95.54593367837046
 20
-127.9098496859045
 30
0.0
 10
95.54593367837046
 20
-127.9098496859045
 30
0.0
 10
95.54593367837046
 20
-127.9098496859045
 30
0.0
 10
95.54593367837046
 20
-128.5254882491186
 30
0.0
 10
95.54593367837046
 20
-128.5254882491186
 30
0.0
 10
95.54593367837046
 20
-128.5254882491186
 30
0.0
 10
95.96899140395915
 20
-128.5909450633384
 30
0.0
 10
95.96899140395915
 20
-128.5909450633384
 30
0.0
 10
95.9352294682037
 20
-128.5296223637009
 30
0.0
 10
95.89492185102627
 20
-128.4472845816035
 30
0.0
 10
95.89492185102627
 20
-128.3287732969109
 30
0.0
 10
95.89492185102627
 20
-128.074869759648
 30
0.0
 10
96.0813015167783
 20
-127.8378471902628
 30
0.0
 10
96.3944606963875
 20
-127.8378471902628
 30
0.0
 10
96.71175399057901
 20
-127.8378471902628
 30
0.0
 10
96.94636499312452
 20
-128.0621229063525
 30
0.0
 10
96.94636499312452
 20
-128.3646022899575
 30
0.0
  0
HATCH
  5
D8
330
C8
100
AcDbEntity
  8
_U+30EC_U+30A4_U+30E4_U+30FC 1
 62
     7
420
 16777215
100
AcDbHatch
 10
0.0
 20
0.0
 30
0.0
210
0.0
220
0.0
230
1.0
  2
SOLID
 70
     1
 71
     0
 91
        1
 92
        1
 93
        1
 72
     4
 94
        3
 73
     0
 74
     1
 95
       53
 96
       49
 40
0.0
 40
0.0
 40
0.0
 40
0.0
 40
1.0
 40
1.0
 40
1.0
 40
2.0
 40
2.0
 40
2.0
 40
3.0
 40
3.0
 40
3.0
 40
4.0
 40
4.0
 40
4.0
 40
5.0
 40
5.0
 40
5.0
 40
6.0
 40
6.0
 40
6.0
 40
7.0
 40
7.0
 40
7.0
 40
8.0
 40
8.0
 40
8.0
 40
9.0
 40
9.0
 40
9.0
 40
10.0
 40
10.0
 40
10.0
 40
11.0
 40
11.0
 40
11.0
 40
12.0
 40
12.0
 40
12.0
 40
13.0
 40
13.0
 40
13.0
 40
14.0
 40
14.0
 40
14.0
 40
15.0
 40
15.0
 40
15.0
 40
16.0
 40
16.0
 40
16.0
 40
16.0
 10
96.94636499312452
 20
-128.3646022899575
 10
96.94636499312452
 20
-128.4428059574726
 10
96.9294840252468
 20
-128.5444362742875
 10
96.86609426831821
 20
-128.6460665911024
 10
96.75619572233873
 20
-128.8193548940104
 10
96.62493758435072
 20
-128.840714486019
 10
96.5171060956624
 20
-128.8596625111879
 10
96.5171060956624
 20
-128.8596625111879
 10
96.5171060956624
 20
-128.6374538523893
 10
96.5171060956624
 20
-128.6374538523893
 10
96.71588810516131
 20
-128.5826768341738
 10
96.74551592633446
 20
-128.4555528107681
 10
96.74551592633446
 20
-128.3625352326663
 10
96.74551592633446
 20
-128.2230088655137
 10
96.64595266681074
 20
-128.0707356450657
 10
96.41340872155638
 20
-128.0707356450657
 10
96.15743812700231
 20
-128.0707356450657
 10
96.08750268865174
 20
-128.2505696293957
 10
96.08750268865174
 20
-128.3711479713794
 10
96.08750268865174
 20
-128.4028428498438
 10
96.08750268865174
 20
-128.5444362742875
 10
96.21669376934861
 20
-128.6333197378069
 10
96.21669376934861
 20
-128.6333197378069
 10
96.19774574417974
 20
-128.8090196075547
 10
96.19774574417974
 20
-128.8090196075547
 10
96.19774574417974
 20
-128.8090196075547
 10
95.35128578345385
 20
-128.688441265571
 10
95.35128578345385
 20
-128.688441265571
 10
95.35128578345385
 20
-128.688441265571
 10
95.35128578345385
 20
-127.9098496859045
 10
95.35128578345385
 20
-127.9098496859045
 10
95.35128578345385
 20
-127.9098496859045
 10
95.54593367837046
 20
-127.9098496859045
 10
95.54593367837046
 20
-127.9098496859045
 10
95.54593367837046
 20
-127.9098496859045
 10
95.54593367837046
 20
-128.5254882491186
 10
95.54593367837046
 20
-128.5254882491186
 10
95.54593367837046
 20
-128.5254882491186
 10
95.96899140395915
 20
-128.5909450633384
 10
95.96899140395915
 20
-128.5909450633384
 10
95.9352294682037
 20
-128.5296223637009
 10
95.89492185102627
 20
-128.4472845816035
 10
95.89492185102627
 20
-128.3287732969109
 10
95.89492185102627
 20
-128.074869759648
 10
96.0813015167783
 20
-127.8378471902628
 10
96.3944606963875
 20
-127.8378471902628
 10
96.71175399057901
 20
-127.8378471902628
 10
96.94636499312452
 20
-128.0621229063525
 10
96.94636499312452
 20
-128.3646022899575
 97
        0
 97
        0
 75
     2
 76
     1
 98
        0
  0
ENDBLK
  5
CB
330
C8
100
AcDbEntity
  8
0
100
AcDbBlockEnd
  0
BLOCK
  5
E3
330
E1
100
AcDbEntity
  8
0
100
AcDbBlockBegin
  2
block 7
 70
     0
 10
0.0
 20
0.0
 30
0.0
  3
block 7
  1

  0
SPLINE
  5
E5
330
E1
100
AcDbEntity
  8
_U+30EC_U+30A4_U+30E4_U+30FC 1
370
     0
100
AcDbSpline
210
0.0
220
0.0
230
1.0
 70
    11
 71
     3
 72
    44
 73
    40
 74
     0
 42
0.0000000001
 43
0.0000000001
 12
1.0
 22
0.0
 32
0.0
 13
1.0
 23
0.0
 33
0.0
 40
0.0
 40
0.0
 40
0.0
 40
0.0
 40
1.0
 40
1.0
 40
1.0
 40
2.0
 40
2.0
 40
2.0
 40
3.0
 40
3.0
 40
3.0
 40
4.0
 40
4.0
 40
4.0
 40
5.0
 40
5.0
 40
5.0
 40
6.0
 40
6.0
 40
6.0
 40
7.0
 40
7.0
 40
7.0
 40
8.0
 40
8.0
 40
8.0
 40
9.0
 40
9.0
 40
9.0
 40
10.0
 40
10.0
 40
10.0
 40
11.0
 40
11.0
 40
11.0
 40
12.0
 40
12.0
 40
12.0
 40
13.0
 40
13.0
 40
13.0
 40
13.0
 10
96.31281193338708
 20
-133.5660074535877
 30
0.0
 10
96.4716308352571
 20
-133.7837374882555
 30
0.0
 10
96.54570038818997
 20
-133.8767550663572
 30
0.0
 10
96.68936086992488
 20
-133.9256754222478
 30
0.0
 10
96.68936086992488
 20
-133.9256754222478
 30
0.0
 10
96.68936086992488
 20
-133.1470838425813
 30
0.0
 10
96.68936086992488
 20
-133.1470838425813
 30
0.0
 10
96.68936086992488
 20
-133.1470838425813
 30
0.0
 10
96.89468856084578
 20
-133.1470838425813
 30
0.0
 10
96.89468856084578
 20
-133.1470838425813
 30
0.0
 10
96.89468856084578
 20
-133.1470838425813
 30
0.0
 10
96.89468856084578
 20
-134.1751003353799
 30
0.0
 10
96.89468856084578
 20
-134.1751003353799
 30
0.0
 10
96.53708764947685
 20
-134.1434054569155
 30
0.0
 10
96.45888398196168
 20
-134.0779486426958
 30
0.0
 10
96.16053871293903
 20
-133.6927869674449
 30
0.0
 10
95.96175670344012
 20
-133.4368163728908
 30
0.0
 10
95.8938883223807
 20
-133.3713595586711
 30
0.0
 10
95.75642901251923
 20
-133.3713595586711
 30
0.0
 10
95.63791772782663
 20
-133.3713595586711
 30
0.0
 10
95.50700409938715
 20
-133.4433620543128
 30
0.0
 10
95.50700409938715
 20
-133.6400770065206
 30
0.0
 10
95.50700409938715
 20
-133.9001817156569
 30
0.0
 10
95.73748098735035
 20
-133.90879445437
 30
0.0
 10
95.8539252147518
 20
-133.9129285689523
 30
0.0
 10
95.8539252147518
 20
-133.9129285689523
 30
0.0
 10
95.8539252147518
 20
-134.1372042850421
 30
0.0
 10
95.8539252147518
 20
-134.1372042850421
 30
0.0
 10
95.72680119134608
 20
-134.128591546329
 30
0.0
 10
95.61483558807547
 20
-134.1179117503247
 30
0.0
 10
95.49632430338286
 20
-134.0376410255184
 30
0.0
 10
95.3354383442217
 20
-133.9277424795389
 30
0.0
 10
95.30167640846625
 20
-133.7413628137869
 30
0.0
 10
95.30167640846625
 20
-133.625263095934
 30
0.0
 10
95.30167640846625
 20
-133.3479329093714
 30
0.0
 10
95.4856445073786
 20
-133.1405381611593
 30
0.0
 10
95.75849606981038
 20
-133.1405381611593
 30
0.0
 10
95.98725041003097
 20
-133.1405381611593
 30
0.0
 10
96.08646916000616
 20
-133.2569823885608
 30
0.0
 10
96.31281193338708
 20
-133.5660074535877
 30
0.0
  0
HATCH
  5
E6
330
E1
100
AcDbEntity
  8
_U+30EC_U+30A4_U+30E4_U+30FC 1
 62
     7
420
 16777215
100
AcDbHatch
 10
0.0
 20
0.0
 30
0.0
210
0.0
220
0.0
230
1.0
  2
SOLID
 70
     1
 71
     0
 91
        1
 92
        1
 93
        1
 72
     4
 94
        3
 73
     0
 74
     1
 95
       44
 96
       40
 40
0.0
 40
0.0
 40
0.0
 40
0.0
 40
1.0
 40
1.0
 40
1.0
 40
2.0
 40
2.0
 40
2.0
 40
3.0
 40
3.0
 40
3.0
 40
4.0
 40
4.0
 40
4.0
 40
5.0
 40
5.0
 40
5.0
 40
6.0
 40
6.0
 40
6.0
 40
7.0
 40
7.0
 40
7.0
 40
8.0
 40
8.0
 40
8.0
 40
9.0
 40
9.0
 40
9.0
 40
10.0
 40
10.0
 40
10.0
 40
11.0
 40
11.0
 40
11.0
 40
12.0
 40
12.0
 40
12.0
 40
13.0
 40
13.0
 40
13.0
 40
13.0
 10
96.31281193338708
 20
-133.5660074535877
 10
96.4716308352571
 20
-133.7837374882555
 10
96.54570038818997
 20
-133.8767550663572
 10
96.68936086992488
 20
-133.9256754222478
 10
96.68936086992488
 20
-133.9256754222478
 10
96.68936086992488
 20
-133.1470838425813
 10
96.68936086992488
 20
-133.1470838425813
 10
96.68936086992488
 20
-133.1470838425813
 10
96.89468856084578
 20
-133.1470838425813
 10
96.89468856084578
 20
-133.1470838425813
 10
96.89468856084578
 20
-133.1470838425813
 10
96.89468856084578
 20
-134.1751003353799
 10
96.89468856084578
 20
-134.1751003353799
 10
96.53708764947685
 20
-134.1434054569155
 10
96.45888398196168
 20
-134.0779486426958
 10
96.16053871293903
 20
-133.6927869674449
 10
95.96175670344012
 20
-133.4368163728908
 10
95.8938883223807
 20
-133.3713595586711
 10
95.75642901251923
 20
-133.3713595586711
 10
95.63791772782663
 20
-133.3713595586711
 10
95.50700409938715
 20
-133.4433620543128
 10
95.50700409938715
 20
-133.6400770065206
 10
95.50700409938715
 20
-133.9001817156569
 10
95.73748098735035
 20
-133.90879445437
 10
95.8539252147518
 20
-133.9129285689523
 10
95.8539252147518
 20
-133.9129285689523
 10
95.8539252147518
 20
-134.1372042850421
 10
95.8539252147518
 20
-134.1372042850421
 10
95.72680119134608
 20
-134.128591546329
 10
95.61483558807547
 20
-134.1179117503247
 10
95.49632430338286
 20
-134.0376410255184
 10
95.3354383442217
 20
-133.9277424795389
 10
95.30167640846625
 20
-133.7413628137869
 10
95.30167640846625
 20
-133.625263095934
 10
95.30167640846625
 20
-133.3479329093714
 10
95.4856445073786
 20
-133.1405381611593
 10
95.75849606981038
 20
-133.1405381611593
 10
95.98725041003097
 20
-133.1405381611593
 10
96.08646916000616
 20
-133.2569823885608
 10
96.31281193338708
 20
-133.5660074535877
 97
        0
 97
        0
 75
     2
 76
     1
 98
        0
  0
ENDBLK
  5
E4
330
E1
100
AcDbEntity
  8
0
100
AcDbBlockEnd
  0
ENDSEC
  0
SECTION
  2
ENTITIES
  0
INSERT
  5
42
330
1F
100
AcDbEntity
  8
_U+30EC_U+30A4_U+30E4_U+30FC 1
100
AcDbBlockReference
  2
block 2
 10
0.0
 20
0.0
 30
0.0
  0
ENDSEC
  0
SECTION
  2
OBJECTS
  0
DICTIONARY
  5
C
330
0
100
AcDbDictionary
281
     1
  3
ACAD_GROUP
350
D
  3
ACAD_LAYOUT
350
1A
  3
ACAD_MATERIAL
350
3B
  3
ACAD_MLEADERSTYLE
350
E8
  3
ACAD_MLINESTYLE
350
17
  3
ACAD_PLOTSETTINGS
350
19
  3
ACAD_PLOTSTYLENAME
350
E
  3
ACAD_TABLESTYLE
350
E7
  3
ACAD_VISUALSTYLE
350
2A
  0
SUN
  5
3F
330
29
100
AcDbSun
 90
        1
290
     0
 63
     7
421
 16777215
 40
1.0
291
     1
 91
  2455826
 92
 54000000
292
     0
 70
     2
 71
   256
280
     1
  0
DICTIONARY
  5
D
102
{ACAD_REACTORS
330
C
102
}
330
C
100
AcDbDictionary
281
     1
  0
DICTIONARY
  5
1A
102
{ACAD_REACTORS
330
C
102
}
330
C
100
AcDbDictionary
281
     1
  3
Layout1
350
1E
  3
Layout2
350
26
  3
Model
350
22
  0
DICTIONARY
  5
3B
102
{ACAD_REACTORS
330
C
102
}
330
C
100
AcDbDictionary
281
     1
  3
ByBlock
350
3D
  3
ByLayer
350
3C
  3
Global
350
3E
  0
DICTIONARY
  5
E8
102
{ACAD_REACTORS
330
C
102
}
330
C
100
AcDbDictionary
281
     1
  0
DICTIONARY
  5
17
102
{ACAD_REACTORS
330
C
102
}
330
C
100
AcDbDictionary
281
     1
  3
Standard
350
18
  0
DICTIONARY
  5
19
102
{ACAD_REACTORS
330
C
102
}
330
C
100
AcDbDictionary
281
     1
  0
ACDBDICTIONARYWDFLT
  5
E
102
{ACAD_REACTORS
330
C
102
}
330
C
100
AcDbDictionary
281
     1
  3
Normal
350
F
100
AcDbDictionaryWithDefault
340
F
  0
DICTIONARY
  5
E7
102
{ACAD_REACTORS
330
C
102
}
330
C
100
AcDbDictionary
281
     1
  0
DICTIONARY
  5
2A
102
{ACAD_REACTORS
330
C
102
}
330
C
100
AcDbDictionary
281
     1
  3
2dWireframe
350
2F
  3
3D Hidden
350
31
  3
3dWireframe
350
30
  3
Basic
350
32
  3
Brighten
350
36
  3
ColorChange
350
3A
  3
Conceptual
350
34
  3
Dim
350
35
  3
Facepattern
350
39
  3
Flat
350
2B
  3
FlatWithEdges
350
2C
  3
Gouraud
350
2D
  3
GouraudWithEdges
350
2E
  3
Linepattern
350
38
  3
Realistic
350
33
  3
Thicken
350
37
  0
LAYOUT
  5
1E
102
{ACAD_REACTORS
330
1A
102
}
330
1A
100
AcDbPlotSettings
  1

  2
none_device
  4

  6

 40
0.0
 41
0.0
 42
0.0
 43
0.0
 44
0.0
 45
0.0
 46
0.0
 47
0.0
 48
0.0
 49
0.0
140
0.0
141
0.0
142
1.0
143
1.0
 70
   688
 72
     0
 73
     0
 74
     5
  7

 75
    16
 76
     0
 77
     2
 78
   300
147
1.0
148
0.0
149
0.0
100
AcDbLayout
  1
Layout1
 70
     1
 71
     1
 10
0.0
 20
0.0
 11
12.0
 21
9.0
 12
0.0
 22
0.0
 32
0.0
 14
1.000000000000000E+20
 24
1.000000000000000E+20
 34
1.000000000000000E+20
 15
-1.000000000000000E+20
 25
-1.000000000000000E+20
 35
-1.000000000000000E+20
146
0.0
 13
0.0
 23
0.0
 33
0.0
 16
1.0
 26
0.0
 36
0.0
 17
0.0
 27
1.0
 37
0.0
 76
     0
330
1B
  0
LAYOUT
  5
26
102
{ACAD_REACTORS
330
1A
102
}
330
1A
100
AcDbPlotSettings
  1

  2
none_device
  4

  6

 40
0.0
 41
0.0
 42
0.0
 43
0.0
 44
0.0
 45
0.0
 46
0.0
 47
0.0
 48
0.0
 49
0.0
140
0.0
141
0.0
142
1.0
143
1.0
 70
   688
 72
     0
 73
     0
 74
     5
  7

 75
    16
 76
     0
 77
     2
 78
   300
147
1.0
148
0.0
149
0.0
100
AcDbLayout
  1
Layout2
 70
     1
 71
     2
 10
0.0
 20
0.0
 11
0.0
 21
0.0
 12
0.0
 22
0.0
 32
0.0
 14
0.0
 24
0.0
 34
0.0
 15
0.0
 25
0.0
 35
0.0
146
0.0
 13
0.0
 23
0.0
 33
0.0
 16
1.0
 26
0.0
 36
0.0
 17
0.0
 27
1.0
 37
0.0
 76
     0
330
23
  0
LAYOUT
  5
22
102
{ACAD_REACTORS
330
1A
102
}
330
1A
100
AcDbPlotSettings
  1

  2
none_device
  4

  6

 40
0.0
 41
0.0
 42
0.0
 43
0.0
 44
0.0
 45
0.0
 46
0.0
 47
0.0
 48
0.0
 49
0.0
140
0.0
141
0.0
142
1.0
143
1.0
 70
  1712
 72
     0
 73
     0
 74
     0
  7

 75
     0
 76
     0
 77
     2
 78
   300
147
1.0
148
0.0
149
0.0
100
AcDbLayout
  1
Model
 70
     1
 71
     0
 10
0.0
 20
0.0
 11
12.0
 21
9.0
 12
0.0
 22
0.0
 32
0.0
 14
1.000000000000000E+20
 24
1.000000000000000E+20
 34
1.000000000000000E+20
 15
-1.000000000000000E+20
 25
-1.000000000000000E+20
 35
-1.000000000000000E+20
146
0.0
 13
0.0
 23
0.0
 33
0.0
 16
1.0
 26
0.0
 36
0.0
 17
0.0
 27
1.0
 37
0.0
 76
     0
330
1F
331
29
  0
MATERIAL
  5
3D
102
{ACAD_REACTORS
330
3B
102
}
330
3B
100
AcDbMaterial
  1
ByBlock
 72
     1
 94
      127
  0
MATERIAL
  5
3C
102
{ACAD_REACTORS
330
3B
102
}
330
3B
100
AcDbMaterial
  1
ByLayer
 72
     1
 94
      127
  0
MATERIAL
  5
3E
102
{ACAD_REACTORS
330
3B
102
}
330
3B
100
AcDbMaterial
  1
Global
 72
     1
 94
      127
  0
MLINESTYLE
  5
18
102
{ACAD_REACTORS
330
17
102
}
330
17
100
AcDbMlineStyle
  2
Standard
 70
     0
  3

 62
   256
 51
90.0
 52
90.0
 71
     2
 49
0.5
 62
   256
  6
BYLAYER
 49
-0.5
 62
   256
  6
BYLAYER
  0
ACDBPLACEHOLDER
  5
F
102
{ACAD_REACTORS
330
E
102
}
330
E
  0
VISUALSTYLE
  5
2F
102
{ACAD_REACTORS
330
2A
102
}
330
2A
100
AcDbVisualStyle
  2
2dWireframe
 70
     4
177
     2
291
     0
 71
     0
176
     1
 72
     2
176
     1
 73
     0
176
     1
 90
        0
176
     1
 40
-0.6
176
     1
 41
-30.0
176
     1
 62
     5
 63
     7
421
 16777215
176
     1
 74
     1
176
     1
 91
        4
176
     1
 64
     7
176
     1
 65
   257
176
     1
 75
     1
176
     1
175
     1
176
     1
 42
1.0
176
     1
 92
        0
176
     1
 66
   257
176
     1
 43
1.0
176
     1
 76
     1
176
     1
 77
     6
176
     1
 78
     2
176
     1
 67
     7
176
     1
 79
     5
176
     1
170
     0
176
     1
171
     0
176
     1
290
     0
176
     1
 93
        1
176
     1
 44
0.0
176
     1
173
     0
176
     1
  0
VISUALSTYLE
  5
31
102
{ACAD_REACTORS
330
2A
102
}
330
2A
100
AcDbVisualStyle
  2
3D Hidden
 70
     6
177
     2
291
     0
 71
     1
176
     1
 72
     2
176
     1
 73
     2
176
     1
 90
        0
176
     1
 40
-0.6
176
     1
 41
-30.0
176
     1
 62
     5
 63
     7
421
 16777215
176
     1
 74
     2
176
     1
 91
        2
176
     1
 64
     7
176
     1
 65
   257
176
     1
 75
     2
176
     1
175
     1
176
     1
 42
40.0
176
     1
 92
        0
176
     1
 66
   257
176
     1
 43
1.0
176
     1
 76
     1
176
     1
 77
     6
176
     1
 78
     2
176
     1
 67
     7
176
     1
 79
     3
176
     1
170
     0
176
     1
171
     0
176
     1
290
     0
176
     1
 93
        1
176
     1
 44
0.0
176
     1
173
     0
176
     1
  0
VISUALSTYLE
  5
30
102
{ACAD_REACTORS
330
2A
102
}
330
2A
100
AcDbVisualStyle
  2
3dWireframe
 70
     5
177
     2
291
     0
 71
     0
176
     1
 72
     2
176
     1
 73
     0
176
     1
 90
        0
176
     1
 40
-0.6
176
     1
 41
-30.0
176
     1
 62
     5
 63
     7
421
 16777215
176
     1
 74
     1
176
     1
 91
        4
176
     1
 64
     7
176
     1
 65
   257
176
     1
 75
     1
176
     1
175
     1
176
     1
 42
1.0
176
     1
 92
        0
176
     1
 66
   257
176
     1
 43
1.0
176
     1
 76
     1
176
     1
 77
     6
176
     1
 78
     2
176
     1
 67
     7
176
     1
 79
     5
176
     1
170
     0
176
     1
171
     0
176
     1
290
     0
176
     1
 93
        1
176
     1
 44
0.0
176
     1
173
     0
176
     1
  0
VISUALSTYLE
  5
32
102
{ACAD_REACTORS
330
2A
102
}
330
2A
100
AcDbVisualStyle
  2
Basic
 70
     7
177
     2
291
     1
 71
     1
176
     1
 72
     0
176
     1
 73
     1
176
     1
 90
        0
176
     1
 40
-0.6
176
     1
 41
-30.0
176
     1
 62
     5
 63
     7
421
 16777215
176
     1
 74
     0
176
     1
 91
        4
176
     1
 64
     7
176
     1
 65
   257
176
     1
 75
     1
176
     1
175
     1
176
     1
 42
1.0
176
     1
 92
        8
176
     1
 66
     7
176
     1
 43
1.0
176
     1
 76
     1
176
     1
 77
     6
176
     1
 78
     2
176
     1
 67
     7
176
     1
 79
     5
176
     1
170
     0
176
     1
171
     0
176
     1
290
     0
176
     1
 93
        1
176
     1
 44
0.0
176
     1
173
     0
176
     1
  0
VISUALSTYLE
  5
36
102
{ACAD_REACTORS
330
2A
102
}
330
2A
100
AcDbVisualStyle
  2
Brighten
 70
    12
177
     2
291
     1
 71
     2
176
     1
 72
     2
176
     1
 73
     0
176
     1
 90
        0
176
     1
 40
-0.6
176
     1
 41
-30.0
176
     1
 62
     5
 63
     7
421
 16777215
176
     1
 74
     1
176
     1
 91
        4
176
     1
 64
     7
176
     1
 65
   257
176
     1
 75
     1
176
     1
175
     1
176
     1
 42
1.0
176
     1
 92
        8
176
     1
 66
     7
176
     1
 43
1.0
176
     1
 76
     1
176
     1
 77
     6
176
     1
 78
     2
176
     1
 67
     7
176
     1
 79
     5
176
     1
170
     0
176
     1
171
     0
176
     1
290
     0
176
     1
 93
        1
176
     1
 44
50.0
176
     1
173
     0
176
     1
  0
VISUALSTYLE
  5
3A
102
{ACAD_REACTORS
330
2A
102
}
330
2A
100
AcDbVisualStyle
  2
ColorChange
 70
    16
177
     2
291
     1
 71
     2
176
     1
 72
     2
176
     1
 73
     3
176
     1
 90
        0
176
     1
 40
-0.6
176
     1
 41
-30.0
176
     1
 62
     5
 63
     8
421
  8421504
176
     1
 74
     1
176
     1
 91
        4
176
     1
 64
     7
176
     1
 65
   257
176
     1
 75
     1
176
     1
175
     1
176
     1
 42
1.0
176
     1
 92
        8
176
     1
 66
     8
424
  8421504
176
     1
 43
1.0
176
     1
 76
     1
176
     1
 77
     6
176
     1
 78
     2
176
     1
 67
     7
176
     1
 79
     5
176
     1
170
     0
176
     1
171
     0
176
     1
290
     0
176
     1
 93
        1
176
     1
 44
0.0
176
     1
173
     0
176
     1
  0
VISUALSTYLE
  5
34
102
{ACAD_REACTORS
330
2A
102
}
330
2A
100
AcDbVisualStyle
  2
Conceptual
 70
     9
177
     2
291
     0
 71
     3
176
     1
 72
     2
176
     1
 73
     0
176
     1
 90
        0
176
     1
 40
-0.6
176
     1
 41
-30.0
176
     1
 62
     5
 63
     7
421
 16777215
176
     1
 74
     2
176
     1
 91
        2
176
     1
 64
     7
176
     1
 65
   257
176
     1
 75
     1
176
     1
175
     1
176
     1
 42
40.0
176
     1
 92
        8
176
     1
 66
     7
176
     1
 43
1.0
176
     1
 76
     1
176
     1
 77
     6
176
     1
 78
     2
176
     1
 67
     7
176
     1
 79
     3
176
     1
170
     0
176
     1
171
     0
176
     1
290
     0
176
     1
 93
        1
176
     1
 44
0.0
176
     1
173
     0
176
     1
  0
VISUALSTYLE
  5
35
102
{ACAD_REACTORS
330
2A
102
}
330
2A
100
AcDbVisualStyle
  2
Dim
 70
    11
177
     2
291
     1
 71
     2
176
     1
 72
     2
176
     1
 73
     0
176
     1
 90
        0
176
     1
 40
-0.6
176
     1
 41
-30.0
176
     1
 62
     5
 63
     7
421
 16777215
176
     1
 74
     1
176
     1
 91
        4
176
     1
 64
     7
176
     1
 65
   257
176
     1
 75
     1
176
     1
175
     1
176
     1
 42
1.0
176
     1
 92
        8
176
     1
 66
     7
176
     1
 43
1.0
176
     1
 76
     1
176
     1
 77
     6
176
     1
 78
     2
176
     1
 67
     7
176
     1
 79
     5
176
     1
170
     0
176
     1
171
     0
176
     1
290
     0
176
     1
 93
        1
176
     1
 44
-50.0
176
     1
173
     0
176
     1
  0
VISUALSTYLE
  5
39
102
{ACAD_REACTORS
330
2A
102
}
330
2A
100
AcDbVisualStyle
  2
Facepattern
 70
    15
177
     2
291
     1
 71
     2
176
     1
 72
     2
176
     1
 73
     0
176
     1
 90
        0
176
     1
 40
-0.6
176
     1
 41
-30.0
176
     1
 62
     5
 63
     7
421
 16777215
176
     1
 74
     1
176
     1
 91
        4
176
     1
 64
     7
176
     1
 65
   257
176
     1
 75
     1
176
     1
175
     1
176
     1
 42
1.0
176
     1
 92
        8
176
     1
 66
     7
176
     1
 43
1.0
176
     1
 76
     1
176
     1
 77
     6
176
     1
 78
     2
176
     1
 67
     7
176
     1
 79
     5
176
     1
170
     0
176
     1
171
     0
176
     1
290
     0
176
     1
 93
        1
176
     1
 44
0.0
176
     1
173
     0
176
     1
  0
VISUALSTYLE
  5
2B
102
{ACAD_REACTORS
330
2A
102
}
330
2A
100
AcDbVisualStyle
  2
Flat
 70
     0
177
     2
291
     1
 71
     2
176
     1
 72
     1
176
     1
 73
     1
176
     1
 90
        2
176
     1
 40
-0.6
176
     1
 41
30.0
176
     1
 62
     5
 63
     7
421
 16777215
176
     1
 74
     0
176
     1
 91
        4
176
     1
 64
     7
176
     1
 65
   257
176
     1
 75
     1
176
     1
175
     1
176
     1
 42
1.0
176
     1
 92
        8
176
     1
 66
     7
176
     1
 43
1.0
176
     1
 76
     1
176
     1
 77
     6
176
     1
 78
     2
176
     1
 67
     7
176
     1
 79
     5
176
     1
170
     0
176
     1
171
     0
176
     1
290
     0
176
     1
 93
       13
176
     1
 44
0.0
176
     1
173
     0
176
     1
  0
VISUALSTYLE
  5
2C
102
{ACAD_REACTORS
330
2A
102
}
330
2A
100
AcDbVisualStyle
  2
FlatWithEdges
 70
     1
177
     2
291
     1
 71
     2
176
     1
 72
     1
176
     1
 73
     1
176
     1
 90
        2
176
     1
 40
-0.6
176
     1
 41
30.0
176
     1
 62
     5
 63
     7
421
 16777215
176
     1
 74
     1
176
     1
 91
        4
176
     1
 64
     7
176
     1
 65
   257
176
     1
 75
     1
176
     1
175
     1
176
     1
 42
1.0
176
     1
 92
        0
176
     1
 66
   257
176
     1
 43
1.0
176
     1
 76
     1
176
     1
 77
     6
176
     1
 78
     2
176
     1
 67
     7
176
     1
 79
     5
176
     1
170
     0
176
     1
171
     0
176
     1
290
     0
176
     1
 93
       13
176
     1
 44
0.0
176
     1
173
     0
176
     1
  0
VISUALSTYLE
  5
2D
102
{ACAD_REACTORS
330
2A
102
}
330
2A
100
AcDbVisualStyle
  2
Gouraud
 70
     2
177
     2
291
     1
 71
     2
176
     1
 72
     2
176
     1
 73
     1
176
     1
 90
        2
176
     1
 40
-0.6
176
     1
 41
30.0
176
     1
 62
     5
 63
     7
421
 16777215
176
     1
 74
     0
176
     1
 91
        4
176
     1
 64
     7
176
     1
 65
   257
176
     1
 75
     1
176
     1
175
     1
176
     1
 42
1.0
176
     1
 92
        0
176
     1
 66
     7
176
     1
 43
1.0
176
     1
 76
     1
176
     1
 77
     6
176
     1
 78
     2
176
     1
 67
     7
176
     1
 79
     5
176
     1
170
     0
176
     1
171
     0
176
     1
290
     0
176
     1
 93
       13
176
     1
 44
0.0
176
     1
173
     0
176
     1
  0
VISUALSTYLE
  5
2E
102
{ACAD_REACTORS
330
2A
102
}
330
2A
100
AcDbVisualStyle
  2
GouraudWithEdges
 70
     3
177
     2
291
     1
 71
     2
176
     1
 72
     2
176
     1
 73
     1
176
     1
 90
        2
176
     1
 40
-0.6
176
     1
 41
30.0
176
     1
 62
     5
 63
     7
421
 16777215
176
     1
 74
     1
176
     1
 91
        4
176
     1
 64
     7
176
     1
 65
   257
176
     1
 75
     1
176
     1
175
     1
176
     1
 42
1.0
176
     1
 92
        0
176
     1
 66
   257
176
     1
 43
1.0
176
     1
 76
     1
176
     1
 77
     6
176
     1
 78
     2
176
     1
 67
     7
176
     1
 79
     5
176
     1
170
     0
176
     1
171
     0
176
     1
290
     0
176
     1
 93
       13
176
     1
 44
0.0
176
     1
173
     0
176
     1
  0
VISUALSTYLE
  5
38
102
{ACAD_REACTORS
330
2A
102
}
330
2A
100
AcDbVisualStyle
  2
Linepattern
 70
    14
177
     2
291
     1
 71
     2
176
     1
 72
     2
176
     1
 73
     0
176
     1
 90
        0
176
     1
 40
-0.6
176
     1
 41
-30.0
176
     1
 62
     5
 63
     7
421
 16777215
176
     1
 74
     1
176
     1
 91
        4
176
     1
 64
     7
176
     1
 65
   257
176
     1
 75
     7
176
     1
175
     7
176
     1
 42
1.0
176
     1
 92
        8
176
     1
 66
     7
176
     1
 43
1.0
176
     1
 76
     1
176
     1
 77
     6
176
     1
 78
     2
176
     1
 67
     7
176
     1
 79
     5
176
     1
170
     0
176
     1
171
     0
176
     1
290
     0
176
     1
 93
        1
176
     1
 44
0.0
176
     1
173
     0
176
     1
  0
VISUALSTYLE
  5
33
102
{ACAD_REACTORS
330
2A
102
}
330
2A
100
AcDbVisualStyle
  2
Realistic
 70
     8
177
     2
291
     0
 71
     2
176
     1
 72
     2
176
     1
 73
     0
176
     1
 90
        0
176
     1
 40
-0.6
176
     1
 41
-30.0
176
     1
 62
     5
 63
     7
421
 16777215
176
     1
 74
     1
176
     1
 91
        0
176
     1
 64
     7
176
     1
 65
   257
176
     1
 75
     1
176
     1
175
     1
176
     1
 42
1.0
176
     1
 92
        8
176
     1
 66
     8
424
  7895160
176
     1
 43
1.0
176
     1
 76
     1
176
     1
 77
     6
176
     1
 78
     2
176
     1
 67
     7
176
     1
 79
     5
176
     1
170
     0
176
     1
171
     0
176
     1
290
     0
176
     1
 93
       13
176
     1
 44
0.0
176
     1
173
     0
176
     1
  0
VISUALSTYLE
  5
37
102
{ACAD_REACTORS
330
2A
102
}
330
2A
100
AcDbVisualStyle
  2
Thicken
 70
    13
177
     2
291
     1
 71
     2
176
     1
 72
     2
176
     1
 73
     0
176
     1
 90
        0
176
     1
 40
-0.6
176
     1
 41
-30.0
176
     1
 62
     5
 63
     7
421
 16777215
176
     1
 74
     1
176
     1
 91
        4
176
     1
 64
     7
176
     1
 65
   257
176
     1
 75
     1
176
     1
175
     1
176
     1
 42
1.0
176
     1
 92
       12
176
     1
 66
     7
176
     1
 43
1.0
176
     1
 76
     1
176
     1
 77
     6
176
     1
 78
     2
176
     1
 67
     7
176
     1
 79
     5
176
     1
170
     0
176
     1
171
     0
176
     1
290
     0
176
     1
 93
        1
176
     1
 44
0.0
176
     1
173
     0
176
     1
  0
ENDSEC
  0
EOF
