  0
SECTION
  2
HEADER
  9
$ACADVER
  1
AC1024
  9
$ACADMAINTVER
 70
     6
  9
$DWGCODEPAGE
  3
UNDEFINED
  9
$INSBASE
 10
0.0
 20
0.0
 30
0.0
  9
$EXTMIN
 10
1.000000000000000E+20
 20
1.000000000000000E+20
 30
1.000000000000000E+20
  9
$EXTMAX
 10
-1.000000000000000E+20
 20
-1.000000000000000E+20
 30
-1.000000000000000E+20
  9
$LIMMIN
 10
0.0
 20
0.0
  9
$LIMMAX
 10
12.0
 20
9.0
  9
$ORTHOMODE
 70
     0
  9
$REGENMODE
 70
     1
  9
$FILLMODE
 70
     1
  9
$QTEXTMODE
 70
     0
  9
$MIRRTEXT
 70
     1
  9
$LTSCALE
 40
1.0
  9
$ATTMODE
 70
     1
  9
$TEXTSIZE
 40
0.2
  9
$TRACEWID
 40
0.05
  9
$TEXTSTYLE
  7
Standard
  9
$CLAYER
  8
0
  9
$CELTYPE
  6
ByLayer
  9
$CECOLOR
 62
   256
  9
$CELTSCALE
 40
1.0
  9
$DISPSILH
 70
     0
  9
$DIMSCALE
 40
1.0
  9
$DIMASZ
 40
0.18
  9
$DIMEXO
 40
0.0625
  9
$DIMDLI
 40
0.38
  9
$DIMRND
 40
0.0
  9
$DIMDLE
 40
0.0
  9
$DIMEXE
 40
0.18
  9
$DIMTP
 40
0.0
  9
$DIMTM
 40
0.0
  9
$DIMTXT
 40
0.18
  9
$DIMCEN
 40
0.09
  9
$DIMTSZ
 40
0.0
  9
$DIMTOL
 70
     0
  9
$DIMLIM
 70
     0
  9
$DIMTIH
 70
     1
  9
$DIMTOH
 70
     1
  9
$DIMSE1
 70
     0
  9
$DIMSE2
 70
     0
  9
$DIMTAD
 70
     0
  9
$DIMZIN
 70
     0
  9
$DIMBLK
  1

  9
$DIMASO
 70
     1
  9
$DIMSHO
 70
     1
  9
$DIMPOST
  1

  9
$DIMAPOST
  1

  9
$DIMALT
 70
     0
  9
$DIMALTD
 70
     2
  9
$DIMALTF
 40
25.4
  9
$DIMLFAC
 40
1.0
  9
$DIMTOFL
 70
     0
  9
$DIMTVP
 40
0.0
  9
$DIMTIX
 70
     0
  9
$DIMSOXD
 70
     0
  9
$DIMSAH
 70
     0
  9
$DIMBLK1
  1

  9
$DIMBLK2
  1

  9
$DIMSTYLE
  2
Standard
  9
$DIMCLRD
 70
     0
  9
$DIMCLRE
 70
     0
  9
$DIMCLRT
 70
     0
  9
$DIMTFAC
 40
1.0
  9
$DIMGAP
 40
0.09
  9
$DIMJUST
 70
     0
  9
$DIMSD1
 70
     0
  9
$DIMSD2
 70
     0
  9
$DIMTOLJ
 70
     1
  9
$DIMTZIN
 70
     0
  9
$DIMALTZ
 70
     0
  9
$DIMALTTZ
 70
     0
  9
$DIMUPT
 70
     0
  9
$DIMDEC
 70
     4
  9
$DIMTDEC
 70
     4
  9
$DIMALTU
 70
     2
  9
$DIMALTTD
 70
     2
  9
$DIMTXSTY
  7
Standard
  9
$DIMAUNIT
 70
     0
  9
$DIMADEC
 70
     0
  9
$DIMALTRND
 40
0.0
  9
$DIMAZIN
 70
     0
  9
$DIMDSEP
 70
    46
  9
$DIMATFIT
 70
     3
  9
$DIMFRAC
 70
     0
  9
$DIMLDRBLK
  1

  9
$DIMLUNIT
 70
     2
  9
$DIMLWD
 70
    -2
  9
$DIMLWE
 70
    -2
  9
$DIMTMOVE
 70
     0
  9
$DIMFXL
 40
1.0
  9
$DIMFXLON
 70
     0
  9
$DIMJOGANG
 40
0.7853981633974483
  9
$DIMTFILL
 70
     0
  9
$DIMTFILLCLR
 70
     0
  9
$DIMARCSYM
 70
     0
  9
$DIMLTYPE
  6

  9
$DIMLTEX1
  6

  9
$DIMLTEX2
  6

  9
$DIMTXTDIRECTION
 70
     0
  9
$LUNITS
 70
     2
  9
$LUPREC
 70
     4
  9
$SKETCHINC
 40
0.1
  9
$FILLETRAD
 40
0.5
  9
$AUNITS
 70
     0
  9
$AUPREC
 70
     0
  9
$MENU
  1
.
  9
$ELEVATION
 40
0.0
  9
$PELEVATION
 40
0.0
  9
$THICKNESS
 40
0.0
  9
$LIMCHECK
 70
     0
  9
$CHAMFERA
 40
0.5
  9
$CHAMFERB
 40
0.5
  9
$CHAMFERC
 40
1.0
  9
$CHAMFERD
 40
0.0
  9
$SKPOLY
 70
     0
  9
$TDCREATE
 40
2457917.61616897
  9
$TDUCREATE
 40
2457917.241168981
  9
$TDUPDATE
 40
2457917.61616897
  9
$TDUUPDATE
 40
2457917.241168981
  9
$TDINDWG
 40
0.0000000116
  9
$TDUSRTIMER
 40
0.0000000116
  9
$USRTIMER
 70
     1
  9
$ANGBASE
 50
0.0
  9
$ANGDIR
 70
     0
  9
$PDMODE
 70
     0
  9
$PDSIZE
 40
0.0
  9
$PLINEWID
 40
0.0
  9
$SPLFRAME
 70
     0
  9
$SPLINETYPE
 70
     6
  9
$SPLINESEGS
 70
     8
  9
$HANDSEED
  5
DF
  9
$SURFTAB1
 70
     6
  9
$SURFTAB2
 70
     6
  9
$SURFTYPE
 70
     6
  9
$SURFU
 70
     6
  9
$SURFV
 70
     6
  9
$UCSBASE
  2

  9
$UCSNAME
  2

  9
$UCSORG
 10
0.0
 20
0.0
 30
0.0
  9
$UCSXDIR
 10
1.0
 20
0.0
 30
0.0
  9
$UCSYDIR
 10
0.0
 20
1.0
 30
0.0
  9
$UCSORTHOREF
  2

  9
$UCSORTHOVIEW
 70
     0
  9
$UCSORGTOP
 10
0.0
 20
0.0
 30
0.0
  9
$UCSORGBOTTOM
 10
0.0
 20
0.0
 30
0.0
  9
$UCSORGLEFT
 10
0.0
 20
0.0
 30
0.0
  9
$UCSORGRIGHT
 10
0.0
 20
0.0
 30
0.0
  9
$UCSORGFRONT
 10
0.0
 20
0.0
 30
0.0
  9
$UCSORGBACK
 10
0.0
 20
0.0
 30
0.0
  9
$PUCSBASE
  2

  9
$PUCSNAME
  2

  9
$PUCSORG
 10
0.0
 20
0.0
 30
0.0
  9
$PUCSXDIR
 10
1.0
 20
0.0
 30
0.0
  9
$PUCSYDIR
 10
0.0
 20
1.0
 30
0.0
  9
$PUCSORTHOREF
  2

  9
$PUCSORTHOVIEW
 70
     0
  9
$PUCSORGTOP
 10
0.0
 20
0.0
 30
0.0
  9
$PUCSORGBOTTOM
 10
0.0
 20
0.0
 30
0.0
  9
$PUCSORGLEFT
 10
0.0
 20
0.0
 30
0.0
  9
$PUCSORGRIGHT
 10
0.0
 20
0.0
 30
0.0
  9
$PUCSORGFRONT
 10
0.0
 20
0.0
 30
0.0
  9
$PUCSORGBACK
 10
0.0
 20
0.0
 30
0.0
  9
$USERI1
 70
     0
  9
$USERI2
 70
     0
  9
$USERI3
 70
     0
  9
$USERI4
 70
     0
  9
$USERI5
 70
     0
  9
$USERR1
 40
0.0
  9
$USERR2
 40
0.0
  9
$USERR3
 40
0.0
  9
$USERR4
 40
0.0
  9
$USERR5
 40
0.0
  9
$WORLDVIEW
 70
     1
  9
$SHADEDGE
 70
     3
  9
$SHADEDIF
 70
    70
  9
$TILEMODE
 70
     1
  9
$MAXACTVP
 70
    64
  9
$PINSBASE
 10
0.0
 20
0.0
 30
0.0
  9
$PLIMCHECK
 70
     0
  9
$PEXTMIN
 10
1.000000000000000E+20
 20
1.000000000000000E+20
 30
1.000000000000000E+20
  9
$PEXTMAX
 10
-1.000000000000000E+20
 20
-1.000000000000000E+20
 30
-1.000000000000000E+20
  9
$PLIMMIN
 10
0.0
 20
0.0
  9
$PLIMMAX
 10
12.0
 20
9.0
  9
$UNITMODE
 70
     0
  9
$VISRETAIN
 70
     1
  9
$PLINEGEN
 70
     0
  9
$PSLTSCALE
 70
     1
  9
$TREEDEPTH
 70
  3020
  9
$CMLSTYLE
  2
Standard
  9
$CMLJUST
 70
     0
  9
$CMLSCALE
 40
1.0
  9
$PROXYGRAPHICS
 70
     1
  9
$MEASUREMENT
 70
     0
  9
$CELWEIGHT
370
    -1
  9
$ENDCAPS
280
     0
  9
$JOINSTYLE
280
     0
  9
$LWDISPLAY
290
     1
  9
$INSUNITS
 70
     1
  9
$HYPERLINKBASE
  1

  9
$STYLESHEET
  1

  9
$XEDIT
290
     1
  9
$CEPSNTYPE
380
     0
  9
$PSTYLEMODE
290
     1
  9
$FINGERPRINTGUID
  2
{2EB8688D-8AD3-1730-8242-36B083C1CC5A}
  9
$VERSIONGUID
  2
{FAEB1C32-E019-11D5-929B-00C0DF256EC4}
  9
$EXTNAMES
290
     1
  9
$PSVPSCALE
 40
0.0
  9
$OLESTARTUP
290
     0
  9
$SORTENTS
280
   127
  9
$INDEXCTL
280
     0
  9
$HIDETEXT
280
     1
  9
$XCLIPFRAME
280
     2
  9
$HALOGAP
280
     0
  9
$OBSCOLOR
 70
   257
  9
$OBSLTYPE
280
     0
  9
$INTERSECTIONDISPLAY
280
     0
  9
$INTERSECTIONCOLOR
 70
   257
  9
$DIMASSOC
280
     2
  9
$PROJECTNAME
  1

  9
$CAMERADISPLAY
290
     0
  9
$LENSLENGTH
 40
50.0
  9
$CAMERAHEIGHT
 40
0.0
  9
$STEPSPERSEC
 40
2.0
  9
$STEPSIZE
 40
6.0
  9
$3DDWFPREC
 40
2.0
  9
$PSOLWIDTH
 40
0.25
  9
$PSOLHEIGHT
 40
4.0
  9
$LOFTANG1
 40
1.570796326794897
  9
$LOFTANG2
 40
1.570796326794897
  9
$LOFTMAG1
 40
0.0
  9
$LOFTMAG2
 40
0.0
  9
$LOFTPARAM
 70
     7
  9
$LOFTNORMALS
280
     1
  9
$LATITUDE
 40
37.795
  9
$LONGITUDE
 40
-122.394
  9
$NORTHDIRECTION
 40
0.0
  9
$TIMEZONE
 70
 -8000
  9
$LIGHTGLYPHDISPLAY
280
     1
  9
$TILEMODELIGHTSYNCH
280
     1
  9
$CMATERIAL
347
3C
  9
$SOLIDHIST
280
     1
  9
$SHOWHIST
280
     1
  9
$DWFFRAME
280
     2
  9
$DGNFRAME
280
     2
  9
$REALWORLDSCALE
290
     1
  9
$INTERFERECOLOR
 62
   256
  9
$CSHADOW
280
     0
  9
$SHADOWPLANELOCATION
 40
0.0
  0
ENDSEC
  0
SECTION
  2
CLASSES
  0
CLASS
  1
ACDBDICTIONARYWDFLT
  2
AcDbDictionaryWithDefault
  3
ObjectDBX Classes
 90
        0
 91
        4
280
     0
281
     0
  0
CLASS
  1
VISUALSTYLE
  2
AcDbVisualStyle
  3
ObjectDBX Classes
 90
     4095
 91
        4
280
     0
281
     0
  0
CLASS
  1
MATERIAL
  2
AcDbMaterial
  3
ObjectDBX Classes
 90
     1153
 91
        4
280
     0
281
     0
  0
CLASS
  1
SUN
  2
AcDbSun
  3
SCENEOE
 90
     1024
 91
        4
280
     0
281
     0
  0
ENDSEC
  0
SECTION
  2
TABLES
  0
TABLE
  2
VPORT
  5
8
330
0
100
AcDbSymbolTable
 70
     1
  0
VPORT
  5
29
330
8
100
AcDbSymbolTableRecord
100
AcDbViewportTableRecord
  2
*Active
 70
     0
 10
0.0
 20
0.0
 11
1.0
 21
1.0
 12
0.0
 22
0.0
 13
0.0
 23
0.0
 14
0.5
 24
0.5
 15
0.5
 25
0.5
 16
0.0
 26
0.0
 36
1.0
 17
91.00082462281999
 27
-128.4993055234307
 37
0.0
 40
256.9986110468615
 41
0.7081814508812795
 42
50.0
 43
0.0
 44
0.0
 50
0.0
 51
0.0
 71
     0
 72
   100
 73
     1
 74
     3
 75
     0
 76
     0
 77
     0
 78
     0
281
     0
 65
     1
110
0.0
120
0.0
130
0.0
111
1.0
121
0.0
131
0.0
112
0.0
122
1.0
132
0.0
 79
     0
146
0.0
 60
     3
 61
     5
292
     1
282
     1
141
0.0
142
0.0
 63
   250
361
3F
  0
ENDTAB
  0
TABLE
  2
LTYPE
  5
5
330
0
100
AcDbSymbolTable
 70
     1
  0
LTYPE
  5
14
330
5
100
AcDbSymbolTableRecord
100
AcDbLinetypeTableRecord
  2
ByBlock
 70
     0
  3

 72
    65
 73
     0
 40
0.0
  0
LTYPE
  5
15
330
5
100
AcDbSymbolTableRecord
100
AcDbLinetypeTableRecord
  2
ByLayer
 70
     0
  3

 72
    65
 73
     0
 40
0.0
  0
LTYPE
  5
16
330
5
100
AcDbSymbolTableRecord
100
AcDbLinetypeTableRecord
  2
Continuous
 70
     0
  3
Solid line
 72
    65
 73
     0
 40
0.0
  0
ENDTAB
  0
TABLE
  2
LAYER
  5
2
330
0
100
AcDbSymbolTable
 70
     2
  0
LAYER
  5
10
330
2
100
AcDbSymbolTableRecord
100
AcDbLayerTableRecord
  2
0
 70
     0
 62
     7
  6
Continuous
370
    -3
390
F
347
3E
  0
LAYER
  5
40
330
2
100
AcDbSymbolTableRecord
100
AcDbLayerTableRecord
  2
_U+30EC_U+30A4_U+30E4_U+30FC 1
 70
     0
 62
     7
  6
Continuous
370
    -3
390
F
347
3E
  0
ENDTAB
  0
TABLE
  2
STYLE
  5
3
330
0
100
AcDbSymbolTable
 70
     1
  0
STYLE
  5
11
330
3
100
AcDbSymbolTableRecord
100
AcDbTextStyleTableRecord
  2
Standard
 70
     0
 40
0.0
 41
1.0
 50
0.0
 71
     0
 42
0.2
  3
txt
  4

  0
ENDTAB
  0
TABLE
  2
VIEW
  5
6
330
0
100
AcDbSymbolTable
 70
     0
  0
ENDTAB
  0
TABLE
  2
UCS
  5
7
330
0
100
AcDbSymbolTable
 70
     0
  0
ENDTAB
  0
TABLE
  2
APPID
  5
9
330
0
100
AcDbSymbolTable
 70
     1
  0
APPID
  5
12
330
9
100
AcDbSymbolTableRecord
100
AcDbRegAppTableRecord
  2
ACAD
 70
     0
  0
ENDTAB
  0
TABLE
  2
DIMSTYLE
  5
A
330
0
100
AcDbSymbolTable
 70
     1
100
AcDbDimStyleTable
  0
DIMSTYLE
105
27
330
A
100
AcDbSymbolTableRecord
100
AcDbDimStyleTableRecord
  2
Standard
 70
     0
178
     0
340
11
  0
ENDTAB
  0
TABLE
  2
BLOCK_RECORD
  5
1
330
0
100
AcDbSymbolTable
 70
     8
  0
BLOCK_RECORD
  5
1F
330
1
100
AcDbSymbolTableRecord
100
AcDbBlockTableRecord
  2
*Model_Space
340
22
 70
     0
280
     1
281
     0
  0
BLOCK_RECORD
  5
1B
330
1
100
AcDbSymbolTableRecord
100
AcDbBlockTableRecord
  2
*Paper_Space
340
1E
 70
     0
280
     1
281
     0
  0
BLOCK_RECORD
  5
23
330
1
100
AcDbSymbolTableRecord
100
AcDbBlockTableRecord
  2
*Paper_Space0
340
26
 70
     0
280
     1
281
     0
  0
BLOCK_RECORD
  5
42
330
1
100
AcDbSymbolTableRecord
100
AcDbBlockTableRecord
  2
block 2
340
0
102
{BLKREFS
331
43
102
}
 70
     0
280
     1
281
     0
  0
BLOCK_RECORD
  5
48
330
1
100
AcDbSymbolTableRecord
100
AcDbBlockTableRecord
  2
block 3
340
0
102
{BLKREFS
331
49
102
}
 70
     0
280
     1
281
     0
  0
BLOCK_RECORD
  5
63
330
1
100
AcDbSymbolTableRecord
100
AcDbBlockTableRecord
  2
block 4
340
0
102
{BLKREFS
331
64
102
}
 70
     0
280
     1
281
     0
  0
BLOCK_RECORD
  5
69
330
1
100
AcDbSymbolTableRecord
100
AcDbBlockTableRecord
  2
block 5
340
0
102
{BLKREFS
331
6A
102
}
 70
     0
280
     1
281
     0
  0
BLOCK_RECORD
  5
88
330
1
100
AcDbSymbolTableRecord
100
AcDbBlockTableRecord
  2
block 6
340
0
102
{BLKREFS
331
89
102
}
 70
     0
280
     1
281
     0
  0
BLOCK_RECORD
  5
9C
330
1
100
AcDbSymbolTableRecord
100
AcDbBlockTableRecord
  2
block 7
340
0
102
{BLKREFS
331
9D
102
}
 70
     0
280
     1
281
     0
  0
BLOCK_RECORD
  5
B2
330
1
100
AcDbSymbolTableRecord
100
AcDbBlockTableRecord
  2
block 8
340
0
102
{BLKREFS
331
B3
102
}
 70
     0
280
     1
281
     0
  0
ENDTAB
  0
ENDSEC
  0
SECTION
  2
BLOCKS
  0
BLOCK
  5
20
330
1F
100
AcDbEntity
  8
0
100
AcDbBlockBegin
  2
*Model_Space
 70
     0
 10
0.0
 20
0.0
 30
0.0
  3
*Model_Space
  1

  0
ENDBLK
  5
21
330
1F
100
AcDbEntity
  8
0
100
AcDbBlockEnd
  0
BLOCK
  5
1C
330
1B
100
AcDbEntity
 67
     1
  8
0
100
AcDbBlockBegin
  2
*Paper_Space
 70
     0
 10
0.0
 20
0.0
 30
0.0
  3
*Paper_Space
  1

  0
ENDBLK
  5
1D
330
1B
100
AcDbEntity
 67
     1
  8
0
100
AcDbBlockEnd
  0
BLOCK
  5
24
330
23
100
AcDbEntity
  8
0
100
AcDbBlockBegin
  2
*Paper_Space0
 70
     0
 10
0.0
 20
0.0
 30
0.0
  3
*Paper_Space0
  1

  0
ENDBLK
  5
25
330
23
100
AcDbEntity
  8
0
100
AcDbBlockEnd
  0
BLOCK
  5
44
330
42
100
AcDbEntity
  8
0
100
AcDbBlockBegin
  2
block 2
 70
     0
 10
0.0
 20
0.0
 30
0.0
  3
block 2
  1

  0
SPLINE
  5
46
330
42
100
AcDbEntity
  8
_U+30EC_U+30A4_U+30E4_U+30FC 1
 62
     7
420
 16777215
370
     9
100
AcDbSpline
210
0.0
220
0.0
230
1.0
 70
    11
 71
     3
 72
    17
 73
    13
 74
     0
 42
0.0000000001
 43
0.0000000001
 12
1.0
 22
0.0
 32
0.0
 13
1.0
 23
0.0
 33
0.0
 40
0.0
 40
0.0
 40
0.0
 40
0.0
 40
1.0
 40
1.0
 40
1.0
 40
2.0
 40
2.0
 40
2.0
 40
3.0
 40
3.0
 40
3.0
 40
4.0
 40
4.0
 40
4.0
 40
4.0
 10
77.27709913960807
 20
-140.1954057982846
 30
0.0
 10
77.27709913960807
 20
-140.1402666316315
 30
0.0
 10
77.23233164075017
 20
-140.0954991316429
 30
0.0
 10
77.17652219772955
 20
-140.0954991316429
 30
0.0
 10
77.12138303246961
 20
-140.0954991316429
 30
0.0
 10
77.07661553361172
 20
-140.1402666316315
 30
0.0
 10
77.07661553361172
 20
-140.1954057982846
 30
0.0
 10
77.07661553361172
 20
-140.251215242715
 30
0.0
 10
77.12138303246961
 20
-140.2960180204817
 30
0.0
 10
77.17652219772955
 20
-140.2960180204817
 30
0.0
 10
77.23233164075017
 20
-140.2960180204817
 30
0.0
 10
77.27709913960807
 20
-140.251215242715
 30
0.0
 10
77.27709913960807
 20
-140.1954057982846
 30
0.0
  0
SPLINE
  5
47
330
42
100
AcDbEntity
  8
_U+30EC_U+30A4_U+30E4_U+30FC 1
 62
     7
420
 16777215
370
     9
100
AcDbSpline
210
0.0
220
0.0
230
1.0
 70
    11
 71
     3
 72
    17
 73
    13
 74
     0
 42
0.0000000001
 43
0.0000000001
 12
1.0
 22
0.0
 32
0.0
 13
1.0
 23
0.0
 33
0.0
 40
0.0
 40
0.0
 40
0.0
 40
0.0
 40
1.0
 40
1.0
 40
1.0
 40
2.0
 40
2.0
 40
2.0
 40
3.0
 40
3.0
 40
3.0
 40
4.0
 40
4.0
 40
4.0
 40
4.0
 10
84.1052892431842
 20
-143.0238369086883
 30
0.0
 10
84.1052892431842
 20
-142.9686977420358
 30
0.0
 10
84.06048646654943
 20
-142.9239302420466
 30
0.0
 10
84.00538257906636
 20
-142.9239302420466
 30
0.0
 10
83.95024341380642
 20
-142.9239302420466
 30
0.0
 10
83.90547591494852
 20
-142.9686977420358
 30
0.0
 10
83.90547591494852
 20
-143.0238369086883
 30
0.0
 10
83.90547591494852
 20
-143.0796463531187
 30
0.0
 10
83.95024341380642
 20
-143.1244138531079
 30
0.0
 10
84.00538257906636
 20
-143.1244138531079
 30
0.0
 10
84.06048646654943
 20
-143.1244138531079
 30
0.0
 10
84.1052892431842
 20
-143.0796463531187
 30
0.0
 10
84.1052892431842
 20
-143.0238369086883
 30
0.0
  0
INSERT
  5
49
330
42
100
AcDbEntity
  8
_U+30EC_U+30A4_U+30E4_U+30FC 1
100
AcDbBlockReference
  2
block 3
 10
0.0
 20
0.0
 30
0.0
  0
ENDBLK
  5
45
330
42
100
AcDbEntity
  8
0
100
AcDbBlockEnd
  0
BLOCK
  5
4A
330
48
100
AcDbEntity
  8
0
100
AcDbBlockBegin
  2
block 3
 70
     0
 10
0.0
 20
0.0
 30
0.0
  3
block 3
  1

  0
SPLINE
  5
4C
330
48
100
AcDbEntity
  8
_U+30EC_U+30A4_U+30E4_U+30FC 1
370
     0
100
AcDbSpline
210
0.0
220
0.0
230
1.0
 70
    11
 71
     3
 72
    26
 73
    22
 74
     0
 42
0.0000000001
 43
0.0000000001
 12
1.0
 22
0.0
 32
0.0
 13
1.0
 23
0.0
 33
0.0
 40
0.0
 40
0.0
 40
0.0
 40
0.0
 40
1.0
 40
1.0
 40
1.0
 40
2.0
 40
2.0
 40
2.0
 40
3.0
 40
3.0
 40
3.0
 40
4.0
 40
4.0
 40
4.0
 40
5.0
 40
5.0
 40
5.0
 40
6.0
 40
6.0
 40
6.0
 40
7.0
 40
7.0
 40
7.0
 40
7.0
 10
80.42161998857516
 20
-138.2120632249956
 30
0.0
 10
80.42161998857516
 20
-138.2120632249956
 30
0.0
 10
80.84433320461531
 20
-137.1919704518131
 30
0.0
 10
80.84433320461531
 20
-137.1919704518131
 30
0.0
 10
80.84433320461531
 20
-137.1919704518131
 30
0.0
 10
80.5394422541707
 20
-137.0655354475045
 30
0.0
 10
80.5394422541707
 20
-137.0655354475045
 30
0.0
 10
80.5394422541707
 20
-137.0655354475045
 30
0.0
 10
80.5959418201288
 20
-136.9291096662886
 30
0.0
 10
80.5959418201288
 20
-136.9291096662886
 30
0.0
 10
80.90841198064096
 20
-137.0421087982048
 30
0.0
 10
81.0138319024896
 20
-136.9098171315712
 30
0.0
 10
81.08480086948575
 20
-136.8154215152753
 30
0.0
 10
81.08480086948575
 20
-136.8154215152753
 30
0.0
 10
81.21984861250755
 20
-136.8712320621364
 30
0.0
 10
81.21984861250755
 20
-136.8712320621364
 30
0.0
 10
81.21984861250755
 20
-136.8712320621364
 30
0.0
 10
80.6290147367872
 20
-138.2981906121269
 30
0.0
 10
80.6290147367872
 20
-138.2981906121269
 30
0.0
 10
80.6290147367872
 20
-138.2981906121269
 30
0.0
 10
80.42161998857516
 20
-138.2120632249956
 30
0.0
 10
80.42161998857516
 20
-138.2120632249956
 30
0.0
  0
HATCH
  5
4D
330
48
100
AcDbEntity
  8
_U+30EC_U+30A4_U+30E4_U+30FC 1
 62
     7
420
 16777215
100
AcDbHatch
 10
0.0
 20
0.0
 30
0.0
210
0.0
220
0.0
230
1.0
  2
SOLID
 70
     1
 71
     0
 91
        1
 92
        1
 93
        1
 72
     4
 94
        3
 73
     0
 74
     1
 95
       26
 96
       22
 40
0.0
 40
0.0
 40
0.0
 40
0.0
 40
1.0
 40
1.0
 40
1.0
 40
2.0
 40
2.0
 40
2.0
 40
3.0
 40
3.0
 40
3.0
 40
4.0
 40
4.0
 40
4.0
 40
5.0
 40
5.0
 40
5.0
 40
6.0
 40
6.0
 40
6.0
 40
7.0
 40
7.0
 40
7.0
 40
7.0
 10
80.42161998857516
 20
-138.2120632249956
 10
80.42161998857516
 20
-138.2120632249956
 10
80.84433320461531
 20
-137.1919704518131
 10
80.84433320461531
 20
-137.1919704518131
 10
80.84433320461531
 20
-137.1919704518131
 10
80.5394422541707
 20
-137.0655354475045
 10
80.5394422541707
 20
-137.0655354475045
 10
80.5394422541707
 20
-137.0655354475045
 10
80.5959418201288
 20
-136.9291096662886
 10
80.5959418201288
 20
-136.9291096662886
 10
80.90841198064096
 20
-137.0421087982048
 10
81.0138319024896
 20
-136.9098171315712
 10
81.08480086948575
 20
-136.8154215152753
 10
81.08480086948575
 20
-136.8154215152753
 10
81.21984861250755
 20
-136.8712320621364
 10
81.21984861250755
 20
-136.8712320621364
 10
81.21984861250755
 20
-136.8712320621364
 10
80.6290147367872
 20
-138.2981906121269
 10
80.6290147367872
 20
-138.2981906121269
 10
80.6290147367872
 20
-138.2981906121269
 10
80.42161998857516
 20
-138.2120632249956
 10
80.42161998857516
 20
-138.2120632249956
 97
        0
 97
        0
 75
     2
 76
     1
 98
        0
  0
SPLINE
  5
4E
330
48
100
AcDbEntity
  8
_U+30EC_U+30A4_U+30E4_U+30FC 1
370
     0
100
AcDbSpline
210
0.0
220
0.0
230
1.0
 70
    11
 71
     3
 72
    62
 73
    58
 74
     0
 42
0.0000000001
 43
0.0000000001
 12
1.0
 22
0.0
 32
0.0
 13
1.0
 23
0.0
 33
0.0
 40
0.0
 40
0.0
 40
0.0
 40
0.0
 40
1.0
 40
1.0
 40
1.0
 40
2.0
 40
2.0
 40
2.0
 40
3.0
 40
3.0
 40
3.0
 40
4.0
 40
4.0
 40
4.0
 40
5.0
 40
5.0
 40
5.0
 40
6.0
 40
6.0
 40
6.0
 40
7.0
 40
7.0
 40
7.0
 40
8.0
 40
8.0
 40
8.0
 40
9.0
 40
9.0
 40
9.0
 40
10.0
 40
10.0
 40
10.0
 40
11.0
 40
11.0
 40
11.0
 40
12.0
 40
12.0
 40
12.0
 40
13.0
 40
13.0
 40
13.0
 40
14.0
 40
14.0
 40
14.0
 40
15.0
 40
15.0
 40
15.0
 40
16.0
 40
16.0
 40
16.0
 40
17.0
 40
17.0
 40
17.0
 40
18.0
 40
18.0
 40
18.0
 40
19.0
 40
19.0
 40
19.0
 40
19.0
 10
81.52715112979183
 20
-138.7246934332008
 30
0.0
 10
81.43895668536943
 20
-138.6881754210571
 30
0.0
 10
81.24568682864691
 20
-138.5855115755967
 30
0.0
 10
81.20124509688719
 20
-138.3657144836377
 30
0.0
 10
81.17575139029634
 20
-138.2337673265527
 30
0.0
 10
81.21020234514884
 20
-138.1404052389024
 30
0.0
 10
81.23879663767642
 20
-138.0604790236446
 30
0.0
 10
81.23879663767642
 20
-138.0604790236446
 30
0.0
 10
81.44205727130615
 20
-138.1445393534847
 30
0.0
 10
81.44205727130615
 20
-138.1445393534847
 30
0.0
 10
81.41553003606973
 20
-138.2141302822868
 30
0.0
 10
81.33525931126341
 20
-138.4349609028913
 30
0.0
 10
81.59743107769093
 20
-138.5434814106766
 30
0.0
 10
81.72421059154811
 20
-138.5958468620524
 30
0.0
 10
81.89164223213126
 20
-138.5899901997275
 30
0.0
 10
81.97914765745661
 20
-138.3788058464817
 30
0.0
 10
82.02358938921633
 20
-138.2713188673419
 30
0.0
 10
82.00705293088713
 20
-138.2117187154471
 30
0.0
 10
81.9901719630094
 20
-138.1700330600756
 30
0.0
 10
81.94986434583198
 20
-138.0735703864886
 30
0.0
 10
81.84720050037154
 20
-138.0170708205304
 30
0.0
 10
81.79655759673837
 20
-137.996400247619
 30
0.0
 10
81.77864310021506
 20
-137.9888210375514
 30
0.0
 10
81.74488116445961
 20
-137.9771077129016
 30
0.0
 10
81.71766491012615
 20
-137.9702175219311
 30
0.0
 10
81.71766491012615
 20
-137.9702175219311
 30
0.0
 10
81.79207897260754
 20
-137.7907280471495
 30
0.0
 10
81.79207897260754
 20
-137.7907280471495
 30
0.0
 10
81.82515188926594
 20
-137.8110541105125
 30
0.0
 10
81.86339244915222
 20
-137.8289686070358
 30
0.0
 10
81.86924911147713
 20
-137.831724683424
 30
0.0
 10
81.92988279201754
 20
-137.8565293709178
 30
0.0
 10
82.12143010099743
 20
-137.9133734464244
 30
0.0
 10
82.2120361122595
 20
-137.6942653735626
 30
0.0
 10
82.28024900286744
 20
-137.5302788284646
 30
0.0
 10
82.18034123379519
 20
-137.4293375307468
 30
0.0
 10
82.0783664074318
 20
-137.3869628562783
 30
0.0
 10
81.83410913752759
 20
-137.2860215585604
 30
0.0
 10
81.73730195439207
 20
-137.4975504213548
 30
0.0
 10
81.70560707592777
 20
-137.562662726026
 30
0.0
 10
81.70560707592777
 20
-137.562662726026
 30
0.0
 10
81.51819388153018
 20
-137.4848035680594
 30
0.0
 10
81.51819388153018
 20
-137.4848035680594
 30
0.0
 10
81.5736599188427
 20
-137.3728379647887
 30
0.0
 10
81.74350312626552
 20
-137.0352186072343
 30
0.0
 10
82.1651828136601
 20
-137.2102294578849
 30
0.0
 10
82.37257756187213
 20
-137.2960123354677
 30
0.0
 10
82.54689939342578
 20
-137.5054741409708
 30
0.0
 10
82.43355575196107
 20
-137.7790147224997
 30
0.0
 10
82.36224227541639
 20
-137.9509249872137
 30
0.0
 10
82.24269746207821
 20
-137.9908880948426
 30
0.0
 10
82.12728676332235
 20
-138.0094916104629
 30
0.0
 10
82.1734510428247
 20
-138.0584119663534
 30
0.0
 10
82.31091035268616
 20
-138.2024169576369
 30
0.0
 10
82.20480141174048
 20
-138.458387552191
 30
0.0
 10
82.07526582149508
 20
-138.7712022222516
 30
0.0
 10
81.78277721479736
 20
-138.8308023741465
 30
0.0
 10
81.52715112979183
 20
-138.7246934332008
 30
0.0
  0
HATCH
  5
4F
330
48
100
AcDbEntity
  8
_U+30EC_U+30A4_U+30E4_U+30FC 1
 62
     7
420
 16777215
100
AcDbHatch
 10
0.0
 20
0.0
 30
0.0
210
0.0
220
0.0
230
1.0
  2
SOLID
 70
     1
 71
     0
 91
        1
 92
        1
 93
        1
 72
     4
 94
        3
 73
     0
 74
     1
 95
       62
 96
       58
 40
0.0
 40
0.0
 40
0.0
 40
0.0
 40
1.0
 40
1.0
 40
1.0
 40
2.0
 40
2.0
 40
2.0
 40
3.0
 40
3.0
 40
3.0
 40
4.0
 40
4.0
 40
4.0
 40
5.0
 40
5.0
 40
5.0
 40
6.0
 40
6.0
 40
6.0
 40
7.0
 40
7.0
 40
7.0
 40
8.0
 40
8.0
 40
8.0
 40
9.0
 40
9.0
 40
9.0
 40
10.0
 40
10.0
 40
10.0
 40
11.0
 40
11.0
 40
11.0
 40
12.0
 40
12.0
 40
12.0
 40
13.0
 40
13.0
 40
13.0
 40
14.0
 40
14.0
 40
14.0
 40
15.0
 40
15.0
 40
15.0
 40
16.0
 40
16.0
 40
16.0
 40
17.0
 40
17.0
 40
17.0
 40
18.0
 40
18.0
 40
18.0
 40
19.0
 40
19.0
 40
19.0
 40
19.0
 10
81.52715112979183
 20
-138.7246934332008
 10
81.43895668536943
 20
-138.6881754210571
 10
81.24568682864691
 20
-138.5855115755967
 10
81.20124509688719
 20
-138.3657144836377
 10
81.17575139029634
 20
-138.2337673265527
 10
81.21020234514884
 20
-138.1404052389024
 10
81.23879663767642
 20
-138.0604790236446
 10
81.23879663767642
 20
-138.0604790236446
 10
81.44205727130615
 20
-138.1445393534847
 10
81.44205727130615
 20
-138.1445393534847
 10
81.41553003606973
 20
-138.2141302822868
 10
81.33525931126341
 20
-138.4349609028913
 10
81.59743107769093
 20
-138.5434814106766
 10
81.72421059154811
 20
-138.5958468620524
 10
81.89164223213126
 20
-138.5899901997275
 10
81.97914765745661
 20
-138.3788058464817
 10
82.02358938921633
 20
-138.2713188673419
 10
82.00705293088713
 20
-138.2117187154471
 10
81.9901719630094
 20
-138.1700330600756
 10
81.94986434583198
 20
-138.0735703864886
 10
81.84720050037154
 20
-138.0170708205304
 10
81.79655759673837
 20
-137.996400247619
 10
81.77864310021506
 20
-137.9888210375514
 10
81.74488116445961
 20
-137.9771077129016
 10
81.71766491012615
 20
-137.9702175219311
 10
81.71766491012615
 20
-137.9702175219311
 10
81.79207897260754
 20
-137.7907280471495
 10
81.79207897260754
 20
-137.7907280471495
 10
81.82515188926594
 20
-137.8110541105125
 10
81.86339244915222
 20
-137.8289686070358
 10
81.86924911147713
 20
-137.831724683424
 10
81.92988279201754
 20
-137.8565293709178
 10
82.12143010099743
 20
-137.9133734464244
 10
82.2120361122595
 20
-137.6942653735626
 10
82.28024900286744
 20
-137.5302788284646
 10
82.18034123379519
 20
-137.4293375307468
 10
82.0783664074318
 20
-137.3869628562783
 10
81.83410913752759
 20
-137.2860215585604
 10
81.73730195439207
 20
-137.4975504213548
 10
81.70560707592777
 20
-137.562662726026
 10
81.70560707592777
 20
-137.562662726026
 10
81.51819388153018
 20
-137.4848035680594
 10
81.51819388153018
 20
-137.4848035680594
 10
81.5736599188427
 20
-137.3728379647887
 10
81.74350312626552
 20
-137.0352186072343
 10
82.1651828136601
 20
-137.2102294578849
 10
82.37257756187213
 20
-137.2960123354677
 10
82.54689939342578
 20
-137.5054741409708
 10
82.43355575196107
 20
-137.7790147224997
 10
82.36224227541639
 20
-137.9509249872137
 10
82.24269746207821
 20
-137.9908880948426
 10
82.12728676332235
 20
-138.0094916104629
 10
82.1734510428247
 20
-138.0584119663534
 10
82.31091035268616
 20
-138.2024169576369
 10
82.20480141174048
 20
-138.458387552191
 10
82.07526582149508
 20
-138.7712022222516
 10
81.78277721479736
 20
-138.8308023741465
 10
81.52715112979183
 20
-138.7246934332008
 97
        0
 97
        0
 75
     2
 76
     1
 98
        0
  0
SPLINE
  5
50
330
48
100
AcDbEntity
  8
_U+30EC_U+30A4_U+30E4_U+30FC 1
370
     0
100
AcDbSpline
210
0.0
220
0.0
230
1.0
 70
    11
 71
     3
 72
    53
 73
    49
 74
     0
 42
0.0000000001
 43
0.0000000001
 12
1.0
 22
0.0
 32
0.0
 13
1.0
 23
0.0
 33
0.0
 40
0.0
 40
0.0
 40
0.0
 40
0.0
 40
1.0
 40
1.0
 40
1.0
 40
2.0
 40
2.0
 40
2.0
 40
3.0
 40
3.0
 40
3.0
 40
4.0
 40
4.0
 40
4.0
 40
5.0
 40
5.0
 40
5.0
 40
6.0
 40
6.0
 40
6.0
 40
7.0
 40
7.0
 40
7.0
 40
8.0
 40
8.0
 40
8.0
 40
9.0
 40
9.0
 40
9.0
 40
10.0
 40
10.0
 40
10.0
 40
11.0
 40
11.0
 40
11.0
 40
12.0
 40
12.0
 40
12.0
 40
13.0
 40
13.0
 40
13.0
 40
14.0
 40
14.0
 40
14.0
 40
15.0
 40
15.0
 40
15.0
 40
16.0
 40
16.0
 40
16.0
 40
16.0
 10
82.60408797848092
 20
-139.1711778080892
 30
0.0
 10
82.53174097329068
 20
-139.1412054773675
 30
0.0
 10
82.44458005751386
 20
-139.086428459152
 30
0.0
 10
82.37498912871182
 20
-138.989276766468
 30
0.0
 10
82.25682235356774
 20
-138.8211561067878
 30
0.0
 10
82.28748370338647
 20
-138.6916205165424
 30
0.0
 10
82.31125486223469
 20
-138.5848225564996
 30
0.0
 10
82.31125486223469
 20
-138.5848225564996
 30
0.0
 10
82.51658255315559
 20
-138.6702609245338
 30
0.0
 10
82.51658255315559
 20
-138.6702609245338
 30
0.0
 10
82.49108884656474
 20
-138.8745550868092
 30
0.0
 10
82.59719778751042
 20
-138.9506916970332
 30
0.0
 10
82.68298066509315
 20
-138.9861761805312
 30
0.0
 10
82.81217174579001
 20
-139.0395751605526
 30
0.0
 10
82.99062769192595
 20
-139.0061577343457
 30
0.0
 10
83.07985566499393
 20
-138.7908392665176
 30
0.0
 10
83.17769637677502
 20
-138.5545057162294
 30
0.0
 10
83.0381700096224
 20
-138.4211805209503
 30
0.0
 10
82.92654891590031
 20
-138.3750162414479
 30
0.0
 10
82.89761011382421
 20
-138.3629584072496
 30
0.0
 10
82.76669648538471
 20
-138.3085258985826
 30
0.0
 10
82.63509383784817
 20
-138.3939642666168
 30
0.0
 10
82.63509383784817
 20
-138.3939642666168
 30
0.0
 10
82.48006454101193
 20
-138.3092149176796
 30
0.0
 10
82.48006454101193
 20
-138.3092149176796
 30
0.0
 10
82.48006454101193
 20
-138.3092149176796
 30
0.0
 10
82.91518010079899
 20
-137.5733425220303
 30
0.0
 10
82.91518010079899
 20
-137.5733425220303
 30
0.0
 10
82.91518010079899
 20
-137.5733425220303
 30
0.0
 10
83.63451603811916
 20
-137.8716877910529
 30
0.0
 10
83.63451603811916
 20
-137.8716877910529
 30
0.0
 10
83.63451603811916
 20
-137.8716877910529
 30
0.0
 10
83.56010197563775
 20
-138.051521775383
 30
0.0
 10
83.56010197563775
 20
-138.051521775383
 30
0.0
 10
83.56010197563775
 20
-138.051521775383
 30
0.0
 10
82.991316711023
 20
-137.8158772441919
 30
0.0
 10
82.991316711023
 20
-137.8158772441919
 30
0.0
 10
82.991316711023
 20
-137.8158772441919
 30
0.0
 10
82.7691080522244
 20
-138.1817463847254
 30
0.0
 10
82.7691080522244
 20
-138.1817463847254
 30
0.0
 10
82.83869898102644
 20
-138.1734781555608
 30
0.0
 10
82.92999401138556
 20
-138.1679660027844
 30
0.0
 10
83.03954804781651
 20
-138.2134412631897
 30
0.0
 10
83.27450355991054
 20
-138.3105929558737
 30
0.0
 10
83.42229815622777
 20
-138.5731092318498
 30
0.0
 10
83.30240883334106
 20
-138.8624972526108
 30
0.0
 10
83.18079696271175
 20
-139.156019387954
 30
0.0
 10
82.88382973188321
 20
-139.2869330163936
 30
0.0
 10
82.60408797848092
 20
-139.1711778080892
 30
0.0
  0
HATCH
  5
51
330
48
100
AcDbEntity
  8
_U+30EC_U+30A4_U+30E4_U+30FC 1
 62
     7
420
 16777215
100
AcDbHatch
 10
0.0
 20
0.0
 30
0.0
210
0.0
220
0.0
230
1.0
  2
SOLID
 70
     1
 71
     0
 91
        1
 92
        1
 93
        1
 72
     4
 94
        3
 73
     0
 74
     1
 95
       53
 96
       49
 40
0.0
 40
0.0
 40
0.0
 40
0.0
 40
1.0
 40
1.0
 40
1.0
 40
2.0
 40
2.0
 40
2.0
 40
3.0
 40
3.0
 40
3.0
 40
4.0
 40
4.0
 40
4.0
 40
5.0
 40
5.0
 40
5.0
 40
6.0
 40
6.0
 40
6.0
 40
7.0
 40
7.0
 40
7.0
 40
8.0
 40
8.0
 40
8.0
 40
9.0
 40
9.0
 40
9.0
 40
10.0
 40
10.0
 40
10.0
 40
11.0
 40
11.0
 40
11.0
 40
12.0
 40
12.0
 40
12.0
 40
13.0
 40
13.0
 40
13.0
 40
14.0
 40
14.0
 40
14.0
 40
15.0
 40
15.0
 40
15.0
 40
16.0
 40
16.0
 40
16.0
 40
16.0
 10
82.60408797848092
 20
-139.1711778080892
 10
82.53174097329068
 20
-139.1412054773675
 10
82.44458005751386
 20
-139.086428459152
 10
82.37498912871182
 20
-138.989276766468
 10
82.25682235356774
 20
-138.8211561067878
 10
82.28748370338647
 20
-138.6916205165424
 10
82.31125486223469
 20
-138.5848225564996
 10
82.31125486223469
 20
-138.5848225564996
 10
82.51658255315559
 20
-138.6702609245338
 10
82.51658255315559
 20
-138.6702609245338
 10
82.49108884656474
 20
-138.8745550868092
 10
82.59719778751042
 20
-138.9506916970332
 10
82.68298066509315
 20
-138.9861761805312
 10
82.81217174579001
 20
-139.0395751605526
 10
82.99062769192595
 20
-139.0061577343457
 10
83.07985566499393
 20
-138.7908392665176
 10
83.17769637677502
 20
-138.5545057162294
 10
83.0381700096224
 20
-138.4211805209503
 10
82.92654891590031
 20
-138.3750162414479
 10
82.89761011382421
 20
-138.3629584072496
 10
82.76669648538471
 20
-138.3085258985826
 10
82.63509383784817
 20
-138.3939642666168
 10
82.63509383784817
 20
-138.3939642666168
 10
82.48006454101193
 20
-138.3092149176796
 10
82.48006454101193
 20
-138.3092149176796
 10
82.48006454101193
 20
-138.3092149176796
 10
82.91518010079899
 20
-137.5733425220303
 10
82.91518010079899
 20
-137.5733425220303
 10
82.91518010079899
 20
-137.5733425220303
 10
83.63451603811916
 20
-137.8716877910529
 10
83.63451603811916
 20
-137.8716877910529
 10
83.63451603811916
 20
-137.8716877910529
 10
83.56010197563775
 20
-138.051521775383
 10
83.56010197563775
 20
-138.051521775383
 10
83.56010197563775
 20
-138.051521775383
 10
82.991316711023
 20
-137.8158772441919
 10
82.991316711023
 20
-137.8158772441919
 10
82.991316711023
 20
-137.8158772441919
 10
82.7691080522244
 20
-138.1817463847254
 10
82.7691080522244
 20
-138.1817463847254
 10
82.83869898102644
 20
-138.1734781555608
 10
82.92999401138556
 20
-138.1679660027844
 10
83.03954804781651
 20
-138.2134412631897
 10
83.27450355991054
 20
-138.3105929558737
 10
83.42229815622777
 20
-138.5731092318498
 10
83.30240883334106
 20
-138.8624972526108
 10
83.18079696271175
 20
-139.156019387954
 10
82.88382973188321
 20
-139.2869330163936
 10
82.60408797848092
 20
-139.1711778080892
 97
        0
 97
        0
 75
     2
 76
     1
 98
        0
  0
SPLINE
  5
52
330
48
100
AcDbEntity
  8
_U+30EC_U+30A4_U+30E4_U+30FC 1
370
     0
100
AcDbSpline
210
0.0
220
0.0
230
1.0
 70
    11
 71
     3
 72
    17
 73
    13
 74
     0
 42
0.0000000001
 43
0.0000000001
 12
1.0
 22
0.0
 32
0.0
 13
1.0
 23
0.0
 33
0.0
 40
0.0
 40
0.0
 40
0.0
 40
0.0
 40
1.0
 40
1.0
 40
1.0
 40
2.0
 40
2.0
 40
2.0
 40
3.0
 40
3.0
 40
3.0
 40
4.0
 40
4.0
 40
4.0
 40
4.0
 10
84.33869355530422
 20
-138.4401285461192
 30
0.0
 10
84.27564830792414
 20
-138.5924017665672
 30
0.0
 10
84.09891490953083
 20
-138.6702609245338
 30
0.0
 10
83.94078502675787
 20
-138.6048041103141
 30
0.0
 10
83.78437769172751
 20
-138.5400363151914
 30
0.0
 10
83.71168617698875
 20
-138.3615803690554
 30
0.0
 10
83.7757649530144
 20
-138.2072400913163
 30
0.0
 10
83.83984372904004
 20
-138.0525553040285
 30
0.0
 10
84.0172661465304
 20
-137.9771077129016
 30
0.0
 10
84.17367348156075
 20
-138.0418755080242
 30
0.0
 10
84.33214787388225
 20
-138.107332322244
 30
0.0
 10
84.40173880268429
 20
-138.2875108161226
 30
0.0
 10
84.33869355530422
 20
-138.4401285461192
 30
0.0
  0
SPLINE
  5
53
330
48
100
AcDbEntity
  8
_U+30EC_U+30A4_U+30E4_U+30FC 1
370
     0
100
AcDbSpline
210
0.0
220
0.0
230
1.0
 70
    11
 71
     3
 72
    17
 73
    13
 74
     0
 42
0.0000000001
 43
0.0000000001
 12
1.0
 22
0.0
 32
0.0
 13
1.0
 23
0.0
 33
0.0
 40
0.0
 40
0.0
 40
0.0
 40
0.0
 40
1.0
 40
1.0
 40
1.0
 40
2.0
 40
2.0
 40
2.0
 40
3.0
 40
3.0
 40
3.0
 40
4.0
 40
4.0
 40
4.0
 40
4.0
 10
83.89117565177027
 20
-138.2547824090127
 30
0.0
 10
83.85327960143252
 20
-138.3464219489204
 30
0.0
 10
83.89634329499815
 20
-138.4514973612205
 30
0.0
 10
83.9883273444543
 20
-138.4897379211068
 30
0.0
 10
84.08031139391048
 20
-138.5276339714445
 30
0.0
 10
84.1853868062106
 20
-138.4842257683303
 30
0.0
 10
84.22328285654835
 20
-138.3925862284227
 30
0.0
 10
84.26152341643463
 20
-138.300257669418
 30
0.0
 10
84.22018227061163
 20
-138.1962157857635
 30
0.0
 10
84.1261311638643
 20
-138.1572862067801
 30
0.0
 10
84.03208005711699
 20
-138.1183566277968
 30
0.0
 10
83.92941621165654
 20
-138.1627983595565
 30
0.0
 10
83.89117565177027
 20
-138.2547824090127
 30
0.0
  0
HATCH
  5
54
330
48
100
AcDbEntity
  8
_U+30EC_U+30A4_U+30E4_U+30FC 1
 62
     7
420
 16777215
100
AcDbHatch
 10
0.0
 20
0.0
 30
0.0
210
0.0
220
0.0
230
1.0
  2
SOLID
 70
     1
 71
     0
 91
        2
 92
        1
 93
        1
 72
     4
 94
        3
 73
     0
 74
     1
 95
       17
 96
       13
 40
0.0
 40
0.0
 40
0.0
 40
0.0
 40
1.0
 40
1.0
 40
1.0
 40
2.0
 40
2.0
 40
2.0
 40
3.0
 40
3.0
 40
3.0
 40
4.0
 40
4.0
 40
4.0
 40
4.0
 10
84.33869355530422
 20
-138.4401285461192
 10
84.27564830792414
 20
-138.5924017665672
 10
84.09891490953083
 20
-138.6702609245338
 10
83.94078502675787
 20
-138.6048041103141
 10
83.78437769172751
 20
-138.5400363151914
 10
83.71168617698875
 20
-138.3615803690554
 10
83.7757649530144
 20
-138.2072400913163
 10
83.83984372904004
 20
-138.0525553040285
 10
84.0172661465304
 20
-137.9771077129016
 10
84.17367348156075
 20
-138.0418755080242
 10
84.33214787388225
 20
-138.107332322244
 10
84.40173880268429
 20
-138.2875108161226
 10
84.33869355530422
 20
-138.4401285461192
 97
        0
 97
        0
 92
        1
 93
        1
 72
     4
 94
        3
 73
     0
 74
     1
 95
       17
 96
       13
 40
0.0
 40
0.0
 40
0.0
 40
0.0
 40
1.0
 40
1.0
 40
1.0
 40
2.0
 40
2.0
 40
2.0
 40
3.0
 40
3.0
 40
3.0
 40
4.0
 40
4.0
 40
4.0
 40
4.0
 10
83.89117565177027
 20
-138.2547824090127
 10
83.85327960143252
 20
-138.3464219489204
 10
83.89634329499815
 20
-138.4514973612205
 10
83.9883273444543
 20
-138.4897379211068
 10
84.08031139391048
 20
-138.5276339714445
 10
84.1853868062106
 20
-138.4842257683303
 10
84.22328285654835
 20
-138.3925862284227
 10
84.26152341643463
 20
-138.300257669418
 10
84.22018227061163
 20
-138.1962157857635
 10
84.1261311638643
 20
-138.1572862067801
 10
84.03208005711699
 20
-138.1183566277968
 10
83.92941621165654
 20
-138.1627983595565
 10
83.89117565177027
 20
-138.2547824090127
 97
        0
 97
        0
 75
     2
 76
     1
 98
        0
  0
ENDBLK
  5
4B
330
48
100
AcDbEntity
  8
0
100
AcDbBlockEnd
  0
BLOCK
  5
65
330
63
100
AcDbEntity
  8
0
100
AcDbBlockBegin
  2
block 4
 70
     0
 10
0.0
 20
0.0
 30
0.0
  3
block 4
  1

  0
SPLINE
  5
67
330
63
100
AcDbEntity
  8
_U+30EC_U+30A4_U+30E4_U+30FC 1
370
     0
100
AcDbSpline
210
0.0
220
0.0
230
1.0
 70
    11
 71
     3
 72
    62
 73
    58
 74
     0
 42
0.0000000001
 43
0.0000000001
 12
1.0
 22
0.0
 32
0.0
 13
1.0
 23
0.0
 33
0.0
 40
0.0
 40
0.0
 40
0.0
 40
0.0
 40
1.0
 40
1.0
 40
1.0
 40
2.0
 40
2.0
 40
2.0
 40
3.0
 40
3.0
 40
3.0
 40
4.0
 40
4.0
 40
4.0
 40
5.0
 40
5.0
 40
5.0
 40
6.0
 40
6.0
 40
6.0
 40
7.0
 40
7.0
 40
7.0
 40
8.0
 40
8.0
 40
8.0
 40
9.0
 40
9.0
 40
9.0
 40
10.0
 40
10.0
 40
10.0
 40
11.0
 40
11.0
 40
11.0
 40
12.0
 40
12.0
 40
12.0
 40
13.0
 40
13.0
 40
13.0
 40
14.0
 40
14.0
 40
14.0
 40
15.0
 40
15.0
 40
15.0
 40
16.0
 40
16.0
 40
16.0
 40
17.0
 40
17.0
 40
17.0
 40
18.0
 40
18.0
 40
18.0
 40
19.0
 40
19.0
 40
19.0
 40
19.0
 10
123.6293185454816
 20
-142.5304904157563
 30
0.0
 10
123.6293185454816
 20
-142.6259195606977
 30
0.0
 10
123.607958953473
 20
-142.8436495953655
 30
0.0
 10
123.4219237972695
 20
-142.96870656148
 30
0.0
 10
123.3096136844504
 20
-143.0427761144129
 30
0.0
 10
123.2103949344752
 20
-143.0469102289952
 30
0.0
 10
123.125645585538
 20
-143.0510443435775
 30
0.0
 10
123.125645585538
 20
-143.0510443435775
 30
0.0
 10
123.125645585538
 20
-142.8309027420701
 30
0.0
 10
123.125645585538
 20
-142.8309027420701
 30
0.0
 10
123.2000596480194
 20
-142.8288356847789
 30
0.0
 10
123.4343261410164
 20
-142.8185003983232
 30
0.0
 10
123.4343261410164
 20
-142.5349690398871
 30
0.0
 10
123.4343261410164
 20
-142.3975097300256
 30
0.0
 10
123.3647352122144
 20
-142.2448920000291
 30
0.0
 10
123.1366698910908
 20
-142.2448920000291
 30
0.0
 10
123.0202256636894
 20
-142.2448920000291
 30
0.0
 10
122.9713053077988
 20
-142.2831325599153
 30
0.0
 10
122.9396104293346
 20
-142.3148274383796
 30
0.0
 10
122.8658853859502
 20
-142.3888969913125
 30
0.0
 10
122.8527940231063
 20
-142.5053412187139
 30
0.0
 10
122.8527940231063
 20
-142.5601182369294
 30
0.0
 10
122.8527940231063
 20
-142.5794107716468
 30
0.0
 10
122.8548610803974
 20
-142.6152397646934
 30
0.0
 10
122.8589951949797
 20
-142.6428005285754
 30
0.0
 10
122.8589951949797
 20
-142.6428005285754
 30
0.0
 10
122.6646918096116
 20
-142.6428005285754
 30
0.0
 10
122.6646918096116
 20
-142.6428005285754
 30
0.0
 10
122.6708929814851
 20
-142.6045599686891
 30
0.0
 10
122.6729600387762
 20
-142.5625298037691
 30
0.0
 10
122.6729600387762
 20
-142.5559841223471
 30
0.0
 10
122.6729600387762
 20
-142.4905273081274
 30
0.0
 10
122.6516004467677
 20
-142.2917452986285
 30
0.0
 10
122.4152668964795
 20
-142.2917452986285
 30
0.0
 10
122.2374999694406
 20
-142.2917452986285
 30
0.0
 10
122.1823784416766
 20
-142.4226589270679
 30
0.0
 10
122.1823784416766
 20
-142.5329019825959
 30
0.0
 10
122.1823784416766
 20
-142.7971408063146
 30
0.0
 10
122.4152668964795
 20
-142.8057535450277
 30
0.0
 10
122.4869248825727
 20
-142.80988765961
 30
0.0
 10
122.4869248825727
 20
-142.80988765961
 30
0.0
 10
122.4869248825727
 20
-143.0131482932398
 30
0.0
 10
122.4869248825727
 20
-143.0131482932398
 30
0.0
 10
122.3622124260067
 20
-143.0045355545267
 30
0.0
 10
121.9853189799203
 20
-142.9769747906446
 30
0.0
 10
121.9853189799203
 20
-142.5201551293005
 30
0.0
 10
121.9853189799203
 20
-142.2958794132108
 30
0.0
 10
122.1127875128746
 20
-142.0547227292433
 30
0.0
 10
122.408376705509
 20
-142.0547227292433
 30
0.0
 10
122.5951008808096
 20
-142.0547227292433
 30
0.0
 10
122.6770941533585
 20
-142.1498073646362
 30
0.0
 10
122.738416852996
 20
-142.2493706241599
 30
0.0
 10
122.765977616878
 20
-142.1880479245224
 30
0.0
 10
122.8465928512328
 20
-142.0061468829012
 30
0.0
 10
123.1235785282469
 20
-142.0061468829012
 30
0.0
 10
123.4618869048984
 20
-142.0061468829012
 30
0.0
 10
123.6293185454816
 20
-142.2535047387422
 30
0.0
 10
123.6293185454816
 20
-142.5304904157563
 30
0.0
  0
HATCH
  5
68
330
63
100
AcDbEntity
  8
_U+30EC_U+30A4_U+30E4_U+30FC 1
 62
     7
420
 16777215
100
AcDbHatch
 10
0.0
 20
0.0
 30
0.0
210
0.0
220
0.0
230
1.0
  2
SOLID
 70
     1
 71
     0
 91
        1
 92
        1
 93
        1
 72
     4
 94
        3
 73
     0
 74
     1
 95
       62
 96
       58
 40
0.0
 40
0.0
 40
0.0
 40
0.0
 40
1.0
 40
1.0
 40
1.0
 40
2.0
 40
2.0
 40
2.0
 40
3.0
 40
3.0
 40
3.0
 40
4.0
 40
4.0
 40
4.0
 40
5.0
 40
5.0
 40
5.0
 40
6.0
 40
6.0
 40
6.0
 40
7.0
 40
7.0
 40
7.0
 40
8.0
 40
8.0
 40
8.0
 40
9.0
 40
9.0
 40
9.0
 40
10.0
 40
10.0
 40
10.0
 40
11.0
 40
11.0
 40
11.0
 40
12.0
 40
12.0
 40
12.0
 40
13.0
 40
13.0
 40
13.0
 40
14.0
 40
14.0
 40
14.0
 40
15.0
 40
15.0
 40
15.0
 40
16.0
 40
16.0
 40
16.0
 40
17.0
 40
17.0
 40
17.0
 40
18.0
 40
18.0
 40
18.0
 40
19.0
 40
19.0
 40
19.0
 40
19.0
 10
123.6293185454816
 20
-142.5304904157563
 10
123.6293185454816
 20
-142.6259195606977
 10
123.607958953473
 20
-142.8436495953655
 10
123.4219237972695
 20
-142.96870656148
 10
123.3096136844504
 20
-143.0427761144129
 10
123.2103949344752
 20
-143.0469102289952
 10
123.125645585538
 20
-143.0510443435775
 10
123.125645585538
 20
-143.0510443435775
 10
123.125645585538
 20
-142.8309027420701
 10
123.125645585538
 20
-142.8309027420701
 10
123.2000596480194
 20
-142.8288356847789
 10
123.4343261410164
 20
-142.8185003983232
 10
123.4343261410164
 20
-142.5349690398871
 10
123.4343261410164
 20
-142.3975097300256
 10
123.3647352122144
 20
-142.2448920000291
 10
123.1366698910908
 20
-142.2448920000291
 10
123.0202256636894
 20
-142.2448920000291
 10
122.9713053077988
 20
-142.2831325599153
 10
122.9396104293346
 20
-142.3148274383796
 10
122.8658853859502
 20
-142.3888969913125
 10
122.8527940231063
 20
-142.5053412187139
 10
122.8527940231063
 20
-142.5601182369294
 10
122.8527940231063
 20
-142.5794107716468
 10
122.8548610803974
 20
-142.6152397646934
 10
122.8589951949797
 20
-142.6428005285754
 10
122.8589951949797
 20
-142.6428005285754
 10
122.6646918096116
 20
-142.6428005285754
 10
122.6646918096116
 20
-142.6428005285754
 10
122.6708929814851
 20
-142.6045599686891
 10
122.6729600387762
 20
-142.5625298037691
 10
122.6729600387762
 20
-142.5559841223471
 10
122.6729600387762
 20
-142.4905273081274
 10
122.6516004467677
 20
-142.2917452986285
 10
122.4152668964795
 20
-142.2917452986285
 10
122.2374999694406
 20
-142.2917452986285
 10
122.1823784416766
 20
-142.4226589270679
 10
122.1823784416766
 20
-142.5329019825959
 10
122.1823784416766
 20
-142.7971408063146
 10
122.4152668964795
 20
-142.8057535450277
 10
122.4869248825727
 20
-142.80988765961
 10
122.4869248825727
 20
-142.80988765961
 10
122.4869248825727
 20
-143.0131482932398
 10
122.4869248825727
 20
-143.0131482932398
 10
122.3622124260067
 20
-143.0045355545267
 10
121.9853189799203
 20
-142.9769747906446
 10
121.9853189799203
 20
-142.5201551293005
 10
121.9853189799203
 20
-142.2958794132108
 10
122.1127875128746
 20
-142.0547227292433
 10
122.408376705509
 20
-142.0547227292433
 10
122.5951008808096
 20
-142.0547227292433
 10
122.6770941533585
 20
-142.1498073646362
 10
122.738416852996
 20
-142.2493706241599
 10
122.765977616878
 20
-142.1880479245224
 10
122.8465928512328
 20
-142.0061468829012
 10
123.1235785282469
 20
-142.0061468829012
 10
123.4618869048984
 20
-142.0061468829012
 10
123.6293185454816
 20
-142.2535047387422
 10
123.6293185454816
 20
-142.5304904157563
 97
        0
 97
        0
 75
     2
 76
     1
 98
        0
  0
ENDBLK
  5
66
330
63
100
AcDbEntity
  8
0
100
AcDbBlockEnd
  0
BLOCK
  5
6B
330
69
100
AcDbEntity
  8
0
100
AcDbBlockBegin
  2
block 5
 70
     0
 10
0.0
 20
0.0
 30
0.0
  3
block 5
  1

  0
SPLINE
  5
6D
330
69
100
AcDbEntity
  8
_U+30EC_U+30A4_U+30E4_U+30FC 1
370
     0
100
AcDbSpline
210
0.0
220
0.0
230
1.0
 70
    11
 71
     3
 72
    32
 73
    28
 74
     0
 42
0.0000000001
 43
0.0000000001
 12
1.0
 22
0.0
 32
0.0
 13
1.0
 23
0.0
 33
0.0
 40
0.0
 40
0.0
 40
0.0
 40
0.0
 40
1.0
 40
1.0
 40
1.0
 40
2.0
 40
2.0
 40
2.0
 40
3.0
 40
3.0
 40
3.0
 40
4.0
 40
4.0
 40
4.0
 40
5.0
 40
5.0
 40
5.0
 40
6.0
 40
6.0
 40
6.0
 40
7.0
 40
7.0
 40
7.0
 40
8.0
 40
8.0
 40
8.0
 40
9.0
 40
9.0
 40
9.0
 40
9.0
 10
123.6293185454816
 20
-138.6092827344449
 30
0.0
 10
123.6293185454816
 20
-139.1253580381353
 30
0.0
 10
123.0753471914534
 20
-139.1339707768485
 30
0.0
 10
122.8610622522709
 20
-139.1339707768485
 30
0.0
 10
122.6309298738562
 20
-139.1339707768485
 30
0.0
 10
121.9832519226292
 20
-139.114678242131
 30
0.0
 10
121.9832519226292
 20
-138.5710421745586
 30
0.0
 10
121.9832519226292
 20
-138.3977538716506
 30
0.0
 10
122.0535318705283
 20
-138.1521185635522
 30
0.0
 10
122.3856390753064
 20
-138.1142225132145
 30
0.0
 10
122.3856390753064
 20
-138.1142225132145
 30
0.0
 10
122.3856390753064
 20
-138.3278184333
 30
0.0
 10
122.3856390753064
 20
-138.3278184333
 30
0.0
 10
122.3284504902512
 20
-138.3384982293043
 30
0.0
 10
122.1803113843855
 20
-138.3701931077686
 30
0.0
 10
122.1803113843855
 20
-138.5731092318498
 30
0.0
 10
122.1803113843855
 20
-138.865253328999
 30
0.0
 10
122.5082844745813
 20
-138.9052164366279
 30
0.0
 10
122.7129231464051
 20
-138.9179632899233
 30
0.0
 10
122.6350639884385
 20
-138.8249457118216
 30
0.0
 10
122.5758083460922
 20
-138.7570773307621
 30
0.0
 10
122.5758083460922
 20
-138.5751762891409
 30
0.0
 10
122.5758083460922
 20
-138.3953423048109
 30
0.0
 10
122.683984344329
 20
-138.0928629212059
 30
0.0
 10
123.0898165924914
 20
-138.0928629212059
 30
0.0
 10
123.4095214535226
 20
-138.0928629212059
 30
0.0
 10
123.6293185454816
 20
-138.2919894402534
 30
0.0
 10
123.6293185454816
 20
-138.6092827344449
 30
0.0
  0
SPLINE
  5
6E
330
69
100
AcDbEntity
  8
_U+30EC_U+30A4_U+30E4_U+30FC 1
370
     0
100
AcDbSpline
210
0.0
220
0.0
230
1.0
 70
    11
 71
     3
 72
    17
 73
    13
 74
     0
 42
0.0000000001
 43
0.0000000001
 12
1.0
 22
0.0
 32
0.0
 13
1.0
 23
0.0
 33
0.0
 40
0.0
 40
0.0
 40
0.0
 40
0.0
 40
1.0
 40
1.0
 40
1.0
 40
2.0
 40
2.0
 40
2.0
 40
3.0
 40
3.0
 40
3.0
 40
4.0
 40
4.0
 40
4.0
 40
4.0
 10
122.7701117314603
 20
-138.5924017665672
 30
0.0
 10
122.7701117314603
 20
-138.8545735329947
 30
0.0
 10
122.9816405942546
 20
-138.8924695833325
 30
0.0
 10
123.098084821656
 20
-138.8924695833325
 30
0.0
 10
123.2737846914038
 20
-138.8924695833325
 30
0.0
 10
123.4370822174046
 20
-138.7973849479395
 30
0.0
 10
123.4370822174046
 20
-138.6134168490272
 30
0.0
 10
123.4370822174046
 20
-138.4928385070435
 30
0.0
 10
123.3778265750583
 20
-138.3171386372957
 30
0.0
 10
123.0918836497826
 20
-138.3171386372957
 30
0.0
 10
122.8679524432414
 20
-138.3171386372957
 30
0.0
 10
122.7701117314603
 20
-138.4566650044484
 30
0.0
 10
122.7701117314603
 20
-138.5924017665672
 30
0.0
  0
HATCH
  5
6F
330
69
100
AcDbEntity
  8
_U+30EC_U+30A4_U+30E4_U+30FC 1
 62
     7
420
 16777215
100
AcDbHatch
 10
0.0
 20
0.0
 30
0.0
210
0.0
220
0.0
230
1.0
  2
SOLID
 70
     1
 71
     0
 91
        2
 92
        1
 93
        1
 72
     4
 94
        3
 73
     0
 74
     1
 95
       32
 96
       28
 40
0.0
 40
0.0
 40
0.0
 40
0.0
 40
1.0
 40
1.0
 40
1.0
 40
2.0
 40
2.0
 40
2.0
 40
3.0
 40
3.0
 40
3.0
 40
4.0
 40
4.0
 40
4.0
 40
5.0
 40
5.0
 40
5.0
 40
6.0
 40
6.0
 40
6.0
 40
7.0
 40
7.0
 40
7.0
 40
8.0
 40
8.0
 40
8.0
 40
9.0
 40
9.0
 40
9.0
 40
9.0
 10
123.6293185454816
 20
-138.6092827344449
 10
123.6293185454816
 20
-139.1253580381353
 10
123.0753471914534
 20
-139.1339707768485
 10
122.8610622522709
 20
-139.1339707768485
 10
122.6309298738562
 20
-139.1339707768485
 10
121.9832519226292
 20
-139.114678242131
 10
121.9832519226292
 20
-138.5710421745586
 10
121.9832519226292
 20
-138.3977538716506
 10
122.0535318705283
 20
-138.1521185635522
 10
122.3856390753064
 20
-138.1142225132145
 10
122.3856390753064
 20
-138.1142225132145
 10
122.3856390753064
 20
-138.3278184333
 10
122.3856390753064
 20
-138.3278184333
 10
122.3284504902512
 20
-138.3384982293043
 10
122.1803113843855
 20
-138.3701931077686
 10
122.1803113843855
 20
-138.5731092318498
 10
122.1803113843855
 20
-138.865253328999
 10
122.5082844745813
 20
-138.9052164366279
 10
122.7129231464051
 20
-138.9179632899233
 10
122.6350639884385
 20
-138.8249457118216
 10
122.5758083460922
 20
-138.7570773307621
 10
122.5758083460922
 20
-138.5751762891409
 10
122.5758083460922
 20
-138.3953423048109
 10
122.683984344329
 20
-138.0928629212059
 10
123.0898165924914
 20
-138.0928629212059
 10
123.4095214535226
 20
-138.0928629212059
 10
123.6293185454816
 20
-138.2919894402534
 10
123.6293185454816
 20
-138.6092827344449
 97
        0
 97
        0
 92
        1
 93
        1
 72
     4
 94
        3
 73
     0
 74
     1
 95
       17
 96
       13
 40
0.0
 40
0.0
 40
0.0
 40
0.0
 40
1.0
 40
1.0
 40
1.0
 40
2.0
 40
2.0
 40
2.0
 40
3.0
 40
3.0
 40
3.0
 40
4.0
 40
4.0
 40
4.0
 40
4.0
 10
122.7701117314603
 20
-138.5924017665672
 10
122.7701117314603
 20
-138.8545735329947
 10
122.9816405942546
 20
-138.8924695833325
 10
123.098084821656
 20
-138.8924695833325
 10
123.2737846914038
 20
-138.8924695833325
 10
123.4370822174046
 20
-138.7973849479395
 10
123.4370822174046
 20
-138.6134168490272
 10
123.4370822174046
 20
-138.4928385070435
 10
123.3778265750583
 20
-138.3171386372957
 10
123.0918836497826
 20
-138.3171386372957
 10
122.8679524432414
 20
-138.3171386372957
 10
122.7701117314603
 20
-138.4566650044484
 10
122.7701117314603
 20
-138.5924017665672
 97
        0
 97
        0
 75
     2
 76
     1
 98
        0
  0
POLYLINE
  5
70
330
69
100
AcDbEntity
  8
_U+30EC_U+30A4_U+30E4_U+30FC 1
370
     0
100
AcDb2dPolyline
 66
     1
 10
0.0
 20
0.0
 30
0.0
  0
VERTEX
  5
71
330
70
100
AcDbEntity
  8
_U+30EC_U+30A4_U+30E4_U+30FC 1
370
     0
100
AcDbVertex
100
AcDb2dVertex
 10
123.5783311322999
 20
-137.8765109247323
 30
0.0
  0
VERTEX
  5
72
330
70
100
AcDbEntity
  8
_U+30EC_U+30A4_U+30E4_U+30FC 1
370
     0
100
AcDbVertex
100
AcDb2dVertex
 10
123.3268391618766
 20
-137.8765109247323
 30
0.0
  0
VERTEX
  5
73
330
70
100
AcDbEntity
  8
_U+30EC_U+30A4_U+30E4_U+30FC 1
370
     0
100
AcDbVertex
100
AcDb2dVertex
 10
123.3268391618766
 20
-137.6246744447605
 30
0.0
  0
VERTEX
  5
74
330
70
100
AcDbEntity
  8
_U+30EC_U+30A4_U+30E4_U+30FC 1
370
     0
100
AcDbVertex
100
AcDb2dVertex
 10
123.5783311322999
 20
-137.6246744447605
 30
0.0
  0
VERTEX
  5
75
330
70
100
AcDbEntity
  8
_U+30EC_U+30A4_U+30E4_U+30FC 1
370
     0
100
AcDbVertex
100
AcDb2dVertex
 10
123.5783311322999
 20
-137.8765109247323
 30
0.0
  0
SEQEND
  5
76
330
70
100
AcDbEntity
  8
_U+30EC_U+30A4_U+30E4_U+30FC 1
370
     0
  0
HATCH
  5
77
330
69
100
AcDbEntity
  8
_U+30EC_U+30A4_U+30E4_U+30FC 1
 62
     7
420
 16777215
100
AcDbHatch
 10
0.0
 20
0.0
 30
0.0
210
0.0
220
0.0
230
1.0
  2
SOLID
 70
     1
 71
     0
 91
        1
 92
        1
 93
        4
 72
     1
 10
123.5783311322999
 20
-137.8765109247323
 11
123.3268391618766
 21
-137.8765109247323
 72
     1
 10
123.3268391618766
 20
-137.8765109247323
 11
123.3268391618766
 21
-137.6246744447605
 72
     1
 10
123.3268391618766
 20
-137.6246744447605
 11
123.5783311322999
 21
-137.6246744447605
 72
     1
 10
123.5783311322999
 20
-137.6246744447605
 11
123.5783311322999
 21
-137.8765109247323
 97
        0
 75
     2
 76
     1
 98
        0
  0
SPLINE
  5
78
330
69
100
AcDbEntity
  8
_U+30EC_U+30A4_U+30E4_U+30FC 1
370
     0
100
AcDbSpline
210
0.0
220
0.0
230
1.0
 70
    11
 71
     3
 72
    53
 73
    49
 74
     0
 42
0.0000000001
 43
0.0000000001
 12
1.0
 22
0.0
 32
0.0
 13
1.0
 23
0.0
 33
0.0
 40
0.0
 40
0.0
 40
0.0
 40
0.0
 40
1.0
 40
1.0
 40
1.0
 40
2.0
 40
2.0
 40
2.0
 40
3.0
 40
3.0
 40
3.0
 40
4.0
 40
4.0
 40
4.0
 40
5.0
 40
5.0
 40
5.0
 40
6.0
 40
6.0
 40
6.0
 40
7.0
 40
7.0
 40
7.0
 40
8.0
 40
8.0
 40
8.0
 40
9.0
 40
9.0
 40
9.0
 40
10.0
 40
10.0
 40
10.0
 40
11.0
 40
11.0
 40
11.0
 40
12.0
 40
12.0
 40
12.0
 40
13.0
 40
13.0
 40
13.0
 40
14.0
 40
14.0
 40
14.0
 40
15.0
 40
15.0
 40
15.0
 40
16.0
 40
16.0
 40
16.0
 40
16.0
 10
123.6293185454816
 20
-136.9074055647315
 30
0.0
 10
123.6293185454816
 20
-136.9856092322467
 30
0.0
 10
123.6120930680553
 20
-137.0872395490615
 30
0.0
 10
123.5487033111267
 20
-137.1888698658764
 30
0.0
 10
123.4391492746958
 20
-137.3621581687845
 30
0.0
 10
123.3075466271592
 20
-137.383517760793
 30
0.0
 10
123.2000596480194
 20
-137.4024657859619
 30
0.0
 10
123.2000596480194
 20
-137.4024657859619
 30
0.0
 10
123.2000596480194
 20
-137.1802571271633
 30
0.0
 10
123.2000596480194
 20
-137.1802571271633
 30
0.0
 10
123.3984971479698
 20
-137.1254801089478
 30
0.0
 10
123.428124969143
 20
-136.9983560855421
 30
0.0
 10
123.428124969143
 20
-136.9053385074403
 30
0.0
 10
123.428124969143
 20
-136.7658121402877
 30
0.0
 10
123.3289062191678
 20
-136.6135389198397
 30
0.0
 10
123.0960177643649
 20
-136.6135389198397
 30
0.0
 10
122.8403916793594
 20
-136.6135389198397
 30
0.0
 10
122.7701117314603
 20
-136.7933729041697
 30
0.0
 10
122.7701117314603
 20
-136.9139512461535
 30
0.0
 10
122.7701117314603
 20
-136.9456461246178
 30
0.0
 10
122.7701117314603
 20
-137.0872395490615
 30
0.0
 10
122.8996473217056
 20
-137.176123012581
 30
0.0
 10
122.8996473217056
 20
-137.176123012581
 30
0.0
 10
122.8803547869882
 20
-137.3518228823287
 30
0.0
 10
122.8803547869882
 20
-137.3518228823287
 30
0.0
 10
122.8803547869882
 20
-137.3518228823287
 30
0.0
 10
122.0342393358109
 20
-137.231244540345
 30
0.0
 10
122.0342393358109
 20
-137.231244540345
 30
0.0
 10
122.0342393358109
 20
-137.231244540345
 30
0.0
 10
122.0342393358109
 20
-136.4526529606785
 30
0.0
 10
122.0342393358109
 20
-136.4526529606785
 30
0.0
 10
122.0342393358109
 20
-136.4526529606785
 30
0.0
 10
122.228542721179
 20
-136.4526529606785
 30
0.0
 10
122.228542721179
 20
-136.4526529606785
 30
0.0
 10
122.228542721179
 20
-136.4526529606785
 30
0.0
 10
122.228542721179
 20
-137.0682915238927
 30
0.0
 10
122.228542721179
 20
-137.0682915238927
 30
0.0
 10
122.228542721179
 20
-137.0682915238927
 30
0.0
 10
122.6516004467677
 20
-137.1337483381124
 30
0.0
 10
122.6516004467677
 20
-137.1337483381124
 30
0.0
 10
122.6178385110122
 20
-137.072425638475
 30
0.0
 10
122.5778754033833
 20
-136.9900878563775
 30
0.0
 10
122.5778754033833
 20
-136.8715765716849
 30
0.0
 10
122.5778754033833
 20
-136.617673034422
 30
0.0
 10
122.7639105595868
 20
-136.3806504650368
 30
0.0
 10
123.0774142487445
 20
-136.3806504650368
 30
0.0
 10
123.3943630333875
 20
-136.3806504650368
 30
0.0
 10
123.6293185454816
 20
-136.6049261811266
 30
0.0
 10
123.6293185454816
 20
-136.9074055647315
 30
0.0
  0
HATCH
  5
79
330
69
100
AcDbEntity
  8
_U+30EC_U+30A4_U+30E4_U+30FC 1
 62
     7
420
 16777215
100
AcDbHatch
 10
0.0
 20
0.0
 30
0.0
210
0.0
220
0.0
230
1.0
  2
SOLID
 70
     1
 71
     0
 91
        1
 92
        1
 93
        1
 72
     4
 94
        3
 73
     0
 74
     1
 95
       53
 96
       49
 40
0.0
 40
0.0
 40
0.0
 40
0.0
 40
1.0
 40
1.0
 40
1.0
 40
2.0
 40
2.0
 40
2.0
 40
3.0
 40
3.0
 40
3.0
 40
4.0
 40
4.0
 40
4.0
 40
5.0
 40
5.0
 40
5.0
 40
6.0
 40
6.0
 40
6.0
 40
7.0
 40
7.0
 40
7.0
 40
8.0
 40
8.0
 40
8.0
 40
9.0
 40
9.0
 40
9.0
 40
10.0
 40
10.0
 40
10.0
 40
11.0
 40
11.0
 40
11.0
 40
12.0
 40
12.0
 40
12.0
 40
13.0
 40
13.0
 40
13.0
 40
14.0
 40
14.0
 40
14.0
 40
15.0
 40
15.0
 40
15.0
 40
16.0
 40
16.0
 40
16.0
 40
16.0
 10
123.6293185454816
 20
-136.9074055647315
 10
123.6293185454816
 20
-136.9856092322467
 10
123.6120930680553
 20
-137.0872395490615
 10
123.5487033111267
 20
-137.1888698658764
 10
123.4391492746958
 20
-137.3621581687845
 10
123.3075466271592
 20
-137.383517760793
 10
123.2000596480194
 20
-137.4024657859619
 10
123.2000596480194
 20
-137.4024657859619
 10
123.2000596480194
 20
-137.1802571271633
 10
123.2000596480194
 20
-137.1802571271633
 10
123.3984971479698
 20
-137.1254801089478
 10
123.428124969143
 20
-136.9983560855421
 10
123.428124969143
 20
-136.9053385074403
 10
123.428124969143
 20
-136.7658121402877
 10
123.3289062191678
 20
-136.6135389198397
 10
123.0960177643649
 20
-136.6135389198397
 10
122.8403916793594
 20
-136.6135389198397
 10
122.7701117314603
 20
-136.7933729041697
 10
122.7701117314603
 20
-136.9139512461535
 10
122.7701117314603
 20
-136.9456461246178
 10
122.7701117314603
 20
-137.0872395490615
 10
122.8996473217056
 20
-137.176123012581
 10
122.8996473217056
 20
-137.176123012581
 10
122.8803547869882
 20
-137.3518228823287
 10
122.8803547869882
 20
-137.3518228823287
 10
122.8803547869882
 20
-137.3518228823287
 10
122.0342393358109
 20
-137.231244540345
 10
122.0342393358109
 20
-137.231244540345
 10
122.0342393358109
 20
-137.231244540345
 10
122.0342393358109
 20
-136.4526529606785
 10
122.0342393358109
 20
-136.4526529606785
 10
122.0342393358109
 20
-136.4526529606785
 10
122.228542721179
 20
-136.4526529606785
 10
122.228542721179
 20
-136.4526529606785
 10
122.228542721179
 20
-136.4526529606785
 10
122.228542721179
 20
-137.0682915238927
 10
122.228542721179
 20
-137.0682915238927
 10
122.228542721179
 20
-137.0682915238927
 10
122.6516004467677
 20
-137.1337483381124
 10
122.6516004467677
 20
-137.1337483381124
 10
122.6178385110122
 20
-137.072425638475
 10
122.5778754033833
 20
-136.9900878563775
 10
122.5778754033833
 20
-136.8715765716849
 10
122.5778754033833
 20
-136.617673034422
 10
122.7639105595868
 20
-136.3806504650368
 10
123.0774142487445
 20
-136.3806504650368
 10
123.3943630333875
 20
-136.3806504650368
 10
123.6293185454816
 20
-136.6049261811266
 10
123.6293185454816
 20
-136.9074055647315
 97
        0
 97
        0
 75
     2
 76
     1
 98
        0
  0
ENDBLK
  5
6C
330
69
100
AcDbEntity
  8
0
100
AcDbBlockEnd
  0
BLOCK
  5
8A
330
88
100
AcDbEntity
  8
0
100
AcDbBlockBegin
  2
block 6
 70
     0
 10
0.0
 20
0.0
 30
0.0
  3
block 6
  1

  0
SPLINE
  5
8C
330
88
100
AcDbEntity
  8
_U+30EC_U+30A4_U+30E4_U+30FC 1
370
     0
100
AcDbSpline
210
0.0
220
0.0
230
1.0
 70
    11
 71
     3
 72
    26
 73
    22
 74
     0
 42
0.0000000001
 43
0.0000000001
 12
1.0
 22
0.0
 32
0.0
 13
1.0
 23
0.0
 33
0.0
 40
0.0
 40
0.0
 40
0.0
 40
0.0
 40
1.0
 40
1.0
 40
1.0
 40
2.0
 40
2.0
 40
2.0
 40
3.0
 40
3.0
 40
3.0
 40
4.0
 40
4.0
 40
4.0
 40
5.0
 40
5.0
 40
5.0
 40
6.0
 40
6.0
 40
6.0
 40
7.0
 40
7.0
 40
7.0
 40
7.0
 10
123.3719699127334
 20
-132.4907931526412
 30
0.0
 10
123.3719699127334
 20
-132.4907931526412
 30
0.0
 10
122.2678168097108
 20
-132.4907931526412
 30
0.0
 10
122.2678168097108
 20
-132.4907931526412
 30
0.0
 10
122.2678168097108
 20
-132.4907931526412
 30
0.0
 10
122.2678168097108
 20
-132.8208333001281
 30
0.0
 10
122.2678168097108
 20
-132.8208333001281
 30
0.0
 10
122.2678168097108
 20
-132.8208333001281
 30
0.0
 10
122.1196777038451
 20
-132.8208333001281
 30
0.0
 10
122.1196777038451
 20
-132.8208333001281
 30
0.0
 10
122.1048637932585
 20
-132.48872609535
 30
0.0
 10
121.9419107768062
 20
-132.4422173062992
 30
0.0
 10
121.8275336066959
 20
-132.412589485126
 30
0.0
 10
121.8275336066959
 20
-132.412589485126
 30
0.0
 10
121.8275336066959
 20
-132.2665174365514
 30
0.0
 10
121.8275336066959
 20
-132.2665174365514
 30
0.0
 10
121.8275336066959
 20
-132.2665174365514
 30
0.0
 10
123.3719699127334
 20
-132.2665174365514
 30
0.0
 10
123.3719699127334
 20
-132.2665174365514
 30
0.0
 10
123.3719699127334
 20
-132.2665174365514
 30
0.0
 10
123.3719699127334
 20
-132.4907931526412
 30
0.0
 10
123.3719699127334
 20
-132.4907931526412
 30
0.0
  0
HATCH
  5
8D
330
88
100
AcDbEntity
  8
_U+30EC_U+30A4_U+30E4_U+30FC 1
 62
     7
420
 16777215
100
AcDbHatch
 10
0.0
 20
0.0
 30
0.0
210
0.0
220
0.0
230
1.0
  2
SOLID
 70
     1
 71
     0
 91
        1
 92
        1
 93
        1
 72
     4
 94
        3
 73
     0
 74
     1
 95
       26
 96
       22
 40
0.0
 40
0.0
 40
0.0
 40
0.0
 40
1.0
 40
1.0
 40
1.0
 40
2.0
 40
2.0
 40
2.0
 40
3.0
 40
3.0
 40
3.0
 40
4.0
 40
4.0
 40
4.0
 40
5.0
 40
5.0
 40
5.0
 40
6.0
 40
6.0
 40
6.0
 40
7.0
 40
7.0
 40
7.0
 40
7.0
 10
123.3719699127334
 20
-132.4907931526412
 10
123.3719699127334
 20
-132.4907931526412
 10
122.2678168097108
 20
-132.4907931526412
 10
122.2678168097108
 20
-132.4907931526412
 10
122.2678168097108
 20
-132.4907931526412
 10
122.2678168097108
 20
-132.8208333001281
 10
122.2678168097108
 20
-132.8208333001281
 10
122.2678168097108
 20
-132.8208333001281
 10
122.1196777038451
 20
-132.8208333001281
 10
122.1196777038451
 20
-132.8208333001281
 10
122.1048637932585
 20
-132.48872609535
 10
121.9419107768062
 20
-132.4422173062992
 10
121.8275336066959
 20
-132.412589485126
 10
121.8275336066959
 20
-132.412589485126
 10
121.8275336066959
 20
-132.2665174365514
 10
121.8275336066959
 20
-132.2665174365514
 10
121.8275336066959
 20
-132.2665174365514
 10
123.3719699127334
 20
-132.2665174365514
 10
123.3719699127334
 20
-132.2665174365514
 10
123.3719699127334
 20
-132.2665174365514
 10
123.3719699127334
 20
-132.4907931526412
 10
123.3719699127334
 20
-132.4907931526412
 97
        0
 97
        0
 75
     2
 76
     1
 98
        0
  0
ENDBLK
  5
8B
330
88
100
AcDbEntity
  8
0
100
AcDbBlockEnd
  0
BLOCK
  5
9E
330
9C
100
AcDbEntity
  8
0
100
AcDbBlockBegin
  2
block 7
 70
     0
 10
0.0
 20
0.0
 30
0.0
  3
block 7
  1

  0
SPLINE
  5
A0
330
9C
100
AcDbEntity
  8
_U+30EC_U+30A4_U+30E4_U+30FC 1
370
     0
100
AcDbSpline
210
0.0
220
0.0
230
1.0
 70
    11
 71
     3
 72
    44
 73
    40
 74
     0
 42
0.0000000001
 43
0.0000000001
 12
1.0
 22
0.0
 32
0.0
 13
1.0
 23
0.0
 33
0.0
 40
0.0
 40
0.0
 40
0.0
 40
0.0
 40
1.0
 40
1.0
 40
1.0
 40
2.0
 40
2.0
 40
2.0
 40
3.0
 40
3.0
 40
3.0
 40
4.0
 40
4.0
 40
4.0
 40
5.0
 40
5.0
 40
5.0
 40
6.0
 40
6.0
 40
6.0
 40
7.0
 40
7.0
 40
7.0
 40
8.0
 40
8.0
 40
8.0
 40
9.0
 40
9.0
 40
9.0
 40
10.0
 40
10.0
 40
10.0
 40
11.0
 40
11.0
 40
11.0
 40
12.0
 40
12.0
 40
12.0
 40
13.0
 40
13.0
 40
13.0
 40
13.0
 10
91.5833848512361
 20
-147.1493299328307
 30
0.0
 10
91.36565481656831
 20
-147.3081488347007
 30
0.0
 10
91.27263723846657
 20
-147.3822183876336
 30
0.0
 10
91.22371688257601
 20
-147.5258788693685
 30
0.0
 10
91.22371688257601
 20
-147.5258788693685
 30
0.0
 10
92.00230846224248
 20
-147.5258788693685
 30
0.0
 10
92.00230846224248
 20
-147.5258788693685
 30
0.0
 10
92.00230846224248
 20
-147.5258788693685
 30
0.0
 10
92.00230846224248
 20
-147.7312065602894
 30
0.0
 10
92.00230846224248
 20
-147.7312065602894
 30
0.0
 10
92.00230846224248
 20
-147.7312065602894
 30
0.0
 10
90.97429196944393
 20
-147.7312065602894
 30
0.0
 10
90.97429196944393
 20
-147.7312065602894
 30
0.0
 10
91.00598684790823
 20
-147.3736056489205
 30
0.0
 10
91.07144366212798
 20
-147.2954019814053
 30
0.0
 10
91.4566053373789
 20
-146.9970567123827
 30
0.0
 10
91.71257593193297
 20
-146.7982747028838
 30
0.0
 10
91.77803274615272
 20
-146.7304063218243
 30
0.0
 10
91.77803274615272
 20
-146.5929470119629
 30
0.0
 10
91.77803274615272
 20
-146.4744357272703
 30
0.0
 10
91.70603025051099
 20
-146.3435220988308
 30
0.0
 10
91.50931529830324
 20
-146.3435220988308
 30
0.0
 10
91.24921058916686
 20
-146.3435220988308
 30
0.0
 10
91.24059785045374
 20
-146.573998986794
 30
0.0
 10
91.23646373587144
 20
-146.6904432141955
 30
0.0
 10
91.23646373587144
 20
-146.6904432141955
 30
0.0
 10
91.01218801978168
 20
-146.6904432141955
 30
0.0
 10
91.01218801978168
 20
-146.6904432141955
 30
0.0
 10
91.0208007584948
 20
-146.5633191907897
 30
0.0
 10
91.03148055449908
 20
-146.4513535875191
 30
0.0
 10
91.1117512793054
 20
-146.3328423028265
 30
0.0
 10
91.22164982528487
 20
-146.1719563436654
 30
0.0
 10
91.40802949103688
 20
-146.1381944079099
 30
0.0
 10
91.5241292088898
 20
-146.1381944079099
 30
0.0
 10
91.80145939545241
 20
-146.1381944079099
 30
0.0
 10
92.00885414366445
 20
-146.3221625068223
 30
0.0
 10
92.00885414366445
 20
-146.595014069254
 30
0.0
 10
92.00885414366445
 20
-146.8237684094746
 30
0.0
 10
91.89240991626302
 20
-146.9229871594498
 30
0.0
 10
91.5833848512361
 20
-147.1493299328307
 30
0.0
  0
HATCH
  5
A1
330
9C
100
AcDbEntity
  8
_U+30EC_U+30A4_U+30E4_U+30FC 1
 62
     7
420
 16777215
100
AcDbHatch
 10
0.0
 20
0.0
 30
0.0
210
0.0
220
0.0
230
1.0
  2
SOLID
 70
     1
 71
     0
 91
        1
 92
        1
 93
        1
 72
     4
 94
        3
 73
     0
 74
     1
 95
       44
 96
       40
 40
0.0
 40
0.0
 40
0.0
 40
0.0
 40
1.0
 40
1.0
 40
1.0
 40
2.0
 40
2.0
 40
2.0
 40
3.0
 40
3.0
 40
3.0
 40
4.0
 40
4.0
 40
4.0
 40
5.0
 40
5.0
 40
5.0
 40
6.0
 40
6.0
 40
6.0
 40
7.0
 40
7.0
 40
7.0
 40
8.0
 40
8.0
 40
8.0
 40
9.0
 40
9.0
 40
9.0
 40
10.0
 40
10.0
 40
10.0
 40
11.0
 40
11.0
 40
11.0
 40
12.0
 40
12.0
 40
12.0
 40
13.0
 40
13.0
 40
13.0
 40
13.0
 10
91.5833848512361
 20
-147.1493299328307
 10
91.36565481656831
 20
-147.3081488347007
 10
91.27263723846657
 20
-147.3822183876336
 10
91.22371688257601
 20
-147.5258788693685
 10
91.22371688257601
 20
-147.5258788693685
 10
92.00230846224248
 20
-147.5258788693685
 10
92.00230846224248
 20
-147.5258788693685
 10
92.00230846224248
 20
-147.5258788693685
 10
92.00230846224248
 20
-147.7312065602894
 10
92.00230846224248
 20
-147.7312065602894
 10
92.00230846224248
 20
-147.7312065602894
 10
90.97429196944393
 20
-147.7312065602894
 10
90.97429196944393
 20
-147.7312065602894
 10
91.00598684790823
 20
-147.3736056489205
 10
91.07144366212798
 20
-147.2954019814053
 10
91.4566053373789
 20
-146.9970567123827
 10
91.71257593193297
 20
-146.7982747028838
 10
91.77803274615272
 20
-146.7304063218243
 10
91.77803274615272
 20
-146.5929470119629
 10
91.77803274615272
 20
-146.4744357272703
 10
91.70603025051099
 20
-146.3435220988308
 10
91.50931529830324
 20
-146.3435220988308
 10
91.24921058916686
 20
-146.3435220988308
 10
91.24059785045374
 20
-146.573998986794
 10
91.23646373587144
 20
-146.6904432141955
 10
91.23646373587144
 20
-146.6904432141955
 10
91.01218801978168
 20
-146.6904432141955
 10
91.01218801978168
 20
-146.6904432141955
 10
91.0208007584948
 20
-146.5633191907897
 10
91.03148055449908
 20
-146.4513535875191
 10
91.1117512793054
 20
-146.3328423028265
 10
91.22164982528487
 20
-146.1719563436654
 10
91.40802949103688
 20
-146.1381944079099
 10
91.5241292088898
 20
-146.1381944079099
 10
91.80145939545241
 20
-146.1381944079099
 10
92.00885414366445
 20
-146.3221625068223
 10
92.00885414366445
 20
-146.595014069254
 10
92.00885414366445
 20
-146.8237684094746
 10
91.89240991626302
 20
-146.9229871594498
 10
91.5833848512361
 20
-147.1493299328307
 97
        0
 97
        0
 75
     2
 76
     1
 98
        0
  0
SPLINE
  5
A2
330
9C
100
AcDbEntity
  8
_U+30EC_U+30A4_U+30E4_U+30FC 1
370
     0
100
AcDbSpline
210
0.0
220
0.0
230
1.0
 70
    11
 71
     3
 72
    53
 73
    49
 74
     0
 42
0.0000000001
 43
0.0000000001
 12
1.0
 22
0.0
 32
0.0
 13
1.0
 23
0.0
 33
0.0
 40
0.0
 40
0.0
 40
0.0
 40
0.0
 40
1.0
 40
1.0
 40
1.0
 40
2.0
 40
2.0
 40
2.0
 40
3.0
 40
3.0
 40
3.0
 40
4.0
 40
4.0
 40
4.0
 40
5.0
 40
5.0
 40
5.0
 40
6.0
 40
6.0
 40
6.0
 40
7.0
 40
7.0
 40
7.0
 40
8.0
 40
8.0
 40
8.0
 40
9.0
 40
9.0
 40
9.0
 40
10.0
 40
10.0
 40
10.0
 40
11.0
 40
11.0
 40
11.0
 40
12.0
 40
12.0
 40
12.0
 40
13.0
 40
13.0
 40
13.0
 40
14.0
 40
14.0
 40
14.0
 40
15.0
 40
15.0
 40
15.0
 40
16.0
 40
16.0
 40
16.0
 40
16.0
 10
92.64826386572683
 20
-147.7818494639226
 30
0.0
 10
92.57006019821165
 20
-147.7818494639226
 30
0.0
 10
92.46842988139679
 20
-147.7649684960449
 30
0.0
 10
92.36679956458191
 20
-147.7015787391163
 30
0.0
 10
92.19351126167385
 20
-147.5916801931368
 30
0.0
 10
92.1721516696653
 20
-147.4604220551488
 30
0.0
 10
92.15320364449643
 20
-147.3525905664605
 30
0.0
 10
92.15320364449643
 20
-147.3525905664605
 30
0.0
 10
92.37541230329504
 20
-147.3525905664605
 30
0.0
 10
92.37541230329504
 20
-147.3525905664605
 30
0.0
 10
92.43018932151051
 20
-147.5513725759594
 30
0.0
 10
92.55731334491624
 20
-147.5810003971325
 30
0.0
 10
92.65033092301798
 20
-147.5810003971325
 30
0.0
 10
92.7898572901706
 20
-147.5810003971325
 30
0.0
 10
92.94213051061864
 20
-147.4814371376088
 30
0.0
 10
92.94213051061864
 20
-147.2488931923544
 30
0.0
 10
92.94213051061864
 20
-146.9929225978004
 30
0.0
 10
92.7622965262886
 20
-146.9229871594498
 30
0.0
 10
92.64171818430485
 20
-146.9229871594498
 30
0.0
 10
92.61002330584056
 20
-146.9229871594498
 30
0.0
 10
92.46842988139679
 20
-146.9229871594498
 30
0.0
 10
92.37954641787734
 20
-147.0521782401467
 30
0.0
 10
92.37954641787734
 20
-147.0521782401467
 30
0.0
 10
92.2038465481296
 20
-147.0332302149778
 30
0.0
 10
92.2038465481296
 20
-147.0332302149778
 30
0.0
 10
92.2038465481296
 20
-147.0332302149778
 30
0.0
 10
92.32442489011335
 20
-146.1867702542519
 30
0.0
 10
92.32442489011335
 20
-146.1867702542519
 30
0.0
 10
92.32442489011335
 20
-146.1867702542519
 30
0.0
 10
93.1030164697798
 20
-146.1867702542519
 30
0.0
 10
93.1030164697798
 20
-146.1867702542519
 30
0.0
 10
93.1030164697798
 20
-146.1867702542519
 30
0.0
 10
93.1030164697798
 20
-146.3814181491686
 30
0.0
 10
93.1030164697798
 20
-146.3814181491686
 30
0.0
 10
93.1030164697798
 20
-146.3814181491686
 30
0.0
 10
92.48737790656565
 20
-146.3814181491686
 30
0.0
 10
92.48737790656565
 20
-146.3814181491686
 30
0.0
 10
92.48737790656565
 20
-146.3814181491686
 30
0.0
 10
92.42192109234591
 20
-146.8044758747572
 30
0.0
 10
92.42192109234591
 20
-146.8044758747572
 30
0.0
 10
92.48324379198336
 20
-146.7707139390018
 30
0.0
 10
92.56558157408084
 20
-146.7304063218243
 30
0.0
 10
92.68409285877343
 20
-146.7304063218243
 30
0.0
 10
92.93799639603634
 20
-146.7304063218243
 30
0.0
 10
93.17501896542153
 20
-146.9167859875764
 30
0.0
 10
93.17501896542153
 20
-147.2299451671856
 30
0.0
 10
93.17501896542153
 20
-147.5472384613771
 30
0.0
 10
92.95074324933177
 20
-147.7818494639226
 30
0.0
 10
92.64826386572683
 20
-147.7818494639226
 30
0.0
  0
HATCH
  5
A3
330
9C
100
AcDbEntity
  8
_U+30EC_U+30A4_U+30E4_U+30FC 1
 62
     7
420
 16777215
100
AcDbHatch
 10
0.0
 20
0.0
 30
0.0
210
0.0
220
0.0
230
1.0
  2
SOLID
 70
     1
 71
     0
 91
        1
 92
        1
 93
        1
 72
     4
 94
        3
 73
     0
 74
     1
 95
       53
 96
       49
 40
0.0
 40
0.0
 40
0.0
 40
0.0
 40
1.0
 40
1.0
 40
1.0
 40
2.0
 40
2.0
 40
2.0
 40
3.0
 40
3.0
 40
3.0
 40
4.0
 40
4.0
 40
4.0
 40
5.0
 40
5.0
 40
5.0
 40
6.0
 40
6.0
 40
6.0
 40
7.0
 40
7.0
 40
7.0
 40
8.0
 40
8.0
 40
8.0
 40
9.0
 40
9.0
 40
9.0
 40
10.0
 40
10.0
 40
10.0
 40
11.0
 40
11.0
 40
11.0
 40
12.0
 40
12.0
 40
12.0
 40
13.0
 40
13.0
 40
13.0
 40
14.0
 40
14.0
 40
14.0
 40
15.0
 40
15.0
 40
15.0
 40
16.0
 40
16.0
 40
16.0
 40
16.0
 10
92.64826386572683
 20
-147.7818494639226
 10
92.57006019821165
 20
-147.7818494639226
 10
92.46842988139679
 20
-147.7649684960449
 10
92.36679956458191
 20
-147.7015787391163
 10
92.19351126167385
 20
-147.5916801931368
 10
92.1721516696653
 20
-147.4604220551488
 10
92.15320364449643
 20
-147.3525905664605
 10
92.15320364449643
 20
-147.3525905664605
 10
92.37541230329504
 20
-147.3525905664605
 10
92.37541230329504
 20
-147.3525905664605
 10
92.43018932151051
 20
-147.5513725759594
 10
92.55731334491624
 20
-147.5810003971325
 10
92.65033092301798
 20
-147.5810003971325
 10
92.7898572901706
 20
-147.5810003971325
 10
92.94213051061864
 20
-147.4814371376088
 10
92.94213051061864
 20
-147.2488931923544
 10
92.94213051061864
 20
-146.9929225978004
 10
92.7622965262886
 20
-146.9229871594498
 10
92.64171818430485
 20
-146.9229871594498
 10
92.61002330584056
 20
-146.9229871594498
 10
92.46842988139679
 20
-146.9229871594498
 10
92.37954641787734
 20
-147.0521782401467
 10
92.37954641787734
 20
-147.0521782401467
 10
92.2038465481296
 20
-147.0332302149778
 10
92.2038465481296
 20
-147.0332302149778
 10
92.2038465481296
 20
-147.0332302149778
 10
92.32442489011335
 20
-146.1867702542519
 10
92.32442489011335
 20
-146.1867702542519
 10
92.32442489011335
 20
-146.1867702542519
 10
93.1030164697798
 20
-146.1867702542519
 10
93.1030164697798
 20
-146.1867702542519
 10
93.1030164697798
 20
-146.1867702542519
 10
93.1030164697798
 20
-146.3814181491686
 10
93.1030164697798
 20
-146.3814181491686
 10
93.1030164697798
 20
-146.3814181491686
 10
92.48737790656565
 20
-146.3814181491686
 10
92.48737790656565
 20
-146.3814181491686
 10
92.48737790656565
 20
-146.3814181491686
 10
92.42192109234591
 20
-146.8044758747572
 10
92.42192109234591
 20
-146.8044758747572
 10
92.48324379198336
 20
-146.7707139390018
 10
92.56558157408084
 20
-146.7304063218243
 10
92.68409285877343
 20
-146.7304063218243
 10
92.93799639603634
 20
-146.7304063218243
 10
93.17501896542153
 20
-146.9167859875764
 10
93.17501896542153
 20
-147.2299451671856
 10
93.17501896542153
 20
-147.5472384613771
 10
92.95074324933177
 20
-147.7818494639226
 10
92.64826386572683
 20
-147.7818494639226
 97
        0
 97
        0
 75
     2
 76
     1
 98
        0
  0
ENDBLK
  5
9F
330
9C
100
AcDbEntity
  8
0
100
AcDbBlockEnd
  0
BLOCK
  5
B4
330
B2
100
AcDbEntity
  8
0
100
AcDbBlockBegin
  2
block 8
 70
     0
 10
0.0
 20
0.0
 30
0.0
  3
block 8
  1

  0
SPLINE
  5
B6
330
B2
100
AcDbEntity
  8
_U+30EC_U+30A4_U+30E4_U+30FC 1
370
     0
100
AcDbSpline
210
0.0
220
0.0
230
1.0
 70
    11
 71
     3
 72
    44
 73
    40
 74
     0
 42
0.0000000001
 43
0.0000000001
 12
1.0
 22
0.0
 32
0.0
 13
1.0
 23
0.0
 33
0.0
 40
0.0
 40
0.0
 40
0.0
 40
0.0
 40
1.0
 40
1.0
 40
1.0
 40
2.0
 40
2.0
 40
2.0
 40
3.0
 40
3.0
 40
3.0
 40
4.0
 40
4.0
 40
4.0
 40
5.0
 40
5.0
 40
5.0
 40
6.0
 40
6.0
 40
6.0
 40
7.0
 40
7.0
 40
7.0
 40
8.0
 40
8.0
 40
8.0
 40
9.0
 40
9.0
 40
9.0
 40
10.0
 40
10.0
 40
10.0
 40
11.0
 40
11.0
 40
11.0
 40
12.0
 40
12.0
 40
12.0
 40
13.0
 40
13.0
 40
13.0
 40
13.0
 10
108.0171793349749
 20
-129.5138861438368
 30
0.0
 10
107.7994493003071
 20
-129.6727050457068
 30
0.0
 10
107.7064317222053
 20
-129.7467745986397
 30
0.0
 10
107.6575113663148
 20
-129.8904350803746
 30
0.0
 10
107.6575113663148
 20
-129.8904350803746
 30
0.0
 10
108.4361029459813
 20
-129.8904350803746
 30
0.0
 10
108.4361029459813
 20
-129.8904350803746
 30
0.0
 10
108.4361029459813
 20
-129.8904350803746
 30
0.0
 10
108.4361029459813
 20
-130.0957627712955
 30
0.0
 10
108.4361029459813
 20
-130.0957627712955
 30
0.0
 10
108.4361029459813
 20
-130.0957627712955
 30
0.0
 10
107.4080864531827
 20
-130.0957627712955
 30
0.0
 10
107.4080864531827
 20
-130.0957627712955
 30
0.0
 10
107.439781331647
 20
-129.7381618599266
 30
0.0
 10
107.5052381458668
 20
-129.6599581924114
 30
0.0
 10
107.8903998211177
 20
-129.3616129233888
 30
0.0
 10
108.1463704156717
 20
-129.1628309138898
 30
0.0
 10
108.2118272298915
 20
-129.0949625328304
 30
0.0
 10
108.2118272298915
 20
-128.957503222969
 30
0.0
 10
108.2118272298915
 20
-128.8389919382764
 30
0.0
 10
108.1398247342498
 20
-128.7080783098369
 30
0.0
 10
107.943109782042
 20
-128.7080783098369
 30
0.0
 10
107.6830050729056
 20
-128.7080783098369
 30
0.0
 10
107.6743923341925
 20
-128.9385551978001
 30
0.0
 10
107.6702582196102
 20
-129.0549994252015
 30
0.0
 10
107.6702582196102
 20
-129.0549994252015
 30
0.0
 10
107.4459825035205
 20
-129.0549994252015
 30
0.0
 10
107.4459825035205
 20
-129.0549994252015
 30
0.0
 10
107.4545952422336
 20
-128.9278754017958
 30
0.0
 10
107.4652750382378
 20
-128.8159097985252
 30
0.0
 10
107.5455457630442
 20
-128.6973985138326
 30
0.0
 10
107.6554443090237
 20
-128.5365125546714
 30
0.0
 10
107.8418239747757
 20
-128.502750618916
 30
0.0
 10
107.9579236926286
 20
-128.502750618916
 30
0.0
 10
108.2352538791912
 20
-128.502750618916
 30
0.0
 10
108.4426486274032
 20
-128.6867187178283
 30
0.0
 10
108.4426486274032
 20
-128.9595702802601
 30
0.0
 10
108.4426486274032
 20
-129.1883246204807
 30
0.0
 10
108.3262044000018
 20
-129.2875433704559
 30
0.0
 10
108.0171793349749
 20
-129.5138861438368
 30
0.0
  0
HATCH
  5
B7
330
B2
100
AcDbEntity
  8
_U+30EC_U+30A4_U+30E4_U+30FC 1
 62
     7
420
 16777215
100
AcDbHatch
 10
0.0
 20
0.0
 30
0.0
210
0.0
220
0.0
230
1.0
  2
SOLID
 70
     1
 71
     0
 91
        1
 92
        1
 93
        1
 72
     4
 94
        3
 73
     0
 74
     1
 95
       44
 96
       40
 40
0.0
 40
0.0
 40
0.0
 40
0.0
 40
1.0
 40
1.0
 40
1.0
 40
2.0
 40
2.0
 40
2.0
 40
3.0
 40
3.0
 40
3.0
 40
4.0
 40
4.0
 40
4.0
 40
5.0
 40
5.0
 40
5.0
 40
6.0
 40
6.0
 40
6.0
 40
7.0
 40
7.0
 40
7.0
 40
8.0
 40
8.0
 40
8.0
 40
9.0
 40
9.0
 40
9.0
 40
10.0
 40
10.0
 40
10.0
 40
11.0
 40
11.0
 40
11.0
 40
12.0
 40
12.0
 40
12.0
 40
13.0
 40
13.0
 40
13.0
 40
13.0
 10
108.0171793349749
 20
-129.5138861438368
 10
107.7994493003071
 20
-129.6727050457068
 10
107.7064317222053
 20
-129.7467745986397
 10
107.6575113663148
 20
-129.8904350803746
 10
107.6575113663148
 20
-129.8904350803746
 10
108.4361029459813
 20
-129.8904350803746
 10
108.4361029459813
 20
-129.8904350803746
 10
108.4361029459813
 20
-129.8904350803746
 10
108.4361029459813
 20
-130.0957627712955
 10
108.4361029459813
 20
-130.0957627712955
 10
108.4361029459813
 20
-130.0957627712955
 10
107.4080864531827
 20
-130.0957627712955
 10
107.4080864531827
 20
-130.0957627712955
 10
107.439781331647
 20
-129.7381618599266
 10
107.5052381458668
 20
-129.6599581924114
 10
107.8903998211177
 20
-129.3616129233888
 10
108.1463704156717
 20
-129.1628309138898
 10
108.2118272298915
 20
-129.0949625328304
 10
108.2118272298915
 20
-128.957503222969
 10
108.2118272298915
 20
-128.8389919382764
 10
108.1398247342498
 20
-128.7080783098369
 10
107.943109782042
 20
-128.7080783098369
 10
107.6830050729056
 20
-128.7080783098369
 10
107.6743923341925
 20
-128.9385551978001
 10
107.6702582196102
 20
-129.0549994252015
 10
107.6702582196102
 20
-129.0549994252015
 10
107.4459825035205
 20
-129.0549994252015
 10
107.4459825035205
 20
-129.0549994252015
 10
107.4545952422336
 20
-128.9278754017958
 10
107.4652750382378
 20
-128.8159097985252
 10
107.5455457630442
 20
-128.6973985138326
 10
107.6554443090237
 20
-128.5365125546714
 10
107.8418239747757
 20
-128.502750618916
 10
107.9579236926286
 20
-128.502750618916
 10
108.2352538791912
 20
-128.502750618916
 10
108.4426486274032
 20
-128.6867187178283
 10
108.4426486274032
 20
-128.9595702802601
 10
108.4426486274032
 20
-129.1883246204807
 10
108.3262044000018
 20
-129.2875433704559
 10
108.0171793349749
 20
-129.5138861438368
 97
        0
 97
        0
 75
     2
 76
     1
 98
        0
  0
SPLINE
  5
B8
330
B2
100
AcDbEntity
  8
_U+30EC_U+30A4_U+30E4_U+30FC 1
370
     0
100
AcDbSpline
210
0.0
220
0.0
230
1.0
 70
    11
 71
     3
 72
    53
 73
    49
 74
     0
 42
0.0000000001
 43
0.0000000001
 12
1.0
 22
0.0
 32
0.0
 13
1.0
 23
0.0
 33
0.0
 40
0.0
 40
0.0
 40
0.0
 40
0.0
 40
1.0
 40
1.0
 40
1.0
 40
2.0
 40
2.0
 40
2.0
 40
3.0
 40
3.0
 40
3.0
 40
4.0
 40
4.0
 40
4.0
 40
5.0
 40
5.0
 40
5.0
 40
6.0
 40
6.0
 40
6.0
 40
7.0
 40
7.0
 40
7.0
 40
8.0
 40
8.0
 40
8.0
 40
9.0
 40
9.0
 40
9.0
 40
10.0
 40
10.0
 40
10.0
 40
11.0
 40
11.0
 40
11.0
 40
12.0
 40
12.0
 40
12.0
 40
13.0
 40
13.0
 40
13.0
 40
14.0
 40
14.0
 40
14.0
 40
15.0
 40
15.0
 40
15.0
 40
16.0
 40
16.0
 40
16.0
 40
16.0
 10
109.0820583494656
 20
-130.1464056749287
 30
0.0
 10
109.0038546819504
 20
-130.1464056749287
 30
0.0
 10
108.9022243651356
 20
-130.129524707051
 30
0.0
 10
108.8005940483207
 20
-130.0661349501223
 30
0.0
 10
108.6273057454126
 20
-129.9562364041429
 30
0.0
 10
108.6059461534041
 20
-129.8249782661549
 30
0.0
 10
108.5869981282352
 20
-129.7171467774666
 30
0.0
 10
108.5869981282352
 20
-129.7171467774666
 30
0.0
 10
108.8092067870338
 20
-129.7171467774666
 30
0.0
 10
108.8092067870338
 20
-129.7171467774666
 30
0.0
 10
108.8639838052493
 20
-129.9159287869655
 30
0.0
 10
108.991107828655
 20
-129.9455566081386
 30
0.0
 10
109.0841254067568
 20
-129.9455566081386
 30
0.0
 10
109.2236517739094
 20
-129.9455566081386
 30
0.0
 10
109.3759249943574
 20
-129.8459933486149
 30
0.0
 10
109.3759249943574
 20
-129.6134494033605
 30
0.0
 10
109.3759249943574
 20
-129.3574788088065
 30
0.0
 10
109.1960910100274
 20
-129.2875433704559
 30
0.0
 10
109.0755126680436
 20
-129.2875433704559
 30
0.0
 10
109.0438177895793
 20
-129.2875433704559
 30
0.0
 10
108.9022243651356
 20
-129.2875433704559
 30
0.0
 10
108.8133409016161
 20
-129.4167344511528
 30
0.0
 10
108.8133409016161
 20
-129.4167344511528
 30
0.0
 10
108.6376410318684
 20
-129.3977864259839
 30
0.0
 10
108.6376410318684
 20
-129.3977864259839
 30
0.0
 10
108.6376410318684
 20
-129.3977864259839
 30
0.0
 10
108.7582193738521
 20
-128.551326465258
 30
0.0
 10
108.7582193738521
 20
-128.551326465258
 30
0.0
 10
108.7582193738521
 20
-128.551326465258
 30
0.0
 10
109.5368109535186
 20
-128.551326465258
 30
0.0
 10
109.5368109535186
 20
-128.551326465258
 30
0.0
 10
109.5368109535186
 20
-128.551326465258
 30
0.0
 10
109.5368109535186
 20
-128.7459743601746
 30
0.0
 10
109.5368109535186
 20
-128.7459743601746
 30
0.0
 10
109.5368109535186
 20
-128.7459743601746
 30
0.0
 10
108.9211723903044
 20
-128.7459743601746
 30
0.0
 10
108.9211723903044
 20
-128.7459743601746
 30
0.0
 10
108.9211723903044
 20
-128.7459743601746
 30
0.0
 10
108.8557155760847
 20
-129.1690320857633
 30
0.0
 10
108.8557155760847
 20
-129.1690320857633
 30
0.0
 10
108.9170382757221
 20
-129.1352701500078
 30
0.0
 10
108.9993760578196
 20
-129.0949625328304
 30
0.0
 10
109.1178873425122
 20
-129.0949625328304
 30
0.0
 10
109.3717908797751
 20
-129.0949625328304
 30
0.0
 10
109.6088134491603
 20
-129.2813421985825
 30
0.0
 10
109.6088134491603
 20
-129.5945013781917
 30
0.0
 10
109.6088134491603
 20
-129.9117946723832
 30
0.0
 10
109.3845377330705
 20
-130.1464056749287
 30
0.0
 10
109.0820583494656
 20
-130.1464056749287
 30
0.0
  0
HATCH
  5
B9
330
B2
100
AcDbEntity
  8
_U+30EC_U+30A4_U+30E4_U+30FC 1
 62
     7
420
 16777215
100
AcDbHatch
 10
0.0
 20
0.0
 30
0.0
210
0.0
220
0.0
230
1.0
  2
SOLID
 70
     1
 71
     0
 91
        1
 92
        1
 93
        1
 72
     4
 94
        3
 73
     0
 74
     1
 95
       53
 96
       49
 40
0.0
 40
0.0
 40
0.0
 40
0.0
 40
1.0
 40
1.0
 40
1.0
 40
2.0
 40
2.0
 40
2.0
 40
3.0
 40
3.0
 40
3.0
 40
4.0
 40
4.0
 40
4.0
 40
5.0
 40
5.0
 40
5.0
 40
6.0
 40
6.0
 40
6.0
 40
7.0
 40
7.0
 40
7.0
 40
8.0
 40
8.0
 40
8.0
 40
9.0
 40
9.0
 40
9.0
 40
10.0
 40
10.0
 40
10.0
 40
11.0
 40
11.0
 40
11.0
 40
12.0
 40
12.0
 40
12.0
 40
13.0
 40
13.0
 40
13.0
 40
14.0
 40
14.0
 40
14.0
 40
15.0
 40
15.0
 40
15.0
 40
16.0
 40
16.0
 40
16.0
 40
16.0
 10
109.0820583494656
 20
-130.1464056749287
 10
109.0038546819504
 20
-130.1464056749287
 10
108.9022243651356
 20
-130.129524707051
 10
108.8005940483207
 20
-130.0661349501223
 10
108.6273057454126
 20
-129.9562364041429
 10
108.6059461534041
 20
-129.8249782661549
 10
108.5869981282352
 20
-129.7171467774666
 10
108.5869981282352
 20
-129.7171467774666
 10
108.8092067870338
 20
-129.7171467774666
 10
108.8092067870338
 20
-129.7171467774666
 10
108.8639838052493
 20
-129.9159287869655
 10
108.991107828655
 20
-129.9455566081386
 10
109.0841254067568
 20
-129.9455566081386
 10
109.2236517739094
 20
-129.9455566081386
 10
109.3759249943574
 20
-129.8459933486149
 10
109.3759249943574
 20
-129.6134494033605
 10
109.3759249943574
 20
-129.3574788088065
 10
109.1960910100274
 20
-129.2875433704559
 10
109.0755126680436
 20
-129.2875433704559
 10
109.0438177895793
 20
-129.2875433704559
 10
108.9022243651356
 20
-129.2875433704559
 10
108.8133409016161
 20
-129.4167344511528
 10
108.8133409016161
 20
-129.4167344511528
 10
108.6376410318684
 20
-129.3977864259839
 10
108.6376410318684
 20
-129.3977864259839
 10
108.6376410318684
 20
-129.3977864259839
 10
108.7582193738521
 20
-128.551326465258
 10
108.7582193738521
 20
-128.551326465258
 10
108.7582193738521
 20
-128.551326465258
 10
109.5368109535186
 20
-128.551326465258
 10
109.5368109535186
 20
-128.551326465258
 10
109.5368109535186
 20
-128.551326465258
 10
109.5368109535186
 20
-128.7459743601746
 10
109.5368109535186
 20
-128.7459743601746
 10
109.5368109535186
 20
-128.7459743601746
 10
108.9211723903044
 20
-128.7459743601746
 10
108.9211723903044
 20
-128.7459743601746
 10
108.9211723903044
 20
-128.7459743601746
 10
108.8557155760847
 20
-129.1690320857633
 10
108.8557155760847
 20
-129.1690320857633
 10
108.9170382757221
 20
-129.1352701500078
 10
108.9993760578196
 20
-129.0949625328304
 10
109.1178873425122
 20
-129.0949625328304
 10
109.3717908797751
 20
-129.0949625328304
 10
109.6088134491603
 20
-129.2813421985825
 10
109.6088134491603
 20
-129.5945013781917
 10
109.6088134491603
 20
-129.9117946723832
 10
109.3845377330705
 20
-130.1464056749287
 10
109.0820583494656
 20
-130.1464056749287
 97
        0
 97
        0
 75
     2
 76
     1
 98
        0
  0
ENDBLK
  5
B5
330
B2
100
AcDbEntity
  8
0
100
AcDbBlockEnd
  0
ENDSEC
  0
SECTION
  2
ENTITIES
  0
SPLINE
  5
41
330
1F
100
AcDbEntity
  8
_U+30EC_U+30A4_U+30E4_U+30FC 1
 62
     7
420
 16777215
370
     9
100
AcDbSpline
210
0.0
220
0.0
230
1.0
 70
     8
 71
     3
 72
    11
 73
     7
 74
     0
 42
0.0000000001
 43
0.0000000001
 12
1.0
 22
0.0
 32
0.0
 13
1.0
 23
0.0
 33
0.0
 40
0.0
 40
0.0
 40
0.0
 40
0.0
 40
1.0
 40
1.0
 40
1.0
 40
2.0
 40
2.0
 40
2.0
 40
2.0
 10
84.00538257906636
 20
-143.0238369086883
 30
0.0
 10
84.00538257906636
 20
-140.8148482981297
 30
0.0
 10
82.21461206919717
 20
-139.024077743022
 30
0.0
 10
80.0049179589045
 20
-139.024077743022
 30
0.0
 10
78.94453854151259
 20
-139.024077743022
 30
0.0
 10
77.92684720274067
 20
-139.4457530206942
 30
0.0
 10
77.17652219772955
 20
-140.1954057982846
 30
0.0
  0
INSERT
  5
43
330
1F
100
AcDbEntity
  8
_U+30EC_U+30A4_U+30E4_U+30FC 1
100
AcDbBlockReference
  2
block 2
 10
0.0
 20
0.0
 30
0.0
  0
POLYLINE
  5
55
330
1F
100
AcDbEntity
  8
_U+30EC_U+30A4_U+30E4_U+30FC 1
 62
     7
420
 16777215
370
     9
100
AcDb2dPolyline
 66
     1
 10
0.0
 20
0.0
 30
0.0
  0
VERTEX
  5
56
330
55
100
AcDbEntity
  8
_U+30EC_U+30A4_U+30E4_U+30FC 1
 62
     7
420
 16777215
370
     9
100
AcDbVertex
100
AcDb2dVertex
 10
123.967624892878
 20
-144.0015605195552
 30
0.0
  0
VERTEX
  5
57
330
55
100
AcDbEntity
  8
_U+30EC_U+30A4_U+30E4_U+30FC 1
 62
     7
420
 16777215
370
     9
100
AcDbVertex
100
AcDb2dVertex
 10
123.967624892878
 20
-141.0012207980831
 30
0.0
  0
SEQEND
  5
58
330
55
100
AcDbEntity
  8
_U+30EC_U+30A4_U+30E4_U+30FC 1
 62
     7
420
 16777215
370
     9
  0
SPLINE
  5
59
330
1F
100
AcDbEntity
  8
_U+30EC_U+30A4_U+30E4_U+30FC 1
 62
     7
420
 16777215
370
     9
100
AcDbSpline
210
0.0
220
0.0
230
1.0
 70
    11
 71
     3
 72
    17
 73
    13
 74
     0
 42
0.0000000001
 43
0.0000000001
 12
1.0
 22
0.0
 32
0.0
 13
1.0
 23
0.0
 33
0.0
 40
0.0
 40
0.0
 40
0.0
 40
0.0
 40
1.0
 40
1.0
 40
1.0
 40
2.0
 40
2.0
 40
2.0
 40
3.0
 40
3.0
 40
3.0
 40
4.0
 40
4.0
 40
4.0
 40
4.0
 10
124.0675315569958
 20
-141.0022438536382
 30
0.0
 10
124.0675315569958
 20
-140.9471399647633
 30
0.0
 10
124.0234343358986
 20
-140.9023371869966
 30
0.0
 10
123.967624892878
 20
-140.9023371869966
 30
0.0
 10
123.9124888579106
 20
-140.9023371869966
 30
0.0
 10
123.8677182287601
 20
-140.9471399647633
 30
0.0
 10
123.8677182287601
 20
-141.0022438536382
 30
0.0
 10
123.8677182287601
 20
-141.0580532980687
 30
0.0
 10
123.9124888579106
 20
-141.1028560758354
 30
0.0
 10
123.967624892878
 20
-141.1028560758354
 30
0.0
 10
124.0234343358986
 20
-141.1028560758354
 30
0.0
 10
124.0675315569958
 20
-141.0580532980687
 30
0.0
 10
124.0675315569958
 20
-141.0022438536382
 30
0.0
  0
POLYLINE
  5
5A
330
1F
100
AcDbEntity
  8
_U+30EC_U+30A4_U+30E4_U+30FC 1
 62
     7
420
 16777215
370
     9
100
AcDb2dPolyline
 66
     1
 10
0.0
 20
0.0
 30
0.0
  0
VERTEX
  5
5B
330
5A
100
AcDbEntity
  8
_U+30EC_U+30A4_U+30E4_U+30FC 1
 62
     7
420
 16777215
370
     9
100
AcDbVertex
100
AcDb2dVertex
 10
106.0524409054879
 20
-141.0022438536382
 30
0.0
  0
VERTEX
  5
5C
330
5A
100
AcDbEntity
  8
_U+30EC_U+30A4_U+30E4_U+30FC 1
 62
     7
420
 16777215
370
     9
100
AcDbVertex
100
AcDb2dVertex
 10
124.9680673673545
 20
-141.0022438536382
 30
0.0
  0
SEQEND
  5
5D
330
5A
100
AcDbEntity
  8
_U+30EC_U+30A4_U+30E4_U+30FC 1
 62
     7
420
 16777215
370
     9
  0
SPLINE
  5
5E
330
1F
100
AcDbEntity
  8
_U+30EC_U+30A4_U+30E4_U+30FC 1
 62
     7
420
 16777215
370
     9
100
AcDbSpline
210
0.0
220
0.0
230
1.0
 70
    11
 71
     3
 72
    17
 73
    13
 74
     0
 42
0.0000000001
 43
0.0000000001
 12
1.0
 22
0.0
 32
0.0
 13
1.0
 23
0.0
 33
0.0
 40
0.0
 40
0.0
 40
0.0
 40
0.0
 40
1.0
 40
1.0
 40
1.0
 40
2.0
 40
2.0
 40
2.0
 40
3.0
 40
3.0
 40
3.0
 40
4.0
 40
4.0
 40
4.0
 40
4.0
 10
124.0675315569958
 20
-144.0022307973326
 30
0.0
 10
124.0675315569958
 20
-143.9471269084576
 30
0.0
 10
124.0234343358986
 20
-143.9023241306909
 30
0.0
 10
123.967624892878
 20
-143.9023241306909
 30
0.0
 10
123.9124888579106
 20
-143.9023241306909
 30
0.0
 10
123.8677182287601
 20
-143.9471269084576
 30
0.0
 10
123.8677182287601
 20
-144.0022307973326
 30
0.0
 10
123.8677182287601
 20
-144.058040241763
 30
0.0
 10
123.9124888579106
 20
-144.1028430195297
 30
0.0
 10
123.967624892878
 20
-144.1028430195297
 30
0.0
 10
124.0234343358986
 20
-144.1028430195297
 30
0.0
 10
124.0675315569958
 20
-144.058040241763
 30
0.0
 10
124.0675315569958
 20
-144.0022307973326
 30
0.0
  0
POLYLINE
  5
5F
330
1F
100
AcDbEntity
  8
_U+30EC_U+30A4_U+30E4_U+30FC 1
 62
     7
420
 16777215
370
     9
100
AcDb2dPolyline
 66
     1
 10
0.0
 20
0.0
 30
0.0
  0
VERTEX
  5
60
330
5F
100
AcDbEntity
  8
_U+30EC_U+30A4_U+30E4_U+30FC 1
 62
     7
420
 16777215
370
     9
100
AcDbVertex
100
AcDb2dVertex
 10
106.0524409054879
 20
-144.0022307973326
 30
0.0
  0
VERTEX
  5
61
330
5F
100
AcDbEntity
  8
_U+30EC_U+30A4_U+30E4_U+30FC 1
 62
     7
420
 16777215
370
     9
100
AcDbVertex
100
AcDb2dVertex
 10
124.9680673673545
 20
-144.0022307973326
 30
0.0
  0
SEQEND
  5
62
330
5F
100
AcDbEntity
  8
_U+30EC_U+30A4_U+30E4_U+30FC 1
 62
     7
420
 16777215
370
     9
  0
INSERT
  5
64
330
1F
100
AcDbEntity
  8
_U+30EC_U+30A4_U+30E4_U+30FC 1
100
AcDbBlockReference
  2
block 4
 10
0.0
 20
0.0
 30
0.0
  0
INSERT
  5
6A
330
1F
100
AcDbEntity
  8
_U+30EC_U+30A4_U+30E4_U+30FC 1
100
AcDbBlockReference
  2
block 5
 10
0.0
 20
0.0
 30
0.0
  0
POLYLINE
  5
7A
330
1F
100
AcDbEntity
  8
_U+30EC_U+30A4_U+30E4_U+30FC 1
 62
     7
420
 16777215
370
     9
100
AcDb2dPolyline
 66
     1
 10
0.0
 20
0.0
 30
0.0
  0
VERTEX
  5
7B
330
7A
100
AcDbEntity
  8
_U+30EC_U+30A4_U+30E4_U+30FC 1
 62
     7
420
 16777215
370
     9
100
AcDbVertex
100
AcDb2dVertex
 10
123.967624892878
 20
-141.0005152425276
 30
0.0
  0
VERTEX
  5
7C
330
7A
100
AcDbEntity
  8
_U+30EC_U+30A4_U+30E4_U+30FC 1
 62
     7
420
 16777215
370
     9
100
AcDbVertex
100
AcDb2dVertex
 10
123.967624892878
 20
-131.5020441337909
 30
0.0
  0
SEQEND
  5
7D
330
7A
100
AcDbEntity
  8
_U+30EC_U+30A4_U+30E4_U+30FC 1
 62
     7
420
 16777215
370
     9
  0
SPLINE
  5
7E
330
1F
100
AcDbEntity
  8
_U+30EC_U+30A4_U+30E4_U+30FC 1
 62
     7
420
 16777215
370
     9
100
AcDbSpline
210
0.0
220
0.0
230
1.0
 70
    11
 71
     3
 72
    17
 73
    13
 74
     0
 42
0.0000000001
 43
0.0000000001
 12
1.0
 22
0.0
 32
0.0
 13
1.0
 23
0.0
 33
0.0
 40
0.0
 40
0.0
 40
0.0
 40
0.0
 40
1.0
 40
1.0
 40
1.0
 40
2.0
 40
2.0
 40
2.0
 40
3.0
 40
3.0
 40
3.0
 40
4.0
 40
4.0
 40
4.0
 40
4.0
 10
124.0675315569958
 20
-133.5019413555137
 30
0.0
 10
124.0675315569958
 20
-133.4468021888606
 30
0.0
 10
124.0234343358986
 20
-133.4020346888714
 30
0.0
 10
123.967624892878
 20
-133.4020346888714
 30
0.0
 10
123.9124888579106
 20
-133.4020346888714
 30
0.0
 10
123.8677182287601
 20
-133.4468021888606
 30
0.0
 10
123.8677182287601
 20
-133.5019413555137
 30
0.0
 10
123.8677182287601
 20
-133.5577507999441
 30
0.0
 10
123.9124888579106
 20
-133.6025182999327
 30
0.0
 10
123.967624892878
 20
-133.6025182999327
 30
0.0
 10
124.0234343358986
 20
-133.6025182999327
 30
0.0
 10
124.0675315569958
 20
-133.5577507999441
 30
0.0
 10
124.0675315569958
 20
-133.5019413555137
 30
0.0
  0
POLYLINE
  5
7F
330
1F
100
AcDbEntity
  8
_U+30EC_U+30A4_U+30E4_U+30FC 1
 62
     7
420
 16777215
370
     9
100
AcDb2dPolyline
 66
     1
 10
0.0
 20
0.0
 30
0.0
  0
VERTEX
  5
80
330
7F
100
AcDbEntity
  8
_U+30EC_U+30A4_U+30E4_U+30FC 1
 62
     7
420
 16777215
370
     9
100
AcDbVertex
100
AcDb2dVertex
 10
122.5075835412378
 20
-133.5019413555137
 30
0.0
  0
VERTEX
  5
81
330
7F
100
AcDbEntity
  8
_U+30EC_U+30A4_U+30E4_U+30FC 1
 62
     7
420
 16777215
370
     9
100
AcDbVertex
100
AcDb2dVertex
 10
124.9680673673545
 20
-133.5019413555137
 30
0.0
  0
SEQEND
  5
82
330
7F
100
AcDbEntity
  8
_U+30EC_U+30A4_U+30E4_U+30FC 1
 62
     7
420
 16777215
370
     9
  0
SPLINE
  5
83
330
1F
100
AcDbEntity
  8
_U+30EC_U+30A4_U+30E4_U+30FC 1
 62
     7
420
 16777215
370
     9
100
AcDbSpline
210
0.0
220
0.0
230
1.0
 70
    11
 71
     3
 72
    17
 73
    13
 74
     0
 42
0.0000000001
 43
0.0000000001
 12
1.0
 22
0.0
 32
0.0
 13
1.0
 23
0.0
 33
0.0
 40
0.0
 40
0.0
 40
0.0
 40
0.0
 40
1.0
 40
1.0
 40
1.0
 40
2.0
 40
2.0
 40
2.0
 40
3.0
 40
3.0
 40
3.0
 40
4.0
 40
4.0
 40
4.0
 40
4.0
 10
124.0675315569958
 20
-134.5016782997081
 30
0.0
 10
124.0675315569958
 20
-134.4465744108325
 30
0.0
 10
124.0234343358986
 20
-134.4017716330664
 30
0.0
 10
123.967624892878
 20
-134.4017716330664
 30
0.0
 10
123.9124888579106
 20
-134.4017716330664
 30
0.0
 10
123.8677182287601
 20
-134.4465744108325
 30
0.0
 10
123.8677182287601
 20
-134.5016782997081
 30
0.0
 10
123.8677182287601
 20
-134.557523021916
 30
0.0
 10
123.9124888579106
 20
-134.6029960774601
 30
0.0
 10
123.967624892878
 20
-134.6029960774601
 30
0.0
 10
124.0234343358986
 20
-134.6029960774601
 30
0.0
 10
124.0675315569958
 20
-134.557523021916
 30
0.0
 10
124.0675315569958
 20
-134.5016782997081
 30
0.0
  0
POLYLINE
  5
84
330
1F
100
AcDbEntity
  8
_U+30EC_U+30A4_U+30E4_U+30FC 1
 62
     7
420
 16777215
370
     9
100
AcDb2dPolyline
 66
     1
 10
0.0
 20
0.0
 30
0.0
  0
VERTEX
  5
85
330
84
100
AcDbEntity
  8
_U+30EC_U+30A4_U+30E4_U+30FC 1
 62
     7
420
 16777215
370
     9
100
AcDbVertex
100
AcDb2dVertex
 10
122.5075835412378
 20
-134.5016782997081
 30
0.0
  0
VERTEX
  5
86
330
84
100
AcDbEntity
  8
_U+30EC_U+30A4_U+30E4_U+30FC 1
 62
     7
420
 16777215
370
     9
100
AcDbVertex
100
AcDb2dVertex
 10
124.9680673673545
 20
-134.5016782997081
 30
0.0
  0
SEQEND
  5
87
330
84
100
AcDbEntity
  8
_U+30EC_U+30A4_U+30E4_U+30FC 1
 62
     7
420
 16777215
370
     9
  0
INSERT
  5
89
330
1F
100
AcDbEntity
  8
_U+30EC_U+30A4_U+30E4_U+30FC 1
100
AcDbBlockReference
  2
block 6
 10
0.0
 20
0.0
 30
0.0
  0
SPLINE
  5
8E
330
1F
100
AcDbEntity
  8
_U+30EC_U+30A4_U+30E4_U+30FC 1
 62
     7
420
 16777215
370
     9
100
AcDbSpline
210
0.0
220
0.0
230
1.0
 70
    11
 71
     3
 72
    17
 73
    13
 74
     0
 42
0.0000000001
 43
0.0000000001
 12
1.0
 22
0.0
 32
0.0
 13
1.0
 23
0.0
 33
0.0
 40
0.0
 40
0.0
 40
0.0
 40
0.0
 40
1.0
 40
1.0
 40
1.0
 40
2.0
 40
2.0
 40
2.0
 40
3.0
 40
3.0
 40
3.0
 40
4.0
 40
4.0
 40
4.0
 40
4.0
 10
79.6790218561077
 20
-148.3292619073621
 30
0.0
 10
79.6790218561077
 20
-148.2741580184872
 30
0.0
 10
79.6342543572498
 20
-148.2293552407205
 30
0.0
 10
79.57911519198986
 20
-148.2293552407205
 30
0.0
 10
79.52401130450679
 20
-148.2293552407205
 30
0.0
 10
79.47920852787202
 20
-148.2741580184872
 30
0.0
 10
79.47920852787202
 20
-148.3292619073621
 30
0.0
 10
79.47920852787202
 20
-148.3850713517926
 30
0.0
 10
79.52401130450679
 20
-148.4298741295593
 30
0.0
 10
79.57911519198986
 20
-148.4298741295593
 30
0.0
 10
79.6342543572498
 20
-148.4298741295593
 30
0.0
 10
79.6790218561077
 20
-148.3850713517926
 30
0.0
 10
79.6790218561077
 20
-148.3292619073621
 30
0.0
  0
SPLINE
  5
8F
330
1F
100
AcDbEntity
  8
_U+30EC_U+30A4_U+30E4_U+30FC 1
 62
     7
420
 16777215
370
     9
100
AcDbSpline
210
0.0
220
0.0
230
1.0
 70
    11
 71
     3
 72
    17
 73
    13
 74
     0
 42
0.0000000001
 43
0.0000000001
 12
1.0
 22
0.0
 32
0.0
 13
1.0
 23
0.0
 33
0.0
 40
0.0
 40
0.0
 40
0.0
 40
0.0
 40
1.0
 40
1.0
 40
1.0
 40
2.0
 40
2.0
 40
2.0
 40
3.0
 40
3.0
 40
3.0
 40
4.0
 40
4.0
 40
4.0
 40
4.0
 10
104.6788653849752
 20
-148.3292619073621
 30
0.0
 10
104.6788653849752
 20
-148.2741580184872
 30
0.0
 10
104.6340978861173
 20
-148.2293552407205
 30
0.0
 10
104.5789587208574
 20
-148.2293552407205
 30
0.0
 10
104.5238548333743
 20
-148.2293552407205
 30
0.0
 10
104.4790520567395
 20
-148.2741580184872
 30
0.0
 10
104.4790520567395
 20
-148.3292619073621
 30
0.0
 10
104.4790520567395
 20
-148.3850713517926
 30
0.0
 10
104.5238548333743
 20
-148.4298741295593
 30
0.0
 10
104.5789587208574
 20
-148.4298741295593
 30
0.0
 10
104.6340978861173
 20
-148.4298741295593
 30
0.0
 10
104.6788653849752
 20
-148.3850713517926
 30
0.0
 10
104.6788653849752
 20
-148.3292619073621
 30
0.0
  0
POLYLINE
  5
90
330
1F
100
AcDbEntity
  8
_U+30EC_U+30A4_U+30E4_U+30FC 1
 62
     7
420
 16777215
370
     9
100
AcDb2dPolyline
 66
     1
 10
0.0
 20
0.0
 30
0.0
  0
VERTEX
  5
91
330
90
100
AcDbEntity
  8
_U+30EC_U+30A4_U+30E4_U+30FC 1
 62
     7
420
 16777215
370
     9
100
AcDbVertex
100
AcDb2dVertex
 10
79.57911519198986
 20
-148.3292619073621
 30
0.0
  0
VERTEX
  5
92
330
90
100
AcDbEntity
  8
_U+30EC_U+30A4_U+30E4_U+30FC 1
 62
     7
420
 16777215
370
     9
100
AcDbVertex
100
AcDb2dVertex
 10
104.5789587208574
 20
-148.3292619073621
 30
0.0
  0
SEQEND
  5
93
330
90
100
AcDbEntity
  8
_U+30EC_U+30A4_U+30E4_U+30FC 1
 62
     7
420
 16777215
370
     9
  0
POLYLINE
  5
94
330
1F
100
AcDbEntity
  8
_U+30EC_U+30A4_U+30E4_U+30FC 1
 62
     7
420
 16777215
370
     9
100
AcDb2dPolyline
 66
     1
 10
0.0
 20
0.0
 30
0.0
  0
VERTEX
  5
95
330
94
100
AcDbEntity
  8
_U+30EC_U+30A4_U+30E4_U+30FC 1
 62
     7
420
 16777215
370
     9
100
AcDbVertex
100
AcDb2dVertex
 10
79.57911519198986
 20
-146.9023110743853
 30
0.0
  0
VERTEX
  5
96
330
94
100
AcDbEntity
  8
_U+30EC_U+30A4_U+30E4_U+30FC 1
 62
     7
420
 16777215
370
     9
100
AcDbVertex
100
AcDb2dVertex
 10
79.57911519198986
 20
-149.3627949626595
 30
0.0
  0
SEQEND
  5
97
330
94
100
AcDbEntity
  8
_U+30EC_U+30A4_U+30E4_U+30FC 1
 62
     7
420
 16777215
370
     9
  0
POLYLINE
  5
98
330
1F
100
AcDbEntity
  8
_U+30EC_U+30A4_U+30E4_U+30FC 1
 62
     7
420
 16777215
370
     9
100
AcDb2dPolyline
 66
     1
 10
0.0
 20
0.0
 30
0.0
  0
VERTEX
  5
99
330
98
100
AcDbEntity
  8
_U+30EC_U+30A4_U+30E4_U+30FC 1
 62
     7
420
 16777215
370
     9
100
AcDbVertex
100
AcDb2dVertex
 10
104.5789587208574
 20
-146.869255796616
 30
0.0
  0
VERTEX
  5
9A
330
98
100
AcDbEntity
  8
_U+30EC_U+30A4_U+30E4_U+30FC 1
 62
     7
420
 16777215
370
     9
100
AcDbVertex
100
AcDb2dVertex
 10
104.5789587208574
 20
-149.3297396848896
 30
0.0
  0
SEQEND
  5
9B
330
98
100
AcDbEntity
  8
_U+30EC_U+30A4_U+30E4_U+30FC 1
 62
     7
420
 16777215
370
     9
  0
INSERT
  5
9D
330
1F
100
AcDbEntity
  8
_U+30EC_U+30A4_U+30E4_U+30FC 1
100
AcDbBlockReference
  2
block 7
 10
0.0
 20
0.0
 30
0.0
  0
SPLINE
  5
A4
330
1F
100
AcDbEntity
  8
_U+30EC_U+30A4_U+30E4_U+30FC 1
 62
     7
420
 16777215
370
     9
100
AcDbSpline
210
0.0
220
0.0
230
1.0
 70
    11
 71
     3
 72
    17
 73
    13
 74
     0
 42
0.0000000001
 43
0.0000000001
 12
1.0
 22
0.0
 32
0.0
 13
1.0
 23
0.0
 33
0.0
 40
0.0
 40
0.0
 40
0.0
 40
0.0
 40
1.0
 40
1.0
 40
1.0
 40
2.0
 40
2.0
 40
2.0
 40
3.0
 40
3.0
 40
3.0
 40
4.0
 40
4.0
 40
4.0
 40
4.0
 10
96.17604164262266
 20
-130.6938302451043
 30
0.0
 10
96.17604164262266
 20
-130.6387263562294
 30
0.0
 10
96.13123886485594
 20
-130.5939235784626
 30
0.0
 10
96.07613254889365
 20
-130.5939235784626
 30
0.0
 10
96.02099338363371
 20
-130.5939235784626
 30
0.0
 10
95.97622588477581
 20
-130.6387263562294
 30
0.0
 10
95.97622588477581
 20
-130.6938302451043
 30
0.0
 10
95.97622588477581
 20
-130.7496396895347
 30
0.0
 10
96.02099338363371
 20
-130.7944424673014
 30
0.0
 10
96.07613254889365
 20
-130.7944424673014
 30
0.0
 10
96.13123886485594
 20
-130.7944424673014
 30
0.0
 10
96.17604164262266
 20
-130.7496396895347
 30
0.0
 10
96.17604164262266
 20
-130.6938302451043
 30
0.0
  0
SPLINE
  5
A5
330
1F
100
AcDbEntity
  8
_U+30EC_U+30A4_U+30E4_U+30FC 1
 62
     7
420
 16777215
370
     9
100
AcDbSpline
210
0.0
220
0.0
230
1.0
 70
    11
 71
     3
 72
    17
 73
    13
 74
     0
 42
0.0000000001
 43
0.0000000001
 12
1.0
 22
0.0
 32
0.0
 13
1.0
 23
0.0
 33
0.0
 40
0.0
 40
0.0
 40
0.0
 40
0.0
 40
1.0
 40
1.0
 40
1.0
 40
2.0
 40
2.0
 40
2.0
 40
3.0
 40
3.0
 40
3.0
 40
4.0
 40
4.0
 40
4.0
 40
4.0
 10
121.1757063529946
 20
-130.6938302451043
 30
0.0
 10
121.1757063529946
 20
-130.6387263562294
 30
0.0
 10
121.1309388541367
 20
-130.5939235784626
 30
0.0
 10
121.0758027475089
 20
-130.5939235784626
 30
0.0
 10
121.0206958013937
 20
-130.5939235784626
 30
0.0
 10
120.975893024759
 20
-130.6387263562294
 30
0.0
 10
120.975893024759
 20
-130.6938302451043
 30
0.0
 10
120.975893024759
 20
-130.7496396895347
 30
0.0
 10
121.0206958013937
 20
-130.7944424673014
 30
0.0
 10
121.0758027475089
 20
-130.7944424673014
 30
0.0
 10
121.1309388541367
 20
-130.7944424673014
 30
0.0
 10
121.1757063529946
 20
-130.7496396895347
 30
0.0
 10
121.1757063529946
 20
-130.6938302451043
 30
0.0
  0
POLYLINE
  5
A6
330
1F
100
AcDbEntity
  8
_U+30EC_U+30A4_U+30E4_U+30FC 1
 62
     7
420
 16777215
370
     9
100
AcDb2dPolyline
 66
     1
 10
0.0
 20
0.0
 30
0.0
  0
VERTEX
  5
A7
330
A6
100
AcDbEntity
  8
_U+30EC_U+30A4_U+30E4_U+30FC 1
 62
     7
420
 16777215
370
     9
100
AcDbVertex
100
AcDb2dVertex
 10
96.07613254889365
 20
-130.6938302451043
 30
0.0
  0
VERTEX
  5
A8
330
A6
100
AcDbEntity
  8
_U+30EC_U+30A4_U+30E4_U+30FC 1
 62
     7
420
 16777215
370
     9
100
AcDbVertex
100
AcDb2dVertex
 10
121.0758027475089
 20
-130.6938302451043
 30
0.0
  0
SEQEND
  5
A9
330
A6
100
AcDbEntity
  8
_U+30EC_U+30A4_U+30E4_U+30FC 1
 62
     7
420
 16777215
370
     9
  0
POLYLINE
  5
AA
330
1F
100
AcDbEntity
  8
_U+30EC_U+30A4_U+30E4_U+30FC 1
 62
     7
420
 16777215
370
     9
100
AcDb2dPolyline
 66
     1
 10
0.0
 20
0.0
 30
0.0
  0
VERTEX
  5
AB
330
AA
100
AcDbEntity
  8
_U+30EC_U+30A4_U+30E4_U+30FC 1
 62
     7
420
 16777215
370
     9
100
AcDbVertex
100
AcDb2dVertex
 10
96.07613254889365
 20
-129.5572860787217
 30
0.0
  0
VERTEX
  5
AC
330
AA
100
AcDbEntity
  8
_U+30EC_U+30A4_U+30E4_U+30FC 1
 62
     7
420
 16777215
370
     9
100
AcDbVertex
100
AcDb2dVertex
 10
96.07613254889365
 20
-132.0177699669953
 30
0.0
  0
SEQEND
  5
AD
330
AA
100
AcDbEntity
  8
_U+30EC_U+30A4_U+30E4_U+30FC 1
 62
     7
420
 16777215
370
     9
  0
POLYLINE
  5
AE
330
1F
100
AcDbEntity
  8
_U+30EC_U+30A4_U+30E4_U+30FC 1
 62
     7
420
 16777215
370
     9
100
AcDb2dPolyline
 66
     1
 10
0.0
 20
0.0
 30
0.0
  0
VERTEX
  5
AF
330
AE
100
AcDbEntity
  8
_U+30EC_U+30A4_U+30E4_U+30FC 1
 62
     7
420
 16777215
370
     9
100
AcDbVertex
100
AcDb2dVertex
 10
121.0758027475089
 20
-129.5572860787217
 30
0.0
  0
VERTEX
  5
B0
330
AE
100
AcDbEntity
  8
_U+30EC_U+30A4_U+30E4_U+30FC 1
 62
     7
420
 16777215
370
     9
100
AcDbVertex
100
AcDb2dVertex
 10
121.0758027475089
 20
-132.0177699669953
 30
0.0
  0
SEQEND
  5
B1
330
AE
100
AcDbEntity
  8
_U+30EC_U+30A4_U+30E4_U+30FC 1
 62
     7
420
 16777215
370
     9
  0
INSERT
  5
B3
330
1F
100
AcDbEntity
  8
_U+30EC_U+30A4_U+30E4_U+30FC 1
100
AcDbBlockReference
  2
block 8
 10
0.0
 20
0.0
 30
0.0
  0
POLYLINE
  5
BA
330
1F
100
AcDbEntity
  8
_U+30EC_U+30A4_U+30E4_U+30FC 1
 62
     7
420
 16777215
370
    25
100
AcDb2dPolyline
 66
     1
 10
0.0
 20
0.0
 30
0.0
  0
VERTEX
  5
BB
330
BA
100
AcDbEntity
  8
_U+30EC_U+30A4_U+30E4_U+30FC 1
 62
     7
420
 16777215
370
    25
100
AcDbVertex
100
AcDb2dVertex
 10
79.57893880310546
 20
-144.0022307973326
 30
0.0
  0
VERTEX
  5
BC
330
BA
100
AcDbEntity
  8
_U+30EC_U+30A4_U+30E4_U+30FC 1
 62
     7
420
 16777215
370
    25
100
AcDbVertex
100
AcDb2dVertex
 10
62.60874062494018
 20
-127.0320321904642
 30
0.0
  0
VERTEX
  5
BD
330
BA
100
AcDbEntity
  8
_U+30EC_U+30A4_U+30E4_U+30FC 1
 62
     7
420
 16777215
370
    25
100
AcDbVertex
100
AcDb2dVertex
 10
61.90163286520222
 20
-126.3247480239744
 30
0.0
  0
VERTEX
  5
BE
330
BA
100
AcDbEntity
  8
_U+30EC_U+30A4_U+30E4_U+30FC 1
 62
     7
420
 16777215
370
    25
100
AcDbVertex
100
AcDb2dVertex
 10
62.60891701382457
 20
-125.6174991352624
 30
0.0
  0
VERTEX
  5
BF
330
BA
100
AcDbEntity
  8
_U+30EC_U+30A4_U+30E4_U+30FC 1
 62
     7
420
 16777215
370
    25
100
AcDbVertex
100
AcDb2dVertex
 10
64.02295614441609
 20
-124.2036010800602
 30
0.0
  0
VERTEX
  5
C0
330
BA
100
AcDbEntity
  8
_U+30EC_U+30A4_U+30E4_U+30FC 1
 62
     7
420
 16777215
370
    25
100
AcDbVertex
100
AcDb2dVertex
 10
64.73006390415405
 20
-124.9105324687725
 30
0.0
  0
VERTEX
  5
C1
330
BA
100
AcDbEntity
  8
_U+30EC_U+30A4_U+30E4_U+30FC 1
 62
     7
420
 16777215
370
    25
100
AcDbVertex
100
AcDb2dVertex
 10
63.31602477356252
 20
-126.3244305239745
 30
0.0
  0
VERTEX
  5
C2
330
BA
100
AcDbEntity
  8
_U+30EC_U+30A4_U+30E4_U+30FC 1
 62
     7
420
 16777215
370
    25
100
AcDbVertex
100
AcDb2dVertex
 10
67.91264854518177
 20
-130.9211955228253
 30
0.0
  0
VERTEX
  5
C3
330
BA
100
AcDbEntity
  8
_U+30EC_U+30A4_U+30E4_U+30FC 1
 62
     7
420
 16777215
370
    25
100
AcDbVertex
100
AcDb2dVertex
 10
73.92313505850815
 20
-124.9105324687725
 30
0.0
  0
VERTEX
  5
C4
330
BA
100
AcDbEntity
  8
_U+30EC_U+30A4_U+30E4_U+30FC 1
 62
     7
420
 16777215
370
    25
100
AcDbVertex
100
AcDb2dVertex
 10
56.95156104704463
 20
-107.9393108063484
 30
0.0
  0
VERTEX
  5
C5
330
BA
100
AcDbEntity
  8
_U+30EC_U+30A4_U+30E4_U+30FC 1
 62
     7
420
 16777215
370
    25
100
AcDbVertex
100
AcDb2dVertex
 10
57.65866880678259
 20
-107.2320266398586
 30
0.0
  0
VERTEX
  5
C6
330
BA
100
AcDbEntity
  8
_U+30EC_U+30A4_U+30E4_U+30FC 1
 62
     7
420
 16777215
370
    25
100
AcDbVertex
100
AcDb2dVertex
 10
74.6302428182461
 20
-124.2036010800602
 30
0.0
  0
VERTEX
  5
C7
330
BA
100
AcDbEntity
  8
_U+30EC_U+30A4_U+30E4_U+30FC 1
 62
     7
420
 16777215
370
    25
100
AcDbVertex
100
AcDb2dVertex
 10
75.33717418909967
 20
-124.9105324687725
 30
0.0
  0
VERTEX
  5
C8
330
BA
100
AcDbEntity
  8
_U+30EC_U+30A4_U+30E4_U+30FC 1
 62
     7
420
 16777215
370
    25
100
AcDbVertex
100
AcDb2dVertex
 10
74.63006642936172
 20
-125.6174991352624
 30
0.0
  0
VERTEX
  5
C9
330
BA
100
AcDbEntity
  8
_U+30EC_U+30A4_U+30E4_U+30FC 1
 62
     7
420
 16777215
370
    25
100
AcDbVertex
100
AcDb2dVertex
 10
68.61957991603533
 20
-131.6281269115374
 30
0.0
  0
VERTEX
  5
CA
330
BA
100
AcDbEntity
  8
_U+30EC_U+30A4_U+30E4_U+30FC 1
 62
     7
420
 16777215
370
    25
100
AcDbVertex
100
AcDb2dVertex
 10
79.99373490363425
 20
-143.0021410753604
 30
0.0
  0
VERTEX
  5
CB
330
BA
100
AcDbEntity
  8
_U+30EC_U+30A4_U+30E4_U+30FC 1
 62
     7
420
 16777215
370
    25
100
AcDbVertex
100
AcDb2dVertex
 10
79.9916555355575
 20
-143.0021410753604
 30
0.0
  0
VERTEX
  5
CC
330
BA
100
AcDbEntity
  8
_U+30EC_U+30A4_U+30E4_U+30FC 1
 62
     7
420
 16777215
370
    25
100
AcDbVertex
100
AcDb2dVertex
 10
96.07613254889365
 20
-143.0021410753604
 30
0.0
  0
VERTEX
  5
CD
330
BA
100
AcDbEntity
  8
_U+30EC_U+30A4_U+30E4_U+30FC 1
 62
     7
420
 16777215
370
    25
100
AcDbVertex
100
AcDb2dVertex
 10
96.07613254889365
 20
-134.5020310774858
 30
0.0
  0
VERTEX
  5
CE
330
BA
100
AcDbEntity
  8
_U+30EC_U+30A4_U+30E4_U+30FC 1
 62
     7
420
 16777215
370
    25
100
AcDbVertex
100
AcDb2dVertex
 10
96.07613254889365
 20
-133.5019413555137
 30
0.0
  0
VERTEX
  5
CF
330
BA
100
AcDbEntity
  8
_U+30EC_U+30A4_U+30E4_U+30FC 1
 62
     7
420
 16777215
370
    25
100
AcDbVertex
100
AcDb2dVertex
 10
97.07625752337835
 20
-133.5019413555137
 30
0.0
  0
VERTEX
  5
D0
330
BA
100
AcDbEntity
  8
_U+30EC_U+30A4_U+30E4_U+30FC 1
 62
     7
420
 16777215
370
    25
100
AcDbVertex
100
AcDb2dVertex
 10
121.0778810777126
 20
-133.5019413555137
 30
0.0
  0
VERTEX
  5
D1
330
BA
100
AcDbEntity
  8
_U+30EC_U+30A4_U+30E4_U+30FC 1
 62
     7
420
 16777215
370
    25
100
AcDbVertex
100
AcDb2dVertex
 10
121.0778810777126
 20
-134.5020310774858
 30
0.0
  0
VERTEX
  5
D2
330
BA
100
AcDbEntity
  8
_U+30EC_U+30A4_U+30E4_U+30FC 1
 62
     7
420
 16777215
370
    25
100
AcDbVertex
100
AcDb2dVertex
 10
97.07625752337835
 20
-134.5020310774858
 30
0.0
  0
VERTEX
  5
D3
330
BA
100
AcDbEntity
  8
_U+30EC_U+30A4_U+30E4_U+30FC 1
 62
     7
420
 16777215
370
    25
100
AcDbVertex
100
AcDb2dVertex
 10
97.07625752337835
 20
-143.0021410753604
 30
0.0
  0
VERTEX
  5
D4
330
BA
100
AcDbEntity
  8
_U+30EC_U+30A4_U+30E4_U+30FC 1
 62
     7
420
 16777215
370
    25
100
AcDbVertex
100
AcDb2dVertex
 10
103.5767876353138
 20
-143.0021410753604
 30
0.0
  0
VERTEX
  5
D5
330
BA
100
AcDbEntity
  8
_U+30EC_U+30A4_U+30E4_U+30FC 1
 62
     7
420
 16777215
370
    25
100
AcDbVertex
100
AcDb2dVertex
 10
103.5767876353138
 20
-141.0022438536382
 30
0.0
  0
VERTEX
  5
D6
330
BA
100
AcDbEntity
  8
_U+30EC_U+30A4_U+30E4_U+30FC 1
 62
     7
420
 16777215
370
    25
100
AcDbVertex
100
AcDb2dVertex
 10
104.5765598320297
 20
-141.0022438536382
 30
0.0
  0
VERTEX
  5
D7
330
BA
100
AcDbEntity
  8
_U+30EC_U+30A4_U+30E4_U+30FC 1
 62
     7
420
 16777215
370
    25
100
AcDbVertex
100
AcDb2dVertex
 10
104.5765598320297
 20
-143.0021410753604
 30
0.0
  0
VERTEX
  5
D8
330
BA
100
AcDbEntity
  8
_U+30EC_U+30A4_U+30E4_U+30FC 1
 62
     7
420
 16777215
370
    25
100
AcDbVertex
100
AcDb2dVertex
 10
104.5765598320297
 20
-144.0022307973326
 30
0.0
  0
VERTEX
  5
D9
330
BA
100
AcDbEntity
  8
_U+30EC_U+30A4_U+30E4_U+30FC 1
 62
     7
420
 16777215
370
    25
100
AcDbVertex
100
AcDb2dVertex
 10
103.5767876353138
 20
-144.0022307973326
 30
0.0
  0
VERTEX
  5
DA
330
BA
100
AcDbEntity
  8
_U+30EC_U+30A4_U+30E4_U+30FC 1
 62
     7
420
 16777215
370
    25
100
AcDbVertex
100
AcDb2dVertex
 10
79.57893880310546
 20
-144.0022307973326
 30
0.0
  0
SEQEND
  5
DC
330
BA
100
AcDbEntity
  8
_U+30EC_U+30A4_U+30E4_U+30FC 1
 62
     7
420
 16777215
370
    25
  0
HATCH
  5
DB
330
1F
100
AcDbEntity
  8
_U+30EC_U+30A4_U+30E4_U+30FC 1
 62
   253
420
 11711154
100
AcDbHatch
 10
0.0
 20
0.0
 30
0.0
210
0.0
220
0.0
230
1.0
  2
SOLID
 70
     1
 71
     0
 91
        1
 92
        1
 93
       31
 72
     1
 10
79.57893880310546
 20
-144.0022307973326
 11
62.60874062494018
 21
-127.0320321904642
 72
     1
 10
62.60874062494018
 20
-127.0320321904642
 11
61.90163286520222
 21
-126.3247480239744
 72
     1
 10
61.90163286520222
 20
-126.3247480239744
 11
62.60891701382457
 21
-125.6174991352624
 72
     1
 10
62.60891701382457
 20
-125.6174991352624
 11
64.02295614441609
 21
-124.2036010800602
 72
     1
 10
64.02295614441609
 20
-124.2036010800602
 11
64.73006390415405
 21
-124.9105324687725
 72
     1
 10
64.73006390415405
 20
-124.9105324687725
 11
63.31602477356252
 21
-126.3244305239745
 72
     1
 10
63.31602477356252
 20
-126.3244305239745
 11
67.91264854518177
 21
-130.9211955228253
 72
     1
 10
67.91264854518177
 20
-130.9211955228253
 11
73.92313505850815
 21
-124.9105324687725
 72
     1
 10
73.92313505850815
 20
-124.9105324687725
 11
56.95156104704463
 21
-107.9393108063484
 72
     1
 10
56.95156104704463
 20
-107.9393108063484
 11
57.65866880678259
 21
-107.2320266398586
 72
     1
 10
57.65866880678259
 20
-107.2320266398586
 11
74.6302428182461
 21
-124.2036010800602
 72
     1
 10
74.6302428182461
 20
-124.2036010800602
 11
75.33717418909967
 21
-124.9105324687725
 72
     1
 10
75.33717418909967
 20
-124.9105324687725
 11
74.63006642936172
 21
-125.6174991352624
 72
     1
 10
74.63006642936172
 20
-125.6174991352624
 11
68.61957991603533
 21
-131.6281269115374
 72
     1
 10
68.61957991603533
 20
-131.6281269115374
 11
79.99373490363425
 21
-143.0021410753604
 72
     1
 10
79.99373490363425
 20
-143.0021410753604
 11
79.9916555355575
 21
-143.0021410753604
 72
     1
 10
79.9916555355575
 20
-143.0021410753604
 11
96.07613254889365
 21
-143.0021410753604
 72
     1
 10
96.07613254889365
 20
-143.0021410753604
 11
96.07613254889365
 21
-134.5020310774858
 72
     1
 10
96.07613254889365
 20
-134.5020310774858
 11
96.07613254889365
 21
-133.5019413555137
 72
     1
 10
96.07613254889365
 20
-133.5019413555137
 11
97.07625752337835
 21
-133.5019413555137
 72
     1
 10
97.07625752337835
 20
-133.5019413555137
 11
121.0778810777126
 21
-133.5019413555137
 72
     1
 10
121.0778810777126
 20
-133.5019413555137
 11
121.0778810777126
 21
-134.5020310774858
 72
     1
 10
121.0778810777126
 20
-134.5020310774858
 11
97.07625752337835
 21
-134.5020310774858
 72
     1
 10
97.07625752337835
 20
-134.5020310774858
 11
97.07625752337835
 21
-143.0021410753604
 72
     1
 10
97.07625752337835
 20
-143.0021410753604
 11
103.5767876353138
 21
-143.0021410753604
 72
     1
 10
103.5767876353138
 20
-143.0021410753604
 11
103.5767876353138
 21
-141.0022438536382
 72
     1
 10
103.5767876353138
 20
-141.0022438536382
 11
104.5765598320297
 21
-141.0022438536382
 72
     1
 10
104.5765598320297
 20
-141.0022438536382
 11
104.5765598320297
 21
-143.0021410753604
 72
     1
 10
104.5765598320297
 20
-143.0021410753604
 11
104.5765598320297
 21
-144.0022307973326
 72
     1
 10
104.5765598320297
 20
-144.0022307973326
 11
103.5767876353138
 21
-144.0022307973326
 72
     1
 10
103.5767876353138
 20
-144.0022307973326
 11
79.57893880310546
 21
-144.0022307973326
 97
        0
 75
     2
 76
     1
 98
        0
  0
ENDSEC
  0
SECTION
  2
OBJECTS
  0
DICTIONARY
  5
C
330
0
100
AcDbDictionary
281
     1
  3
ACAD_GROUP
350
D
  3
ACAD_LAYOUT
350
1A
  3
ACAD_MATERIAL
350
3B
  3
ACAD_MLEADERSTYLE
350
DE
  3
ACAD_MLINESTYLE
350
17
  3
ACAD_PLOTSETTINGS
350
19
  3
ACAD_PLOTSTYLENAME
350
E
  3
ACAD_TABLESTYLE
350
DD
  3
ACAD_VISUALSTYLE
350
2A
  0
SUN
  5
3F
330
29
100
AcDbSun
 90
        1
290
     0
 63
     7
421
 16777215
 40
1.0
291
     1
 91
  2455826
 92
 54000000
292
     0
 70
     2
 71
   256
280
     1
  0
DICTIONARY
  5
D
102
{ACAD_REACTORS
330
C
102
}
330
C
100
AcDbDictionary
281
     1
  0
DICTIONARY
  5
1A
102
{ACAD_REACTORS
330
C
102
}
330
C
100
AcDbDictionary
281
     1
  3
Layout1
350
1E
  3
Layout2
350
26
  3
Model
350
22
  0
DICTIONARY
  5
3B
102
{ACAD_REACTORS
330
C
102
}
330
C
100
AcDbDictionary
281
     1
  3
ByBlock
350
3D
  3
ByLayer
350
3C
  3
Global
350
3E
  0
DICTIONARY
  5
DE
102
{ACAD_REACTORS
330
C
102
}
330
C
100
AcDbDictionary
281
     1
  0
DICTIONARY
  5
17
102
{ACAD_REACTORS
330
C
102
}
330
C
100
AcDbDictionary
281
     1
  3
Standard
350
18
  0
DICTIONARY
  5
19
102
{ACAD_REACTORS
330
C
102
}
330
C
100
AcDbDictionary
281
     1
  0
ACDBDICTIONARYWDFLT
  5
E
102
{ACAD_REACTORS
330
C
102
}
330
C
100
AcDbDictionary
281
     1
  3
Normal
350
F
100
AcDbDictionaryWithDefault
340
F
  0
DICTIONARY
  5
DD
102
{ACAD_REACTORS
330
C
102
}
330
C
100
AcDbDictionary
281
     1
  0
DICTIONARY
  5
2A
102
{ACAD_REACTORS
330
C
102
}
330
C
100
AcDbDictionary
281
     1
  3
2dWireframe
350
2F
  3
3D Hidden
350
31
  3
3dWireframe
350
30
  3
Basic
350
32
  3
Brighten
350
36
  3
ColorChange
350
3A
  3
Conceptual
350
34
  3
Dim
350
35
  3
Facepattern
350
39
  3
Flat
350
2B
  3
FlatWithEdges
350
2C
  3
Gouraud
350
2D
  3
GouraudWithEdges
350
2E
  3
Linepattern
350
38
  3
Realistic
350
33
  3
Thicken
350
37
  0
LAYOUT
  5
1E
102
{ACAD_REACTORS
330
1A
102
}
330
1A
100
AcDbPlotSettings
  1

  2
none_device
  4

  6

 40
0.0
 41
0.0
 42
0.0
 43
0.0
 44
0.0
 45
0.0
 46
0.0
 47
0.0
 48
0.0
 49
0.0
140
0.0
141
0.0
142
1.0
143
1.0
 70
   688
 72
     0
 73
     0
 74
     5
  7

 75
    16
 76
     0
 77
     2
 78
   300
147
1.0
148
0.0
149
0.0
100
AcDbLayout
  1
Layout1
 70
     1
 71
     1
 10
0.0
 20
0.0
 11
12.0
 21
9.0
 12
0.0
 22
0.0
 32
0.0
 14
1.000000000000000E+20
 24
1.000000000000000E+20
 34
1.000000000000000E+20
 15
-1.000000000000000E+20
 25
-1.000000000000000E+20
 35
-1.000000000000000E+20
146
0.0
 13
0.0
 23
0.0
 33
0.0
 16
1.0
 26
0.0
 36
0.0
 17
0.0
 27
1.0
 37
0.0
 76
     0
330
1B
  0
LAYOUT
  5
26
102
{ACAD_REACTORS
330
1A
102
}
330
1A
100
AcDbPlotSettings
  1

  2
none_device
  4

  6

 40
0.0
 41
0.0
 42
0.0
 43
0.0
 44
0.0
 45
0.0
 46
0.0
 47
0.0
 48
0.0
 49
0.0
140
0.0
141
0.0
142
1.0
143
1.0
 70
   688
 72
     0
 73
     0
 74
     5
  7

 75
    16
 76
     0
 77
     2
 78
   300
147
1.0
148
0.0
149
0.0
100
AcDbLayout
  1
Layout2
 70
     1
 71
     2
 10
0.0
 20
0.0
 11
0.0
 21
0.0
 12
0.0
 22
0.0
 32
0.0
 14
0.0
 24
0.0
 34
0.0
 15
0.0
 25
0.0
 35
0.0
146
0.0
 13
0.0
 23
0.0
 33
0.0
 16
1.0
 26
0.0
 36
0.0
 17
0.0
 27
1.0
 37
0.0
 76
     0
330
23
  0
LAYOUT
  5
22
102
{ACAD_REACTORS
330
1A
102
}
330
1A
100
AcDbPlotSettings
  1

  2
none_device
  4

  6

 40
0.0
 41
0.0
 42
0.0
 43
0.0
 44
0.0
 45
0.0
 46
0.0
 47
0.0
 48
0.0
 49
0.0
140
0.0
141
0.0
142
1.0
143
1.0
 70
  1712
 72
     0
 73
     0
 74
     0
  7

 75
     0
 76
     0
 77
     2
 78
   300
147
1.0
148
0.0
149
0.0
100
AcDbLayout
  1
Model
 70
     1
 71
     0
 10
0.0
 20
0.0
 11
12.0
 21
9.0
 12
0.0
 22
0.0
 32
0.0
 14
1.000000000000000E+20
 24
1.000000000000000E+20
 34
1.000000000000000E+20
 15
-1.000000000000000E+20
 25
-1.000000000000000E+20
 35
-1.000000000000000E+20
146
0.0
 13
0.0
 23
0.0
 33
0.0
 16
1.0
 26
0.0
 36
0.0
 17
0.0
 27
1.0
 37
0.0
 76
     0
330
1F
331
29
  0
MATERIAL
  5
3D
102
{ACAD_REACTORS
330
3B
102
}
330
3B
100
AcDbMaterial
  1
ByBlock
 72
     1
 94
      127
  0
MATERIAL
  5
3C
102
{ACAD_REACTORS
330
3B
102
}
330
3B
100
AcDbMaterial
  1
ByLayer
 72
     1
 94
      127
  0
MATERIAL
  5
3E
102
{ACAD_REACTORS
330
3B
102
}
330
3B
100
AcDbMaterial
  1
Global
 72
     1
 94
      127
  0
MLINESTYLE
  5
18
102
{ACAD_REACTORS
330
17
102
}
330
17
100
AcDbMlineStyle
  2
Standard
 70
     0
  3

 62
   256
 51
90.0
 52
90.0
 71
     2
 49
0.5
 62
   256
  6
BYLAYER
 49
-0.5
 62
   256
  6
BYLAYER
  0
ACDBPLACEHOLDER
  5
F
102
{ACAD_REACTORS
330
E
102
}
330
E
  0
VISUALSTYLE
  5
2F
102
{ACAD_REACTORS
330
2A
102
}
330
2A
100
AcDbVisualStyle
  2
2dWireframe
 70
     4
177
     2
291
     0
 71
     0
176
     1
 72
     2
176
     1
 73
     0
176
     1
 90
        0
176
     1
 40
-0.6
176
     1
 41
-30.0
176
     1
 62
     5
 63
     7
421
 16777215
176
     1
 74
     1
176
     1
 91
        4
176
     1
 64
     7
176
     1
 65
   257
176
     1
 75
     1
176
     1
175
     1
176
     1
 42
1.0
176
     1
 92
        0
176
     1
 66
   257
176
     1
 43
1.0
176
     1
 76
     1
176
     1
 77
     6
176
     1
 78
     2
176
     1
 67
     7
176
     1
 79
     5
176
     1
170
     0
176
     1
171
     0
176
     1
290
     0
176
     1
 93
        1
176
     1
 44
0.0
176
     1
173
     0
176
     1
  0
VISUALSTYLE
  5
31
102
{ACAD_REACTORS
330
2A
102
}
330
2A
100
AcDbVisualStyle
  2
3D Hidden
 70
     6
177
     2
291
     0
 71
     1
176
     1
 72
     2
176
     1
 73
     2
176
     1
 90
        0
176
     1
 40
-0.6
176
     1
 41
-30.0
176
     1
 62
     5
 63
     7
421
 16777215
176
     1
 74
     2
176
     1
 91
        2
176
     1
 64
     7
176
     1
 65
   257
176
     1
 75
     2
176
     1
175
     1
176
     1
 42
40.0
176
     1
 92
        0
176
     1
 66
   257
176
     1
 43
1.0
176
     1
 76
     1
176
     1
 77
     6
176
     1
 78
     2
176
     1
 67
     7
176
     1
 79
     3
176
     1
170
     0
176
     1
171
     0
176
     1
290
     0
176
     1
 93
        1
176
     1
 44
0.0
176
     1
173
     0
176
     1
  0
VISUALSTYLE
  5
30
102
{ACAD_REACTORS
330
2A
102
}
330
2A
100
AcDbVisualStyle
  2
3dWireframe
 70
     5
177
     2
291
     0
 71
     0
176
     1
 72
     2
176
     1
 73
     0
176
     1
 90
        0
176
     1
 40
-0.6
176
     1
 41
-30.0
176
     1
 62
     5
 63
     7
421
 16777215
176
     1
 74
     1
176
     1
 91
        4
176
     1
 64
     7
176
     1
 65
   257
176
     1
 75
     1
176
     1
175
     1
176
     1
 42
1.0
176
     1
 92
        0
176
     1
 66
   257
176
     1
 43
1.0
176
     1
 76
     1
176
     1
 77
     6
176
     1
 78
     2
176
     1
 67
     7
176
     1
 79
     5
176
     1
170
     0
176
     1
171
     0
176
     1
290
     0
176
     1
 93
        1
176
     1
 44
0.0
176
     1
173
     0
176
     1
  0
VISUALSTYLE
  5
32
102
{ACAD_REACTORS
330
2A
102
}
330
2A
100
AcDbVisualStyle
  2
Basic
 70
     7
177
     2
291
     1
 71
     1
176
     1
 72
     0
176
     1
 73
     1
176
     1
 90
        0
176
     1
 40
-0.6
176
     1
 41
-30.0
176
     1
 62
     5
 63
     7
421
 16777215
176
     1
 74
     0
176
     1
 91
        4
176
     1
 64
     7
176
     1
 65
   257
176
     1
 75
     1
176
     1
175
     1
176
     1
 42
1.0
176
     1
 92
        8
176
     1
 66
     7
176
     1
 43
1.0
176
     1
 76
     1
176
     1
 77
     6
176
     1
 78
     2
176
     1
 67
     7
176
     1
 79
     5
176
     1
170
     0
176
     1
171
     0
176
     1
290
     0
176
     1
 93
        1
176
     1
 44
0.0
176
     1
173
     0
176
     1
  0
VISUALSTYLE
  5
36
102
{ACAD_REACTORS
330
2A
102
}
330
2A
100
AcDbVisualStyle
  2
Brighten
 70
    12
177
     2
291
     1
 71
     2
176
     1
 72
     2
176
     1
 73
     0
176
     1
 90
        0
176
     1
 40
-0.6
176
     1
 41
-30.0
176
     1
 62
     5
 63
     7
421
 16777215
176
     1
 74
     1
176
     1
 91
        4
176
     1
 64
     7
176
     1
 65
   257
176
     1
 75
     1
176
     1
175
     1
176
     1
 42
1.0
176
     1
 92
        8
176
     1
 66
     7
176
     1
 43
1.0
176
     1
 76
     1
176
     1
 77
     6
176
     1
 78
     2
176
     1
 67
     7
176
     1
 79
     5
176
     1
170
     0
176
     1
171
     0
176
     1
290
     0
176
     1
 93
        1
176
     1
 44
50.0
176
     1
173
     0
176
     1
  0
VISUALSTYLE
  5
3A
102
{ACAD_REACTORS
330
2A
102
}
330
2A
100
AcDbVisualStyle
  2
ColorChange
 70
    16
177
     2
291
     1
 71
     2
176
     1
 72
     2
176
     1
 73
     3
176
     1
 90
        0
176
     1
 40
-0.6
176
     1
 41
-30.0
176
     1
 62
     5
 63
     8
421
  8421504
176
     1
 74
     1
176
     1
 91
        4
176
     1
 64
     7
176
     1
 65
   257
176
     1
 75
     1
176
     1
175
     1
176
     1
 42
1.0
176
     1
 92
        8
176
     1
 66
     8
424
  8421504
176
     1
 43
1.0
176
     1
 76
     1
176
     1
 77
     6
176
     1
 78
     2
176
     1
 67
     7
176
     1
 79
     5
176
     1
170
     0
176
     1
171
     0
176
     1
290
     0
176
     1
 93
        1
176
     1
 44
0.0
176
     1
173
     0
176
     1
  0
VISUALSTYLE
  5
34
102
{ACAD_REACTORS
330
2A
102
}
330
2A
100
AcDbVisualStyle
  2
Conceptual
 70
     9
177
     2
291
     0
 71
     3
176
     1
 72
     2
176
     1
 73
     0
176
     1
 90
        0
176
     1
 40
-0.6
176
     1
 41
-30.0
176
     1
 62
     5
 63
     7
421
 16777215
176
     1
 74
     2
176
     1
 91
        2
176
     1
 64
     7
176
     1
 65
   257
176
     1
 75
     1
176
     1
175
     1
176
     1
 42
40.0
176
     1
 92
        8
176
     1
 66
     7
176
     1
 43
1.0
176
     1
 76
     1
176
     1
 77
     6
176
     1
 78
     2
176
     1
 67
     7
176
     1
 79
     3
176
     1
170
     0
176
     1
171
     0
176
     1
290
     0
176
     1
 93
        1
176
     1
 44
0.0
176
     1
173
     0
176
     1
  0
VISUALSTYLE
  5
35
102
{ACAD_REACTORS
330
2A
102
}
330
2A
100
AcDbVisualStyle
  2
Dim
 70
    11
177
     2
291
     1
 71
     2
176
     1
 72
     2
176
     1
 73
     0
176
     1
 90
        0
176
     1
 40
-0.6
176
     1
 41
-30.0
176
     1
 62
     5
 63
     7
421
 16777215
176
     1
 74
     1
176
     1
 91
        4
176
     1
 64
     7
176
     1
 65
   257
176
     1
 75
     1
176
     1
175
     1
176
     1
 42
1.0
176
     1
 92
        8
176
     1
 66
     7
176
     1
 43
1.0
176
     1
 76
     1
176
     1
 77
     6
176
     1
 78
     2
176
     1
 67
     7
176
     1
 79
     5
176
     1
170
     0
176
     1
171
     0
176
     1
290
     0
176
     1
 93
        1
176
     1
 44
-50.0
176
     1
173
     0
176
     1
  0
VISUALSTYLE
  5
39
102
{ACAD_REACTORS
330
2A
102
}
330
2A
100
AcDbVisualStyle
  2
Facepattern
 70
    15
177
     2
291
     1
 71
     2
176
     1
 72
     2
176
     1
 73
     0
176
     1
 90
        0
176
     1
 40
-0.6
176
     1
 41
-30.0
176
     1
 62
     5
 63
     7
421
 16777215
176
     1
 74
     1
176
     1
 91
        4
176
     1
 64
     7
176
     1
 65
   257
176
     1
 75
     1
176
     1
175
     1
176
     1
 42
1.0
176
     1
 92
        8
176
     1
 66
     7
176
     1
 43
1.0
176
     1
 76
     1
176
     1
 77
     6
176
     1
 78
     2
176
     1
 67
     7
176
     1
 79
     5
176
     1
170
     0
176
     1
171
     0
176
     1
290
     0
176
     1
 93
        1
176
     1
 44
0.0
176
     1
173
     0
176
     1
  0
VISUALSTYLE
  5
2B
102
{ACAD_REACTORS
330
2A
102
}
330
2A
100
AcDbVisualStyle
  2
Flat
 70
     0
177
     2
291
     1
 71
     2
176
     1
 72
     1
176
     1
 73
     1
176
     1
 90
        2
176
     1
 40
-0.6
176
     1
 41
30.0
176
     1
 62
     5
 63
     7
421
 16777215
176
     1
 74
     0
176
     1
 91
        4
176
     1
 64
     7
176
     1
 65
   257
176
     1
 75
     1
176
     1
175
     1
176
     1
 42
1.0
176
     1
 92
        8
176
     1
 66
     7
176
     1
 43
1.0
176
     1
 76
     1
176
     1
 77
     6
176
     1
 78
     2
176
     1
 67
     7
176
     1
 79
     5
176
     1
170
     0
176
     1
171
     0
176
     1
290
     0
176
     1
 93
       13
176
     1
 44
0.0
176
     1
173
     0
176
     1
  0
VISUALSTYLE
  5
2C
102
{ACAD_REACTORS
330
2A
102
}
330
2A
100
AcDbVisualStyle
  2
FlatWithEdges
 70
     1
177
     2
291
     1
 71
     2
176
     1
 72
     1
176
     1
 73
     1
176
     1
 90
        2
176
     1
 40
-0.6
176
     1
 41
30.0
176
     1
 62
     5
 63
     7
421
 16777215
176
     1
 74
     1
176
     1
 91
        4
176
     1
 64
     7
176
     1
 65
   257
176
     1
 75
     1
176
     1
175
     1
176
     1
 42
1.0
176
     1
 92
        0
176
     1
 66
   257
176
     1
 43
1.0
176
     1
 76
     1
176
     1
 77
     6
176
     1
 78
     2
176
     1
 67
     7
176
     1
 79
     5
176
     1
170
     0
176
     1
171
     0
176
     1
290
     0
176
     1
 93
       13
176
     1
 44
0.0
176
     1
173
     0
176
     1
  0
VISUALSTYLE
  5
2D
102
{ACAD_REACTORS
330
2A
102
}
330
2A
100
AcDbVisualStyle
  2
Gouraud
 70
     2
177
     2
291
     1
 71
     2
176
     1
 72
     2
176
     1
 73
     1
176
     1
 90
        2
176
     1
 40
-0.6
176
     1
 41
30.0
176
     1
 62
     5
 63
     7
421
 16777215
176
     1
 74
     0
176
     1
 91
        4
176
     1
 64
     7
176
     1
 65
   257
176
     1
 75
     1
176
     1
175
     1
176
     1
 42
1.0
176
     1
 92
        0
176
     1
 66
     7
176
     1
 43
1.0
176
     1
 76
     1
176
     1
 77
     6
176
     1
 78
     2
176
     1
 67
     7
176
     1
 79
     5
176
     1
170
     0
176
     1
171
     0
176
     1
290
     0
176
     1
 93
       13
176
     1
 44
0.0
176
     1
173
     0
176
     1
  0
VISUALSTYLE
  5
2E
102
{ACAD_REACTORS
330
2A
102
}
330
2A
100
AcDbVisualStyle
  2
GouraudWithEdges
 70
     3
177
     2
291
     1
 71
     2
176
     1
 72
     2
176
     1
 73
     1
176
     1
 90
        2
176
     1
 40
-0.6
176
     1
 41
30.0
176
     1
 62
     5
 63
     7
421
 16777215
176
     1
 74
     1
176
     1
 91
        4
176
     1
 64
     7
176
     1
 65
   257
176
     1
 75
     1
176
     1
175
     1
176
     1
 42
1.0
176
     1
 92
        0
176
     1
 66
   257
176
     1
 43
1.0
176
     1
 76
     1
176
     1
 77
     6
176
     1
 78
     2
176
     1
 67
     7
176
     1
 79
     5
176
     1
170
     0
176
     1
171
     0
176
     1
290
     0
176
     1
 93
       13
176
     1
 44
0.0
176
     1
173
     0
176
     1
  0
VISUALSTYLE
  5
38
102
{ACAD_REACTORS
330
2A
102
}
330
2A
100
AcDbVisualStyle
  2
Linepattern
 70
    14
177
     2
291
     1
 71
     2
176
     1
 72
     2
176
     1
 73
     0
176
     1
 90
        0
176
     1
 40
-0.6
176
     1
 41
-30.0
176
     1
 62
     5
 63
     7
421
 16777215
176
     1
 74
     1
176
     1
 91
        4
176
     1
 64
     7
176
     1
 65
   257
176
     1
 75
     7
176
     1
175
     7
176
     1
 42
1.0
176
     1
 92
        8
176
     1
 66
     7
176
     1
 43
1.0
176
     1
 76
     1
176
     1
 77
     6
176
     1
 78
     2
176
     1
 67
     7
176
     1
 79
     5
176
     1
170
     0
176
     1
171
     0
176
     1
290
     0
176
     1
 93
        1
176
     1
 44
0.0
176
     1
173
     0
176
     1
  0
VISUALSTYLE
  5
33
102
{ACAD_REACTORS
330
2A
102
}
330
2A
100
AcDbVisualStyle
  2
Realistic
 70
     8
177
     2
291
     0
 71
     2
176
     1
 72
     2
176
     1
 73
     0
176
     1
 90
        0
176
     1
 40
-0.6
176
     1
 41
-30.0
176
     1
 62
     5
 63
     7
421
 16777215
176
     1
 74
     1
176
     1
 91
        0
176
     1
 64
     7
176
     1
 65
   257
176
     1
 75
     1
176
     1
175
     1
176
     1
 42
1.0
176
     1
 92
        8
176
     1
 66
     8
424
  7895160
176
     1
 43
1.0
176
     1
 76
     1
176
     1
 77
     6
176
     1
 78
     2
176
     1
 67
     7
176
     1
 79
     5
176
     1
170
     0
176
     1
171
     0
176
     1
290
     0
176
     1
 93
       13
176
     1
 44
0.0
176
     1
173
     0
176
     1
  0
VISUALSTYLE
  5
37
102
{ACAD_REACTORS
330
2A
102
}
330
2A
100
AcDbVisualStyle
  2
Thicken
 70
    13
177
     2
291
     1
 71
     2
176
     1
 72
     2
176
     1
 73
     0
176
     1
 90
        0
176
     1
 40
-0.6
176
     1
 41
-30.0
176
     1
 62
     5
 63
     7
421
 16777215
176
     1
 74
     1
176
     1
 91
        4
176
     1
 64
     7
176
     1
 65
   257
176
     1
 75
     1
176
     1
175
     1
176
     1
 42
1.0
176
     1
 92
       12
176
     1
 66
     7
176
     1
 43
1.0
176
     1
 76
     1
176
     1
 77
     6
176
     1
 78
     2
176
     1
 67
     7
176
     1
 79
     5
176
     1
170
     0
176
     1
171
     0
176
     1
290
     0
176
     1
 93
        1
176
     1
 44
0.0
176
     1
173
     0
176
     1
  0
ENDSEC
  0
EOF
