  0
SECTION
  2
HEADER
  9
$ACADVER
  1
AC1024
  9
$ACADMAINTVER
 70
     6
  9
$DWGCODEPAGE
  3
UNDEFINED
  9
$INSBASE
 10
0.0
 20
0.0
 30
0.0
  9
$EXTMIN
 10
1.000000000000000E+20
 20
1.000000000000000E+20
 30
1.000000000000000E+20
  9
$EXTMAX
 10
-1.000000000000000E+20
 20
-1.000000000000000E+20
 30
-1.000000000000000E+20
  9
$LIMMIN
 10
0.0
 20
0.0
  9
$LIMMAX
 10
12.0
 20
9.0
  9
$ORTHOMODE
 70
     0
  9
$REGENMODE
 70
     1
  9
$FILLMODE
 70
     1
  9
$QTEXTMODE
 70
     0
  9
$MIRRTEXT
 70
     1
  9
$LTSCALE
 40
1.0
  9
$ATTMODE
 70
     1
  9
$TEXTSIZE
 40
0.2
  9
$TRACEWID
 40
0.05
  9
$TEXTSTYLE
  7
Standard
  9
$CLAYER
  8
0
  9
$CELTYPE
  6
ByLayer
  9
$CECOLOR
 62
   256
  9
$CELTSCALE
 40
1.0
  9
$DISPSILH
 70
     0
  9
$DIMSCALE
 40
1.0
  9
$DIMASZ
 40
0.18
  9
$DIMEXO
 40
0.0625
  9
$DIMDLI
 40
0.38
  9
$DIMRND
 40
0.0
  9
$DIMDLE
 40
0.0
  9
$DIMEXE
 40
0.18
  9
$DIMTP
 40
0.0
  9
$DIMTM
 40
0.0
  9
$DIMTXT
 40
0.18
  9
$DIMCEN
 40
0.09
  9
$DIMTSZ
 40
0.0
  9
$DIMTOL
 70
     0
  9
$DIMLIM
 70
     0
  9
$DIMTIH
 70
     1
  9
$DIMTOH
 70
     1
  9
$DIMSE1
 70
     0
  9
$DIMSE2
 70
     0
  9
$DIMTAD
 70
     0
  9
$DIMZIN
 70
     0
  9
$DIMBLK
  1

  9
$DIMASO
 70
     1
  9
$DIMSHO
 70
     1
  9
$DIMPOST
  1

  9
$DIMAPOST
  1

  9
$DIMALT
 70
     0
  9
$DIMALTD
 70
     2
  9
$DIMALTF
 40
25.4
  9
$DIMLFAC
 40
1.0
  9
$DIMTOFL
 70
     0
  9
$DIMTVP
 40
0.0
  9
$DIMTIX
 70
     0
  9
$DIMSOXD
 70
     0
  9
$DIMSAH
 70
     0
  9
$DIMBLK1
  1

  9
$DIMBLK2
  1

  9
$DIMSTYLE
  2
Standard
  9
$DIMCLRD
 70
     0
  9
$DIMCLRE
 70
     0
  9
$DIMCLRT
 70
     0
  9
$DIMTFAC
 40
1.0
  9
$DIMGAP
 40
0.09
  9
$DIMJUST
 70
     0
  9
$DIMSD1
 70
     0
  9
$DIMSD2
 70
     0
  9
$DIMTOLJ
 70
     1
  9
$DIMTZIN
 70
     0
  9
$DIMALTZ
 70
     0
  9
$DIMALTTZ
 70
     0
  9
$DIMUPT
 70
     0
  9
$DIMDEC
 70
     4
  9
$DIMTDEC
 70
     4
  9
$DIMALTU
 70
     2
  9
$DIMALTTD
 70
     2
  9
$DIMTXSTY
  7
Standard
  9
$DIMAUNIT
 70
     0
  9
$DIMADEC
 70
     0
  9
$DIMALTRND
 40
0.0
  9
$DIMAZIN
 70
     0
  9
$DIMDSEP
 70
    46
  9
$DIMATFIT
 70
     3
  9
$DIMFRAC
 70
     0
  9
$DIMLDRBLK
  1

  9
$DIMLUNIT
 70
     2
  9
$DIMLWD
 70
    -2
  9
$DIMLWE
 70
    -2
  9
$DIMTMOVE
 70
     0
  9
$DIMFXL
 40
1.0
  9
$DIMFXLON
 70
     0
  9
$DIMJOGANG
 40
0.7853981633974483
  9
$DIMTFILL
 70
     0
  9
$DIMTFILLCLR
 70
     0
  9
$DIMARCSYM
 70
     0
  9
$DIMLTYPE
  6

  9
$DIMLTEX1
  6

  9
$DIMLTEX2
  6

  9
$DIMTXTDIRECTION
 70
     0
  9
$LUNITS
 70
     2
  9
$LUPREC
 70
     4
  9
$SKETCHINC
 40
0.1
  9
$FILLETRAD
 40
0.5
  9
$AUNITS
 70
     0
  9
$AUPREC
 70
     0
  9
$MENU
  1
.
  9
$ELEVATION
 40
0.0
  9
$PELEVATION
 40
0.0
  9
$THICKNESS
 40
0.0
  9
$LIMCHECK
 70
     0
  9
$CHAMFERA
 40
0.5
  9
$CHAMFERB
 40
0.5
  9
$CHAMFERC
 40
1.0
  9
$CHAMFERD
 40
0.0
  9
$SKPOLY
 70
     0
  9
$TDCREATE
 40
2457917.616087951
  9
$TDUCREATE
 40
2457917.241087963
  9
$TDUPDATE
 40
2457917.616087951
  9
$TDUUPDATE
 40
2457917.241087963
  9
$TDINDWG
 40
0.0000000116
  9
$TDUSRTIMER
 40
0.0000000116
  9
$USRTIMER
 70
     1
  9
$ANGBASE
 50
0.0
  9
$ANGDIR
 70
     0
  9
$PDMODE
 70
     0
  9
$PDSIZE
 40
0.0
  9
$PLINEWID
 40
0.0
  9
$SPLFRAME
 70
     0
  9
$SPLINETYPE
 70
     6
  9
$SPLINESEGS
 70
     8
  9
$HANDSEED
  5
ED
  9
$SURFTAB1
 70
     6
  9
$SURFTAB2
 70
     6
  9
$SURFTYPE
 70
     6
  9
$SURFU
 70
     6
  9
$SURFV
 70
     6
  9
$UCSBASE
  2

  9
$UCSNAME
  2

  9
$UCSORG
 10
0.0
 20
0.0
 30
0.0
  9
$UCSXDIR
 10
1.0
 20
0.0
 30
0.0
  9
$UCSYDIR
 10
0.0
 20
1.0
 30
0.0
  9
$UCSORTHOREF
  2

  9
$UCSORTHOVIEW
 70
     0
  9
$UCSORGTOP
 10
0.0
 20
0.0
 30
0.0
  9
$UCSORGBOTTOM
 10
0.0
 20
0.0
 30
0.0
  9
$UCSORGLEFT
 10
0.0
 20
0.0
 30
0.0
  9
$UCSORGRIGHT
 10
0.0
 20
0.0
 30
0.0
  9
$UCSORGFRONT
 10
0.0
 20
0.0
 30
0.0
  9
$UCSORGBACK
 10
0.0
 20
0.0
 30
0.0
  9
$PUCSBASE
  2

  9
$PUCSNAME
  2

  9
$PUCSORG
 10
0.0
 20
0.0
 30
0.0
  9
$PUCSXDIR
 10
1.0
 20
0.0
 30
0.0
  9
$PUCSYDIR
 10
0.0
 20
1.0
 30
0.0
  9
$PUCSORTHOREF
  2

  9
$PUCSORTHOVIEW
 70
     0
  9
$PUCSORGTOP
 10
0.0
 20
0.0
 30
0.0
  9
$PUCSORGBOTTOM
 10
0.0
 20
0.0
 30
0.0
  9
$PUCSORGLEFT
 10
0.0
 20
0.0
 30
0.0
  9
$PUCSORGRIGHT
 10
0.0
 20
0.0
 30
0.0
  9
$PUCSORGFRONT
 10
0.0
 20
0.0
 30
0.0
  9
$PUCSORGBACK
 10
0.0
 20
0.0
 30
0.0
  9
$USERI1
 70
     0
  9
$USERI2
 70
     0
  9
$USERI3
 70
     0
  9
$USERI4
 70
     0
  9
$USERI5
 70
     0
  9
$USERR1
 40
0.0
  9
$USERR2
 40
0.0
  9
$USERR3
 40
0.0
  9
$USERR4
 40
0.0
  9
$USERR5
 40
0.0
  9
$WORLDVIEW
 70
     1
  9
$SHADEDGE
 70
     3
  9
$SHADEDIF
 70
    70
  9
$TILEMODE
 70
     1
  9
$MAXACTVP
 70
    64
  9
$PINSBASE
 10
0.0
 20
0.0
 30
0.0
  9
$PLIMCHECK
 70
     0
  9
$PEXTMIN
 10
1.000000000000000E+20
 20
1.000000000000000E+20
 30
1.000000000000000E+20
  9
$PEXTMAX
 10
-1.000000000000000E+20
 20
-1.000000000000000E+20
 30
-1.000000000000000E+20
  9
$PLIMMIN
 10
0.0
 20
0.0
  9
$PLIMMAX
 10
12.0
 20
9.0
  9
$UNITMODE
 70
     0
  9
$VISRETAIN
 70
     1
  9
$PLINEGEN
 70
     0
  9
$PSLTSCALE
 70
     1
  9
$TREEDEPTH
 70
  3020
  9
$CMLSTYLE
  2
Standard
  9
$CMLJUST
 70
     0
  9
$CMLSCALE
 40
1.0
  9
$PROXYGRAPHICS
 70
     1
  9
$MEASUREMENT
 70
     0
  9
$CELWEIGHT
370
    -1
  9
$ENDCAPS
280
     0
  9
$JOINSTYLE
280
     0
  9
$LWDISPLAY
290
     1
  9
$INSUNITS
 70
     1
  9
$HYPERLINKBASE
  1

  9
$STYLESHEET
  1

  9
$XEDIT
290
     1
  9
$CEPSNTYPE
380
     0
  9
$PSTYLEMODE
290
     1
  9
$FINGERPRINTGUID
  2
{4149B419-CCDF-534C-6A2B-C9BF85A3DA1F}
  9
$VERSIONGUID
  2
{FAEB1C32-E019-11D5-929B-00C0DF256EC4}
  9
$EXTNAMES
290
     1
  9
$PSVPSCALE
 40
0.0
  9
$OLESTARTUP
290
     0
  9
$SORTENTS
280
   127
  9
$INDEXCTL
280
     0
  9
$HIDETEXT
280
     1
  9
$XCLIPFRAME
280
     2
  9
$HALOGAP
280
     0
  9
$OBSCOLOR
 70
   257
  9
$OBSLTYPE
280
     0
  9
$INTERSECTIONDISPLAY
280
     0
  9
$INTERSECTIONCOLOR
 70
   257
  9
$DIMASSOC
280
     2
  9
$PROJECTNAME
  1

  9
$CAMERADISPLAY
290
     0
  9
$LENSLENGTH
 40
50.0
  9
$CAMERAHEIGHT
 40
0.0
  9
$STEPSPERSEC
 40
2.0
  9
$STEPSIZE
 40
6.0
  9
$3DDWFPREC
 40
2.0
  9
$PSOLWIDTH
 40
0.25
  9
$PSOLHEIGHT
 40
4.0
  9
$LOFTANG1
 40
1.570796326794897
  9
$LOFTANG2
 40
1.570796326794897
  9
$LOFTMAG1
 40
0.0
  9
$LOFTMAG2
 40
0.0
  9
$LOFTPARAM
 70
     7
  9
$LOFTNORMALS
280
     1
  9
$LATITUDE
 40
37.795
  9
$LONGITUDE
 40
-122.394
  9
$NORTHDIRECTION
 40
0.0
  9
$TIMEZONE
 70
 -8000
  9
$LIGHTGLYPHDISPLAY
280
     1
  9
$TILEMODELIGHTSYNCH
280
     1
  9
$CMATERIAL
347
3C
  9
$SOLIDHIST
280
     1
  9
$SHOWHIST
280
     1
  9
$DWFFRAME
280
     2
  9
$DGNFRAME
280
     2
  9
$REALWORLDSCALE
290
     1
  9
$INTERFERECOLOR
 62
   256
  9
$CSHADOW
280
     0
  9
$SHADOWPLANELOCATION
 40
0.0
  0
ENDSEC
  0
SECTION
  2
CLASSES
  0
CLASS
  1
ACDBDICTIONARYWDFLT
  2
AcDbDictionaryWithDefault
  3
ObjectDBX Classes
 90
        0
 91
        4
280
     0
281
     0
  0
CLASS
  1
VISUALSTYLE
  2
AcDbVisualStyle
  3
ObjectDBX Classes
 90
     4095
 91
        4
280
     0
281
     0
  0
CLASS
  1
MATERIAL
  2
AcDbMaterial
  3
ObjectDBX Classes
 90
     1153
 91
        4
280
     0
281
     0
  0
CLASS
  1
SUN
  2
AcDbSun
  3
SCENEOE
 90
     1024
 91
        4
280
     0
281
     0
  0
ENDSEC
  0
SECTION
  2
TABLES
  0
TABLE
  2
VPORT
  5
8
330
0
100
AcDbSymbolTable
 70
     1
  0
VPORT
  5
29
330
8
100
AcDbSymbolTableRecord
100
AcDbViewportTableRecord
  2
*Active
 70
     0
 10
0.0
 20
0.0
 11
1.0
 21
1.0
 12
0.0
 22
0.0
 13
0.0
 23
0.0
 14
0.5
 24
0.5
 15
0.5
 25
0.5
 16
0.0
 26
0.0
 36
1.0
 17
91.00082462281999
 27
-128.4993055234307
 37
0.0
 40
256.9986110468615
 41
0.7081814508812795
 42
50.0
 43
0.0
 44
0.0
 50
0.0
 51
0.0
 71
     0
 72
   100
 73
     1
 74
     3
 75
     0
 76
     0
 77
     0
 78
     0
281
     0
 65
     1
110
0.0
120
0.0
130
0.0
111
1.0
121
0.0
131
0.0
112
0.0
122
1.0
132
0.0
 79
     0
146
0.0
 60
     3
 61
     5
292
     1
282
     1
141
0.0
142
0.0
 63
   250
361
3F
  0
ENDTAB
  0
TABLE
  2
LTYPE
  5
5
330
0
100
AcDbSymbolTable
 70
     1
  0
LTYPE
  5
14
330
5
100
AcDbSymbolTableRecord
100
AcDbLinetypeTableRecord
  2
ByBlock
 70
     0
  3

 72
    65
 73
     0
 40
0.0
  0
LTYPE
  5
15
330
5
100
AcDbSymbolTableRecord
100
AcDbLinetypeTableRecord
  2
ByLayer
 70
     0
  3

 72
    65
 73
     0
 40
0.0
  0
LTYPE
  5
16
330
5
100
AcDbSymbolTableRecord
100
AcDbLinetypeTableRecord
  2
Continuous
 70
     0
  3
Solid line
 72
    65
 73
     0
 40
0.0
  0
ENDTAB
  0
TABLE
  2
LAYER
  5
2
330
0
100
AcDbSymbolTable
 70
     2
  0
LAYER
  5
10
330
2
100
AcDbSymbolTableRecord
100
AcDbLayerTableRecord
  2
0
 70
     0
 62
     7
  6
Continuous
370
    -3
390
F
347
3E
  0
LAYER
  5
40
330
2
100
AcDbSymbolTableRecord
100
AcDbLayerTableRecord
  2
_U+30EC_U+30A4_U+30E4_U+30FC 1
 70
     0
 62
     7
  6
Continuous
370
    -3
390
F
347
3E
  0
ENDTAB
  0
TABLE
  2
STYLE
  5
3
330
0
100
AcDbSymbolTable
 70
     1
  0
STYLE
  5
11
330
3
100
AcDbSymbolTableRecord
100
AcDbTextStyleTableRecord
  2
Standard
 70
     0
 40
0.0
 41
1.0
 50
0.0
 71
     0
 42
0.2
  3
txt
  4

  0
ENDTAB
  0
TABLE
  2
VIEW
  5
6
330
0
100
AcDbSymbolTable
 70
     0
  0
ENDTAB
  0
TABLE
  2
UCS
  5
7
330
0
100
AcDbSymbolTable
 70
     0
  0
ENDTAB
  0
TABLE
  2
APPID
  5
9
330
0
100
AcDbSymbolTable
 70
     1
  0
APPID
  5
12
330
9
100
AcDbSymbolTableRecord
100
AcDbRegAppTableRecord
  2
ACAD
 70
     0
  0
ENDTAB
  0
TABLE
  2
DIMSTYLE
  5
A
330
0
100
AcDbSymbolTable
 70
     1
100
AcDbDimStyleTable
  0
DIMSTYLE
105
27
330
A
100
AcDbSymbolTableRecord
100
AcDbDimStyleTableRecord
  2
Standard
 70
     0
178
     0
340
11
  0
ENDTAB
  0
TABLE
  2
BLOCK_RECORD
  5
1
330
0
100
AcDbSymbolTable
 70
     7
  0
BLOCK_RECORD
  5
1F
330
1
100
AcDbSymbolTableRecord
100
AcDbBlockTableRecord
  2
*Model_Space
340
22
 70
     0
280
     1
281
     0
  0
BLOCK_RECORD
  5
1B
330
1
100
AcDbSymbolTableRecord
100
AcDbBlockTableRecord
  2
*Paper_Space
340
1E
 70
     0
280
     1
281
     0
  0
BLOCK_RECORD
  5
23
330
1
100
AcDbSymbolTableRecord
100
AcDbBlockTableRecord
  2
*Paper_Space0
340
26
 70
     0
280
     1
281
     0
  0
BLOCK_RECORD
  5
41
330
1
100
AcDbSymbolTableRecord
100
AcDbBlockTableRecord
  2
block 2
340
0
102
{BLKREFS
331
42
102
}
 70
     0
280
     1
281
     0
  0
BLOCK_RECORD
  5
93
330
1
100
AcDbSymbolTableRecord
100
AcDbBlockTableRecord
  2
block 3
340
0
102
{BLKREFS
331
94
102
}
 70
     0
280
     1
281
     0
  0
BLOCK_RECORD
  5
A1
330
1
100
AcDbSymbolTableRecord
100
AcDbBlockTableRecord
  2
block 4
340
0
102
{BLKREFS
331
A2
102
}
 70
     0
280
     1
281
     0
  0
BLOCK_RECORD
  5
AF
330
1
100
AcDbSymbolTableRecord
100
AcDbBlockTableRecord
  2
block 5
340
0
102
{BLKREFS
331
B0
102
}
 70
     0
280
     1
281
     0
  0
BLOCK_RECORD
  5
CD
330
1
100
AcDbSymbolTableRecord
100
AcDbBlockTableRecord
  2
block 6
340
0
102
{BLKREFS
331
CE
102
}
 70
     0
280
     1
281
     0
  0
BLOCK_RECORD
  5
E2
330
1
100
AcDbSymbolTableRecord
100
AcDbBlockTableRecord
  2
block 7
340
0
102
{BLKREFS
331
E3
102
}
 70
     0
280
     1
281
     0
  0
ENDTAB
  0
ENDSEC
  0
SECTION
  2
BLOCKS
  0
BLOCK
  5
20
330
1F
100
AcDbEntity
  8
0
100
AcDbBlockBegin
  2
*Model_Space
 70
     0
 10
0.0
 20
0.0
 30
0.0
  3
*Model_Space
  1

  0
ENDBLK
  5
21
330
1F
100
AcDbEntity
  8
0
100
AcDbBlockEnd
  0
BLOCK
  5
1C
330
1B
100
AcDbEntity
 67
     1
  8
0
100
AcDbBlockBegin
  2
*Paper_Space
 70
     0
 10
0.0
 20
0.0
 30
0.0
  3
*Paper_Space
  1

  0
ENDBLK
  5
1D
330
1B
100
AcDbEntity
 67
     1
  8
0
100
AcDbBlockEnd
  0
BLOCK
  5
24
330
23
100
AcDbEntity
  8
0
100
AcDbBlockBegin
  2
*Paper_Space0
 70
     0
 10
0.0
 20
0.0
 30
0.0
  3
*Paper_Space0
  1

  0
ENDBLK
  5
25
330
23
100
AcDbEntity
  8
0
100
AcDbBlockEnd
  0
BLOCK
  5
43
330
41
100
AcDbEntity
  8
0
100
AcDbBlockBegin
  2
block 2
 70
     0
 10
0.0
 20
0.0
 30
0.0
  3
block 2
  1

  0
POLYLINE
  5
45
330
41
100
AcDbEntity
  8
_U+30EC_U+30A4_U+30E4_U+30FC 1
370
     0
100
AcDb2dPolyline
 66
     1
 10
0.0
 20
0.0
 30
0.0
  0
VERTEX
  5
46
330
45
100
AcDbEntity
  8
_U+30EC_U+30A4_U+30E4_U+30FC 1
370
     0
100
AcDbVertex
100
AcDb2dVertex
 10
73.60274228890427
 20
-139.5563488539999
 30
0.0
  0
VERTEX
  5
47
330
45
100
AcDbEntity
  8
_U+30EC_U+30A4_U+30E4_U+30FC 1
370
     0
100
AcDbVertex
100
AcDb2dVertex
 10
93.64595233311493
 20
-139.5563488539999
 30
0.0
  0
VERTEX
  5
48
330
45
100
AcDbEntity
  8
_U+30EC_U+30A4_U+30E4_U+30FC 1
370
     0
100
AcDbVertex
100
AcDb2dVertex
 10
93.60185511201773
 20
-136.5356891325329
 30
0.0
  0
VERTEX
  5
49
330
45
100
AcDbEntity
  8
_U+30EC_U+30A4_U+30E4_U+30FC 1
370
     0
100
AcDbVertex
100
AcDb2dVertex
 10
92.56557041623333
 20
-136.5136405214273
 30
0.0
  0
VERTEX
  5
4A
330
45
100
AcDbEntity
  8
_U+30EC_U+30A4_U+30E4_U+30FC 1
370
     0
100
AcDbVertex
100
AcDb2dVertex
 10
92.60278847083937
 20
-138.5200641320368
 30
0.0
  0
VERTEX
  5
4B
330
45
100
AcDbEntity
  8
_U+30EC_U+30A4_U+30E4_U+30FC 1
370
     0
100
AcDbVertex
100
AcDb2dVertex
 10
74.60318476338085
 20
-138.45391829872
 30
0.0
  0
VERTEX
  5
4C
330
45
100
AcDbEntity
  8
_U+30EC_U+30A4_U+30E4_U+30FC 1
370
     0
100
AcDbVertex
100
AcDb2dVertex
 10
74.60318476338085
 20
-120.9931469141963
 30
0.0
  0
VERTEX
  5
4D
330
45
100
AcDbEntity
  8
_U+30EC_U+30A4_U+30E4_U+30FC 1
370
     0
100
AcDbVertex
100
AcDb2dVertex
 10
103.5778106908432
 20
-120.9931469141963
 30
0.0
  0
VERTEX
  5
4E
330
45
100
AcDbEntity
  8
_U+30EC_U+30A4_U+30E4_U+30FC 1
370
     0
100
AcDbVertex
100
AcDb2dVertex
 10
103.5778106908432
 20
-119.993374692224
 30
0.0
  0
VERTEX
  5
4F
330
45
100
AcDbEntity
  8
_U+30EC_U+30A4_U+30E4_U+30FC 1
370
     0
100
AcDbVertex
100
AcDb2dVertex
 10
73.60274228890427
 20
-119.993374692224
 30
0.0
  0
VERTEX
  5
50
330
45
100
AcDbEntity
  8
_U+30EC_U+30A4_U+30E4_U+30FC 1
370
     0
100
AcDbVertex
100
AcDb2dVertex
 10
73.60274228890427
 20
-139.5563488539999
 30
0.0
  0
SEQEND
  5
52
330
45
100
AcDbEntity
  8
_U+30EC_U+30A4_U+30E4_U+30FC 1
370
     0
  0
HATCH
  5
51
330
41
100
AcDbEntity
  8
_U+30EC_U+30A4_U+30E4_U+30FC 1
 62
   253
420
 11711154
100
AcDbHatch
 10
0.0
 20
0.0
 30
0.0
210
0.0
220
0.0
230
1.0
  2
SOLID
 70
     1
 71
     0
 91
        1
 92
        1
 93
       10
 72
     1
 10
73.60274228890427
 20
-139.5563488539999
 11
93.64595233311493
 21
-139.5563488539999
 72
     1
 10
93.64595233311493
 20
-139.5563488539999
 11
93.60185511201773
 21
-136.5356891325329
 72
     1
 10
93.60185511201773
 20
-136.5356891325329
 11
92.56557041623333
 21
-136.5136405214273
 72
     1
 10
92.56557041623333
 20
-136.5136405214273
 11
92.60278847083937
 21
-138.5200641320368
 72
     1
 10
92.60278847083937
 20
-138.5200641320368
 11
74.60318476338085
 21
-138.45391829872
 72
     1
 10
74.60318476338085
 20
-138.45391829872
 11
74.60318476338085
 21
-120.9931469141963
 72
     1
 10
74.60318476338085
 20
-120.9931469141963
 11
103.5778106908432
 21
-120.9931469141963
 72
     1
 10
103.5778106908432
 20
-120.9931469141963
 11
103.5778106908432
 21
-119.993374692224
 72
     1
 10
103.5778106908432
 20
-119.993374692224
 11
73.60274228890427
 21
-119.993374692224
 72
     1
 10
73.60274228890427
 20
-119.993374692224
 11
73.60274228890427
 21
-139.5563488539999
 97
        0
 75
     2
 76
     1
 98
        0
  0
POLYLINE
  5
53
330
41
100
AcDbEntity
  8
_U+30EC_U+30A4_U+30E4_U+30FC 1
 62
     7
420
 16777215
370
    25
100
AcDb2dPolyline
 66
     1
 10
0.0
 20
0.0
 30
0.0
  0
VERTEX
  5
54
330
53
100
AcDbEntity
  8
_U+30EC_U+30A4_U+30E4_U+30FC 1
 62
     7
420
 16777215
370
    25
100
AcDbVertex
100
AcDb2dVertex
 10
73.60274228890427
 20
-119.993374692224
 30
0.0
  0
VERTEX
  5
55
330
53
100
AcDbEntity
  8
_U+30EC_U+30A4_U+30E4_U+30FC 1
 62
     7
420
 16777215
370
    25
100
AcDbVertex
100
AcDb2dVertex
 10
103.6026462457652
 20
-119.993374692224
 30
0.0
  0
SEQEND
  5
56
330
53
100
AcDbEntity
  8
_U+30EC_U+30A4_U+30E4_U+30FC 1
 62
     7
420
 16777215
370
    25
  0
POLYLINE
  5
57
330
41
100
AcDbEntity
  8
_U+30EC_U+30A4_U+30E4_U+30FC 1
 62
     7
420
 16777215
370
    25
100
AcDb2dPolyline
 66
     1
 10
0.0
 20
0.0
 30
0.0
  0
VERTEX
  5
58
330
57
100
AcDbEntity
  8
_U+30EC_U+30A4_U+30E4_U+30FC 1
 62
     7
420
 16777215
370
    25
100
AcDbVertex
100
AcDb2dVertex
 10
73.60274228890427
 20
-119.993374692224
 30
0.0
  0
VERTEX
  5
59
330
57
100
AcDbEntity
  8
_U+30EC_U+30A4_U+30E4_U+30FC 1
 62
     7
420
 16777215
370
    25
100
AcDbVertex
100
AcDb2dVertex
 10
73.60274228890427
 20
-139.3937182984846
 30
0.0
  0
SEQEND
  5
5A
330
57
100
AcDbEntity
  8
_U+30EC_U+30A4_U+30E4_U+30FC 1
 62
     7
420
 16777215
370
    25
  0
POLYLINE
  5
5B
330
41
100
AcDbEntity
  8
_U+30EC_U+30A4_U+30E4_U+30FC 1
 62
     7
420
 16777215
370
    25
100
AcDb2dPolyline
 66
     1
 10
0.0
 20
0.0
 30
0.0
  0
VERTEX
  5
5C
330
5B
100
AcDbEntity
  8
_U+30EC_U+30A4_U+30E4_U+30FC 1
 62
     7
420
 16777215
370
    25
100
AcDbVertex
100
AcDb2dVertex
 10
103.6026462457652
 20
-119.993374692224
 30
0.0
  0
VERTEX
  5
5D
330
5B
100
AcDbEntity
  8
_U+30EC_U+30A4_U+30E4_U+30FC 1
 62
     7
420
 16777215
370
    25
100
AcDbVertex
100
AcDb2dVertex
 10
103.6026462457652
 20
-120.9931469141963
 30
0.0
  0
SEQEND
  5
5E
330
5B
100
AcDbEntity
  8
_U+30EC_U+30A4_U+30E4_U+30FC 1
 62
     7
420
 16777215
370
    25
  0
POLYLINE
  5
5F
330
41
100
AcDbEntity
  8
_U+30EC_U+30A4_U+30E4_U+30FC 1
 62
     7
420
 16777215
370
    25
100
AcDb2dPolyline
 66
     1
 10
0.0
 20
0.0
 30
0.0
  0
VERTEX
  5
60
330
5F
100
AcDbEntity
  8
_U+30EC_U+30A4_U+30E4_U+30FC 1
 62
     7
420
 16777215
370
    25
100
AcDbVertex
100
AcDb2dVertex
 10
74.60318476338085
 20
-120.9931469141963
 30
0.0
  0
VERTEX
  5
61
330
5F
100
AcDbEntity
  8
_U+30EC_U+30A4_U+30E4_U+30FC 1
 62
     7
420
 16777215
370
    25
100
AcDbVertex
100
AcDb2dVertex
 10
103.6029637457571
 20
-120.9931469141963
 30
0.0
  0
SEQEND
  5
62
330
5F
100
AcDbEntity
  8
_U+30EC_U+30A4_U+30E4_U+30FC 1
 62
     7
420
 16777215
370
    25
  0
POLYLINE
  5
63
330
41
100
AcDbEntity
  8
_U+30EC_U+30A4_U+30E4_U+30FC 1
 62
     7
420
 16777215
370
    25
100
AcDb2dPolyline
 66
     1
 10
0.0
 20
0.0
 30
0.0
  0
VERTEX
  5
64
330
63
100
AcDbEntity
  8
_U+30EC_U+30A4_U+30E4_U+30FC 1
 62
     7
420
 16777215
370
    25
100
AcDbVertex
100
AcDb2dVertex
 10
93.60256066755528
 20
-136.4950138547655
 30
0.0
  0
VERTEX
  5
65
330
63
100
AcDbEntity
  8
_U+30EC_U+30A4_U+30E4_U+30FC 1
 62
     7
420
 16777215
370
    25
100
AcDbVertex
100
AcDb2dVertex
 10
93.60256066755528
 20
-139.4950007984598
 30
0.0
  0
SEQEND
  5
66
330
63
100
AcDbEntity
  8
_U+30EC_U+30A4_U+30E4_U+30FC 1
 62
     7
420
 16777215
370
    25
  0
POLYLINE
  5
67
330
41
100
AcDbEntity
  8
_U+30EC_U+30A4_U+30E4_U+30FC 1
 62
     7
420
 16777215
370
    25
100
AcDb2dPolyline
 66
     1
 10
0.0
 20
0.0
 30
0.0
  0
VERTEX
  5
68
330
67
100
AcDbEntity
  8
_U+30EC_U+30A4_U+30E4_U+30FC 1
 62
     7
420
 16777215
370
    25
100
AcDbVertex
100
AcDb2dVertex
 10
92.60278847083937
 20
-136.4950138547655
 30
0.0
  0
VERTEX
  5
69
330
67
100
AcDbEntity
  8
_U+30EC_U+30A4_U+30E4_U+30FC 1
 62
     7
420
 16777215
370
    25
100
AcDbVertex
100
AcDb2dVertex
 10
92.60278847083937
 20
-138.4952638542648
 30
0.0
  0
SEQEND
  5
6A
330
67
100
AcDbEntity
  8
_U+30EC_U+30A4_U+30E4_U+30FC 1
 62
     7
420
 16777215
370
    25
  0
POLYLINE
  5
6B
330
41
100
AcDbEntity
  8
_U+30EC_U+30A4_U+30E4_U+30FC 1
 62
     7
420
 16777215
370
    25
100
AcDb2dPolyline
 66
     1
 10
0.0
 20
0.0
 30
0.0
  0
VERTEX
  5
6C
330
6B
100
AcDbEntity
  8
_U+30EC_U+30A4_U+30E4_U+30FC 1
 62
     7
420
 16777215
370
    25
100
AcDbVertex
100
AcDb2dVertex
 10
74.60318476338085
 20
-120.9931469141963
 30
0.0
  0
VERTEX
  5
6D
330
6B
100
AcDbEntity
  8
_U+30EC_U+30A4_U+30E4_U+30FC 1
 62
     7
420
 16777215
370
    25
100
AcDbVertex
100
AcDb2dVertex
 10
74.60318476338085
 20
-138.3932757987347
 30
0.0
  0
SEQEND
  5
6E
330
6B
100
AcDbEntity
  8
_U+30EC_U+30A4_U+30E4_U+30FC 1
 62
     7
420
 16777215
370
    25
  0
POLYLINE
  5
6F
330
41
100
AcDbEntity
  8
_U+30EC_U+30A4_U+30E4_U+30FC 1
 62
     7
420
 16777215
370
    25
100
AcDb2dPolyline
 66
     1
 10
0.0
 20
0.0
 30
0.0
  0
VERTEX
  5
70
330
6F
100
AcDbEntity
  8
_U+30EC_U+30A4_U+30E4_U+30FC 1
 62
     7
420
 16777215
370
    25
100
AcDbVertex
100
AcDb2dVertex
 10
92.60278847083937
 20
-136.4950138547655
 30
0.0
  0
VERTEX
  5
71
330
6F
100
AcDbEntity
  8
_U+30EC_U+30A4_U+30E4_U+30FC 1
 62
     7
420
 16777215
370
    25
100
AcDbVertex
100
AcDb2dVertex
 10
93.60256066755528
 20
-136.4950138547655
 30
0.0
  0
SEQEND
  5
72
330
6F
100
AcDbEntity
  8
_U+30EC_U+30A4_U+30E4_U+30FC 1
 62
     7
420
 16777215
370
    25
  0
POLYLINE
  5
73
330
41
100
AcDbEntity
  8
_U+30EC_U+30A4_U+30E4_U+30FC 1
 62
     7
420
 16777215
370
    25
100
AcDb2dPolyline
 66
     1
 10
0.0
 20
0.0
 30
0.0
  0
VERTEX
  5
74
330
73
100
AcDbEntity
  8
_U+30EC_U+30A4_U+30E4_U+30FC 1
 62
     7
420
 16777215
370
    25
100
AcDbVertex
100
AcDb2dVertex
 10
73.60274228890427
 20
-139.4950007984598
 30
0.0
  0
VERTEX
  5
75
330
73
100
AcDbEntity
  8
_U+30EC_U+30A4_U+30E4_U+30FC 1
 62
     7
420
 16777215
370
    25
100
AcDbVertex
100
AcDb2dVertex
 10
93.60256066755528
 20
-139.4950007984598
 30
0.0
  0
SEQEND
  5
76
330
73
100
AcDbEntity
  8
_U+30EC_U+30A4_U+30E4_U+30FC 1
 62
     7
420
 16777215
370
    25
  0
POLYLINE
  5
77
330
41
100
AcDbEntity
  8
_U+30EC_U+30A4_U+30E4_U+30FC 1
 62
     7
420
 16777215
370
    25
100
AcDb2dPolyline
 66
     1
 10
0.0
 20
0.0
 30
0.0
  0
VERTEX
  5
78
330
77
100
AcDbEntity
  8
_U+30EC_U+30A4_U+30E4_U+30FC 1
 62
     7
420
 16777215
370
    25
100
AcDbVertex
100
AcDb2dVertex
 10
74.60318476338085
 20
-138.4952638542648
 30
0.0
  0
VERTEX
  5
79
330
77
100
AcDbEntity
  8
_U+30EC_U+30A4_U+30E4_U+30FC 1
 62
     7
420
 16777215
370
    25
100
AcDbVertex
100
AcDb2dVertex
 10
92.60278847083937
 20
-138.4952638542648
 30
0.0
  0
SEQEND
  5
7A
330
77
100
AcDbEntity
  8
_U+30EC_U+30A4_U+30E4_U+30FC 1
 62
     7
420
 16777215
370
    25
  0
SPLINE
  5
7B
330
41
100
AcDbEntity
  8
_U+30EC_U+30A4_U+30E4_U+30FC 1
 62
     7
420
 16777215
370
     9
100
AcDbSpline
210
0.0
220
0.0
230
1.0
 70
    11
 71
     3
 72
    17
 73
    13
 74
     0
 42
0.0000000001
 43
0.0000000001
 12
1.0
 22
0.0
 32
0.0
 13
1.0
 23
0.0
 33
0.0
 40
0.0
 40
0.0
 40
0.0
 40
0.0
 40
1.0
 40
1.0
 40
1.0
 40
2.0
 40
2.0
 40
2.0
 40
3.0
 40
3.0
 40
3.0
 40
4.0
 40
4.0
 40
4.0
 40
4.0
 10
73.7026489530221
 20
-115.9929099710019
 30
0.0
 10
73.7026489530221
 20
-115.9378060821267
 30
0.0
 10
73.65784617638734
 20
-115.89300330436
 30
0.0
 10
73.60274228890427
 20
-115.89300330436
 30
0.0
 10
73.54760312364432
 20
-115.89300330436
 30
0.0
 10
73.50283562478644
 20
-115.9378060821267
 30
0.0
 10
73.50283562478644
 20
-115.9929099710019
 30
0.0
 10
73.50283562478644
 20
-116.0487194154324
 30
0.0
 10
73.54760312364432
 20
-116.0935221931988
 30
0.0
 10
73.60274228890427
 20
-116.0935221931988
 30
0.0
 10
73.65784617638734
 20
-116.0935221931988
 30
0.0
 10
73.7026489530221
 20
-116.0487194154324
 30
0.0
 10
73.7026489530221
 20
-115.9929099710019
 30
0.0
  0
SPLINE
  5
7C
330
41
100
AcDbEntity
  8
_U+30EC_U+30A4_U+30E4_U+30FC 1
 62
     7
420
 16777215
370
     9
100
AcDbSpline
210
0.0
220
0.0
230
1.0
 70
    11
 71
     3
 72
    17
 73
    13
 74
     0
 42
0.0000000001
 43
0.0000000001
 12
1.0
 22
0.0
 32
0.0
 13
1.0
 23
0.0
 33
0.0
 40
0.0
 40
0.0
 40
0.0
 40
0.0
 40
1.0
 40
1.0
 40
1.0
 40
2.0
 40
2.0
 40
2.0
 40
3.0
 40
3.0
 40
3.0
 40
4.0
 40
4.0
 40
4.0
 40
4.0
 10
103.7025555296296
 20
-115.9929099710019
 30
0.0
 10
103.7025555296296
 20
-115.9378060821267
 30
0.0
 10
103.6577527518635
 20
-115.89300330436
 30
0.0
 10
103.6026462457652
 20
-115.89300330436
 30
0.0
 10
103.5475070805052
 20
-115.89300330436
 30
0.0
 10
103.5027395816473
 20
-115.9378060821267
 30
0.0
 10
103.5027395816473
 20
-115.9929099710019
 30
0.0
 10
103.5027395816473
 20
-116.0487194154324
 30
0.0
 10
103.5475070805052
 20
-116.0935221931988
 30
0.0
 10
103.6026462457652
 20
-116.0935221931988
 30
0.0
 10
103.6577527518635
 20
-116.0935221931988
 30
0.0
 10
103.7025555296296
 20
-116.0487194154324
 30
0.0
 10
103.7025555296296
 20
-115.9929099710019
 30
0.0
  0
SPLINE
  5
7D
330
41
100
AcDbEntity
  8
_U+30EC_U+30A4_U+30E4_U+30FC 1
 62
     7
420
 16777215
370
     9
100
AcDbSpline
210
0.0
220
0.0
230
1.0
 70
    11
 71
     3
 72
    17
 73
    13
 74
     0
 42
0.0000000001
 43
0.0000000001
 12
1.0
 22
0.0
 32
0.0
 13
1.0
 23
0.0
 33
0.0
 40
0.0
 40
0.0
 40
0.0
 40
0.0
 40
1.0
 40
1.0
 40
1.0
 40
2.0
 40
2.0
 40
2.0
 40
3.0
 40
3.0
 40
3.0
 40
4.0
 40
4.0
 40
4.0
 40
4.0
 10
107.702982252268
 20
-119.993374692224
 30
0.0
 10
107.702982252268
 20
-119.938235525571
 30
0.0
 10
107.6582147534101
 20
-119.8934680255821
 30
0.0
 10
107.6030755881502
 20
-119.8934680255821
 30
0.0
 10
107.5472661451295
 20
-119.8934680255821
 30
0.0
 10
107.5024633684948
 20
-119.938235525571
 30
0.0
 10
107.5024633684948
 20
-119.993374692224
 30
0.0
 10
107.5024633684948
 20
-120.0484785810989
 30
0.0
 10
107.5472661451295
 20
-120.0932813588657
 30
0.0
 10
107.6030755881502
 20
-120.0932813588657
 30
0.0
 10
107.6582147534101
 20
-120.0932813588657
 30
0.0
 10
107.702982252268
 20
-120.0484785810989
 30
0.0
 10
107.702982252268
 20
-119.993374692224
 30
0.0
  0
SPLINE
  5
7E
330
41
100
AcDbEntity
  8
_U+30EC_U+30A4_U+30E4_U+30FC 1
 62
     7
420
 16777215
370
     9
100
AcDbSpline
210
0.0
220
0.0
230
1.0
 70
    11
 71
     3
 72
    17
 73
    13
 74
     0
 42
0.0000000001
 43
0.0000000001
 12
1.0
 22
0.0
 32
0.0
 13
1.0
 23
0.0
 33
0.0
 40
0.0
 40
0.0
 40
0.0
 40
0.0
 40
1.0
 40
1.0
 40
1.0
 40
2.0
 40
2.0
 40
2.0
 40
3.0
 40
3.0
 40
3.0
 40
4.0
 40
4.0
 40
4.0
 40
4.0
 10
107.702982252268
 20
-120.9931469141963
 30
0.0
 10
107.702982252268
 20
-120.9380077475432
 30
0.0
 10
107.6582147534101
 20
-120.8932402475546
 30
0.0
 10
107.6030755881502
 20
-120.8932402475546
 30
0.0
 10
107.5472661451295
 20
-120.8932402475546
 30
0.0
 10
107.5024633684948
 20
-120.9380077475432
 30
0.0
 10
107.5024633684948
 20
-120.9931469141963
 30
0.0
 10
107.5024633684948
 20
-121.0482508030712
 30
0.0
 10
107.5472661451295
 20
-121.0930535808379
 30
0.0
 10
107.6030755881502
 20
-121.0930535808379
 30
0.0
 10
107.6582147534101
 20
-121.0930535808379
 30
0.0
 10
107.702982252268
 20
-121.0482508030712
 30
0.0
 10
107.702982252268
 20
-120.9931469141963
 30
0.0
  0
SPLINE
  5
7F
330
41
100
AcDbEntity
  8
_U+30EC_U+30A4_U+30E4_U+30FC 1
 62
     7
420
 16777215
370
     9
100
AcDbSpline
210
0.0
220
0.0
230
1.0
 70
    11
 71
     3
 72
    17
 73
    13
 74
     0
 42
0.0000000001
 43
0.0000000001
 12
1.0
 22
0.0
 32
0.0
 13
1.0
 23
0.0
 33
0.0
 40
0.0
 40
0.0
 40
0.0
 40
0.0
 40
1.0
 40
1.0
 40
1.0
 40
2.0
 40
2.0
 40
2.0
 40
3.0
 40
3.0
 40
3.0
 40
4.0
 40
4.0
 40
4.0
 40
4.0
 10
107.702982252268
 20
-136.4950138547655
 30
0.0
 10
107.702982252268
 20
-136.4399099658899
 30
0.0
 10
107.6582147534101
 20
-136.3951071881232
 30
0.0
 10
107.6030755881502
 20
-136.3951071881232
 30
0.0
 10
107.5472661451295
 20
-136.3951071881232
 30
0.0
 10
107.5024633684948
 20
-136.4399099658899
 30
0.0
 10
107.5024633684948
 20
-136.4950138547655
 30
0.0
 10
107.5024633684948
 20
-136.5501530214179
 30
0.0
 10
107.5472661451295
 20
-136.5949205214071
 30
0.0
 10
107.6030755881502
 20
-136.5949205214071
 30
0.0
 10
107.6582147534101
 20
-136.5949205214071
 30
0.0
 10
107.702982252268
 20
-136.5501530214179
 30
0.0
 10
107.702982252268
 20
-136.4950138547655
 30
0.0
  0
SPLINE
  5
80
330
41
100
AcDbEntity
  8
_U+30EC_U+30A4_U+30E4_U+30FC 1
 62
     7
420
 16777215
370
     9
100
AcDbSpline
210
0.0
220
0.0
230
1.0
 70
    11
 71
     3
 72
    17
 73
    13
 74
     0
 42
0.0000000001
 43
0.0000000001
 12
1.0
 22
0.0
 32
0.0
 13
1.0
 23
0.0
 33
0.0
 40
0.0
 40
0.0
 40
0.0
 40
0.0
 40
1.0
 40
1.0
 40
1.0
 40
2.0
 40
2.0
 40
2.0
 40
3.0
 40
3.0
 40
3.0
 40
4.0
 40
4.0
 40
4.0
 40
4.0
 10
107.702982252268
 20
-139.4950007984598
 30
0.0
 10
107.702982252268
 20
-139.4398969095842
 30
0.0
 10
107.6582147534101
 20
-139.3950941318182
 30
0.0
 10
107.6030755881502
 20
-139.3950941318182
 30
0.0
 10
107.5472661451295
 20
-139.3950941318182
 30
0.0
 10
107.5024633684948
 20
-139.4398969095842
 30
0.0
 10
107.5024633684948
 20
-139.4950007984598
 30
0.0
 10
107.5024633684948
 20
-139.5501399651122
 30
0.0
 10
107.5472661451295
 20
-139.5949074651014
 30
0.0
 10
107.6030755881502
 20
-139.5949074651014
 30
0.0
 10
107.6582147534101
 20
-139.5949074651014
 30
0.0
 10
107.702982252268
 20
-139.5501399651122
 30
0.0
 10
107.702982252268
 20
-139.4950007984598
 30
0.0
  0
SPLINE
  5
81
330
41
100
AcDbEntity
  8
_U+30EC_U+30A4_U+30E4_U+30FC 1
 62
     7
420
 16777215
370
     9
100
AcDbSpline
210
0.0
220
0.0
230
1.0
 70
    11
 71
     3
 72
    17
 73
    13
 74
     0
 42
0.0000000001
 43
0.0000000001
 12
1.0
 22
0.0
 32
0.0
 13
1.0
 23
0.0
 33
0.0
 40
0.0
 40
0.0
 40
0.0
 40
0.0
 40
1.0
 40
1.0
 40
1.0
 40
2.0
 40
2.0
 40
2.0
 40
3.0
 40
3.0
 40
3.0
 40
4.0
 40
4.0
 40
4.0
 40
4.0
 10
93.70246733167312
 20
-143.5554024641113
 30
0.0
 10
93.70246733167312
 20
-143.5002985752357
 30
0.0
 10
93.65766455503835
 20
-143.4554957974697
 30
0.0
 10
93.60256066755528
 20
-143.4554957974697
 30
0.0
 10
93.54742150229534
 20
-143.4554957974697
 30
0.0
 10
93.50265400343746
 20
-143.5002985752357
 30
0.0
 10
93.50265400343746
 20
-143.5554024641113
 30
0.0
 10
93.50265400343746
 20
-143.6105416307637
 30
0.0
 10
93.54742150229534
 20
-143.6553091307529
 30
0.0
 10
93.60256066755528
 20
-143.6553091307529
 30
0.0
 10
93.65766455503835
 20
-143.6553091307529
 30
0.0
 10
93.70246733167312
 20
-143.6105416307637
 30
0.0
 10
93.70246733167312
 20
-143.5554024641113
 30
0.0
  0
SPLINE
  5
82
330
41
100
AcDbEntity
  8
_U+30EC_U+30A4_U+30E4_U+30FC 1
 62
     7
420
 16777215
370
     9
100
AcDbSpline
210
0.0
220
0.0
230
1.0
 70
    11
 71
     3
 72
    17
 73
    13
 74
     0
 42
0.0000000001
 43
0.0000000001
 12
1.0
 22
0.0
 32
0.0
 13
1.0
 23
0.0
 33
0.0
 40
0.0
 40
0.0
 40
0.0
 40
0.0
 40
1.0
 40
1.0
 40
1.0
 40
2.0
 40
2.0
 40
2.0
 40
3.0
 40
3.0
 40
3.0
 40
4.0
 40
4.0
 40
4.0
 40
4.0
 10
73.7026489530221
 20
-143.5554024641113
 30
0.0
 10
73.7026489530221
 20
-143.5002985752357
 30
0.0
 10
73.65784617638734
 20
-143.4554957974697
 30
0.0
 10
73.60274228890427
 20
-143.4554957974697
 30
0.0
 10
73.54760312364432
 20
-143.4554957974697
 30
0.0
 10
73.50283562478644
 20
-143.5002985752357
 30
0.0
 10
73.50283562478644
 20
-143.5554024641113
 30
0.0
 10
73.50283562478644
 20
-143.6105416307637
 30
0.0
 10
73.54760312364432
 20
-143.6553091307529
 30
0.0
 10
73.60274228890427
 20
-143.6553091307529
 30
0.0
 10
73.65784617638734
 20
-143.6553091307529
 30
0.0
 10
73.7026489530221
 20
-143.6105416307637
 30
0.0
 10
73.7026489530221
 20
-143.5554024641113
 30
0.0
  0
POLYLINE
  5
83
330
41
100
AcDbEntity
  8
_U+30EC_U+30A4_U+30E4_U+30FC 1
 62
     7
420
 16777215
370
     9
100
AcDb2dPolyline
 66
     1
 10
0.0
 20
0.0
 30
0.0
  0
VERTEX
  5
84
330
83
100
AcDbEntity
  8
_U+30EC_U+30A4_U+30E4_U+30FC 1
 62
     7
420
 16777215
370
     9
100
AcDbVertex
100
AcDb2dVertex
 10
107.6030755881502
 20
-119.993374692224
 30
0.0
  0
VERTEX
  5
85
330
83
100
AcDbEntity
  8
_U+30EC_U+30A4_U+30E4_U+30FC 1
 62
     7
420
 16777215
370
     9
100
AcDbVertex
100
AcDb2dVertex
 10
107.6030755881502
 20
-116.2230621931666
 30
0.0
  0
SEQEND
  5
86
330
83
100
AcDbEntity
  8
_U+30EC_U+30A4_U+30E4_U+30FC 1
 62
     7
420
 16777215
370
     9
  0
POLYLINE
  5
87
330
41
100
AcDbEntity
  8
_U+30EC_U+30A4_U+30E4_U+30FC 1
 62
     7
420
 16777215
370
     9
100
AcDb2dPolyline
 66
     1
 10
0.0
 20
0.0
 30
0.0
  0
VERTEX
  5
88
330
87
100
AcDbEntity
  8
_U+30EC_U+30A4_U+30E4_U+30FC 1
 62
     7
420
 16777215
370
     9
100
AcDbVertex
100
AcDb2dVertex
 10
107.6030755881502
 20
-119.993374692224
 30
0.0
  0
VERTEX
  5
89
330
87
100
AcDbEntity
  8
_U+30EC_U+30A4_U+30E4_U+30FC 1
 62
     7
420
 16777215
370
     9
100
AcDbVertex
100
AcDb2dVertex
 10
107.6030755881502
 20
-120.9931469141963
 30
0.0
  0
SEQEND
  5
8A
330
87
100
AcDbEntity
  8
_U+30EC_U+30A4_U+30E4_U+30FC 1
 62
     7
420
 16777215
370
     9
  0
POLYLINE
  5
8B
330
41
100
AcDbEntity
  8
_U+30EC_U+30A4_U+30E4_U+30FC 1
 62
     7
420
 16777215
370
     9
100
AcDb2dPolyline
 66
     1
 10
0.0
 20
0.0
 30
0.0
  0
VERTEX
  5
8C
330
8B
100
AcDbEntity
  8
_U+30EC_U+30A4_U+30E4_U+30FC 1
 62
     7
420
 16777215
370
     9
100
AcDbVertex
100
AcDb2dVertex
 10
106.14303423651
 20
-119.993374692224
 30
0.0
  0
VERTEX
  5
8D
330
8B
100
AcDbEntity
  8
_U+30EC_U+30A4_U+30E4_U+30FC 1
 62
     7
420
 16777215
370
     9
100
AcDbVertex
100
AcDb2dVertex
 10
108.6028477848661
 20
-119.993374692224
 30
0.0
  0
SEQEND
  5
8E
330
8B
100
AcDbEntity
  8
_U+30EC_U+30A4_U+30E4_U+30FC 1
 62
     7
420
 16777215
370
     9
  0
POLYLINE
  5
8F
330
41
100
AcDbEntity
  8
_U+30EC_U+30A4_U+30E4_U+30FC 1
 62
     7
420
 16777215
370
     9
100
AcDb2dPolyline
 66
     1
 10
0.0
 20
0.0
 30
0.0
  0
VERTEX
  5
90
330
8F
100
AcDbEntity
  8
_U+30EC_U+30A4_U+30E4_U+30FC 1
 62
     7
420
 16777215
370
     9
100
AcDbVertex
100
AcDb2dVertex
 10
106.14303423651
 20
-120.9931469141963
 30
0.0
  0
VERTEX
  5
91
330
8F
100
AcDbEntity
  8
_U+30EC_U+30A4_U+30E4_U+30FC 1
 62
     7
420
 16777215
370
     9
100
AcDbVertex
100
AcDb2dVertex
 10
108.6028477848661
 20
-120.9931469141963
 30
0.0
  0
SEQEND
  5
92
330
8F
100
AcDbEntity
  8
_U+30EC_U+30A4_U+30E4_U+30FC 1
 62
     7
420
 16777215
370
     9
  0
INSERT
  5
94
330
41
100
AcDbEntity
  8
_U+30EC_U+30A4_U+30E4_U+30FC 1
100
AcDbBlockReference
  2
block 3
 10
0.0
 20
0.0
 30
0.0
  0
POLYLINE
  5
99
330
41
100
AcDbEntity
  8
_U+30EC_U+30A4_U+30E4_U+30FC 1
 62
     7
420
 16777215
370
     9
100
AcDb2dPolyline
 66
     1
 10
0.0
 20
0.0
 30
0.0
  0
VERTEX
  5
9A
330
99
100
AcDbEntity
  8
_U+30EC_U+30A4_U+30E4_U+30FC 1
 62
     7
420
 16777215
370
     9
100
AcDbVertex
100
AcDb2dVertex
 10
107.6030755881502
 20
-136.4950138547655
 30
0.0
  0
VERTEX
  5
9B
330
99
100
AcDbEntity
  8
_U+30EC_U+30A4_U+30E4_U+30FC 1
 62
     7
420
 16777215
370
     9
100
AcDbVertex
100
AcDb2dVertex
 10
107.6030755881502
 20
-139.4950007984598
 30
0.0
  0
SEQEND
  5
9C
330
99
100
AcDbEntity
  8
_U+30EC_U+30A4_U+30E4_U+30FC 1
 62
     7
420
 16777215
370
     9
  0
POLYLINE
  5
9D
330
41
100
AcDbEntity
  8
_U+30EC_U+30A4_U+30E4_U+30FC 1
 62
     7
420
 16777215
370
     9
100
AcDb2dPolyline
 66
     1
 10
0.0
 20
0.0
 30
0.0
  0
VERTEX
  5
9E
330
9D
100
AcDbEntity
  8
_U+30EC_U+30A4_U+30E4_U+30FC 1
 62
     7
420
 16777215
370
     9
100
AcDbVertex
100
AcDb2dVertex
 10
96.14298393607702
 20
-139.4950007984598
 30
0.0
  0
VERTEX
  5
9F
330
9D
100
AcDbEntity
  8
_U+30EC_U+30A4_U+30E4_U+30FC 1
 62
     7
420
 16777215
370
     9
100
AcDbVertex
100
AcDb2dVertex
 10
108.6028477848661
 20
-139.4950007984598
 30
0.0
  0
SEQEND
  5
A0
330
9D
100
AcDbEntity
  8
_U+30EC_U+30A4_U+30E4_U+30FC 1
 62
     7
420
 16777215
370
     9
  0
INSERT
  5
A2
330
41
100
AcDbEntity
  8
_U+30EC_U+30A4_U+30E4_U+30FC 1
100
AcDbBlockReference
  2
block 4
 10
0.0
 20
0.0
 30
0.0
  0
POLYLINE
  5
A7
330
41
100
AcDbEntity
  8
_U+30EC_U+30A4_U+30E4_U+30FC 1
 62
     7
420
 16777215
370
     9
100
AcDb2dPolyline
 66
     1
 10
0.0
 20
0.0
 30
0.0
  0
VERTEX
  5
A8
330
A7
100
AcDbEntity
  8
_U+30EC_U+30A4_U+30E4_U+30FC 1
 62
     7
420
 16777215
370
     9
100
AcDbVertex
100
AcDb2dVertex
 10
107.6030755881502
 20
-136.3930610770129
 30
0.0
  0
VERTEX
  5
A9
330
A7
100
AcDbEntity
  8
_U+30EC_U+30A4_U+30E4_U+30FC 1
 62
     7
420
 16777215
370
     9
100
AcDbVertex
100
AcDb2dVertex
 10
107.6030755881502
 20
-120.9931469141963
 30
0.0
  0
SEQEND
  5
AA
330
A7
100
AcDbEntity
  8
_U+30EC_U+30A4_U+30E4_U+30FC 1
 62
     7
420
 16777215
370
     9
  0
POLYLINE
  5
AB
330
41
100
AcDbEntity
  8
_U+30EC_U+30A4_U+30E4_U+30FC 1
 62
     7
420
 16777215
370
     9
100
AcDb2dPolyline
 66
     1
 10
0.0
 20
0.0
 30
0.0
  0
VERTEX
  5
AC
330
AB
100
AcDbEntity
  8
_U+30EC_U+30A4_U+30E4_U+30FC 1
 62
     7
420
 16777215
370
     9
100
AcDbVertex
100
AcDb2dVertex
 10
96.14298393607702
 20
-136.4950138547655
 30
0.0
  0
VERTEX
  5
AD
330
AB
100
AcDbEntity
  8
_U+30EC_U+30A4_U+30E4_U+30FC 1
 62
     7
420
 16777215
370
     9
100
AcDbVertex
100
AcDb2dVertex
 10
108.6028477848661
 20
-136.4950138547655
 30
0.0
  0
SEQEND
  5
AE
330
AB
100
AcDbEntity
  8
_U+30EC_U+30A4_U+30E4_U+30FC 1
 62
     7
420
 16777215
370
     9
  0
INSERT
  5
B0
330
41
100
AcDbEntity
  8
_U+30EC_U+30A4_U+30E4_U+30FC 1
100
AcDbBlockReference
  2
block 5
 10
0.0
 20
0.0
 30
0.0
  0
POLYLINE
  5
C1
330
41
100
AcDbEntity
  8
_U+30EC_U+30A4_U+30E4_U+30FC 1
 62
     7
420
 16777215
370
     9
100
AcDb2dPolyline
 66
     1
 10
0.0
 20
0.0
 30
0.0
  0
VERTEX
  5
C2
330
C1
100
AcDbEntity
  8
_U+30EC_U+30A4_U+30E4_U+30FC 1
 62
     7
420
 16777215
370
     9
100
AcDbVertex
100
AcDb2dVertex
 10
73.60274228890427
 20
-143.5554024641113
 30
0.0
  0
VERTEX
  5
C3
330
C1
100
AcDbEntity
  8
_U+30EC_U+30A4_U+30E4_U+30FC 1
 62
     7
420
 16777215
370
     9
100
AcDbVertex
100
AcDb2dVertex
 10
93.60256066755528
 20
-143.5554024641113
 30
0.0
  0
SEQEND
  5
C4
330
C1
100
AcDbEntity
  8
_U+30EC_U+30A4_U+30E4_U+30FC 1
 62
     7
420
 16777215
370
     9
  0
POLYLINE
  5
C5
330
41
100
AcDbEntity
  8
_U+30EC_U+30A4_U+30E4_U+30FC 1
 62
     7
420
 16777215
370
     9
100
AcDb2dPolyline
 66
     1
 10
0.0
 20
0.0
 30
0.0
  0
VERTEX
  5
C6
330
C5
100
AcDbEntity
  8
_U+30EC_U+30A4_U+30E4_U+30FC 1
 62
     7
420
 16777215
370
     9
100
AcDbVertex
100
AcDb2dVertex
 10
73.60274228890427
 20
-142.0953610755876
 30
0.0
  0
VERTEX
  5
C7
330
C5
100
AcDbEntity
  8
_U+30EC_U+30A4_U+30E4_U+30FC 1
 62
     7
420
 16777215
370
     9
100
AcDbVertex
100
AcDb2dVertex
 10
73.60274228890427
 20
-144.5551746860832
 30
0.0
  0
SEQEND
  5
C8
330
C5
100
AcDbEntity
  8
_U+30EC_U+30A4_U+30E4_U+30FC 1
 62
     7
420
 16777215
370
     9
  0
POLYLINE
  5
C9
330
41
100
AcDbEntity
  8
_U+30EC_U+30A4_U+30E4_U+30FC 1
 62
     7
420
 16777215
370
     9
100
AcDb2dPolyline
 66
     1
 10
0.0
 20
0.0
 30
0.0
  0
VERTEX
  5
CA
330
C9
100
AcDbEntity
  8
_U+30EC_U+30A4_U+30E4_U+30FC 1
 62
     7
420
 16777215
370
     9
100
AcDbVertex
100
AcDb2dVertex
 10
93.60256066755528
 20
-142.0953610755876
 30
0.0
  0
VERTEX
  5
CB
330
C9
100
AcDbEntity
  8
_U+30EC_U+30A4_U+30E4_U+30FC 1
 62
     7
420
 16777215
370
     9
100
AcDbVertex
100
AcDb2dVertex
 10
93.60256066755528
 20
-144.5551746860832
 30
0.0
  0
SEQEND
  5
CC
330
C9
100
AcDbEntity
  8
_U+30EC_U+30A4_U+30E4_U+30FC 1
 62
     7
420
 16777215
370
     9
  0
INSERT
  5
CE
330
41
100
AcDbEntity
  8
_U+30EC_U+30A4_U+30E4_U+30FC 1
100
AcDbBlockReference
  2
block 6
 10
0.0
 20
0.0
 30
0.0
  0
POLYLINE
  5
D6
330
41
100
AcDbEntity
  8
_U+30EC_U+30A4_U+30E4_U+30FC 1
 62
     7
420
 16777215
370
     9
100
AcDb2dPolyline
 66
     1
 10
0.0
 20
0.0
 30
0.0
  0
VERTEX
  5
D7
330
D6
100
AcDbEntity
  8
_U+30EC_U+30A4_U+30E4_U+30FC 1
 62
     7
420
 16777215
370
     9
100
AcDbVertex
100
AcDb2dVertex
 10
73.60274228890427
 20
-115.9929099710019
 30
0.0
  0
VERTEX
  5
D8
330
D6
100
AcDbEntity
  8
_U+30EC_U+30A4_U+30E4_U+30FC 1
 62
     7
420
 16777215
370
     9
100
AcDbVertex
100
AcDb2dVertex
 10
103.6026462457652
 20
-115.9929099710019
 30
0.0
  0
SEQEND
  5
D9
330
D6
100
AcDbEntity
  8
_U+30EC_U+30A4_U+30E4_U+30FC 1
 62
     7
420
 16777215
370
     9
  0
POLYLINE
  5
DA
330
41
100
AcDbEntity
  8
_U+30EC_U+30A4_U+30E4_U+30FC 1
 62
     7
420
 16777215
370
     9
100
AcDb2dPolyline
 66
     1
 10
0.0
 20
0.0
 30
0.0
  0
VERTEX
  5
DB
330
DA
100
AcDbEntity
  8
_U+30EC_U+30A4_U+30E4_U+30FC 1
 62
     7
420
 16777215
370
     9
100
AcDbVertex
100
AcDb2dVertex
 10
73.60274228890427
 20
-117.4529513595257
 30
0.0
  0
VERTEX
  5
DC
330
DA
100
AcDbEntity
  8
_U+30EC_U+30A4_U+30E4_U+30FC 1
 62
     7
420
 16777215
370
     9
100
AcDbVertex
100
AcDb2dVertex
 10
73.60274228890427
 20
-114.9931377490294
 30
0.0
  0
SEQEND
  5
DD
330
DA
100
AcDbEntity
  8
_U+30EC_U+30A4_U+30E4_U+30FC 1
 62
     7
420
 16777215
370
     9
  0
POLYLINE
  5
DE
330
41
100
AcDbEntity
  8
_U+30EC_U+30A4_U+30E4_U+30FC 1
 62
     7
420
 16777215
370
     9
100
AcDb2dPolyline
 66
     1
 10
0.0
 20
0.0
 30
0.0
  0
VERTEX
  5
DF
330
DE
100
AcDbEntity
  8
_U+30EC_U+30A4_U+30E4_U+30FC 1
 62
     7
420
 16777215
370
     9
100
AcDbVertex
100
AcDb2dVertex
 10
103.6026462457652
 20
-117.4529513595257
 30
0.0
  0
VERTEX
  5
E0
330
DE
100
AcDbEntity
  8
_U+30EC_U+30A4_U+30E4_U+30FC 1
 62
     7
420
 16777215
370
     9
100
AcDbVertex
100
AcDb2dVertex
 10
103.6026462457652
 20
-114.9931377490294
 30
0.0
  0
SEQEND
  5
E1
330
DE
100
AcDbEntity
  8
_U+30EC_U+30A4_U+30E4_U+30FC 1
 62
     7
420
 16777215
370
     9
  0
INSERT
  5
E3
330
41
100
AcDbEntity
  8
_U+30EC_U+30A4_U+30E4_U+30FC 1
100
AcDbBlockReference
  2
block 7
 10
0.0
 20
0.0
 30
0.0
  0
ENDBLK
  5
44
330
41
100
AcDbEntity
  8
0
100
AcDbBlockEnd
  0
BLOCK
  5
95
330
93
100
AcDbEntity
  8
0
100
AcDbBlockBegin
  2
block 3
 70
     0
 10
0.0
 20
0.0
 30
0.0
  3
block 3
  1

  0
SPLINE
  5
97
330
93
100
AcDbEntity
  8
_U+30EC_U+30A4_U+30E4_U+30FC 1
370
     0
100
AcDbSpline
210
0.0
220
0.0
230
1.0
 70
    11
 71
     3
 72
    26
 73
    22
 74
     0
 42
0.0000000001
 43
0.0000000001
 12
1.0
 22
0.0
 32
0.0
 13
1.0
 23
0.0
 33
0.0
 40
0.0
 40
0.0
 40
0.0
 40
0.0
 40
1.0
 40
1.0
 40
1.0
 40
2.0
 40
2.0
 40
2.0
 40
3.0
 40
3.0
 40
3.0
 40
4.0
 40
4.0
 40
4.0
 40
5.0
 40
5.0
 40
5.0
 40
6.0
 40
6.0
 40
6.0
 40
7.0
 40
7.0
 40
7.0
 40
7.0
 10
106.0755235194881
 20
-120.6875515106267
 30
0.0
 10
106.0755235194881
 20
-120.6875515106267
 30
0.0
 10
104.9713704164655
 20
-120.6875515106267
 30
0.0
 10
104.9713704164655
 20
-120.6875515106267
 30
0.0
 10
104.9713704164655
 20
-120.6875515106267
 30
0.0
 10
104.9713704164655
 20
-121.0175916581137
 30
0.0
 10
104.9713704164655
 20
-121.0175916581137
 30
0.0
 10
104.9713704164655
 20
-121.0175916581137
 30
0.0
 10
104.8232313105998
 20
-121.0175916581137
 30
0.0
 10
104.8232313105998
 20
-121.0175916581137
 30
0.0
 10
104.8084174000132
 20
-120.6854844533356
 30
0.0
 10
104.6454643835609
 20
-120.6389756642847
 30
0.0
 10
104.5310872134506
 20
-120.6093478431116
 30
0.0
 10
104.5310872134506
 20
-120.6093478431116
 30
0.0
 10
104.5310872134506
 20
-120.463275794537
 30
0.0
 10
104.5310872134506
 20
-120.463275794537
 30
0.0
 10
104.5310872134506
 20
-120.463275794537
 30
0.0
 10
106.0755235194881
 20
-120.463275794537
 30
0.0
 10
106.0755235194881
 20
-120.463275794537
 30
0.0
 10
106.0755235194881
 20
-120.463275794537
 30
0.0
 10
106.0755235194881
 20
-120.6875515106267
 30
0.0
 10
106.0755235194881
 20
-120.6875515106267
 30
0.0
  0
HATCH
  5
98
330
93
100
AcDbEntity
  8
_U+30EC_U+30A4_U+30E4_U+30FC 1
 62
     7
420
 16777215
100
AcDbHatch
 10
0.0
 20
0.0
 30
0.0
210
0.0
220
0.0
230
1.0
  2
SOLID
 70
     1
 71
     0
 91
        1
 92
        1
 93
        1
 72
     4
 94
        3
 73
     0
 74
     1
 95
       26
 96
       22
 40
0.0
 40
0.0
 40
0.0
 40
0.0
 40
1.0
 40
1.0
 40
1.0
 40
2.0
 40
2.0
 40
2.0
 40
3.0
 40
3.0
 40
3.0
 40
4.0
 40
4.0
 40
4.0
 40
5.0
 40
5.0
 40
5.0
 40
6.0
 40
6.0
 40
6.0
 40
7.0
 40
7.0
 40
7.0
 40
7.0
 10
106.0755235194881
 20
-120.6875515106267
 10
106.0755235194881
 20
-120.6875515106267
 10
104.9713704164655
 20
-120.6875515106267
 10
104.9713704164655
 20
-120.6875515106267
 10
104.9713704164655
 20
-120.6875515106267
 10
104.9713704164655
 20
-121.0175916581137
 10
104.9713704164655
 20
-121.0175916581137
 10
104.9713704164655
 20
-121.0175916581137
 10
104.8232313105998
 20
-121.0175916581137
 10
104.8232313105998
 20
-121.0175916581137
 10
104.8084174000132
 20
-120.6854844533356
 10
104.6454643835609
 20
-120.6389756642847
 10
104.5310872134506
 20
-120.6093478431116
 10
104.5310872134506
 20
-120.6093478431116
 10
104.5310872134506
 20
-120.463275794537
 10
104.5310872134506
 20
-120.463275794537
 10
104.5310872134506
 20
-120.463275794537
 10
106.0755235194881
 20
-120.463275794537
 10
106.0755235194881
 20
-120.463275794537
 10
106.0755235194881
 20
-120.463275794537
 10
106.0755235194881
 20
-120.6875515106267
 10
106.0755235194881
 20
-120.6875515106267
 97
        0
 97
        0
 75
     2
 76
     1
 98
        0
  0
ENDBLK
  5
96
330
93
100
AcDbEntity
  8
0
100
AcDbBlockEnd
  0
BLOCK
  5
A3
330
A1
100
AcDbEntity
  8
0
100
AcDbBlockBegin
  2
block 4
 70
     0
 10
0.0
 20
0.0
 30
0.0
  3
block 4
  1

  0
SPLINE
  5
A5
330
A1
100
AcDbEntity
  8
_U+30EC_U+30A4_U+30E4_U+30FC 1
370
     0
100
AcDbSpline
210
0.0
220
0.0
230
1.0
 70
    11
 71
     3
 72
    62
 73
    58
 74
     0
 42
0.0000000001
 43
0.0000000001
 12
1.0
 22
0.0
 32
0.0
 13
1.0
 23
0.0
 33
0.0
 40
0.0
 40
0.0
 40
0.0
 40
0.0
 40
1.0
 40
1.0
 40
1.0
 40
2.0
 40
2.0
 40
2.0
 40
3.0
 40
3.0
 40
3.0
 40
4.0
 40
4.0
 40
4.0
 40
5.0
 40
5.0
 40
5.0
 40
6.0
 40
6.0
 40
6.0
 40
7.0
 40
7.0
 40
7.0
 40
8.0
 40
8.0
 40
8.0
 40
9.0
 40
9.0
 40
9.0
 40
10.0
 40
10.0
 40
10.0
 40
11.0
 40
11.0
 40
11.0
 40
12.0
 40
12.0
 40
12.0
 40
13.0
 40
13.0
 40
13.0
 40
14.0
 40
14.0
 40
14.0
 40
15.0
 40
15.0
 40
15.0
 40
16.0
 40
16.0
 40
16.0
 40
17.0
 40
17.0
 40
17.0
 40
18.0
 40
18.0
 40
18.0
 40
19.0
 40
19.0
 40
19.0
 40
19.0
 10
106.1261664231212
 20
-138.003634948138
 30
0.0
 10
106.1261664231212
 20
-138.0990640930794
 30
0.0
 10
106.1051513406612
 20
-138.3167941277472
 30
0.0
 10
105.9191161844577
 20
-138.4418510938618
 30
0.0
 10
105.8068060716386
 20
-138.5155761372461
 30
0.0
 10
105.7075873216634
 20
-138.5200547613769
 30
0.0
 10
105.6228379727262
 20
-138.5241888759592
 30
0.0
 10
105.6228379727262
 20
-138.5241888759592
 30
0.0
 10
105.6228379727262
 20
-138.3040472744518
 30
0.0
 10
105.6228379727262
 20
-138.3040472744518
 30
0.0
 10
105.6969075256591
 20
-138.3019802171606
 30
0.0
 10
105.9315185282046
 20
-138.2916449307049
 30
0.0
 10
105.9315185282046
 20
-138.0081135722688
 30
0.0
 10
105.9315185282046
 20
-137.8706542624074
 30
0.0
 10
105.8619275994026
 20
-137.7180365324108
 30
0.0
 10
105.6335177687305
 20
-137.7180365324108
 30
0.0
 10
105.5170735413291
 20
-137.7180365324108
 30
0.0
 10
105.4684976949871
 20
-137.756277092297
 30
0.0
 10
105.4368028165227
 20
-137.7879719707613
 30
0.0
 10
105.3627332635899
 20
-137.8620415236942
 30
0.0
 10
105.3499864102944
 20
-137.9784857510957
 30
0.0
 10
105.3499864102944
 20
-138.0332627693111
 30
0.0
 10
105.3499864102944
 20
-138.0525553040285
 30
0.0
 10
105.3520534675856
 20
-138.0883842970751
 30
0.0
 10
105.3561875821679
 20
-138.1159450609571
 30
0.0
 10
105.3561875821679
 20
-138.1159450609571
 30
0.0
 10
105.1615396872513
 20
-138.1159450609571
 30
0.0
 10
105.1615396872513
 20
-138.1159450609571
 30
0.0
 10
105.1680853686733
 20
-138.0777045010709
 30
0.0
 10
105.1701524259644
 20
-138.0356743361508
 30
0.0
 10
105.1701524259644
 20
-138.0291286547288
 30
0.0
 10
105.1701524259644
 20
-137.9636718405091
 30
0.0
 10
105.1487928339559
 20
-137.7648898310102
 30
0.0
 10
104.9121147741192
 20
-137.7648898310102
 30
0.0
 10
104.7343478470803
 20
-137.7648898310102
 30
0.0
 10
104.6792263193163
 20
-137.8958034594497
 30
0.0
 10
104.6792263193163
 20
-138.0060465149777
 30
0.0
 10
104.6792263193163
 20
-138.2702853386963
 30
0.0
 10
104.9121147741192
 20
-138.2788980774095
 30
0.0
 10
104.9837727602124
 20
-138.2830321919917
 30
0.0
 10
104.9837727602124
 20
-138.2830321919917
 30
0.0
 10
104.9837727602124
 20
-138.4862928256215
 30
0.0
 10
104.9837727602124
 20
-138.4862928256215
 30
0.0
 10
104.8590603036463
 20
-138.4776800869084
 30
0.0
 10
104.4825113671085
 20
-138.4501193230264
 30
0.0
 10
104.4825113671085
 20
-137.9932996616822
 30
0.0
 10
104.4825113671085
 20
-137.7690239455925
 30
0.0
 10
104.6096353905143
 20
-137.527867261625
 30
0.0
 10
104.9055690926972
 20
-137.527867261625
 30
0.0
 10
105.0919487584492
 20
-137.527867261625
 30
0.0
 10
105.1742865405467
 20
-137.6229518970179
 30
0.0
 10
105.2356092401842
 20
-137.7225151565416
 30
0.0
 10
105.2631700040662
 20
-137.6611924569042
 30
0.0
 10
105.3434407288725
 20
-137.479291415283
 30
0.0
 10
105.6207709154351
 20
-137.479291415283
 30
0.0
 10
105.9590792920866
 20
-137.479291415283
 30
0.0
 10
106.1261664231212
 20
-137.7266492711239
 30
0.0
 10
106.1261664231212
 20
-138.003634948138
 30
0.0
  0
HATCH
  5
A6
330
A1
100
AcDbEntity
  8
_U+30EC_U+30A4_U+30E4_U+30FC 1
 62
     7
420
 16777215
100
AcDbHatch
 10
0.0
 20
0.0
 30
0.0
210
0.0
220
0.0
230
1.0
  2
SOLID
 70
     1
 71
     0
 91
        1
 92
        1
 93
        1
 72
     4
 94
        3
 73
     0
 74
     1
 95
       62
 96
       58
 40
0.0
 40
0.0
 40
0.0
 40
0.0
 40
1.0
 40
1.0
 40
1.0
 40
2.0
 40
2.0
 40
2.0
 40
3.0
 40
3.0
 40
3.0
 40
4.0
 40
4.0
 40
4.0
 40
5.0
 40
5.0
 40
5.0
 40
6.0
 40
6.0
 40
6.0
 40
7.0
 40
7.0
 40
7.0
 40
8.0
 40
8.0
 40
8.0
 40
9.0
 40
9.0
 40
9.0
 40
10.0
 40
10.0
 40
10.0
 40
11.0
 40
11.0
 40
11.0
 40
12.0
 40
12.0
 40
12.0
 40
13.0
 40
13.0
 40
13.0
 40
14.0
 40
14.0
 40
14.0
 40
15.0
 40
15.0
 40
15.0
 40
16.0
 40
16.0
 40
16.0
 40
17.0
 40
17.0
 40
17.0
 40
18.0
 40
18.0
 40
18.0
 40
19.0
 40
19.0
 40
19.0
 40
19.0
 10
106.1261664231212
 20
-138.003634948138
 10
106.1261664231212
 20
-138.0990640930794
 10
106.1051513406612
 20
-138.3167941277472
 10
105.9191161844577
 20
-138.4418510938618
 10
105.8068060716386
 20
-138.5155761372461
 10
105.7075873216634
 20
-138.5200547613769
 10
105.6228379727262
 20
-138.5241888759592
 10
105.6228379727262
 20
-138.5241888759592
 10
105.6228379727262
 20
-138.3040472744518
 10
105.6228379727262
 20
-138.3040472744518
 10
105.6969075256591
 20
-138.3019802171606
 10
105.9315185282046
 20
-138.2916449307049
 10
105.9315185282046
 20
-138.0081135722688
 10
105.9315185282046
 20
-137.8706542624074
 10
105.8619275994026
 20
-137.7180365324108
 10
105.6335177687305
 20
-137.7180365324108
 10
105.5170735413291
 20
-137.7180365324108
 10
105.4684976949871
 20
-137.756277092297
 10
105.4368028165227
 20
-137.7879719707613
 10
105.3627332635899
 20
-137.8620415236942
 10
105.3499864102944
 20
-137.9784857510957
 10
105.3499864102944
 20
-138.0332627693111
 10
105.3499864102944
 20
-138.0525553040285
 10
105.3520534675856
 20
-138.0883842970751
 10
105.3561875821679
 20
-138.1159450609571
 10
105.3561875821679
 20
-138.1159450609571
 10
105.1615396872513
 20
-138.1159450609571
 10
105.1615396872513
 20
-138.1159450609571
 10
105.1680853686733
 20
-138.0777045010709
 10
105.1701524259644
 20
-138.0356743361508
 10
105.1701524259644
 20
-138.0291286547288
 10
105.1701524259644
 20
-137.9636718405091
 10
105.1487928339559
 20
-137.7648898310102
 10
104.9121147741192
 20
-137.7648898310102
 10
104.7343478470803
 20
-137.7648898310102
 10
104.6792263193163
 20
-137.8958034594497
 10
104.6792263193163
 20
-138.0060465149777
 10
104.6792263193163
 20
-138.2702853386963
 10
104.9121147741192
 20
-138.2788980774095
 10
104.9837727602124
 20
-138.2830321919917
 10
104.9837727602124
 20
-138.2830321919917
 10
104.9837727602124
 20
-138.4862928256215
 10
104.9837727602124
 20
-138.4862928256215
 10
104.8590603036463
 20
-138.4776800869084
 10
104.4825113671085
 20
-138.4501193230264
 10
104.4825113671085
 20
-137.9932996616822
 10
104.4825113671085
 20
-137.7690239455925
 10
104.6096353905143
 20
-137.527867261625
 10
104.9055690926972
 20
-137.527867261625
 10
105.0919487584492
 20
-137.527867261625
 10
105.1742865405467
 20
-137.6229518970179
 10
105.2356092401842
 20
-137.7225151565416
 10
105.2631700040662
 20
-137.6611924569042
 10
105.3434407288725
 20
-137.479291415283
 10
105.6207709154351
 20
-137.479291415283
 10
105.9590792920866
 20
-137.479291415283
 10
106.1261664231212
 20
-137.7266492711239
 10
106.1261664231212
 20
-138.003634948138
 97
        0
 97
        0
 75
     2
 76
     1
 98
        0
  0
ENDBLK
  5
A4
330
A1
100
AcDbEntity
  8
0
100
AcDbBlockEnd
  0
BLOCK
  5
B1
330
AF
100
AcDbEntity
  8
0
100
AcDbBlockBegin
  2
block 5
 70
     0
 10
0.0
 20
0.0
 30
0.0
  3
block 5
  1

  0
SPLINE
  5
B3
330
AF
100
AcDbEntity
  8
_U+30EC_U+30A4_U+30E4_U+30FC 1
370
     0
100
AcDbSpline
210
0.0
220
0.0
230
1.0
 70
    11
 71
     3
 72
    26
 73
    22
 74
     0
 42
0.0000000001
 43
0.0000000001
 12
1.0
 22
0.0
 32
0.0
 13
1.0
 23
0.0
 33
0.0
 40
0.0
 40
0.0
 40
0.0
 40
0.0
 40
1.0
 40
1.0
 40
1.0
 40
2.0
 40
2.0
 40
2.0
 40
3.0
 40
3.0
 40
3.0
 40
4.0
 40
4.0
 40
4.0
 40
5.0
 40
5.0
 40
5.0
 40
6.0
 40
6.0
 40
6.0
 40
7.0
 40
7.0
 40
7.0
 40
7.0
 10
106.0755235194881
 20
-130.2439018771612
 30
0.0
 10
106.0755235194881
 20
-130.2439018771612
 30
0.0
 10
104.9713704164655
 20
-130.2439018771612
 30
0.0
 10
104.9713704164655
 20
-130.2439018771612
 30
0.0
 10
104.9713704164655
 20
-130.2439018771612
 30
0.0
 10
104.9713704164655
 20
-130.5739420246482
 30
0.0
 10
104.9713704164655
 20
-130.5739420246482
 30
0.0
 10
104.9713704164655
 20
-130.5739420246482
 30
0.0
 10
104.8232313105998
 20
-130.5739420246482
 30
0.0
 10
104.8232313105998
 20
-130.5739420246482
 30
0.0
 10
104.8084174000132
 20
-130.2418348198701
 30
0.0
 10
104.6454643835609
 20
-130.1953260308192
 30
0.0
 10
104.5310872134506
 20
-130.1656982096461
 30
0.0
 10
104.5310872134506
 20
-130.1656982096461
 30
0.0
 10
104.5310872134506
 20
-130.0196261610715
 30
0.0
 10
104.5310872134506
 20
-130.0196261610715
 30
0.0
 10
104.5310872134506
 20
-130.0196261610715
 30
0.0
 10
106.0755235194881
 20
-130.0196261610715
 30
0.0
 10
106.0755235194881
 20
-130.0196261610715
 30
0.0
 10
106.0755235194881
 20
-130.0196261610715
 30
0.0
 10
106.0755235194881
 20
-130.2439018771612
 30
0.0
 10
106.0755235194881
 20
-130.2439018771612
 30
0.0
  0
HATCH
  5
B4
330
AF
100
AcDbEntity
  8
_U+30EC_U+30A4_U+30E4_U+30FC 1
 62
     7
420
 16777215
100
AcDbHatch
 10
0.0
 20
0.0
 30
0.0
210
0.0
220
0.0
230
1.0
  2
SOLID
 70
     1
 71
     0
 91
        1
 92
        1
 93
        1
 72
     4
 94
        3
 73
     0
 74
     1
 95
       26
 96
       22
 40
0.0
 40
0.0
 40
0.0
 40
0.0
 40
1.0
 40
1.0
 40
1.0
 40
2.0
 40
2.0
 40
2.0
 40
3.0
 40
3.0
 40
3.0
 40
4.0
 40
4.0
 40
4.0
 40
5.0
 40
5.0
 40
5.0
 40
6.0
 40
6.0
 40
6.0
 40
7.0
 40
7.0
 40
7.0
 40
7.0
 10
106.0755235194881
 20
-130.2439018771612
 10
106.0755235194881
 20
-130.2439018771612
 10
104.9713704164655
 20
-130.2439018771612
 10
104.9713704164655
 20
-130.2439018771612
 10
104.9713704164655
 20
-130.2439018771612
 10
104.9713704164655
 20
-130.5739420246482
 10
104.9713704164655
 20
-130.5739420246482
 10
104.9713704164655
 20
-130.5739420246482
 10
104.8232313105998
 20
-130.5739420246482
 10
104.8232313105998
 20
-130.5739420246482
 10
104.8084174000132
 20
-130.2418348198701
 10
104.6454643835609
 20
-130.1953260308192
 10
104.5310872134506
 20
-130.1656982096461
 10
104.5310872134506
 20
-130.1656982096461
 10
104.5310872134506
 20
-130.0196261610715
 10
104.5310872134506
 20
-130.0196261610715
 10
104.5310872134506
 20
-130.0196261610715
 10
106.0755235194881
 20
-130.0196261610715
 10
106.0755235194881
 20
-130.0196261610715
 10
106.0755235194881
 20
-130.0196261610715
 10
106.0755235194881
 20
-130.2439018771612
 10
106.0755235194881
 20
-130.2439018771612
 97
        0
 97
        0
 75
     2
 76
     1
 98
        0
  0
SPLINE
  5
B5
330
AF
100
AcDbEntity
  8
_U+30EC_U+30A4_U+30E4_U+30FC 1
370
     0
100
AcDbSpline
210
0.0
220
0.0
230
1.0
 70
    11
 71
     3
 72
    53
 73
    49
 74
     0
 42
0.0000000001
 43
0.0000000001
 12
1.0
 22
0.0
 32
0.0
 13
1.0
 23
0.0
 33
0.0
 40
0.0
 40
0.0
 40
0.0
 40
0.0
 40
1.0
 40
1.0
 40
1.0
 40
2.0
 40
2.0
 40
2.0
 40
3.0
 40
3.0
 40
3.0
 40
4.0
 40
4.0
 40
4.0
 40
5.0
 40
5.0
 40
5.0
 40
6.0
 40
6.0
 40
6.0
 40
7.0
 40
7.0
 40
7.0
 40
8.0
 40
8.0
 40
8.0
 40
9.0
 40
9.0
 40
9.0
 40
10.0
 40
10.0
 40
10.0
 40
11.0
 40
11.0
 40
11.0
 40
12.0
 40
12.0
 40
12.0
 40
13.0
 40
13.0
 40
13.0
 40
14.0
 40
14.0
 40
14.0
 40
15.0
 40
15.0
 40
15.0
 40
16.0
 40
16.0
 40
16.0
 40
16.0
 10
106.1261664231212
 20
-129.0374294382268
 30
0.0
 10
106.1261664231212
 20
-129.1156331057419
 30
0.0
 10
106.1092854552435
 20
-129.2172634225568
 30
0.0
 10
106.0458956983149
 20
-129.3188937393717
 30
0.0
 10
105.9359971523354
 20
-129.4921820422798
 30
0.0
 10
105.8047390143474
 20
-129.5135416342883
 30
0.0
 10
105.6969075256591
 20
-129.5324896594572
 30
0.0
 10
105.6969075256591
 20
-129.5324896594572
 30
0.0
 10
105.6969075256591
 20
-129.3102810006585
 30
0.0
 10
105.6969075256591
 20
-129.3102810006585
 30
0.0
 10
105.895689535158
 20
-129.2555039824431
 30
0.0
 10
105.9253173563312
 20
-129.1283799590373
 30
0.0
 10
105.9253173563312
 20
-129.0353623809356
 30
0.0
 10
105.9253173563312
 20
-128.895836013783
 30
0.0
 10
105.8257540968075
 20
-128.7435627933349
 30
0.0
 10
105.5932101515531
 20
-128.7435627933349
 30
0.0
 10
105.337239556999
 20
-128.7435627933349
 30
0.0
 10
105.2673041186485
 20
-128.923396777665
 30
0.0
 10
105.2673041186485
 20
-129.0439751196487
 30
0.0
 10
105.2673041186485
 20
-129.075669998113
 30
0.0
 10
105.2673041186485
 20
-129.2172634225568
 30
0.0
 10
105.3964951993453
 20
-129.3061468860762
 30
0.0
 10
105.3964951993453
 20
-129.3061468860762
 30
0.0
 10
105.3775471741765
 20
-129.481846755824
 30
0.0
 10
105.3775471741765
 20
-129.481846755824
 30
0.0
 10
105.3775471741765
 20
-129.481846755824
 30
0.0
 10
104.5310872134506
 20
-129.3612684138402
 30
0.0
 10
104.5310872134506
 20
-129.3612684138402
 30
0.0
 10
104.5310872134506
 20
-129.3612684138402
 30
0.0
 10
104.5310872134506
 20
-128.5826768341738
 30
0.0
 10
104.5310872134506
 20
-128.5826768341738
 30
0.0
 10
104.5310872134506
 20
-128.5826768341738
 30
0.0
 10
104.7257351083672
 20
-128.5826768341738
 30
0.0
 10
104.7257351083672
 20
-128.5826768341738
 30
0.0
 10
104.7257351083672
 20
-128.5826768341738
 30
0.0
 10
104.7257351083672
 20
-129.1983153973879
 30
0.0
 10
104.7257351083672
 20
-129.1983153973879
 30
0.0
 10
104.7257351083672
 20
-129.1983153973879
 30
0.0
 10
105.1487928339559
 20
-129.2637722116077
 30
0.0
 10
105.1487928339559
 20
-129.2637722116077
 30
0.0
 10
105.1150308982004
 20
-129.2024495119702
 30
0.0
 10
105.074723281023
 20
-129.1201117298727
 30
0.0
 10
105.074723281023
 20
-129.0016004451802
 30
0.0
 10
105.074723281023
 20
-128.7476969079173
 30
0.0
 10
105.261102946775
 20
-128.5106743385321
 30
0.0
 10
105.5742621263842
 20
-128.5106743385321
 30
0.0
 10
105.8915554205757
 20
-128.5106743385321
 30
0.0
 10
106.1261664231212
 20
-128.7349500546218
 30
0.0
 10
106.1261664231212
 20
-129.0374294382268
 30
0.0
  0
HATCH
  5
B6
330
AF
100
AcDbEntity
  8
_U+30EC_U+30A4_U+30E4_U+30FC 1
 62
     7
420
 16777215
100
AcDbHatch
 10
0.0
 20
0.0
 30
0.0
210
0.0
220
0.0
230
1.0
  2
SOLID
 70
     1
 71
     0
 91
        1
 92
        1
 93
        1
 72
     4
 94
        3
 73
     0
 74
     1
 95
       53
 96
       49
 40
0.0
 40
0.0
 40
0.0
 40
0.0
 40
1.0
 40
1.0
 40
1.0
 40
2.0
 40
2.0
 40
2.0
 40
3.0
 40
3.0
 40
3.0
 40
4.0
 40
4.0
 40
4.0
 40
5.0
 40
5.0
 40
5.0
 40
6.0
 40
6.0
 40
6.0
 40
7.0
 40
7.0
 40
7.0
 40
8.0
 40
8.0
 40
8.0
 40
9.0
 40
9.0
 40
9.0
 40
10.0
 40
10.0
 40
10.0
 40
11.0
 40
11.0
 40
11.0
 40
12.0
 40
12.0
 40
12.0
 40
13.0
 40
13.0
 40
13.0
 40
14.0
 40
14.0
 40
14.0
 40
15.0
 40
15.0
 40
15.0
 40
16.0
 40
16.0
 40
16.0
 40
16.0
 10
106.1261664231212
 20
-129.0374294382268
 10
106.1261664231212
 20
-129.1156331057419
 10
106.1092854552435
 20
-129.2172634225568
 10
106.0458956983149
 20
-129.3188937393717
 10
105.9359971523354
 20
-129.4921820422798
 10
105.8047390143474
 20
-129.5135416342883
 10
105.6969075256591
 20
-129.5324896594572
 10
105.6969075256591
 20
-129.5324896594572
 10
105.6969075256591
 20
-129.3102810006585
 10
105.6969075256591
 20
-129.3102810006585
 10
105.895689535158
 20
-129.2555039824431
 10
105.9253173563312
 20
-129.1283799590373
 10
105.9253173563312
 20
-129.0353623809356
 10
105.9253173563312
 20
-128.895836013783
 10
105.8257540968075
 20
-128.7435627933349
 10
105.5932101515531
 20
-128.7435627933349
 10
105.337239556999
 20
-128.7435627933349
 10
105.2673041186485
 20
-128.923396777665
 10
105.2673041186485
 20
-129.0439751196487
 10
105.2673041186485
 20
-129.075669998113
 10
105.2673041186485
 20
-129.2172634225568
 10
105.3964951993453
 20
-129.3061468860762
 10
105.3964951993453
 20
-129.3061468860762
 10
105.3775471741765
 20
-129.481846755824
 10
105.3775471741765
 20
-129.481846755824
 10
105.3775471741765
 20
-129.481846755824
 10
104.5310872134506
 20
-129.3612684138402
 10
104.5310872134506
 20
-129.3612684138402
 10
104.5310872134506
 20
-129.3612684138402
 10
104.5310872134506
 20
-128.5826768341738
 10
104.5310872134506
 20
-128.5826768341738
 10
104.5310872134506
 20
-128.5826768341738
 10
104.7257351083672
 20
-128.5826768341738
 10
104.7257351083672
 20
-128.5826768341738
 10
104.7257351083672
 20
-128.5826768341738
 10
104.7257351083672
 20
-129.1983153973879
 10
104.7257351083672
 20
-129.1983153973879
 10
104.7257351083672
 20
-129.1983153973879
 10
105.1487928339559
 20
-129.2637722116077
 10
105.1487928339559
 20
-129.2637722116077
 10
105.1150308982004
 20
-129.2024495119702
 10
105.074723281023
 20
-129.1201117298727
 10
105.074723281023
 20
-129.0016004451802
 10
105.074723281023
 20
-128.7476969079173
 10
105.261102946775
 20
-128.5106743385321
 10
105.5742621263842
 20
-128.5106743385321
 10
105.8915554205757
 20
-128.5106743385321
 10
106.1261664231212
 20
-128.7349500546218
 10
106.1261664231212
 20
-129.0374294382268
 97
        0
 97
        0
 75
     2
 76
     1
 98
        0
  0
POLYLINE
  5
B7
330
AF
100
AcDbEntity
  8
_U+30EC_U+30A4_U+30E4_U+30FC 1
370
     0
100
AcDb2dPolyline
 66
     1
 10
0.0
 20
0.0
 30
0.0
  0
VERTEX
  5
B8
330
B7
100
AcDbEntity
  8
_U+30EC_U+30A4_U+30E4_U+30FC 1
370
     0
100
AcDbVertex
100
AcDb2dVertex
 10
106.0755235194881
 20
-128.2815754887629
 30
0.0
  0
VERTEX
  5
B9
330
B7
100
AcDbEntity
  8
_U+30EC_U+30A4_U+30E4_U+30FC 1
370
     0
100
AcDbVertex
100
AcDb2dVertex
 10
105.8236870395163
 20
-128.2815754887629
 30
0.0
  0
VERTEX
  5
BA
330
B7
100
AcDbEntity
  8
_U+30EC_U+30A4_U+30E4_U+30FC 1
370
     0
100
AcDbVertex
100
AcDb2dVertex
 10
105.8236870395163
 20
-128.0297390087912
 30
0.0
  0
VERTEX
  5
BB
330
B7
100
AcDbEntity
  8
_U+30EC_U+30A4_U+30E4_U+30FC 1
370
     0
100
AcDbVertex
100
AcDb2dVertex
 10
106.0755235194881
 20
-128.0297390087912
 30
0.0
  0
VERTEX
  5
BC
330
B7
100
AcDbEntity
  8
_U+30EC_U+30A4_U+30E4_U+30FC 1
370
     0
100
AcDbVertex
100
AcDb2dVertex
 10
106.0755235194881
 20
-128.2815754887629
 30
0.0
  0
SEQEND
  5
BD
330
B7
100
AcDbEntity
  8
_U+30EC_U+30A4_U+30E4_U+30FC 1
370
     0
  0
HATCH
  5
BE
330
AF
100
AcDbEntity
  8
_U+30EC_U+30A4_U+30E4_U+30FC 1
 62
     7
420
 16777215
100
AcDbHatch
 10
0.0
 20
0.0
 30
0.0
210
0.0
220
0.0
230
1.0
  2
SOLID
 70
     1
 71
     0
 91
        1
 92
        1
 93
        4
 72
     1
 10
106.0755235194881
 20
-128.2815754887629
 11
105.8236870395163
 21
-128.2815754887629
 72
     1
 10
105.8236870395163
 20
-128.2815754887629
 11
105.8236870395163
 21
-128.0297390087912
 72
     1
 10
105.8236870395163
 20
-128.0297390087912
 11
106.0755235194881
 21
-128.0297390087912
 72
     1
 10
106.0755235194881
 20
-128.0297390087912
 11
106.0755235194881
 21
-128.2815754887629
 97
        0
 75
     2
 76
     1
 98
        0
  0
SPLINE
  5
BF
330
AF
100
AcDbEntity
  8
_U+30EC_U+30A4_U+30E4_U+30FC 1
370
     0
100
AcDbSpline
210
0.0
220
0.0
230
1.0
 70
    11
 71
     3
 72
    53
 73
    49
 74
     0
 42
0.0000000001
 43
0.0000000001
 12
1.0
 22
0.0
 32
0.0
 13
1.0
 23
0.0
 33
0.0
 40
0.0
 40
0.0
 40
0.0
 40
0.0
 40
1.0
 40
1.0
 40
1.0
 40
2.0
 40
2.0
 40
2.0
 40
3.0
 40
3.0
 40
3.0
 40
4.0
 40
4.0
 40
4.0
 40
5.0
 40
5.0
 40
5.0
 40
6.0
 40
6.0
 40
6.0
 40
7.0
 40
7.0
 40
7.0
 40
8.0
 40
8.0
 40
8.0
 40
9.0
 40
9.0
 40
9.0
 40
10.0
 40
10.0
 40
10.0
 40
11.0
 40
11.0
 40
11.0
 40
12.0
 40
12.0
 40
12.0
 40
13.0
 40
13.0
 40
13.0
 40
14.0
 40
14.0
 40
14.0
 40
15.0
 40
15.0
 40
15.0
 40
16.0
 40
16.0
 40
16.0
 40
16.0
 10
106.1261664231212
 20
-127.3124701287622
 30
0.0
 10
106.1261664231212
 20
-127.3906737962773
 30
0.0
 10
106.1092854552435
 20
-127.4923041130922
 30
0.0
 10
106.0458956983149
 20
-127.5939344299071
 30
0.0
 10
105.9359971523354
 20
-127.7672227328151
 30
0.0
 10
105.8047390143474
 20
-127.7885823248237
 30
0.0
 10
105.6969075256591
 20
-127.8075303499926
 30
0.0
 10
105.6969075256591
 20
-127.8075303499926
 30
0.0
 10
105.6969075256591
 20
-127.585321691194
 30
0.0
 10
105.6969075256591
 20
-127.585321691194
 30
0.0
 10
105.895689535158
 20
-127.5305446729785
 30
0.0
 10
105.9253173563312
 20
-127.4034206495728
 30
0.0
 10
105.9253173563312
 20
-127.310403071471
 30
0.0
 10
105.9253173563312
 20
-127.1708767043184
 30
0.0
 10
105.8257540968075
 20
-127.0186034838704
 30
0.0
 10
105.5932101515531
 20
-127.0186034838704
 30
0.0
 10
105.337239556999
 20
-127.0186034838704
 30
0.0
 10
105.2673041186485
 20
-127.1984374682004
 30
0.0
 10
105.2673041186485
 20
-127.3190158101841
 30
0.0
 10
105.2673041186485
 20
-127.3507106886484
 30
0.0
 10
105.2673041186485
 20
-127.4923041130922
 30
0.0
 10
105.3964951993453
 20
-127.5811875766117
 30
0.0
 10
105.3964951993453
 20
-127.5811875766117
 30
0.0
 10
105.3775471741765
 20
-127.7568874463594
 30
0.0
 10
105.3775471741765
 20
-127.7568874463594
 30
0.0
 10
105.3775471741765
 20
-127.7568874463594
 30
0.0
 10
104.5310872134506
 20
-127.6363091043757
 30
0.0
 10
104.5310872134506
 20
-127.6363091043757
 30
0.0
 10
104.5310872134506
 20
-127.6363091043757
 30
0.0
 10
104.5310872134506
 20
-126.8577175247092
 30
0.0
 10
104.5310872134506
 20
-126.8577175247092
 30
0.0
 10
104.5310872134506
 20
-126.8577175247092
 30
0.0
 10
104.7257351083672
 20
-126.8577175247092
 30
0.0
 10
104.7257351083672
 20
-126.8577175247092
 30
0.0
 10
104.7257351083672
 20
-126.8577175247092
 30
0.0
 10
104.7257351083672
 20
-127.4733560879233
 30
0.0
 10
104.7257351083672
 20
-127.4733560879233
 30
0.0
 10
104.7257351083672
 20
-127.4733560879233
 30
0.0
 10
105.1487928339559
 20
-127.5388129021431
 30
0.0
 10
105.1487928339559
 20
-127.5388129021431
 30
0.0
 10
105.1150308982004
 20
-127.4774902025056
 30
0.0
 10
105.074723281023
 20
-127.3951524204082
 30
0.0
 10
105.074723281023
 20
-127.2766411357156
 30
0.0
 10
105.074723281023
 20
-127.0227375984527
 30
0.0
 10
105.261102946775
 20
-126.7857150290675
 30
0.0
 10
105.5742621263842
 20
-126.7857150290675
 30
0.0
 10
105.8915554205757
 20
-126.7857150290675
 30
0.0
 10
106.1261664231212
 20
-127.0099907451572
 30
0.0
 10
106.1261664231212
 20
-127.3124701287622
 30
0.0
  0
HATCH
  5
C0
330
AF
100
AcDbEntity
  8
_U+30EC_U+30A4_U+30E4_U+30FC 1
 62
     7
420
 16777215
100
AcDbHatch
 10
0.0
 20
0.0
 30
0.0
210
0.0
220
0.0
230
1.0
  2
SOLID
 70
     1
 71
     0
 91
        1
 92
        1
 93
        1
 72
     4
 94
        3
 73
     0
 74
     1
 95
       53
 96
       49
 40
0.0
 40
0.0
 40
0.0
 40
0.0
 40
1.0
 40
1.0
 40
1.0
 40
2.0
 40
2.0
 40
2.0
 40
3.0
 40
3.0
 40
3.0
 40
4.0
 40
4.0
 40
4.0
 40
5.0
 40
5.0
 40
5.0
 40
6.0
 40
6.0
 40
6.0
 40
7.0
 40
7.0
 40
7.0
 40
8.0
 40
8.0
 40
8.0
 40
9.0
 40
9.0
 40
9.0
 40
10.0
 40
10.0
 40
10.0
 40
11.0
 40
11.0
 40
11.0
 40
12.0
 40
12.0
 40
12.0
 40
13.0
 40
13.0
 40
13.0
 40
14.0
 40
14.0
 40
14.0
 40
15.0
 40
15.0
 40
15.0
 40
16.0
 40
16.0
 40
16.0
 40
16.0
 10
106.1261664231212
 20
-127.3124701287622
 10
106.1261664231212
 20
-127.3906737962773
 10
106.1092854552435
 20
-127.4923041130922
 10
106.0458956983149
 20
-127.5939344299071
 10
105.9359971523354
 20
-127.7672227328151
 10
105.8047390143474
 20
-127.7885823248237
 10
105.6969075256591
 20
-127.8075303499926
 10
105.6969075256591
 20
-127.8075303499926
 10
105.6969075256591
 20
-127.585321691194
 10
105.6969075256591
 20
-127.585321691194
 10
105.895689535158
 20
-127.5305446729785
 10
105.9253173563312
 20
-127.4034206495728
 10
105.9253173563312
 20
-127.310403071471
 10
105.9253173563312
 20
-127.1708767043184
 10
105.8257540968075
 20
-127.0186034838704
 10
105.5932101515531
 20
-127.0186034838704
 10
105.337239556999
 20
-127.0186034838704
 10
105.2673041186485
 20
-127.1984374682004
 10
105.2673041186485
 20
-127.3190158101841
 10
105.2673041186485
 20
-127.3507106886484
 10
105.2673041186485
 20
-127.4923041130922
 10
105.3964951993453
 20
-127.5811875766117
 10
105.3964951993453
 20
-127.5811875766117
 10
105.3775471741765
 20
-127.7568874463594
 10
105.3775471741765
 20
-127.7568874463594
 10
105.3775471741765
 20
-127.7568874463594
 10
104.5310872134506
 20
-127.6363091043757
 10
104.5310872134506
 20
-127.6363091043757
 10
104.5310872134506
 20
-127.6363091043757
 10
104.5310872134506
 20
-126.8577175247092
 10
104.5310872134506
 20
-126.8577175247092
 10
104.5310872134506
 20
-126.8577175247092
 10
104.7257351083672
 20
-126.8577175247092
 10
104.7257351083672
 20
-126.8577175247092
 10
104.7257351083672
 20
-126.8577175247092
 10
104.7257351083672
 20
-127.4733560879233
 10
104.7257351083672
 20
-127.4733560879233
 10
104.7257351083672
 20
-127.4733560879233
 10
105.1487928339559
 20
-127.5388129021431
 10
105.1487928339559
 20
-127.5388129021431
 10
105.1150308982004
 20
-127.4774902025056
 10
105.074723281023
 20
-127.3951524204082
 10
105.074723281023
 20
-127.2766411357156
 10
105.074723281023
 20
-127.0227375984527
 10
105.261102946775
 20
-126.7857150290675
 10
105.5742621263842
 20
-126.7857150290675
 10
105.8915554205757
 20
-126.7857150290675
 10
106.1261664231212
 20
-127.0099907451572
 10
106.1261664231212
 20
-127.3124701287622
 97
        0
 97
        0
 75
     2
 76
     1
 98
        0
  0
ENDBLK
  5
B2
330
AF
100
AcDbEntity
  8
0
100
AcDbBlockEnd
  0
BLOCK
  5
CF
330
CD
100
AcDbEntity
  8
0
100
AcDbBlockBegin
  2
block 6
 70
     0
 10
0.0
 20
0.0
 30
0.0
  3
block 6
  1

  0
SPLINE
  5
D1
330
CD
100
AcDbEntity
  8
_U+30EC_U+30A4_U+30E4_U+30FC 1
370
     0
100
AcDbSpline
210
0.0
220
0.0
230
1.0
 70
    11
 71
     3
 72
    44
 73
    40
 74
     0
 42
0.0000000001
 43
0.0000000001
 12
1.0
 22
0.0
 32
0.0
 13
1.0
 23
0.0
 33
0.0
 40
0.0
 40
0.0
 40
0.0
 40
0.0
 40
1.0
 40
1.0
 40
1.0
 40
2.0
 40
2.0
 40
2.0
 40
3.0
 40
3.0
 40
3.0
 40
4.0
 40
4.0
 40
4.0
 40
5.0
 40
5.0
 40
5.0
 40
6.0
 40
6.0
 40
6.0
 40
7.0
 40
7.0
 40
7.0
 40
8.0
 40
8.0
 40
8.0
 40
9.0
 40
9.0
 40
9.0
 40
10.0
 40
10.0
 40
10.0
 40
11.0
 40
11.0
 40
11.0
 40
12.0
 40
12.0
 40
12.0
 40
13.0
 40
13.0
 40
13.0
 40
13.0
 10
83.10655515500461
 20
-142.3279188012236
 30
0.0
 10
82.88865286556256
 20
-142.4867377030936
 30
0.0
 10
82.79546303268656
 20
-142.5608072560265
 30
0.0
 10
82.74688718634454
 20
-142.7044677377614
 30
0.0
 10
82.74688718634454
 20
-142.7044677377614
 30
0.0
 10
83.52530651123674
 20
-142.7044677377614
 30
0.0
 10
83.52530651123674
 20
-142.7044677377614
 30
0.0
 10
83.52530651123674
 20
-142.7044677377614
 30
0.0
 10
83.52530651123674
 20
-142.9097954286823
 30
0.0
 10
83.52530651123674
 20
-142.9097954286823
 30
0.0
 10
83.52530651123674
 20
-142.9097954286823
 30
0.0
 10
82.49729001843818
 20
-142.9097954286823
 30
0.0
 10
82.49729001843818
 20
-142.9097954286823
 30
0.0
 10
82.52898489690249
 20
-142.5521945173134
 30
0.0
 10
82.59461396589649
 20
-142.4739908497982
 30
0.0
 10
82.97960338637316
 20
-142.1756455807756
 30
0.0
 10
83.23557398092723
 20
-141.9768635712766
 30
0.0
 10
83.30103079514697
 20
-141.9089951902172
 30
0.0
 10
83.30103079514697
 20
-141.7715358803557
 30
0.0
 10
83.30103079514697
 20
-141.6530245956631
 30
0.0
 10
83.22920055427952
 20
-141.5221109672237
 30
0.0
 10
83.03248560207174
 20
-141.5221109672237
 30
0.0
 10
82.77220863816112
 20
-141.5221109672237
 30
0.0
 10
82.76376815422226
 20
-141.7525878551868
 30
0.0
 10
82.75946178486569
 20
-141.8690320825883
 30
0.0
 10
82.75946178486569
 20
-141.8690320825883
 30
0.0
 10
82.5353583235502
 20
-141.8690320825883
 30
0.0
 10
82.5353583235502
 20
-141.8690320825883
 30
0.0
 10
82.54379880748905
 20
-141.7419080591826
 30
0.0
 10
82.55430634871907
 20
-141.629942455912
 30
0.0
 10
82.63474932829965
 20
-141.5114311712194
 30
0.0
 10
82.74464787427912
 20
-141.3505452120582
 30
0.0
 10
82.93085528525687
 20
-141.3167832763027
 30
0.0
 10
83.04729951265831
 20
-141.3167832763027
 30
0.0
 10
83.32445744444667
 20
-141.3167832763027
 30
0.0
 10
83.53167993788445
 20
-141.5007513752151
 30
0.0
 10
83.53167993788445
 20
-141.7736029376469
 30
0.0
 10
83.53167993788445
 20
-142.0023572778675
 30
0.0
 10
83.41540796525726
 20
-142.1015760278427
 30
0.0
 10
83.10655515500461
 20
-142.3279188012236
 30
0.0
  0
HATCH
  5
D2
330
CD
100
AcDbEntity
  8
_U+30EC_U+30A4_U+30E4_U+30FC 1
 62
     7
420
 16777215
100
AcDbHatch
 10
0.0
 20
0.0
 30
0.0
210
0.0
220
0.0
230
1.0
  2
SOLID
 70
     1
 71
     0
 91
        1
 92
        1
 93
        1
 72
     4
 94
        3
 73
     0
 74
     1
 95
       44
 96
       40
 40
0.0
 40
0.0
 40
0.0
 40
0.0
 40
1.0
 40
1.0
 40
1.0
 40
2.0
 40
2.0
 40
2.0
 40
3.0
 40
3.0
 40
3.0
 40
4.0
 40
4.0
 40
4.0
 40
5.0
 40
5.0
 40
5.0
 40
6.0
 40
6.0
 40
6.0
 40
7.0
 40
7.0
 40
7.0
 40
8.0
 40
8.0
 40
8.0
 40
9.0
 40
9.0
 40
9.0
 40
10.0
 40
10.0
 40
10.0
 40
11.0
 40
11.0
 40
11.0
 40
12.0
 40
12.0
 40
12.0
 40
13.0
 40
13.0
 40
13.0
 40
13.0
 10
83.10655515500461
 20
-142.3279188012236
 10
82.88865286556256
 20
-142.4867377030936
 10
82.79546303268656
 20
-142.5608072560265
 10
82.74688718634454
 20
-142.7044677377614
 10
82.74688718634454
 20
-142.7044677377614
 10
83.52530651123674
 20
-142.7044677377614
 10
83.52530651123674
 20
-142.7044677377614
 10
83.52530651123674
 20
-142.7044677377614
 10
83.52530651123674
 20
-142.9097954286823
 10
83.52530651123674
 20
-142.9097954286823
 10
83.52530651123674
 20
-142.9097954286823
 10
82.49729001843818
 20
-142.9097954286823
 10
82.49729001843818
 20
-142.9097954286823
 10
82.52898489690249
 20
-142.5521945173134
 10
82.59461396589649
 20
-142.4739908497982
 10
82.97960338637316
 20
-142.1756455807756
 10
83.23557398092723
 20
-141.9768635712766
 10
83.30103079514697
 20
-141.9089951902172
 10
83.30103079514697
 20
-141.7715358803557
 10
83.30103079514697
 20
-141.6530245956631
 10
83.22920055427952
 20
-141.5221109672237
 10
83.03248560207174
 20
-141.5221109672237
 10
82.77220863816112
 20
-141.5221109672237
 10
82.76376815422226
 20
-141.7525878551868
 10
82.75946178486569
 20
-141.8690320825883
 10
82.75946178486569
 20
-141.8690320825883
 10
82.5353583235502
 20
-141.8690320825883
 10
82.5353583235502
 20
-141.8690320825883
 10
82.54379880748905
 20
-141.7419080591826
 10
82.55430634871907
 20
-141.629942455912
 10
82.63474932829965
 20
-141.5114311712194
 10
82.74464787427912
 20
-141.3505452120582
 10
82.93085528525687
 20
-141.3167832763027
 10
83.04729951265831
 20
-141.3167832763027
 10
83.32445744444667
 20
-141.3167832763027
 10
83.53167993788445
 20
-141.5007513752151
 10
83.53167993788445
 20
-141.7736029376469
 10
83.53167993788445
 20
-142.0023572778675
 10
83.41540796525726
 20
-142.1015760278427
 10
83.10655515500461
 20
-142.3279188012236
 97
        0
 97
        0
 75
     2
 76
     1
 98
        0
  0
SPLINE
  5
D3
330
CD
100
AcDbEntity
  8
_U+30EC_U+30A4_U+30E4_U+30FC 1
370
     0
100
AcDbSpline
210
0.0
220
0.0
230
1.0
 70
    11
 71
     3
 72
    29
 73
    25
 74
     0
 42
0.0000000001
 43
0.0000000001
 12
1.0
 22
0.0
 32
0.0
 13
1.0
 23
0.0
 33
0.0
 40
0.0
 40
0.0
 40
0.0
 40
0.0
 40
1.0
 40
1.0
 40
1.0
 40
2.0
 40
2.0
 40
2.0
 40
3.0
 40
3.0
 40
3.0
 40
4.0
 40
4.0
 40
4.0
 40
5.0
 40
5.0
 40
5.0
 40
6.0
 40
6.0
 40
6.0
 40
7.0
 40
7.0
 40
7.0
 40
8.0
 40
8.0
 40
8.0
 40
8.0
 10
84.58794621366205
 20
-142.7320285016434
 30
0.0
 10
84.48011472497373
 20
-142.9414903071466
 30
0.0
 10
84.3066541672914
 20
-142.9604383323154
 30
0.0
 10
84.19020993988995
 20
-142.9604383323154
 30
0.0
 10
84.02949623550305
 20
-142.9604383323154
 30
0.0
 10
83.88773055628502
 20
-142.9139295432646
 30
0.0
 10
83.79247366611786
 20
-142.7320285016434
 30
0.0
 10
83.6889485467861
 20
-142.5373806067268
 30
0.0
 10
83.66982826684297
 20
-142.3007025468901
 30
0.0
 10
83.66982826684297
 20
-142.1377495304378
 30
0.0
 10
83.66982826684297
 20
-141.9937445391543
 30
0.0
 10
83.68670923472068
 20
-141.7419080591826
 30
0.0
 10
83.79247366611786
 20
-141.5431260496837
 30
0.0
 10
83.90047740958045
 20
-141.3402099256025
 30
0.0
 10
84.06119111396734
 20
-141.3167832763027
 30
0.0
 10
84.19020993988995
 20
-141.3167832763027
 30
0.0
 10
84.3488565869857
 20
-141.3167832763027
 30
0.0
 10
84.49268932349489
 20
-141.3612250080625
 30
0.0
 10
84.58794621366205
 20
-141.5431260496837
 30
0.0
 10
84.6873372184115
 20
-141.7357068873091
 30
0.0
 10
84.71059161293694
 20
-141.9641167179812
 30
0.0
 10
84.71059161293694
 20
-142.1377495304378
 30
0.0
 10
84.71059161293694
 20
-142.3089707760547
 30
0.0
 10
84.68957653047691
 20
-142.5394476640179
 30
0.0
 10
84.58794621366205
 20
-142.7320285016434
 30
0.0
  0
SPLINE
  5
D4
330
CD
100
AcDbEntity
  8
_U+30EC_U+30A4_U+30E4_U+30FC 1
370
     0
100
AcDbSpline
210
0.0
220
0.0
230
1.0
 70
    11
 71
     3
 72
    17
 73
    13
 74
     0
 42
0.0000000001
 43
0.0000000001
 12
1.0
 22
0.0
 32
0.0
 13
1.0
 23
0.0
 33
0.0
 40
0.0
 40
0.0
 40
0.0
 40
0.0
 40
1.0
 40
1.0
 40
1.0
 40
2.0
 40
2.0
 40
2.0
 40
3.0
 40
3.0
 40
3.0
 40
4.0
 40
4.0
 40
4.0
 40
4.0
 10
84.19020993988995
 20
-141.5093641139282
 30
0.0
 10
83.9406127719836
 20
-141.5093641139282
 30
0.0
 10
83.89410398293273
 20
-141.7928954723643
 30
0.0
 10
83.89410398293273
 20
-142.1377495304378
 30
0.0
 10
83.89410398293273
 20
-142.4571098819204
 30
0.0
 10
83.93010523075358
 20
-142.7657904373988
 30
0.0
 10
84.19020993988995
 20
-142.7657904373988
 30
0.0
 10
84.43774005050516
 20
-142.7657904373988
 30
0.0
 10
84.48648815162144
 20
-142.4846706458025
 30
0.0
 10
84.48648815162144
 20
-142.1377495304378
 30
0.0
 10
84.48648815162144
 20
-141.8180446694066
 30
0.0
 10
84.44841984650942
 20
-141.5093641139282
 30
0.0
 10
84.19020993988995
 20
-141.5093641139282
 30
0.0
  0
HATCH
  5
D5
330
CD
100
AcDbEntity
  8
_U+30EC_U+30A4_U+30E4_U+30FC 1
 62
     7
420
 16777215
100
AcDbHatch
 10
0.0
 20
0.0
 30
0.0
210
0.0
220
0.0
230
1.0
  2
SOLID
 70
     1
 71
     0
 91
        2
 92
        1
 93
        1
 72
     4
 94
        3
 73
     0
 74
     1
 95
       29
 96
       25
 40
0.0
 40
0.0
 40
0.0
 40
0.0
 40
1.0
 40
1.0
 40
1.0
 40
2.0
 40
2.0
 40
2.0
 40
3.0
 40
3.0
 40
3.0
 40
4.0
 40
4.0
 40
4.0
 40
5.0
 40
5.0
 40
5.0
 40
6.0
 40
6.0
 40
6.0
 40
7.0
 40
7.0
 40
7.0
 40
8.0
 40
8.0
 40
8.0
 40
8.0
 10
84.58794621366205
 20
-142.7320285016434
 10
84.48011472497373
 20
-142.9414903071466
 10
84.3066541672914
 20
-142.9604383323154
 10
84.19020993988995
 20
-142.9604383323154
 10
84.02949623550305
 20
-142.9604383323154
 10
83.88773055628502
 20
-142.9139295432646
 10
83.79247366611786
 20
-142.7320285016434
 10
83.6889485467861
 20
-142.5373806067268
 10
83.66982826684297
 20
-142.3007025468901
 10
83.66982826684297
 20
-142.1377495304378
 10
83.66982826684297
 20
-141.9937445391543
 10
83.68670923472068
 20
-141.7419080591826
 10
83.79247366611786
 20
-141.5431260496837
 10
83.90047740958045
 20
-141.3402099256025
 10
84.06119111396734
 20
-141.3167832763027
 10
84.19020993988995
 20
-141.3167832763027
 10
84.3488565869857
 20
-141.3167832763027
 10
84.49268932349489
 20
-141.3612250080625
 10
84.58794621366205
 20
-141.5431260496837
 10
84.6873372184115
 20
-141.7357068873091
 10
84.71059161293694
 20
-141.9641167179812
 10
84.71059161293694
 20
-142.1377495304378
 10
84.71059161293694
 20
-142.3089707760547
 10
84.68957653047691
 20
-142.5394476640179
 10
84.58794621366205
 20
-142.7320285016434
 97
        0
 97
        0
 92
        1
 93
        1
 72
     4
 94
        3
 73
     0
 74
     1
 95
       17
 96
       13
 40
0.0
 40
0.0
 40
0.0
 40
0.0
 40
1.0
 40
1.0
 40
1.0
 40
2.0
 40
2.0
 40
2.0
 40
3.0
 40
3.0
 40
3.0
 40
4.0
 40
4.0
 40
4.0
 40
4.0
 10
84.19020993988995
 20
-141.5093641139282
 10
83.9406127719836
 20
-141.5093641139282
 10
83.89410398293273
 20
-141.7928954723643
 10
83.89410398293273
 20
-142.1377495304378
 10
83.89410398293273
 20
-142.4571098819204
 10
83.93010523075358
 20
-142.7657904373988
 10
84.19020993988995
 20
-142.7657904373988
 10
84.43774005050516
 20
-142.7657904373988
 10
84.48648815162144
 20
-142.4846706458025
 10
84.48648815162144
 20
-142.1377495304378
 10
84.48648815162144
 20
-141.8180446694066
 10
84.44841984650942
 20
-141.5093641139282
 10
84.19020993988995
 20
-141.5093641139282
 97
        0
 97
        0
 75
     2
 76
     1
 98
        0
  0
ENDBLK
  5
D0
330
CD
100
AcDbEntity
  8
0
100
AcDbBlockEnd
  0
BLOCK
  5
E4
330
E2
100
AcDbEntity
  8
0
100
AcDbBlockBegin
  2
block 7
 70
     0
 10
0.0
 20
0.0
 30
0.0
  3
block 7
  1

  0
SPLINE
  5
E6
330
E2
100
AcDbEntity
  8
_U+30EC_U+30A4_U+30E4_U+30FC 1
370
     0
100
AcDbSpline
210
0.0
220
0.0
230
1.0
 70
    11
 71
     3
 72
    62
 73
    58
 74
     0
 42
0.0000000001
 43
0.0000000001
 12
1.0
 22
0.0
 32
0.0
 13
1.0
 23
0.0
 33
0.0
 40
0.0
 40
0.0
 40
0.0
 40
0.0
 40
1.0
 40
1.0
 40
1.0
 40
2.0
 40
2.0
 40
2.0
 40
3.0
 40
3.0
 40
3.0
 40
4.0
 40
4.0
 40
4.0
 40
5.0
 40
5.0
 40
5.0
 40
6.0
 40
6.0
 40
6.0
 40
7.0
 40
7.0
 40
7.0
 40
8.0
 40
8.0
 40
8.0
 40
9.0
 40
9.0
 40
9.0
 40
10.0
 40
10.0
 40
10.0
 40
11.0
 40
11.0
 40
11.0
 40
12.0
 40
12.0
 40
12.0
 40
13.0
 40
13.0
 40
13.0
 40
14.0
 40
14.0
 40
14.0
 40
15.0
 40
15.0
 40
15.0
 40
16.0
 40
16.0
 40
16.0
 40
17.0
 40
17.0
 40
17.0
 40
18.0
 40
18.0
 40
18.0
 40
19.0
 40
19.0
 40
19.0
 40
19.0
 10
88.00530868025562
 20
-115.3982964121226
 30
0.0
 10
87.9098795353142
 20
-115.3982964121226
 30
0.0
 10
87.69214950064641
 20
-115.3771090748884
 30
0.0
 10
87.56709253453184
 20
-115.1909016639106
 30
0.0
 10
87.49302298159897
 20
-115.0787638058657
 30
0.0
 10
87.48888886701667
 20
-114.9793728011163
 30
0.0
 10
87.48475475243437
 20
-114.8947957069534
 30
0.0
 10
87.48475475243437
 20
-114.8947957069534
 30
0.0
 10
87.70489635394183
 20
-114.8947957069534
 30
0.0
 10
87.70489635394183
 20
-114.8947957069534
 30
0.0
 10
87.70696341123299
 20
-114.9688652598863
 30
0.0
 10
87.71729869768873
 20
-115.203648517206
 30
0.0
 10
88.0008300561248
 20
-115.203648517206
 30
0.0
 10
88.13828936598627
 20
-115.203648517206
 30
0.0
 10
88.29090709598283
 20
-115.1338853336297
 30
0.0
 10
88.29090709598283
 20
-114.9053032481834
 30
0.0
 10
88.29090709598283
 20
-114.7890312755562
 30
0.0
 10
88.25266653609656
 20
-114.7402831744399
 30
0.0
 10
88.22097165763226
 20
-114.7085882959756
 30
0.0
 10
88.1469021046994
 20
-114.6345187430428
 30
0.0
 10
88.03045787729795
 20
-114.6219441445216
 30
0.0
 10
87.97568085908247
 20
-114.6219441445216
 30
0.0
 10
87.95638832436508
 20
-114.6219441445216
 30
0.0
 10
87.92055933131847
 20
-114.6240112018127
 30
0.0
 10
87.89299856743648
 20
-114.628145316395
 30
0.0
 10
87.89299856743648
 20
-114.628145316395
 30
0.0
 10
87.89299856743648
 20
-114.4334974214784
 30
0.0
 10
87.89299856743648
 20
-114.4334974214784
 30
0.0
 10
87.93123912732275
 20
-114.4398708481261
 30
0.0
 10
87.9732692922428
 20
-114.4421101601916
 30
0.0
 10
87.97981497366477
 20
-114.4421101601916
 30
0.0
 10
88.04527178788452
 20
-114.4421101601916
 30
0.0
 10
88.24405379738343
 20
-114.4209228229573
 30
0.0
 10
88.24405379738343
 20
-114.1839002535721
 30
0.0
 10
88.24405379738343
 20
-114.0063055813075
 30
0.0
 10
88.11314016894394
 20
-113.9511840535435
 30
0.0
 10
88.00289711341594
 20
-113.9511840535435
 30
0.0
 10
87.73865828969728
 20
-113.9511840535435
 30
0.0
 10
87.73004555098416
 20
-114.1839002535721
 30
0.0
 10
87.72591143640186
 20
-114.2559027492138
 30
0.0
 10
87.72591143640186
 20
-114.2559027492138
 30
0.0
 10
87.52265080277212
 20
-114.2559027492138
 30
0.0
 10
87.52265080277212
 20
-114.2559027492138
 30
0.0
 10
87.53126354148525
 20
-114.1310180378735
 30
0.0
 10
87.55882430536724
 20
-113.7544691013357
 30
0.0
 10
88.01564396671137
 20
-113.7544691013357
 30
0.0
 10
88.23991968280113
 20
-113.7544691013357
 30
0.0
 10
88.48107636676862
 20
-113.8814208699671
 30
0.0
 10
88.48107636676862
 20
-114.1775268269244
 30
0.0
 10
88.48107636676862
 20
-114.3637342379021
 30
0.0
 10
88.38599173137573
 20
-114.4462442747739
 30
0.0
 10
88.286428471852
 20
-114.5075669744113
 30
0.0
 10
88.34775117148945
 20
-114.5351277382933
 30
0.0
 10
88.52965221311065
 20
-114.6155707178739
 30
0.0
 10
88.52965221311065
 20
-114.8927286496622
 30
0.0
 10
88.52965221311065
 20
-115.231209281088
 30
0.0
 10
88.2822943572697
 20
-115.3982964121226
 30
0.0
 10
88.00530868025562
 20
-115.3982964121226
 30
0.0
  0
HATCH
  5
E7
330
E2
100
AcDbEntity
  8
_U+30EC_U+30A4_U+30E4_U+30FC 1
 62
     7
420
 16777215
100
AcDbHatch
 10
0.0
 20
0.0
 30
0.0
210
0.0
220
0.0
230
1.0
  2
SOLID
 70
     1
 71
     0
 91
        1
 92
        1
 93
        1
 72
     4
 94
        3
 73
     0
 74
     1
 95
       62
 96
       58
 40
0.0
 40
0.0
 40
0.0
 40
0.0
 40
1.0
 40
1.0
 40
1.0
 40
2.0
 40
2.0
 40
2.0
 40
3.0
 40
3.0
 40
3.0
 40
4.0
 40
4.0
 40
4.0
 40
5.0
 40
5.0
 40
5.0
 40
6.0
 40
6.0
 40
6.0
 40
7.0
 40
7.0
 40
7.0
 40
8.0
 40
8.0
 40
8.0
 40
9.0
 40
9.0
 40
9.0
 40
10.0
 40
10.0
 40
10.0
 40
11.0
 40
11.0
 40
11.0
 40
12.0
 40
12.0
 40
12.0
 40
13.0
 40
13.0
 40
13.0
 40
14.0
 40
14.0
 40
14.0
 40
15.0
 40
15.0
 40
15.0
 40
16.0
 40
16.0
 40
16.0
 40
17.0
 40
17.0
 40
17.0
 40
18.0
 40
18.0
 40
18.0
 40
19.0
 40
19.0
 40
19.0
 40
19.0
 10
88.00530868025562
 20
-115.3982964121226
 10
87.9098795353142
 20
-115.3982964121226
 10
87.69214950064641
 20
-115.3771090748884
 10
87.56709253453184
 20
-115.1909016639106
 10
87.49302298159897
 20
-115.0787638058657
 10
87.48888886701667
 20
-114.9793728011163
 10
87.48475475243437
 20
-114.8947957069534
 10
87.48475475243437
 20
-114.8947957069534
 10
87.70489635394183
 20
-114.8947957069534
 10
87.70489635394183
 20
-114.8947957069534
 10
87.70696341123299
 20
-114.9688652598863
 10
87.71729869768873
 20
-115.203648517206
 10
88.0008300561248
 20
-115.203648517206
 10
88.13828936598627
 20
-115.203648517206
 10
88.29090709598283
 20
-115.1338853336297
 10
88.29090709598283
 20
-114.9053032481834
 10
88.29090709598283
 20
-114.7890312755562
 10
88.25266653609656
 20
-114.7402831744399
 10
88.22097165763226
 20
-114.7085882959756
 10
88.1469021046994
 20
-114.6345187430428
 10
88.03045787729795
 20
-114.6219441445216
 10
87.97568085908247
 20
-114.6219441445216
 10
87.95638832436508
 20
-114.6219441445216
 10
87.92055933131847
 20
-114.6240112018127
 10
87.89299856743648
 20
-114.628145316395
 10
87.89299856743648
 20
-114.628145316395
 10
87.89299856743648
 20
-114.4334974214784
 10
87.89299856743648
 20
-114.4334974214784
 10
87.93123912732275
 20
-114.4398708481261
 10
87.9732692922428
 20
-114.4421101601916
 10
87.97981497366477
 20
-114.4421101601916
 10
88.04527178788452
 20
-114.4421101601916
 10
88.24405379738343
 20
-114.4209228229573
 10
88.24405379738343
 20
-114.1839002535721
 10
88.24405379738343
 20
-114.0063055813075
 10
88.11314016894394
 20
-113.9511840535435
 10
88.00289711341594
 20
-113.9511840535435
 10
87.73865828969728
 20
-113.9511840535435
 10
87.73004555098416
 20
-114.1839002535721
 10
87.72591143640186
 20
-114.2559027492138
 10
87.72591143640186
 20
-114.2559027492138
 10
87.52265080277212
 20
-114.2559027492138
 10
87.52265080277212
 20
-114.2559027492138
 10
87.53126354148525
 20
-114.1310180378735
 10
87.55882430536724
 20
-113.7544691013357
 10
88.01564396671137
 20
-113.7544691013357
 10
88.23991968280113
 20
-113.7544691013357
 10
88.48107636676862
 20
-113.8814208699671
 10
88.48107636676862
 20
-114.1775268269244
 10
88.48107636676862
 20
-114.3637342379021
 10
88.38599173137573
 20
-114.4462442747739
 10
88.286428471852
 20
-114.5075669744113
 10
88.34775117148945
 20
-114.5351277382933
 10
88.52965221311065
 20
-114.6155707178739
 10
88.52965221311065
 20
-114.8927286496622
 10
88.52965221311065
 20
-115.231209281088
 10
88.2822943572697
 20
-115.3982964121226
 10
88.00530868025562
 20
-115.3982964121226
 97
        0
 97
        0
 75
     2
 76
     1
 98
        0
  0
SPLINE
  5
E8
330
E2
100
AcDbEntity
  8
_U+30EC_U+30A4_U+30E4_U+30FC 1
370
     0
100
AcDbSpline
210
0.0
220
0.0
230
1.0
 70
    11
 71
     3
 72
    29
 73
    25
 74
     0
 42
0.0000000001
 43
0.0000000001
 12
1.0
 22
0.0
 32
0.0
 13
1.0
 23
0.0
 33
0.0
 40
0.0
 40
0.0
 40
0.0
 40
0.0
 40
1.0
 40
1.0
 40
1.0
 40
2.0
 40
2.0
 40
2.0
 40
3.0
 40
3.0
 40
3.0
 40
4.0
 40
4.0
 40
4.0
 40
5.0
 40
5.0
 40
5.0
 40
6.0
 40
6.0
 40
6.0
 40
7.0
 40
7.0
 40
7.0
 40
8.0
 40
8.0
 40
8.0
 40
8.0
 10
89.58833005572792
 20
-115.1697143266763
 30
0.0
 10
89.48015405749108
 20
-115.3791761321795
 30
0.0
 10
89.30686575458301
 20
-115.3982964121226
 30
0.0
 10
89.19042152718157
 20
-115.3982964121226
 30
0.0
 10
89.02953556802039
 20
-115.3982964121226
 30
0.0
 10
88.88794214357662
 20
-115.3517876230718
 30
0.0
 10
88.79285750818373
 20
-115.1697143266763
 30
0.0
 10
88.68916013407771
 20
-114.9750664317597
 30
0.0
 10
88.66986759936032
 20
-114.7382161171488
 30
0.0
 10
88.66986759936032
 20
-114.5752631006965
 30
0.0
 10
88.66986759936032
 20
-114.4314303641873
 30
0.0
 10
88.68709307678657
 20
-114.1797661389898
 30
0.0
 10
88.79285750818373
 20
-113.9808118747166
 30
0.0
 10
88.90068899687205
 20
-113.7777234958611
 30
0.0
 10
89.06157495603323
 20
-113.7544691013357
 30
0.0
 10
89.19042152718157
 20
-113.7544691013357
 30
0.0
 10
89.34924042905158
 20
-113.7544691013357
 30
0.0
 10
89.4929009107865
 20
-113.7989108330954
 30
0.0
 10
89.58833005572792
 20
-113.9808118747166
 30
0.0
 10
89.68754880570312
 20
-114.1733927123421
 30
0.0
 10
89.71097545500281
 20
-114.4018025430141
 30
0.0
 10
89.71097545500281
 20
-114.5752631006965
 30
0.0
 10
89.71097545500281
 20
-114.7466566010877
 30
0.0
 10
89.68961586299427
 20
-114.9773057438251
 30
0.0
 10
89.58833005572792
 20
-115.1697143266763
 30
0.0
  0
SPLINE
  5
E9
330
E2
100
AcDbEntity
  8
_U+30EC_U+30A4_U+30E4_U+30FC 1
370
     0
100
AcDbSpline
210
0.0
220
0.0
230
1.0
 70
    11
 71
     3
 72
    17
 73
    13
 74
     0
 42
0.0000000001
 43
0.0000000001
 12
1.0
 22
0.0
 32
0.0
 13
1.0
 23
0.0
 33
0.0
 40
0.0
 40
0.0
 40
0.0
 40
0.0
 40
1.0
 40
1.0
 40
1.0
 40
2.0
 40
2.0
 40
2.0
 40
3.0
 40
3.0
 40
3.0
 40
4.0
 40
4.0
 40
4.0
 40
4.0
 10
89.19042152718157
 20
-113.9470499389612
 30
0.0
 10
88.94065210450096
 20
-113.9470499389612
 30
0.0
 10
88.89414331545008
 20
-114.2305812973972
 30
0.0
 10
88.89414331545008
 20
-114.5752631006965
 30
0.0
 10
88.89414331545008
 20
-114.8947957069534
 30
0.0
 10
88.9303168180452
 20
-115.203648517206
 30
0.0
 10
89.19042152718157
 20
-115.203648517206
 30
0.0
 10
89.43812389257103
 20
-115.203648517206
 30
0.0
 10
89.48669973891305
 20
-114.9221842160611
 30
0.0
 10
89.48669973891305
 20
-114.5752631006965
 30
0.0
 10
89.48669973891305
 20
-114.2559027492138
 30
0.0
 10
89.44845917902678
 20
-113.9470499389612
 30
0.0
 10
89.19042152718157
 20
-113.9470499389612
 30
0.0
  0
HATCH
  5
EA
330
E2
100
AcDbEntity
  8
_U+30EC_U+30A4_U+30E4_U+30FC 1
 62
     7
420
 16777215
100
AcDbHatch
 10
0.0
 20
0.0
 30
0.0
210
0.0
220
0.0
230
1.0
  2
SOLID
 70
     1
 71
     0
 91
        2
 92
        1
 93
        1
 72
     4
 94
        3
 73
     0
 74
     1
 95
       29
 96
       25
 40
0.0
 40
0.0
 40
0.0
 40
0.0
 40
1.0
 40
1.0
 40
1.0
 40
2.0
 40
2.0
 40
2.0
 40
3.0
 40
3.0
 40
3.0
 40
4.0
 40
4.0
 40
4.0
 40
5.0
 40
5.0
 40
5.0
 40
6.0
 40
6.0
 40
6.0
 40
7.0
 40
7.0
 40
7.0
 40
8.0
 40
8.0
 40
8.0
 40
8.0
 10
89.58833005572792
 20
-115.1697143266763
 10
89.48015405749108
 20
-115.3791761321795
 10
89.30686575458301
 20
-115.3982964121226
 10
89.19042152718157
 20
-115.3982964121226
 10
89.02953556802039
 20
-115.3982964121226
 10
88.88794214357662
 20
-115.3517876230718
 10
88.79285750818373
 20
-115.1697143266763
 10
88.68916013407771
 20
-114.9750664317597
 10
88.66986759936032
 20
-114.7382161171488
 10
88.66986759936032
 20
-114.5752631006965
 10
88.66986759936032
 20
-114.4314303641873
 10
88.68709307678657
 20
-114.1797661389898
 10
88.79285750818373
 20
-113.9808118747166
 10
88.90068899687205
 20
-113.7777234958611
 10
89.06157495603323
 20
-113.7544691013357
 10
89.19042152718157
 20
-113.7544691013357
 10
89.34924042905158
 20
-113.7544691013357
 10
89.4929009107865
 20
-113.7989108330954
 10
89.58833005572792
 20
-113.9808118747166
 10
89.68754880570312
 20
-114.1733927123421
 10
89.71097545500281
 20
-114.4018025430141
 10
89.71097545500281
 20
-114.5752631006965
 10
89.71097545500281
 20
-114.7466566010877
 10
89.68961586299427
 20
-114.9773057438251
 10
89.58833005572792
 20
-115.1697143266763
 97
        0
 97
        0
 92
        1
 93
        1
 72
     4
 94
        3
 73
     0
 74
     1
 95
       17
 96
       13
 40
0.0
 40
0.0
 40
0.0
 40
0.0
 40
1.0
 40
1.0
 40
1.0
 40
2.0
 40
2.0
 40
2.0
 40
3.0
 40
3.0
 40
3.0
 40
4.0
 40
4.0
 40
4.0
 40
4.0
 10
89.19042152718157
 20
-113.9470499389612
 10
88.94065210450096
 20
-113.9470499389612
 10
88.89414331545008
 20
-114.2305812973972
 10
88.89414331545008
 20
-114.5752631006965
 10
88.89414331545008
 20
-114.8947957069534
 10
88.9303168180452
 20
-115.203648517206
 10
89.19042152718157
 20
-115.203648517206
 10
89.43812389257103
 20
-115.203648517206
 10
89.48669973891305
 20
-114.9221842160611
 10
89.48669973891305
 20
-114.5752631006965
 10
89.48669973891305
 20
-114.2559027492138
 10
89.44845917902678
 20
-113.9470499389612
 10
89.19042152718157
 20
-113.9470499389612
 97
        0
 97
        0
 75
     2
 76
     1
 98
        0
  0
ENDBLK
  5
E5
330
E2
100
AcDbEntity
  8
0
100
AcDbBlockEnd
  0
ENDSEC
  0
SECTION
  2
ENTITIES
  0
INSERT
  5
42
330
1F
100
AcDbEntity
  8
_U+30EC_U+30A4_U+30E4_U+30FC 1
100
AcDbBlockReference
  2
block 2
 10
0.0
 20
0.0
 30
0.0
  0
ENDSEC
  0
SECTION
  2
OBJECTS
  0
DICTIONARY
  5
C
330
0
100
AcDbDictionary
281
     1
  3
ACAD_GROUP
350
D
  3
ACAD_LAYOUT
350
1A
  3
ACAD_MATERIAL
350
3B
  3
ACAD_MLEADERSTYLE
350
EC
  3
ACAD_MLINESTYLE
350
17
  3
ACAD_PLOTSETTINGS
350
19
  3
ACAD_PLOTSTYLENAME
350
E
  3
ACAD_TABLESTYLE
350
EB
  3
ACAD_VISUALSTYLE
350
2A
  0
SUN
  5
3F
330
29
100
AcDbSun
 90
        1
290
     0
 63
     7
421
 16777215
 40
1.0
291
     1
 91
  2455826
 92
 54000000
292
     0
 70
     2
 71
   256
280
     1
  0
DICTIONARY
  5
D
102
{ACAD_REACTORS
330
C
102
}
330
C
100
AcDbDictionary
281
     1
  0
DICTIONARY
  5
1A
102
{ACAD_REACTORS
330
C
102
}
330
C
100
AcDbDictionary
281
     1
  3
Layout1
350
1E
  3
Layout2
350
26
  3
Model
350
22
  0
DICTIONARY
  5
3B
102
{ACAD_REACTORS
330
C
102
}
330
C
100
AcDbDictionary
281
     1
  3
ByBlock
350
3D
  3
ByLayer
350
3C
  3
Global
350
3E
  0
DICTIONARY
  5
EC
102
{ACAD_REACTORS
330
C
102
}
330
C
100
AcDbDictionary
281
     1
  0
DICTIONARY
  5
17
102
{ACAD_REACTORS
330
C
102
}
330
C
100
AcDbDictionary
281
     1
  3
Standard
350
18
  0
DICTIONARY
  5
19
102
{ACAD_REACTORS
330
C
102
}
330
C
100
AcDbDictionary
281
     1
  0
ACDBDICTIONARYWDFLT
  5
E
102
{ACAD_REACTORS
330
C
102
}
330
C
100
AcDbDictionary
281
     1
  3
Normal
350
F
100
AcDbDictionaryWithDefault
340
F
  0
DICTIONARY
  5
EB
102
{ACAD_REACTORS
330
C
102
}
330
C
100
AcDbDictionary
281
     1
  0
DICTIONARY
  5
2A
102
{ACAD_REACTORS
330
C
102
}
330
C
100
AcDbDictionary
281
     1
  3
2dWireframe
350
2F
  3
3D Hidden
350
31
  3
3dWireframe
350
30
  3
Basic
350
32
  3
Brighten
350
36
  3
ColorChange
350
3A
  3
Conceptual
350
34
  3
Dim
350
35
  3
Facepattern
350
39
  3
Flat
350
2B
  3
FlatWithEdges
350
2C
  3
Gouraud
350
2D
  3
GouraudWithEdges
350
2E
  3
Linepattern
350
38
  3
Realistic
350
33
  3
Thicken
350
37
  0
LAYOUT
  5
1E
102
{ACAD_REACTORS
330
1A
102
}
330
1A
100
AcDbPlotSettings
  1

  2
none_device
  4

  6

 40
0.0
 41
0.0
 42
0.0
 43
0.0
 44
0.0
 45
0.0
 46
0.0
 47
0.0
 48
0.0
 49
0.0
140
0.0
141
0.0
142
1.0
143
1.0
 70
   688
 72
     0
 73
     0
 74
     5
  7

 75
    16
 76
     0
 77
     2
 78
   300
147
1.0
148
0.0
149
0.0
100
AcDbLayout
  1
Layout1
 70
     1
 71
     1
 10
0.0
 20
0.0
 11
12.0
 21
9.0
 12
0.0
 22
0.0
 32
0.0
 14
1.000000000000000E+20
 24
1.000000000000000E+20
 34
1.000000000000000E+20
 15
-1.000000000000000E+20
 25
-1.000000000000000E+20
 35
-1.000000000000000E+20
146
0.0
 13
0.0
 23
0.0
 33
0.0
 16
1.0
 26
0.0
 36
0.0
 17
0.0
 27
1.0
 37
0.0
 76
     0
330
1B
  0
LAYOUT
  5
26
102
{ACAD_REACTORS
330
1A
102
}
330
1A
100
AcDbPlotSettings
  1

  2
none_device
  4

  6

 40
0.0
 41
0.0
 42
0.0
 43
0.0
 44
0.0
 45
0.0
 46
0.0
 47
0.0
 48
0.0
 49
0.0
140
0.0
141
0.0
142
1.0
143
1.0
 70
   688
 72
     0
 73
     0
 74
     5
  7

 75
    16
 76
     0
 77
     2
 78
   300
147
1.0
148
0.0
149
0.0
100
AcDbLayout
  1
Layout2
 70
     1
 71
     2
 10
0.0
 20
0.0
 11
0.0
 21
0.0
 12
0.0
 22
0.0
 32
0.0
 14
0.0
 24
0.0
 34
0.0
 15
0.0
 25
0.0
 35
0.0
146
0.0
 13
0.0
 23
0.0
 33
0.0
 16
1.0
 26
0.0
 36
0.0
 17
0.0
 27
1.0
 37
0.0
 76
     0
330
23
  0
LAYOUT
  5
22
102
{ACAD_REACTORS
330
1A
102
}
330
1A
100
AcDbPlotSettings
  1

  2
none_device
  4

  6

 40
0.0
 41
0.0
 42
0.0
 43
0.0
 44
0.0
 45
0.0
 46
0.0
 47
0.0
 48
0.0
 49
0.0
140
0.0
141
0.0
142
1.0
143
1.0
 70
  1712
 72
     0
 73
     0
 74
     0
  7

 75
     0
 76
     0
 77
     2
 78
   300
147
1.0
148
0.0
149
0.0
100
AcDbLayout
  1
Model
 70
     1
 71
     0
 10
0.0
 20
0.0
 11
12.0
 21
9.0
 12
0.0
 22
0.0
 32
0.0
 14
1.000000000000000E+20
 24
1.000000000000000E+20
 34
1.000000000000000E+20
 15
-1.000000000000000E+20
 25
-1.000000000000000E+20
 35
-1.000000000000000E+20
146
0.0
 13
0.0
 23
0.0
 33
0.0
 16
1.0
 26
0.0
 36
0.0
 17
0.0
 27
1.0
 37
0.0
 76
     0
330
1F
331
29
  0
MATERIAL
  5
3D
102
{ACAD_REACTORS
330
3B
102
}
330
3B
100
AcDbMaterial
  1
ByBlock
 72
     1
 94
      127
  0
MATERIAL
  5
3C
102
{ACAD_REACTORS
330
3B
102
}
330
3B
100
AcDbMaterial
  1
ByLayer
 72
     1
 94
      127
  0
MATERIAL
  5
3E
102
{ACAD_REACTORS
330
3B
102
}
330
3B
100
AcDbMaterial
  1
Global
 72
     1
 94
      127
  0
MLINESTYLE
  5
18
102
{ACAD_REACTORS
330
17
102
}
330
17
100
AcDbMlineStyle
  2
Standard
 70
     0
  3

 62
   256
 51
90.0
 52
90.0
 71
     2
 49
0.5
 62
   256
  6
BYLAYER
 49
-0.5
 62
   256
  6
BYLAYER
  0
ACDBPLACEHOLDER
  5
F
102
{ACAD_REACTORS
330
E
102
}
330
E
  0
VISUALSTYLE
  5
2F
102
{ACAD_REACTORS
330
2A
102
}
330
2A
100
AcDbVisualStyle
  2
2dWireframe
 70
     4
177
     2
291
     0
 71
     0
176
     1
 72
     2
176
     1
 73
     0
176
     1
 90
        0
176
     1
 40
-0.6
176
     1
 41
-30.0
176
     1
 62
     5
 63
     7
421
 16777215
176
     1
 74
     1
176
     1
 91
        4
176
     1
 64
     7
176
     1
 65
   257
176
     1
 75
     1
176
     1
175
     1
176
     1
 42
1.0
176
     1
 92
        0
176
     1
 66
   257
176
     1
 43
1.0
176
     1
 76
     1
176
     1
 77
     6
176
     1
 78
     2
176
     1
 67
     7
176
     1
 79
     5
176
     1
170
     0
176
     1
171
     0
176
     1
290
     0
176
     1
 93
        1
176
     1
 44
0.0
176
     1
173
     0
176
     1
  0
VISUALSTYLE
  5
31
102
{ACAD_REACTORS
330
2A
102
}
330
2A
100
AcDbVisualStyle
  2
3D Hidden
 70
     6
177
     2
291
     0
 71
     1
176
     1
 72
     2
176
     1
 73
     2
176
     1
 90
        0
176
     1
 40
-0.6
176
     1
 41
-30.0
176
     1
 62
     5
 63
     7
421
 16777215
176
     1
 74
     2
176
     1
 91
        2
176
     1
 64
     7
176
     1
 65
   257
176
     1
 75
     2
176
     1
175
     1
176
     1
 42
40.0
176
     1
 92
        0
176
     1
 66
   257
176
     1
 43
1.0
176
     1
 76
     1
176
     1
 77
     6
176
     1
 78
     2
176
     1
 67
     7
176
     1
 79
     3
176
     1
170
     0
176
     1
171
     0
176
     1
290
     0
176
     1
 93
        1
176
     1
 44
0.0
176
     1
173
     0
176
     1
  0
VISUALSTYLE
  5
30
102
{ACAD_REACTORS
330
2A
102
}
330
2A
100
AcDbVisualStyle
  2
3dWireframe
 70
     5
177
     2
291
     0
 71
     0
176
     1
 72
     2
176
     1
 73
     0
176
     1
 90
        0
176
     1
 40
-0.6
176
     1
 41
-30.0
176
     1
 62
     5
 63
     7
421
 16777215
176
     1
 74
     1
176
     1
 91
        4
176
     1
 64
     7
176
     1
 65
   257
176
     1
 75
     1
176
     1
175
     1
176
     1
 42
1.0
176
     1
 92
        0
176
     1
 66
   257
176
     1
 43
1.0
176
     1
 76
     1
176
     1
 77
     6
176
     1
 78
     2
176
     1
 67
     7
176
     1
 79
     5
176
     1
170
     0
176
     1
171
     0
176
     1
290
     0
176
     1
 93
        1
176
     1
 44
0.0
176
     1
173
     0
176
     1
  0
VISUALSTYLE
  5
32
102
{ACAD_REACTORS
330
2A
102
}
330
2A
100
AcDbVisualStyle
  2
Basic
 70
     7
177
     2
291
     1
 71
     1
176
     1
 72
     0
176
     1
 73
     1
176
     1
 90
        0
176
     1
 40
-0.6
176
     1
 41
-30.0
176
     1
 62
     5
 63
     7
421
 16777215
176
     1
 74
     0
176
     1
 91
        4
176
     1
 64
     7
176
     1
 65
   257
176
     1
 75
     1
176
     1
175
     1
176
     1
 42
1.0
176
     1
 92
        8
176
     1
 66
     7
176
     1
 43
1.0
176
     1
 76
     1
176
     1
 77
     6
176
     1
 78
     2
176
     1
 67
     7
176
     1
 79
     5
176
     1
170
     0
176
     1
171
     0
176
     1
290
     0
176
     1
 93
        1
176
     1
 44
0.0
176
     1
173
     0
176
     1
  0
VISUALSTYLE
  5
36
102
{ACAD_REACTORS
330
2A
102
}
330
2A
100
AcDbVisualStyle
  2
Brighten
 70
    12
177
     2
291
     1
 71
     2
176
     1
 72
     2
176
     1
 73
     0
176
     1
 90
        0
176
     1
 40
-0.6
176
     1
 41
-30.0
176
     1
 62
     5
 63
     7
421
 16777215
176
     1
 74
     1
176
     1
 91
        4
176
     1
 64
     7
176
     1
 65
   257
176
     1
 75
     1
176
     1
175
     1
176
     1
 42
1.0
176
     1
 92
        8
176
     1
 66
     7
176
     1
 43
1.0
176
     1
 76
     1
176
     1
 77
     6
176
     1
 78
     2
176
     1
 67
     7
176
     1
 79
     5
176
     1
170
     0
176
     1
171
     0
176
     1
290
     0
176
     1
 93
        1
176
     1
 44
50.0
176
     1
173
     0
176
     1
  0
VISUALSTYLE
  5
3A
102
{ACAD_REACTORS
330
2A
102
}
330
2A
100
AcDbVisualStyle
  2
ColorChange
 70
    16
177
     2
291
     1
 71
     2
176
     1
 72
     2
176
     1
 73
     3
176
     1
 90
        0
176
     1
 40
-0.6
176
     1
 41
-30.0
176
     1
 62
     5
 63
     8
421
  8421504
176
     1
 74
     1
176
     1
 91
        4
176
     1
 64
     7
176
     1
 65
   257
176
     1
 75
     1
176
     1
175
     1
176
     1
 42
1.0
176
     1
 92
        8
176
     1
 66
     8
424
  8421504
176
     1
 43
1.0
176
     1
 76
     1
176
     1
 77
     6
176
     1
 78
     2
176
     1
 67
     7
176
     1
 79
     5
176
     1
170
     0
176
     1
171
     0
176
     1
290
     0
176
     1
 93
        1
176
     1
 44
0.0
176
     1
173
     0
176
     1
  0
VISUALSTYLE
  5
34
102
{ACAD_REACTORS
330
2A
102
}
330
2A
100
AcDbVisualStyle
  2
Conceptual
 70
     9
177
     2
291
     0
 71
     3
176
     1
 72
     2
176
     1
 73
     0
176
     1
 90
        0
176
     1
 40
-0.6
176
     1
 41
-30.0
176
     1
 62
     5
 63
     7
421
 16777215
176
     1
 74
     2
176
     1
 91
        2
176
     1
 64
     7
176
     1
 65
   257
176
     1
 75
     1
176
     1
175
     1
176
     1
 42
40.0
176
     1
 92
        8
176
     1
 66
     7
176
     1
 43
1.0
176
     1
 76
     1
176
     1
 77
     6
176
     1
 78
     2
176
     1
 67
     7
176
     1
 79
     3
176
     1
170
     0
176
     1
171
     0
176
     1
290
     0
176
     1
 93
        1
176
     1
 44
0.0
176
     1
173
     0
176
     1
  0
VISUALSTYLE
  5
35
102
{ACAD_REACTORS
330
2A
102
}
330
2A
100
AcDbVisualStyle
  2
Dim
 70
    11
177
     2
291
     1
 71
     2
176
     1
 72
     2
176
     1
 73
     0
176
     1
 90
        0
176
     1
 40
-0.6
176
     1
 41
-30.0
176
     1
 62
     5
 63
     7
421
 16777215
176
     1
 74
     1
176
     1
 91
        4
176
     1
 64
     7
176
     1
 65
   257
176
     1
 75
     1
176
     1
175
     1
176
     1
 42
1.0
176
     1
 92
        8
176
     1
 66
     7
176
     1
 43
1.0
176
     1
 76
     1
176
     1
 77
     6
176
     1
 78
     2
176
     1
 67
     7
176
     1
 79
     5
176
     1
170
     0
176
     1
171
     0
176
     1
290
     0
176
     1
 93
        1
176
     1
 44
-50.0
176
     1
173
     0
176
     1
  0
VISUALSTYLE
  5
39
102
{ACAD_REACTORS
330
2A
102
}
330
2A
100
AcDbVisualStyle
  2
Facepattern
 70
    15
177
     2
291
     1
 71
     2
176
     1
 72
     2
176
     1
 73
     0
176
     1
 90
        0
176
     1
 40
-0.6
176
     1
 41
-30.0
176
     1
 62
     5
 63
     7
421
 16777215
176
     1
 74
     1
176
     1
 91
        4
176
     1
 64
     7
176
     1
 65
   257
176
     1
 75
     1
176
     1
175
     1
176
     1
 42
1.0
176
     1
 92
        8
176
     1
 66
     7
176
     1
 43
1.0
176
     1
 76
     1
176
     1
 77
     6
176
     1
 78
     2
176
     1
 67
     7
176
     1
 79
     5
176
     1
170
     0
176
     1
171
     0
176
     1
290
     0
176
     1
 93
        1
176
     1
 44
0.0
176
     1
173
     0
176
     1
  0
VISUALSTYLE
  5
2B
102
{ACAD_REACTORS
330
2A
102
}
330
2A
100
AcDbVisualStyle
  2
Flat
 70
     0
177
     2
291
     1
 71
     2
176
     1
 72
     1
176
     1
 73
     1
176
     1
 90
        2
176
     1
 40
-0.6
176
     1
 41
30.0
176
     1
 62
     5
 63
     7
421
 16777215
176
     1
 74
     0
176
     1
 91
        4
176
     1
 64
     7
176
     1
 65
   257
176
     1
 75
     1
176
     1
175
     1
176
     1
 42
1.0
176
     1
 92
        8
176
     1
 66
     7
176
     1
 43
1.0
176
     1
 76
     1
176
     1
 77
     6
176
     1
 78
     2
176
     1
 67
     7
176
     1
 79
     5
176
     1
170
     0
176
     1
171
     0
176
     1
290
     0
176
     1
 93
       13
176
     1
 44
0.0
176
     1
173
     0
176
     1
  0
VISUALSTYLE
  5
2C
102
{ACAD_REACTORS
330
2A
102
}
330
2A
100
AcDbVisualStyle
  2
FlatWithEdges
 70
     1
177
     2
291
     1
 71
     2
176
     1
 72
     1
176
     1
 73
     1
176
     1
 90
        2
176
     1
 40
-0.6
176
     1
 41
30.0
176
     1
 62
     5
 63
     7
421
 16777215
176
     1
 74
     1
176
     1
 91
        4
176
     1
 64
     7
176
     1
 65
   257
176
     1
 75
     1
176
     1
175
     1
176
     1
 42
1.0
176
     1
 92
        0
176
     1
 66
   257
176
     1
 43
1.0
176
     1
 76
     1
176
     1
 77
     6
176
     1
 78
     2
176
     1
 67
     7
176
     1
 79
     5
176
     1
170
     0
176
     1
171
     0
176
     1
290
     0
176
     1
 93
       13
176
     1
 44
0.0
176
     1
173
     0
176
     1
  0
VISUALSTYLE
  5
2D
102
{ACAD_REACTORS
330
2A
102
}
330
2A
100
AcDbVisualStyle
  2
Gouraud
 70
     2
177
     2
291
     1
 71
     2
176
     1
 72
     2
176
     1
 73
     1
176
     1
 90
        2
176
     1
 40
-0.6
176
     1
 41
30.0
176
     1
 62
     5
 63
     7
421
 16777215
176
     1
 74
     0
176
     1
 91
        4
176
     1
 64
     7
176
     1
 65
   257
176
     1
 75
     1
176
     1
175
     1
176
     1
 42
1.0
176
     1
 92
        0
176
     1
 66
     7
176
     1
 43
1.0
176
     1
 76
     1
176
     1
 77
     6
176
     1
 78
     2
176
     1
 67
     7
176
     1
 79
     5
176
     1
170
     0
176
     1
171
     0
176
     1
290
     0
176
     1
 93
       13
176
     1
 44
0.0
176
     1
173
     0
176
     1
  0
VISUALSTYLE
  5
2E
102
{ACAD_REACTORS
330
2A
102
}
330
2A
100
AcDbVisualStyle
  2
GouraudWithEdges
 70
     3
177
     2
291
     1
 71
     2
176
     1
 72
     2
176
     1
 73
     1
176
     1
 90
        2
176
     1
 40
-0.6
176
     1
 41
30.0
176
     1
 62
     5
 63
     7
421
 16777215
176
     1
 74
     1
176
     1
 91
        4
176
     1
 64
     7
176
     1
 65
   257
176
     1
 75
     1
176
     1
175
     1
176
     1
 42
1.0
176
     1
 92
        0
176
     1
 66
   257
176
     1
 43
1.0
176
     1
 76
     1
176
     1
 77
     6
176
     1
 78
     2
176
     1
 67
     7
176
     1
 79
     5
176
     1
170
     0
176
     1
171
     0
176
     1
290
     0
176
     1
 93
       13
176
     1
 44
0.0
176
     1
173
     0
176
     1
  0
VISUALSTYLE
  5
38
102
{ACAD_REACTORS
330
2A
102
}
330
2A
100
AcDbVisualStyle
  2
Linepattern
 70
    14
177
     2
291
     1
 71
     2
176
     1
 72
     2
176
     1
 73
     0
176
     1
 90
        0
176
     1
 40
-0.6
176
     1
 41
-30.0
176
     1
 62
     5
 63
     7
421
 16777215
176
     1
 74
     1
176
     1
 91
        4
176
     1
 64
     7
176
     1
 65
   257
176
     1
 75
     7
176
     1
175
     7
176
     1
 42
1.0
176
     1
 92
        8
176
     1
 66
     7
176
     1
 43
1.0
176
     1
 76
     1
176
     1
 77
     6
176
     1
 78
     2
176
     1
 67
     7
176
     1
 79
     5
176
     1
170
     0
176
     1
171
     0
176
     1
290
     0
176
     1
 93
        1
176
     1
 44
0.0
176
     1
173
     0
176
     1
  0
VISUALSTYLE
  5
33
102
{ACAD_REACTORS
330
2A
102
}
330
2A
100
AcDbVisualStyle
  2
Realistic
 70
     8
177
     2
291
     0
 71
     2
176
     1
 72
     2
176
     1
 73
     0
176
     1
 90
        0
176
     1
 40
-0.6
176
     1
 41
-30.0
176
     1
 62
     5
 63
     7
421
 16777215
176
     1
 74
     1
176
     1
 91
        0
176
     1
 64
     7
176
     1
 65
   257
176
     1
 75
     1
176
     1
175
     1
176
     1
 42
1.0
176
     1
 92
        8
176
     1
 66
     8
424
  7895160
176
     1
 43
1.0
176
     1
 76
     1
176
     1
 77
     6
176
     1
 78
     2
176
     1
 67
     7
176
     1
 79
     5
176
     1
170
     0
176
     1
171
     0
176
     1
290
     0
176
     1
 93
       13
176
     1
 44
0.0
176
     1
173
     0
176
     1
  0
VISUALSTYLE
  5
37
102
{ACAD_REACTORS
330
2A
102
}
330
2A
100
AcDbVisualStyle
  2
Thicken
 70
    13
177
     2
291
     1
 71
     2
176
     1
 72
     2
176
     1
 73
     0
176
     1
 90
        0
176
     1
 40
-0.6
176
     1
 41
-30.0
176
     1
 62
     5
 63
     7
421
 16777215
176
     1
 74
     1
176
     1
 91
        4
176
     1
 64
     7
176
     1
 65
   257
176
     1
 75
     1
176
     1
175
     1
176
     1
 42
1.0
176
     1
 92
       12
176
     1
 66
     7
176
     1
 43
1.0
176
     1
 76
     1
176
     1
 77
     6
176
     1
 78
     2
176
     1
 67
     7
176
     1
 79
     5
176
     1
170
     0
176
     1
171
     0
176
     1
290
     0
176
     1
 93
        1
176
     1
 44
0.0
176
     1
173
     0
176
     1
  0
ENDSEC
  0
EOF
