  0
SECTION
  2
HEADER
  9
$ACADVER
  1
AC1024
  9
$ACADMAINTVER
 70
     6
  9
$DWGCODEPAGE
  3
UNDEFINED
  9
$INSBASE
 10
0.0
 20
0.0
 30
0.0
  9
$EXTMIN
 10
1.000000000000000E+20
 20
1.000000000000000E+20
 30
1.000000000000000E+20
  9
$EXTMAX
 10
-1.000000000000000E+20
 20
-1.000000000000000E+20
 30
-1.000000000000000E+20
  9
$LIMMIN
 10
0.0
 20
0.0
  9
$LIMMAX
 10
12.0
 20
9.0
  9
$ORTHOMODE
 70
     0
  9
$REGENMODE
 70
     1
  9
$FILLMODE
 70
     1
  9
$QTEXTMODE
 70
     0
  9
$MIRRTEXT
 70
     1
  9
$LTSCALE
 40
1.0
  9
$ATTMODE
 70
     1
  9
$TEXTSIZE
 40
0.2
  9
$TRACEWID
 40
0.05
  9
$TEXTSTYLE
  7
Standard
  9
$CLAYER
  8
0
  9
$CELTYPE
  6
ByLayer
  9
$CECOLOR
 62
   256
  9
$CELTSCALE
 40
1.0
  9
$DISPSILH
 70
     0
  9
$DIMSCALE
 40
1.0
  9
$DIMASZ
 40
0.18
  9
$DIMEXO
 40
0.0625
  9
$DIMDLI
 40
0.38
  9
$DIMRND
 40
0.0
  9
$DIMDLE
 40
0.0
  9
$DIMEXE
 40
0.18
  9
$DIMTP
 40
0.0
  9
$DIMTM
 40
0.0
  9
$DIMTXT
 40
0.18
  9
$DIMCEN
 40
0.09
  9
$DIMTSZ
 40
0.0
  9
$DIMTOL
 70
     0
  9
$DIMLIM
 70
     0
  9
$DIMTIH
 70
     1
  9
$DIMTOH
 70
     1
  9
$DIMSE1
 70
     0
  9
$DIMSE2
 70
     0
  9
$DIMTAD
 70
     0
  9
$DIMZIN
 70
     0
  9
$DIMBLK
  1

  9
$DIMASO
 70
     1
  9
$DIMSHO
 70
     1
  9
$DIMPOST
  1

  9
$DIMAPOST
  1

  9
$DIMALT
 70
     0
  9
$DIMALTD
 70
     2
  9
$DIMALTF
 40
25.4
  9
$DIMLFAC
 40
1.0
  9
$DIMTOFL
 70
     0
  9
$DIMTVP
 40
0.0
  9
$DIMTIX
 70
     0
  9
$DIMSOXD
 70
     0
  9
$DIMSAH
 70
     0
  9
$DIMBLK1
  1

  9
$DIMBLK2
  1

  9
$DIMSTYLE
  2
Standard
  9
$DIMCLRD
 70
     0
  9
$DIMCLRE
 70
     0
  9
$DIMCLRT
 70
     0
  9
$DIMTFAC
 40
1.0
  9
$DIMGAP
 40
0.09
  9
$DIMJUST
 70
     0
  9
$DIMSD1
 70
     0
  9
$DIMSD2
 70
     0
  9
$DIMTOLJ
 70
     1
  9
$DIMTZIN
 70
     0
  9
$DIMALTZ
 70
     0
  9
$DIMALTTZ
 70
     0
  9
$DIMUPT
 70
     0
  9
$DIMDEC
 70
     4
  9
$DIMTDEC
 70
     4
  9
$DIMALTU
 70
     2
  9
$DIMALTTD
 70
     2
  9
$DIMTXSTY
  7
Standard
  9
$DIMAUNIT
 70
     0
  9
$DIMADEC
 70
     0
  9
$DIMALTRND
 40
0.0
  9
$DIMAZIN
 70
     0
  9
$DIMDSEP
 70
    46
  9
$DIMATFIT
 70
     3
  9
$DIMFRAC
 70
     0
  9
$DIMLDRBLK
  1

  9
$DIMLUNIT
 70
     2
  9
$DIMLWD
 70
    -2
  9
$DIMLWE
 70
    -2
  9
$DIMTMOVE
 70
     0
  9
$DIMFXL
 40
1.0
  9
$DIMFXLON
 70
     0
  9
$DIMJOGANG
 40
0.7853981633974483
  9
$DIMTFILL
 70
     0
  9
$DIMTFILLCLR
 70
     0
  9
$DIMARCSYM
 70
     0
  9
$DIMLTYPE
  6

  9
$DIMLTEX1
  6

  9
$DIMLTEX2
  6

  9
$DIMTXTDIRECTION
 70
     0
  9
$LUNITS
 70
     2
  9
$LUPREC
 70
     4
  9
$SKETCHINC
 40
0.1
  9
$FILLETRAD
 40
0.5
  9
$AUNITS
 70
     0
  9
$AUPREC
 70
     0
  9
$MENU
  1
.
  9
$ELEVATION
 40
0.0
  9
$PELEVATION
 40
0.0
  9
$THICKNESS
 40
0.0
  9
$LIMCHECK
 70
     0
  9
$CHAMFERA
 40
0.5
  9
$CHAMFERB
 40
0.5
  9
$CHAMFERC
 40
1.0
  9
$CHAMFERD
 40
0.0
  9
$SKPOLY
 70
     0
  9
$TDCREATE
 40
2457917.616076377
  9
$TDUCREATE
 40
2457917.241076389
  9
$TDUPDATE
 40
2457917.616076377
  9
$TDUUPDATE
 40
2457917.241076389
  9
$TDINDWG
 40
0.0000000116
  9
$TDUSRTIMER
 40
0.0000000116
  9
$USRTIMER
 70
     1
  9
$ANGBASE
 50
0.0
  9
$ANGDIR
 70
     0
  9
$PDMODE
 70
     0
  9
$PDSIZE
 40
0.0
  9
$PLINEWID
 40
0.0
  9
$SPLFRAME
 70
     0
  9
$SPLINETYPE
 70
     6
  9
$SPLINESEGS
 70
     8
  9
$HANDSEED
  5
E3
  9
$SURFTAB1
 70
     6
  9
$SURFTAB2
 70
     6
  9
$SURFTYPE
 70
     6
  9
$SURFU
 70
     6
  9
$SURFV
 70
     6
  9
$UCSBASE
  2

  9
$UCSNAME
  2

  9
$UCSORG
 10
0.0
 20
0.0
 30
0.0
  9
$UCSXDIR
 10
1.0
 20
0.0
 30
0.0
  9
$UCSYDIR
 10
0.0
 20
1.0
 30
0.0
  9
$UCSORTHOREF
  2

  9
$UCSORTHOVIEW
 70
     0
  9
$UCSORGTOP
 10
0.0
 20
0.0
 30
0.0
  9
$UCSORGBOTTOM
 10
0.0
 20
0.0
 30
0.0
  9
$UCSORGLEFT
 10
0.0
 20
0.0
 30
0.0
  9
$UCSORGRIGHT
 10
0.0
 20
0.0
 30
0.0
  9
$UCSORGFRONT
 10
0.0
 20
0.0
 30
0.0
  9
$UCSORGBACK
 10
0.0
 20
0.0
 30
0.0
  9
$PUCSBASE
  2

  9
$PUCSNAME
  2

  9
$PUCSORG
 10
0.0
 20
0.0
 30
0.0
  9
$PUCSXDIR
 10
1.0
 20
0.0
 30
0.0
  9
$PUCSYDIR
 10
0.0
 20
1.0
 30
0.0
  9
$PUCSORTHOREF
  2

  9
$PUCSORTHOVIEW
 70
     0
  9
$PUCSORGTOP
 10
0.0
 20
0.0
 30
0.0
  9
$PUCSORGBOTTOM
 10
0.0
 20
0.0
 30
0.0
  9
$PUCSORGLEFT
 10
0.0
 20
0.0
 30
0.0
  9
$PUCSORGRIGHT
 10
0.0
 20
0.0
 30
0.0
  9
$PUCSORGFRONT
 10
0.0
 20
0.0
 30
0.0
  9
$PUCSORGBACK
 10
0.0
 20
0.0
 30
0.0
  9
$USERI1
 70
     0
  9
$USERI2
 70
     0
  9
$USERI3
 70
     0
  9
$USERI4
 70
     0
  9
$USERI5
 70
     0
  9
$USERR1
 40
0.0
  9
$USERR2
 40
0.0
  9
$USERR3
 40
0.0
  9
$USERR4
 40
0.0
  9
$USERR5
 40
0.0
  9
$WORLDVIEW
 70
     1
  9
$SHADEDGE
 70
     3
  9
$SHADEDIF
 70
    70
  9
$TILEMODE
 70
     1
  9
$MAXACTVP
 70
    64
  9
$PINSBASE
 10
0.0
 20
0.0
 30
0.0
  9
$PLIMCHECK
 70
     0
  9
$PEXTMIN
 10
1.000000000000000E+20
 20
1.000000000000000E+20
 30
1.000000000000000E+20
  9
$PEXTMAX
 10
-1.000000000000000E+20
 20
-1.000000000000000E+20
 30
-1.000000000000000E+20
  9
$PLIMMIN
 10
0.0
 20
0.0
  9
$PLIMMAX
 10
12.0
 20
9.0
  9
$UNITMODE
 70
     0
  9
$VISRETAIN
 70
     1
  9
$PLINEGEN
 70
     0
  9
$PSLTSCALE
 70
     1
  9
$TREEDEPTH
 70
  3020
  9
$CMLSTYLE
  2
Standard
  9
$CMLJUST
 70
     0
  9
$CMLSCALE
 40
1.0
  9
$PROXYGRAPHICS
 70
     1
  9
$MEASUREMENT
 70
     0
  9
$CELWEIGHT
370
    -1
  9
$ENDCAPS
280
     0
  9
$JOINSTYLE
280
     0
  9
$LWDISPLAY
290
     1
  9
$INSUNITS
 70
     1
  9
$HYPERLINKBASE
  1

  9
$STYLESHEET
  1

  9
$XEDIT
290
     1
  9
$CEPSNTYPE
380
     0
  9
$PSTYLEMODE
290
     1
  9
$FINGERPRINTGUID
  2
{92126C55-B1F8-B4C7-6D34-4D4A804C0187}
  9
$VERSIONGUID
  2
{FAEB1C32-E019-11D5-929B-00C0DF256EC4}
  9
$EXTNAMES
290
     1
  9
$PSVPSCALE
 40
0.0
  9
$OLESTARTUP
290
     0
  9
$SORTENTS
280
   127
  9
$INDEXCTL
280
     0
  9
$HIDETEXT
280
     1
  9
$XCLIPFRAME
280
     2
  9
$HALOGAP
280
     0
  9
$OBSCOLOR
 70
   257
  9
$OBSLTYPE
280
     0
  9
$INTERSECTIONDISPLAY
280
     0
  9
$INTERSECTIONCOLOR
 70
   257
  9
$DIMASSOC
280
     2
  9
$PROJECTNAME
  1

  9
$CAMERADISPLAY
290
     0
  9
$LENSLENGTH
 40
50.0
  9
$CAMERAHEIGHT
 40
0.0
  9
$STEPSPERSEC
 40
2.0
  9
$STEPSIZE
 40
6.0
  9
$3DDWFPREC
 40
2.0
  9
$PSOLWIDTH
 40
0.25
  9
$PSOLHEIGHT
 40
4.0
  9
$LOFTANG1
 40
1.570796326794897
  9
$LOFTANG2
 40
1.570796326794897
  9
$LOFTMAG1
 40
0.0
  9
$LOFTMAG2
 40
0.0
  9
$LOFTPARAM
 70
     7
  9
$LOFTNORMALS
280
     1
  9
$LATITUDE
 40
37.795
  9
$LONGITUDE
 40
-122.394
  9
$NORTHDIRECTION
 40
0.0
  9
$TIMEZONE
 70
 -8000
  9
$LIGHTGLYPHDISPLAY
280
     1
  9
$TILEMODELIGHTSYNCH
280
     1
  9
$CMATERIAL
347
3C
  9
$SOLIDHIST
280
     1
  9
$SHOWHIST
280
     1
  9
$DWFFRAME
280
     2
  9
$DGNFRAME
280
     2
  9
$REALWORLDSCALE
290
     1
  9
$INTERFERECOLOR
 62
   256
  9
$CSHADOW
280
     0
  9
$SHADOWPLANELOCATION
 40
0.0
  0
ENDSEC
  0
SECTION
  2
CLASSES
  0
CLASS
  1
ACDBDICTIONARYWDFLT
  2
AcDbDictionaryWithDefault
  3
ObjectDBX Classes
 90
        0
 91
        4
280
     0
281
     0
  0
CLASS
  1
VISUALSTYLE
  2
AcDbVisualStyle
  3
ObjectDBX Classes
 90
     4095
 91
        4
280
     0
281
     0
  0
CLASS
  1
MATERIAL
  2
AcDbMaterial
  3
ObjectDBX Classes
 90
     1153
 91
        4
280
     0
281
     0
  0
CLASS
  1
SUN
  2
AcDbSun
  3
SCENEOE
 90
     1024
 91
        4
280
     0
281
     0
  0
ENDSEC
  0
SECTION
  2
TABLES
  0
TABLE
  2
VPORT
  5
8
330
0
100
AcDbSymbolTable
 70
     1
  0
VPORT
  5
29
330
8
100
AcDbSymbolTableRecord
100
AcDbViewportTableRecord
  2
*Active
 70
     0
 10
0.0
 20
0.0
 11
1.0
 21
1.0
 12
0.0
 22
0.0
 13
0.0
 23
0.0
 14
0.5
 24
0.5
 15
0.5
 25
0.5
 16
0.0
 26
0.0
 36
1.0
 17
91.00082462281999
 27
-128.4993055234307
 37
0.0
 40
256.9986110468615
 41
0.7081814508812795
 42
50.0
 43
0.0
 44
0.0
 50
0.0
 51
0.0
 71
     0
 72
   100
 73
     1
 74
     3
 75
     0
 76
     0
 77
     0
 78
     0
281
     0
 65
     1
110
0.0
120
0.0
130
0.0
111
1.0
121
0.0
131
0.0
112
0.0
122
1.0
132
0.0
 79
     0
146
0.0
 60
     3
 61
     5
292
     1
282
     1
141
0.0
142
0.0
 63
   250
361
3F
  0
ENDTAB
  0
TABLE
  2
LTYPE
  5
5
330
0
100
AcDbSymbolTable
 70
     1
  0
LTYPE
  5
14
330
5
100
AcDbSymbolTableRecord
100
AcDbLinetypeTableRecord
  2
ByBlock
 70
     0
  3

 72
    65
 73
     0
 40
0.0
  0
LTYPE
  5
15
330
5
100
AcDbSymbolTableRecord
100
AcDbLinetypeTableRecord
  2
ByLayer
 70
     0
  3

 72
    65
 73
     0
 40
0.0
  0
LTYPE
  5
16
330
5
100
AcDbSymbolTableRecord
100
AcDbLinetypeTableRecord
  2
Continuous
 70
     0
  3
Solid line
 72
    65
 73
     0
 40
0.0
  0
ENDTAB
  0
TABLE
  2
LAYER
  5
2
330
0
100
AcDbSymbolTable
 70
     2
  0
LAYER
  5
10
330
2
100
AcDbSymbolTableRecord
100
AcDbLayerTableRecord
  2
0
 70
     0
 62
     7
  6
Continuous
370
    -3
390
F
347
3E
  0
LAYER
  5
40
330
2
100
AcDbSymbolTableRecord
100
AcDbLayerTableRecord
  2
_U+30EC_U+30A4_U+30E4_U+30FC 1
 70
     0
 62
     7
  6
Continuous
370
    -3
390
F
347
3E
  0
ENDTAB
  0
TABLE
  2
STYLE
  5
3
330
0
100
AcDbSymbolTable
 70
     1
  0
STYLE
  5
11
330
3
100
AcDbSymbolTableRecord
100
AcDbTextStyleTableRecord
  2
Standard
 70
     0
 40
0.0
 41
1.0
 50
0.0
 71
     0
 42
0.2
  3
txt
  4

  0
ENDTAB
  0
TABLE
  2
VIEW
  5
6
330
0
100
AcDbSymbolTable
 70
     0
  0
ENDTAB
  0
TABLE
  2
UCS
  5
7
330
0
100
AcDbSymbolTable
 70
     0
  0
ENDTAB
  0
TABLE
  2
APPID
  5
9
330
0
100
AcDbSymbolTable
 70
     1
  0
APPID
  5
12
330
9
100
AcDbSymbolTableRecord
100
AcDbRegAppTableRecord
  2
ACAD
 70
     0
  0
ENDTAB
  0
TABLE
  2
DIMSTYLE
  5
A
330
0
100
AcDbSymbolTable
 70
     1
100
AcDbDimStyleTable
  0
DIMSTYLE
105
27
330
A
100
AcDbSymbolTableRecord
100
AcDbDimStyleTableRecord
  2
Standard
 70
     0
178
     0
340
11
  0
ENDTAB
  0
TABLE
  2
BLOCK_RECORD
  5
1
330
0
100
AcDbSymbolTable
 70
     7
  0
BLOCK_RECORD
  5
1F
330
1
100
AcDbSymbolTableRecord
100
AcDbBlockTableRecord
  2
*Model_Space
340
22
 70
     0
280
     1
281
     0
  0
BLOCK_RECORD
  5
1B
330
1
100
AcDbSymbolTableRecord
100
AcDbBlockTableRecord
  2
*Paper_Space
340
1E
 70
     0
280
     1
281
     0
  0
BLOCK_RECORD
  5
23
330
1
100
AcDbSymbolTableRecord
100
AcDbBlockTableRecord
  2
*Paper_Space0
340
26
 70
     0
280
     1
281
     0
  0
BLOCK_RECORD
  5
41
330
1
100
AcDbSymbolTableRecord
100
AcDbBlockTableRecord
  2
block 2
340
0
102
{BLKREFS
331
42
102
}
 70
     0
280
     1
281
     0
  0
BLOCK_RECORD
  5
93
330
1
100
AcDbSymbolTableRecord
100
AcDbBlockTableRecord
  2
block 3
340
0
102
{BLKREFS
331
94
102
}
 70
     0
280
     1
281
     0
  0
BLOCK_RECORD
  5
A1
330
1
100
AcDbSymbolTableRecord
100
AcDbBlockTableRecord
  2
block 4
340
0
102
{BLKREFS
331
A2
102
}
 70
     0
280
     1
281
     0
  0
BLOCK_RECORD
  5
AF
330
1
100
AcDbSymbolTableRecord
100
AcDbBlockTableRecord
  2
block 5
340
0
102
{BLKREFS
331
B0
102
}
 70
     0
280
     1
281
     0
  0
BLOCK_RECORD
  5
C3
330
1
100
AcDbSymbolTableRecord
100
AcDbBlockTableRecord
  2
block 6
340
0
102
{BLKREFS
331
C4
102
}
 70
     0
280
     1
281
     0
  0
BLOCK_RECORD
  5
D8
330
1
100
AcDbSymbolTableRecord
100
AcDbBlockTableRecord
  2
block 7
340
0
102
{BLKREFS
331
D9
102
}
 70
     0
280
     1
281
     0
  0
ENDTAB
  0
ENDSEC
  0
SECTION
  2
BLOCKS
  0
BLOCK
  5
20
330
1F
100
AcDbEntity
  8
0
100
AcDbBlockBegin
  2
*Model_Space
 70
     0
 10
0.0
 20
0.0
 30
0.0
  3
*Model_Space
  1

  0
ENDBLK
  5
21
330
1F
100
AcDbEntity
  8
0
100
AcDbBlockEnd
  0
BLOCK
  5
1C
330
1B
100
AcDbEntity
 67
     1
  8
0
100
AcDbBlockBegin
  2
*Paper_Space
 70
     0
 10
0.0
 20
0.0
 30
0.0
  3
*Paper_Space
  1

  0
ENDBLK
  5
1D
330
1B
100
AcDbEntity
 67
     1
  8
0
100
AcDbBlockEnd
  0
BLOCK
  5
24
330
23
100
AcDbEntity
  8
0
100
AcDbBlockBegin
  2
*Paper_Space0
 70
     0
 10
0.0
 20
0.0
 30
0.0
  3
*Paper_Space0
  1

  0
ENDBLK
  5
25
330
23
100
AcDbEntity
  8
0
100
AcDbBlockEnd
  0
BLOCK
  5
43
330
41
100
AcDbEntity
  8
0
100
AcDbBlockBegin
  2
block 2
 70
     0
 10
0.0
 20
0.0
 30
0.0
  3
block 2
  1

  0
POLYLINE
  5
45
330
41
100
AcDbEntity
  8
_U+30EC_U+30A4_U+30E4_U+30FC 1
370
     0
100
AcDb2dPolyline
 66
     1
 10
0.0
 20
0.0
 30
0.0
  0
VERTEX
  5
46
330
45
100
AcDbEntity
  8
_U+30EC_U+30A4_U+30E4_U+30FC 1
370
     0
100
AcDbVertex
100
AcDb2dVertex
 10
73.65269562096319
 20
-138.4453105209443
 30
0.0
  0
VERTEX
  5
47
330
45
100
AcDbEntity
  8
_U+30EC_U+30A4_U+30E4_U+30FC 1
370
     0
100
AcDbVertex
100
AcDb2dVertex
 10
93.69590566517385
 20
-138.4453105209443
 30
0.0
  0
VERTEX
  5
48
330
45
100
AcDbEntity
  8
_U+30EC_U+30A4_U+30E4_U+30FC 1
370
     0
100
AcDbVertex
100
AcDb2dVertex
 10
93.65180844407665
 20
-135.4246507994772
 30
0.0
  0
VERTEX
  5
49
330
45
100
AcDbEntity
  8
_U+30EC_U+30A4_U+30E4_U+30FC 1
370
     0
100
AcDbVertex
100
AcDb2dVertex
 10
92.61552374829225
 20
-135.4026021883716
 30
0.0
  0
VERTEX
  5
4A
330
45
100
AcDbEntity
  8
_U+30EC_U+30A4_U+30E4_U+30FC 1
370
     0
100
AcDbVertex
100
AcDb2dVertex
 10
92.65274180289829
 20
-137.4090257989811
 30
0.0
  0
VERTEX
  5
4B
330
45
100
AcDbEntity
  8
_U+30EC_U+30A4_U+30E4_U+30FC 1
370
     0
100
AcDbVertex
100
AcDb2dVertex
 10
74.65313809543977
 20
-137.3428799656643
 30
0.0
  0
VERTEX
  5
4C
330
45
100
AcDbEntity
  8
_U+30EC_U+30A4_U+30E4_U+30FC 1
370
     0
100
AcDbVertex
100
AcDb2dVertex
 10
74.65313809543977
 20
-122.382209413849
 30
0.0
  0
VERTEX
  5
4D
330
45
100
AcDbEntity
  8
_U+30EC_U+30A4_U+30E4_U+30FC 1
370
     0
100
AcDbVertex
100
AcDb2dVertex
 10
103.6277666407596
 20
-122.382209413849
 30
0.0
  0
VERTEX
  5
4E
330
45
100
AcDbEntity
  8
_U+30EC_U+30A4_U+30E4_U+30FC 1
370
     0
100
AcDbVertex
100
AcDb2dVertex
 10
103.6277666407596
 20
-121.3824371918768
 30
0.0
  0
VERTEX
  5
4F
330
45
100
AcDbEntity
  8
_U+30EC_U+30A4_U+30E4_U+30FC 1
370
     0
100
AcDbVertex
100
AcDb2dVertex
 10
73.65269562096319
 20
-121.3824371918768
 30
0.0
  0
VERTEX
  5
50
330
45
100
AcDbEntity
  8
_U+30EC_U+30A4_U+30E4_U+30FC 1
370
     0
100
AcDbVertex
100
AcDb2dVertex
 10
73.65269562096319
 20
-138.4453105209443
 30
0.0
  0
SEQEND
  5
52
330
45
100
AcDbEntity
  8
_U+30EC_U+30A4_U+30E4_U+30FC 1
370
     0
  0
HATCH
  5
51
330
41
100
AcDbEntity
  8
_U+30EC_U+30A4_U+30E4_U+30FC 1
 62
   253
420
 11711154
100
AcDbHatch
 10
0.0
 20
0.0
 30
0.0
210
0.0
220
0.0
230
1.0
  2
SOLID
 70
     1
 71
     0
 91
        1
 92
        1
 93
       10
 72
     1
 10
73.65269562096319
 20
-138.4453105209443
 11
93.69590566517385
 21
-138.4453105209443
 72
     1
 10
93.69590566517385
 20
-138.4453105209443
 11
93.65180844407665
 21
-135.4246507994772
 72
     1
 10
93.65180844407665
 20
-135.4246507994772
 11
92.61552374829225
 21
-135.4026021883716
 72
     1
 10
92.61552374829225
 20
-135.4026021883716
 11
92.65274180289829
 21
-137.4090257989811
 72
     1
 10
92.65274180289829
 20
-137.4090257989811
 11
74.65313809543977
 21
-137.3428799656643
 72
     1
 10
74.65313809543977
 20
-137.3428799656643
 11
74.65313809543977
 21
-122.382209413849
 72
     1
 10
74.65313809543977
 20
-122.382209413849
 11
103.6277666407596
 21
-122.382209413849
 72
     1
 10
103.6277666407596
 20
-122.382209413849
 11
103.6277666407596
 21
-121.3824371918768
 72
     1
 10
103.6277666407596
 20
-121.3824371918768
 11
73.65269562096319
 21
-121.3824371918768
 72
     1
 10
73.65269562096319
 20
-121.3824371918768
 11
73.65269562096319
 21
-138.4453105209443
 97
        0
 75
     2
 76
     1
 98
        0
  0
POLYLINE
  5
53
330
41
100
AcDbEntity
  8
_U+30EC_U+30A4_U+30E4_U+30FC 1
 62
     7
420
 16777215
370
    25
100
AcDb2dPolyline
 66
     1
 10
0.0
 20
0.0
 30
0.0
  0
VERTEX
  5
54
330
53
100
AcDbEntity
  8
_U+30EC_U+30A4_U+30E4_U+30FC 1
 62
     7
420
 16777215
370
    25
100
AcDbVertex
100
AcDb2dVertex
 10
73.65269562096319
 20
-121.3824371918768
 30
0.0
  0
VERTEX
  5
55
330
53
100
AcDbEntity
  8
_U+30EC_U+30A4_U+30E4_U+30FC 1
 62
     7
420
 16777215
370
    25
100
AcDbVertex
100
AcDb2dVertex
 10
103.6525995778241
 20
-121.3824371918768
 30
0.0
  0
SEQEND
  5
56
330
53
100
AcDbEntity
  8
_U+30EC_U+30A4_U+30E4_U+30FC 1
 62
     7
420
 16777215
370
    25
  0
POLYLINE
  5
57
330
41
100
AcDbEntity
  8
_U+30EC_U+30A4_U+30E4_U+30FC 1
 62
     7
420
 16777215
370
    25
100
AcDb2dPolyline
 66
     1
 10
0.0
 20
0.0
 30
0.0
  0
VERTEX
  5
58
330
57
100
AcDbEntity
  8
_U+30EC_U+30A4_U+30E4_U+30FC 1
 62
     7
420
 16777215
370
    25
100
AcDbVertex
100
AcDb2dVertex
 10
73.65269562096319
 20
-121.3824371918768
 30
0.0
  0
VERTEX
  5
59
330
57
100
AcDbEntity
  8
_U+30EC_U+30A4_U+30E4_U+30FC 1
 62
     7
420
 16777215
370
    25
100
AcDbVertex
100
AcDb2dVertex
 10
73.65269562096319
 20
-138.2826799654296
 30
0.0
  0
SEQEND
  5
5A
330
57
100
AcDbEntity
  8
_U+30EC_U+30A4_U+30E4_U+30FC 1
 62
     7
420
 16777215
370
    25
  0
POLYLINE
  5
5B
330
41
100
AcDbEntity
  8
_U+30EC_U+30A4_U+30E4_U+30FC 1
 62
     7
420
 16777215
370
    25
100
AcDb2dPolyline
 66
     1
 10
0.0
 20
0.0
 30
0.0
  0
VERTEX
  5
5C
330
5B
100
AcDbEntity
  8
_U+30EC_U+30A4_U+30E4_U+30FC 1
 62
     7
420
 16777215
370
    25
100
AcDbVertex
100
AcDb2dVertex
 10
103.6525995778241
 20
-121.3824371918768
 30
0.0
  0
VERTEX
  5
5D
330
5B
100
AcDbEntity
  8
_U+30EC_U+30A4_U+30E4_U+30FC 1
 62
     7
420
 16777215
370
    25
100
AcDbVertex
100
AcDb2dVertex
 10
103.6525995778241
 20
-122.382209413849
 30
0.0
  0
SEQEND
  5
5E
330
5B
100
AcDbEntity
  8
_U+30EC_U+30A4_U+30E4_U+30FC 1
 62
     7
420
 16777215
370
    25
  0
POLYLINE
  5
5F
330
41
100
AcDbEntity
  8
_U+30EC_U+30A4_U+30E4_U+30FC 1
 62
     7
420
 16777215
370
    25
100
AcDb2dPolyline
 66
     1
 10
0.0
 20
0.0
 30
0.0
  0
VERTEX
  5
60
330
5F
100
AcDbEntity
  8
_U+30EC_U+30A4_U+30E4_U+30FC 1
 62
     7
420
 16777215
370
    25
100
AcDbVertex
100
AcDb2dVertex
 10
74.65313809543977
 20
-122.382209413849
 30
0.0
  0
VERTEX
  5
61
330
5F
100
AcDbEntity
  8
_U+30EC_U+30A4_U+30E4_U+30FC 1
 62
     7
420
 16777215
370
    25
100
AcDbVertex
100
AcDb2dVertex
 10
103.652917077816
 20
-122.382209413849
 30
0.0
  0
SEQEND
  5
62
330
5F
100
AcDbEntity
  8
_U+30EC_U+30A4_U+30E4_U+30FC 1
 62
     7
420
 16777215
370
    25
  0
POLYLINE
  5
63
330
41
100
AcDbEntity
  8
_U+30EC_U+30A4_U+30E4_U+30FC 1
 62
     7
420
 16777215
370
    25
100
AcDb2dPolyline
 66
     1
 10
0.0
 20
0.0
 30
0.0
  0
VERTEX
  5
64
330
63
100
AcDbEntity
  8
_U+30EC_U+30A4_U+30E4_U+30FC 1
 62
     7
420
 16777215
370
    25
100
AcDbVertex
100
AcDb2dVertex
 10
93.6525139996142
 20
-135.3839755217098
 30
0.0
  0
VERTEX
  5
65
330
63
100
AcDbEntity
  8
_U+30EC_U+30A4_U+30E4_U+30FC 1
 62
     7
420
 16777215
370
    25
100
AcDbVertex
100
AcDb2dVertex
 10
93.6525139996142
 20
-138.3839624654041
 30
0.0
  0
SEQEND
  5
66
330
63
100
AcDbEntity
  8
_U+30EC_U+30A4_U+30E4_U+30FC 1
 62
     7
420
 16777215
370
    25
  0
POLYLINE
  5
67
330
41
100
AcDbEntity
  8
_U+30EC_U+30A4_U+30E4_U+30FC 1
 62
     7
420
 16777215
370
    25
100
AcDb2dPolyline
 66
     1
 10
0.0
 20
0.0
 30
0.0
  0
VERTEX
  5
68
330
67
100
AcDbEntity
  8
_U+30EC_U+30A4_U+30E4_U+30FC 1
 62
     7
420
 16777215
370
    25
100
AcDbVertex
100
AcDb2dVertex
 10
92.65274180289829
 20
-135.3839755217098
 30
0.0
  0
VERTEX
  5
69
330
67
100
AcDbEntity
  8
_U+30EC_U+30A4_U+30E4_U+30FC 1
 62
     7
420
 16777215
370
    25
100
AcDbVertex
100
AcDb2dVertex
 10
92.65274180289829
 20
-137.3841902434316
 30
0.0
  0
SEQEND
  5
6A
330
67
100
AcDbEntity
  8
_U+30EC_U+30A4_U+30E4_U+30FC 1
 62
     7
420
 16777215
370
    25
  0
POLYLINE
  5
6B
330
41
100
AcDbEntity
  8
_U+30EC_U+30A4_U+30E4_U+30FC 1
 62
     7
420
 16777215
370
    25
100
AcDb2dPolyline
 66
     1
 10
0.0
 20
0.0
 30
0.0
  0
VERTEX
  5
6C
330
6B
100
AcDbEntity
  8
_U+30EC_U+30A4_U+30E4_U+30FC 1
 62
     7
420
 16777215
370
    25
100
AcDbVertex
100
AcDb2dVertex
 10
74.65313809543977
 20
-122.382209413849
 30
0.0
  0
VERTEX
  5
6D
330
6B
100
AcDbEntity
  8
_U+30EC_U+30A4_U+30E4_U+30FC 1
 62
     7
420
 16777215
370
    25
100
AcDbVertex
100
AcDb2dVertex
 10
74.65313809543977
 20
-137.2822374656797
 30
0.0
  0
SEQEND
  5
6E
330
6B
100
AcDbEntity
  8
_U+30EC_U+30A4_U+30E4_U+30FC 1
 62
     7
420
 16777215
370
    25
  0
POLYLINE
  5
6F
330
41
100
AcDbEntity
  8
_U+30EC_U+30A4_U+30E4_U+30FC 1
 62
     7
420
 16777215
370
    25
100
AcDb2dPolyline
 66
     1
 10
0.0
 20
0.0
 30
0.0
  0
VERTEX
  5
70
330
6F
100
AcDbEntity
  8
_U+30EC_U+30A4_U+30E4_U+30FC 1
 62
     7
420
 16777215
370
    25
100
AcDbVertex
100
AcDb2dVertex
 10
92.65274180289829
 20
-135.3839755217098
 30
0.0
  0
VERTEX
  5
71
330
6F
100
AcDbEntity
  8
_U+30EC_U+30A4_U+30E4_U+30FC 1
 62
     7
420
 16777215
370
    25
100
AcDbVertex
100
AcDb2dVertex
 10
93.6525139996142
 20
-135.3839755217098
 30
0.0
  0
SEQEND
  5
72
330
6F
100
AcDbEntity
  8
_U+30EC_U+30A4_U+30E4_U+30FC 1
 62
     7
420
 16777215
370
    25
  0
POLYLINE
  5
73
330
41
100
AcDbEntity
  8
_U+30EC_U+30A4_U+30E4_U+30FC 1
 62
     7
420
 16777215
370
    25
100
AcDb2dPolyline
 66
     1
 10
0.0
 20
0.0
 30
0.0
  0
VERTEX
  5
74
330
73
100
AcDbEntity
  8
_U+30EC_U+30A4_U+30E4_U+30FC 1
 62
     7
420
 16777215
370
    25
100
AcDbVertex
100
AcDb2dVertex
 10
73.65269562096319
 20
-138.3839624654041
 30
0.0
  0
VERTEX
  5
75
330
73
100
AcDbEntity
  8
_U+30EC_U+30A4_U+30E4_U+30FC 1
 62
     7
420
 16777215
370
    25
100
AcDbVertex
100
AcDb2dVertex
 10
93.6525139996142
 20
-138.3839624654041
 30
0.0
  0
SEQEND
  5
76
330
73
100
AcDbEntity
  8
_U+30EC_U+30A4_U+30E4_U+30FC 1
 62
     7
420
 16777215
370
    25
  0
POLYLINE
  5
77
330
41
100
AcDbEntity
  8
_U+30EC_U+30A4_U+30E4_U+30FC 1
 62
     7
420
 16777215
370
    25
100
AcDb2dPolyline
 66
     1
 10
0.0
 20
0.0
 30
0.0
  0
VERTEX
  5
78
330
77
100
AcDbEntity
  8
_U+30EC_U+30A4_U+30E4_U+30FC 1
 62
     7
420
 16777215
370
    25
100
AcDbVertex
100
AcDb2dVertex
 10
74.65313809543977
 20
-137.3841902434316
 30
0.0
  0
VERTEX
  5
79
330
77
100
AcDbEntity
  8
_U+30EC_U+30A4_U+30E4_U+30FC 1
 62
     7
420
 16777215
370
    25
100
AcDbVertex
100
AcDb2dVertex
 10
92.65274180289829
 20
-137.3841902434316
 30
0.0
  0
SEQEND
  5
7A
330
77
100
AcDbEntity
  8
_U+30EC_U+30A4_U+30E4_U+30FC 1
 62
     7
420
 16777215
370
    25
  0
SPLINE
  5
7B
330
41
100
AcDbEntity
  8
_U+30EC_U+30A4_U+30E4_U+30FC 1
 62
     7
420
 16777215
370
     9
100
AcDbSpline
210
0.0
220
0.0
230
1.0
 70
    11
 71
     3
 72
    17
 73
    13
 74
     0
 42
0.0000000001
 43
0.0000000001
 12
1.0
 22
0.0
 32
0.0
 13
1.0
 23
0.0
 33
0.0
 40
0.0
 40
0.0
 40
0.0
 40
0.0
 40
1.0
 40
1.0
 40
1.0
 40
2.0
 40
2.0
 40
2.0
 40
3.0
 40
3.0
 40
3.0
 40
4.0
 40
4.0
 40
4.0
 40
4.0
 10
73.75260228508103
 20
-117.3819724706547
 30
0.0
 10
73.75260228508103
 20
-117.3268685817795
 30
0.0
 10
73.70779950844626
 20
-117.2820658040127
 30
0.0
 10
73.65269562096319
 20
-117.2820658040127
 30
0.0
 10
73.5975583149338
 20
-117.2820658040127
 30
0.0
 10
73.55278895684536
 20
-117.3268685817795
 30
0.0
 10
73.55278895684536
 20
-117.3819724706547
 30
0.0
 10
73.55278895684536
 20
-117.4377819150851
 30
0.0
 10
73.5975583149338
 20
-117.4825846928515
 30
0.0
 10
73.65269562096319
 20
-117.4825846928515
 30
0.0
 10
73.70779950844626
 20
-117.4825846928515
 30
0.0
 10
73.75260228508103
 20
-117.4377819150851
 30
0.0
 10
73.75260228508103
 20
-117.3819724706547
 30
0.0
  0
SPLINE
  5
7C
330
41
100
AcDbEntity
  8
_U+30EC_U+30A4_U+30E4_U+30FC 1
 62
     7
420
 16777215
370
     9
100
AcDbSpline
210
0.0
220
0.0
230
1.0
 70
    11
 71
     3
 72
    17
 73
    13
 74
     0
 42
0.0000000001
 43
0.0000000001
 12
1.0
 22
0.0
 32
0.0
 13
1.0
 23
0.0
 33
0.0
 40
0.0
 40
0.0
 40
0.0
 40
0.0
 40
1.0
 40
1.0
 40
1.0
 40
2.0
 40
2.0
 40
2.0
 40
3.0
 40
3.0
 40
3.0
 40
4.0
 40
4.0
 40
4.0
 40
4.0
 10
103.7525062419419
 20
-117.3819724706547
 30
0.0
 10
103.7525062419419
 20
-117.3268685817795
 30
0.0
 10
103.7077034653072
 20
-117.2820658040127
 30
0.0
 10
103.6525995778241
 20
-117.2820658040127
 30
0.0
 10
103.5974604125641
 20
-117.2820658040127
 30
0.0
 10
103.5526929137063
 20
-117.3268685817795
 30
0.0
 10
103.5526929137063
 20
-117.3819724706547
 30
0.0
 10
103.5526929137063
 20
-117.4377819150851
 30
0.0
 10
103.5974604125641
 20
-117.4825846928515
 30
0.0
 10
103.6525995778241
 20
-117.4825846928515
 30
0.0
 10
103.7077034653072
 20
-117.4825846928515
 30
0.0
 10
103.7525062419419
 20
-117.4377819150851
 30
0.0
 10
103.7525062419419
 20
-117.3819724706547
 30
0.0
  0
SPLINE
  5
7D
330
41
100
AcDbEntity
  8
_U+30EC_U+30A4_U+30E4_U+30FC 1
 62
     7
420
 16777215
370
     9
100
AcDbSpline
210
0.0
220
0.0
230
1.0
 70
    11
 71
     3
 72
    17
 73
    13
 74
     0
 42
0.0000000001
 43
0.0000000001
 12
1.0
 22
0.0
 32
0.0
 13
1.0
 23
0.0
 33
0.0
 40
0.0
 40
0.0
 40
0.0
 40
0.0
 40
1.0
 40
1.0
 40
1.0
 40
2.0
 40
2.0
 40
2.0
 40
3.0
 40
3.0
 40
3.0
 40
4.0
 40
4.0
 40
4.0
 40
4.0
 10
107.7529355843269
 20
-121.3824371918768
 30
0.0
 10
107.7529355843269
 20
-121.3272980252237
 30
0.0
 10
107.708168085469
 20
-121.2825305252348
 30
0.0
 10
107.6530289202091
 20
-121.2825305252348
 30
0.0
 10
107.5972221953229
 20
-121.2825305252348
 30
0.0
 10
107.5524194175562
 20
-121.3272980252237
 30
0.0
 10
107.5524194175562
 20
-121.3824371918768
 30
0.0
 10
107.5524194175562
 20
-121.4375410807517
 30
0.0
 10
107.5972221953229
 20
-121.4823438585184
 30
0.0
 10
107.6530289202091
 20
-121.4823438585184
 30
0.0
 10
107.708168085469
 20
-121.4823438585184
 30
0.0
 10
107.7529355843269
 20
-121.4375410807517
 30
0.0
 10
107.7529355843269
 20
-121.3824371918768
 30
0.0
  0
SPLINE
  5
7E
330
41
100
AcDbEntity
  8
_U+30EC_U+30A4_U+30E4_U+30FC 1
 62
     7
420
 16777215
370
     9
100
AcDbSpline
210
0.0
220
0.0
230
1.0
 70
    11
 71
     3
 72
    17
 73
    13
 74
     0
 42
0.0000000001
 43
0.0000000001
 12
1.0
 22
0.0
 32
0.0
 13
1.0
 23
0.0
 33
0.0
 40
0.0
 40
0.0
 40
0.0
 40
0.0
 40
1.0
 40
1.0
 40
1.0
 40
2.0
 40
2.0
 40
2.0
 40
3.0
 40
3.0
 40
3.0
 40
4.0
 40
4.0
 40
4.0
 40
4.0
 10
107.7529355843269
 20
-122.382209413849
 30
0.0
 10
107.7529355843269
 20
-122.3270702471959
 30
0.0
 10
107.708168085469
 20
-122.2823027472074
 30
0.0
 10
107.6530289202091
 20
-122.2823027472074
 30
0.0
 10
107.5972221953229
 20
-122.2823027472074
 30
0.0
 10
107.5524194175562
 20
-122.3270702471959
 30
0.0
 10
107.5524194175562
 20
-122.382209413849
 30
0.0
 10
107.5524194175562
 20
-122.4373133027239
 30
0.0
 10
107.5972221953229
 20
-122.4821160804906
 30
0.0
 10
107.6530289202091
 20
-122.4821160804906
 30
0.0
 10
107.708168085469
 20
-122.4821160804906
 30
0.0
 10
107.7529355843269
 20
-122.4373133027239
 30
0.0
 10
107.7529355843269
 20
-122.382209413849
 30
0.0
  0
SPLINE
  5
7F
330
41
100
AcDbEntity
  8
_U+30EC_U+30A4_U+30E4_U+30FC 1
 62
     7
420
 16777215
370
     9
100
AcDbSpline
210
0.0
220
0.0
230
1.0
 70
    11
 71
     3
 72
    17
 73
    13
 74
     0
 42
0.0000000001
 43
0.0000000001
 12
1.0
 22
0.0
 32
0.0
 13
1.0
 23
0.0
 33
0.0
 40
0.0
 40
0.0
 40
0.0
 40
0.0
 40
1.0
 40
1.0
 40
1.0
 40
2.0
 40
2.0
 40
2.0
 40
3.0
 40
3.0
 40
3.0
 40
4.0
 40
4.0
 40
4.0
 40
4.0
 10
107.7529355843269
 20
-135.3839755217098
 30
0.0
 10
107.7529355843269
 20
-135.3288716328342
 30
0.0
 10
107.708168085469
 20
-135.2840688550681
 30
0.0
 10
107.6530289202091
 20
-135.2840688550681
 30
0.0
 10
107.5972221953229
 20
-135.2840688550681
 30
0.0
 10
107.5524194175562
 20
-135.3288716328342
 30
0.0
 10
107.5524194175562
 20
-135.3839755217098
 30
0.0
 10
107.5524194175562
 20
-135.4391146883622
 30
0.0
 10
107.5972221953229
 20
-135.4838821883514
 30
0.0
 10
107.6530289202091
 20
-135.4838821883514
 30
0.0
 10
107.708168085469
 20
-135.4838821883514
 30
0.0
 10
107.7529355843269
 20
-135.4391146883622
 30
0.0
 10
107.7529355843269
 20
-135.3839755217098
 30
0.0
  0
SPLINE
  5
80
330
41
100
AcDbEntity
  8
_U+30EC_U+30A4_U+30E4_U+30FC 1
 62
     7
420
 16777215
370
     9
100
AcDbSpline
210
0.0
220
0.0
230
1.0
 70
    11
 71
     3
 72
    17
 73
    13
 74
     0
 42
0.0000000001
 43
0.0000000001
 12
1.0
 22
0.0
 32
0.0
 13
1.0
 23
0.0
 33
0.0
 40
0.0
 40
0.0
 40
0.0
 40
0.0
 40
1.0
 40
1.0
 40
1.0
 40
2.0
 40
2.0
 40
2.0
 40
3.0
 40
3.0
 40
3.0
 40
4.0
 40
4.0
 40
4.0
 40
4.0
 10
107.7529355843269
 20
-138.3839624654041
 30
0.0
 10
107.7529355843269
 20
-138.3288585765292
 30
0.0
 10
107.708168085469
 20
-138.2840557987625
 30
0.0
 10
107.6530289202091
 20
-138.2840557987625
 30
0.0
 10
107.5972221953229
 20
-138.2840557987625
 30
0.0
 10
107.5524194175562
 20
-138.3288585765292
 30
0.0
 10
107.5524194175562
 20
-138.3839624654041
 30
0.0
 10
107.5524194175562
 20
-138.4391016320572
 30
0.0
 10
107.5972221953229
 20
-138.4838691320458
 30
0.0
 10
107.6530289202091
 20
-138.4838691320458
 30
0.0
 10
107.708168085469
 20
-138.4838691320458
 30
0.0
 10
107.7529355843269
 20
-138.4391016320572
 30
0.0
 10
107.7529355843269
 20
-138.3839624654041
 30
0.0
  0
SPLINE
  5
81
330
41
100
AcDbEntity
  8
_U+30EC_U+30A4_U+30E4_U+30FC 1
 62
     7
420
 16777215
370
     9
100
AcDbSpline
210
0.0
220
0.0
230
1.0
 70
    11
 71
     3
 72
    17
 73
    13
 74
     0
 42
0.0000000001
 43
0.0000000001
 12
1.0
 22
0.0
 32
0.0
 13
1.0
 23
0.0
 33
0.0
 40
0.0
 40
0.0
 40
0.0
 40
0.0
 40
1.0
 40
1.0
 40
1.0
 40
2.0
 40
2.0
 40
2.0
 40
3.0
 40
3.0
 40
3.0
 40
4.0
 40
4.0
 40
4.0
 40
4.0
 10
93.75242066373204
 20
-142.4443641310556
 30
0.0
 10
93.75242066373204
 20
-142.3892249644026
 30
0.0
 10
93.70761788709727
 20
-142.344457464414
 30
0.0
 10
93.6525139996142
 20
-142.344457464414
 30
0.0
 10
93.59737483435426
 20
-142.344457464414
 30
0.0
 10
93.55260733549638
 20
-142.3892249644026
 30
0.0
 10
93.55260733549638
 20
-142.4443641310556
 30
0.0
 10
93.55260733549638
 20
-142.4994680199306
 30
0.0
 10
93.59737483435426
 20
-142.5442707976973
 30
0.0
 10
93.6525139996142
 20
-142.5442707976973
 30
0.0
 10
93.70761788709727
 20
-142.5442707976973
 30
0.0
 10
93.75242066373204
 20
-142.4994680199306
 30
0.0
 10
93.75242066373204
 20
-142.4443641310556
 30
0.0
  0
SPLINE
  5
82
330
41
100
AcDbEntity
  8
_U+30EC_U+30A4_U+30E4_U+30FC 1
 62
     7
420
 16777215
370
     9
100
AcDbSpline
210
0.0
220
0.0
230
1.0
 70
    11
 71
     3
 72
    17
 73
    13
 74
     0
 42
0.0000000001
 43
0.0000000001
 12
1.0
 22
0.0
 32
0.0
 13
1.0
 23
0.0
 33
0.0
 40
0.0
 40
0.0
 40
0.0
 40
0.0
 40
1.0
 40
1.0
 40
1.0
 40
2.0
 40
2.0
 40
2.0
 40
3.0
 40
3.0
 40
3.0
 40
4.0
 40
4.0
 40
4.0
 40
4.0
 10
73.75260228508103
 20
-142.4443641310556
 30
0.0
 10
73.75260228508103
 20
-142.3892249644026
 30
0.0
 10
73.70779950844626
 20
-142.344457464414
 30
0.0
 10
73.65269562096319
 20
-142.344457464414
 30
0.0
 10
73.5975583149338
 20
-142.344457464414
 30
0.0
 10
73.55278895684536
 20
-142.3892249644026
 30
0.0
 10
73.55278895684536
 20
-142.4443641310556
 30
0.0
 10
73.55278895684536
 20
-142.4994680199306
 30
0.0
 10
73.5975583149338
 20
-142.5442707976973
 30
0.0
 10
73.65269562096319
 20
-142.5442707976973
 30
0.0
 10
73.70779950844626
 20
-142.5442707976973
 30
0.0
 10
73.75260228508103
 20
-142.4994680199306
 30
0.0
 10
73.75260228508103
 20
-142.4443641310556
 30
0.0
  0
POLYLINE
  5
83
330
41
100
AcDbEntity
  8
_U+30EC_U+30A4_U+30E4_U+30FC 1
 62
     7
420
 16777215
370
     9
100
AcDb2dPolyline
 66
     1
 10
0.0
 20
0.0
 30
0.0
  0
VERTEX
  5
84
330
83
100
AcDbEntity
  8
_U+30EC_U+30A4_U+30E4_U+30FC 1
 62
     7
420
 16777215
370
     9
100
AcDbVertex
100
AcDb2dVertex
 10
107.6530289202091
 20
-121.3824371918768
 30
0.0
  0
VERTEX
  5
85
330
83
100
AcDbEntity
  8
_U+30EC_U+30A4_U+30E4_U+30FC 1
 62
     7
420
 16777215
370
     9
100
AcDbVertex
100
AcDb2dVertex
 10
107.6530289202091
 20
-117.6121246928194
 30
0.0
  0
SEQEND
  5
86
330
83
100
AcDbEntity
  8
_U+30EC_U+30A4_U+30E4_U+30FC 1
 62
     7
420
 16777215
370
     9
  0
POLYLINE
  5
87
330
41
100
AcDbEntity
  8
_U+30EC_U+30A4_U+30E4_U+30FC 1
 62
     7
420
 16777215
370
     9
100
AcDb2dPolyline
 66
     1
 10
0.0
 20
0.0
 30
0.0
  0
VERTEX
  5
88
330
87
100
AcDbEntity
  8
_U+30EC_U+30A4_U+30E4_U+30FC 1
 62
     7
420
 16777215
370
     9
100
AcDbVertex
100
AcDb2dVertex
 10
107.6530289202091
 20
-121.3824371918768
 30
0.0
  0
VERTEX
  5
89
330
87
100
AcDbEntity
  8
_U+30EC_U+30A4_U+30E4_U+30FC 1
 62
     7
420
 16777215
370
     9
100
AcDbVertex
100
AcDb2dVertex
 10
107.6530289202091
 20
-122.382209413849
 30
0.0
  0
SEQEND
  5
8A
330
87
100
AcDbEntity
  8
_U+30EC_U+30A4_U+30E4_U+30FC 1
 62
     7
420
 16777215
370
     9
  0
POLYLINE
  5
8B
330
41
100
AcDbEntity
  8
_U+30EC_U+30A4_U+30E4_U+30FC 1
 62
     7
420
 16777215
370
     9
100
AcDb2dPolyline
 66
     1
 10
0.0
 20
0.0
 30
0.0
  0
VERTEX
  5
8C
330
8B
100
AcDbEntity
  8
_U+30EC_U+30A4_U+30E4_U+30FC 1
 62
     7
420
 16777215
370
     9
100
AcDbVertex
100
AcDb2dVertex
 10
106.192987568569
 20
-121.3824371918768
 30
0.0
  0
VERTEX
  5
8D
330
8B
100
AcDbEntity
  8
_U+30EC_U+30A4_U+30E4_U+30FC 1
 62
     7
420
 16777215
370
     9
100
AcDbVertex
100
AcDb2dVertex
 10
108.652801116925
 20
-121.3824371918768
 30
0.0
  0
SEQEND
  5
8E
330
8B
100
AcDbEntity
  8
_U+30EC_U+30A4_U+30E4_U+30FC 1
 62
     7
420
 16777215
370
     9
  0
POLYLINE
  5
8F
330
41
100
AcDbEntity
  8
_U+30EC_U+30A4_U+30E4_U+30FC 1
 62
     7
420
 16777215
370
     9
100
AcDb2dPolyline
 66
     1
 10
0.0
 20
0.0
 30
0.0
  0
VERTEX
  5
90
330
8F
100
AcDbEntity
  8
_U+30EC_U+30A4_U+30E4_U+30FC 1
 62
     7
420
 16777215
370
     9
100
AcDbVertex
100
AcDb2dVertex
 10
106.192987568569
 20
-122.382209413849
 30
0.0
  0
VERTEX
  5
91
330
8F
100
AcDbEntity
  8
_U+30EC_U+30A4_U+30E4_U+30FC 1
 62
     7
420
 16777215
370
     9
100
AcDbVertex
100
AcDb2dVertex
 10
108.652801116925
 20
-122.382209413849
 30
0.0
  0
SEQEND
  5
92
330
8F
100
AcDbEntity
  8
_U+30EC_U+30A4_U+30E4_U+30FC 1
 62
     7
420
 16777215
370
     9
  0
INSERT
  5
94
330
41
100
AcDbEntity
  8
_U+30EC_U+30A4_U+30E4_U+30FC 1
100
AcDbBlockReference
  2
block 3
 10
0.0
 20
0.0
 30
0.0
  0
POLYLINE
  5
99
330
41
100
AcDbEntity
  8
_U+30EC_U+30A4_U+30E4_U+30FC 1
 62
     7
420
 16777215
370
     9
100
AcDb2dPolyline
 66
     1
 10
0.0
 20
0.0
 30
0.0
  0
VERTEX
  5
9A
330
99
100
AcDbEntity
  8
_U+30EC_U+30A4_U+30E4_U+30FC 1
 62
     7
420
 16777215
370
     9
100
AcDbVertex
100
AcDb2dVertex
 10
107.6530289202091
 20
-135.3839755217098
 30
0.0
  0
VERTEX
  5
9B
330
99
100
AcDbEntity
  8
_U+30EC_U+30A4_U+30E4_U+30FC 1
 62
     7
420
 16777215
370
     9
100
AcDbVertex
100
AcDb2dVertex
 10
107.6530289202091
 20
-138.3839624654041
 30
0.0
  0
SEQEND
  5
9C
330
99
100
AcDbEntity
  8
_U+30EC_U+30A4_U+30E4_U+30FC 1
 62
     7
420
 16777215
370
     9
  0
POLYLINE
  5
9D
330
41
100
AcDbEntity
  8
_U+30EC_U+30A4_U+30E4_U+30FC 1
 62
     7
420
 16777215
370
     9
100
AcDb2dPolyline
 66
     1
 10
0.0
 20
0.0
 30
0.0
  0
VERTEX
  5
9E
330
9D
100
AcDbEntity
  8
_U+30EC_U+30A4_U+30E4_U+30FC 1
 62
     7
420
 16777215
370
     9
100
AcDbVertex
100
AcDb2dVertex
 10
96.19293726813594
 20
-138.3839624654041
 30
0.0
  0
VERTEX
  5
9F
330
9D
100
AcDbEntity
  8
_U+30EC_U+30A4_U+30E4_U+30FC 1
 62
     7
420
 16777215
370
     9
100
AcDbVertex
100
AcDb2dVertex
 10
108.652801116925
 20
-138.3839624654041
 30
0.0
  0
SEQEND
  5
A0
330
9D
100
AcDbEntity
  8
_U+30EC_U+30A4_U+30E4_U+30FC 1
 62
     7
420
 16777215
370
     9
  0
INSERT
  5
A2
330
41
100
AcDbEntity
  8
_U+30EC_U+30A4_U+30E4_U+30FC 1
100
AcDbBlockReference
  2
block 4
 10
0.0
 20
0.0
 30
0.0
  0
POLYLINE
  5
A7
330
41
100
AcDbEntity
  8
_U+30EC_U+30A4_U+30E4_U+30FC 1
 62
     7
420
 16777215
370
     9
100
AcDb2dPolyline
 66
     1
 10
0.0
 20
0.0
 30
0.0
  0
VERTEX
  5
A8
330
A7
100
AcDbEntity
  8
_U+30EC_U+30A4_U+30E4_U+30FC 1
 62
     7
420
 16777215
370
     9
100
AcDbVertex
100
AcDb2dVertex
 10
107.6530289202091
 20
-135.2820227439573
 30
0.0
  0
VERTEX
  5
A9
330
A7
100
AcDbEntity
  8
_U+30EC_U+30A4_U+30E4_U+30FC 1
 62
     7
420
 16777215
370
     9
100
AcDbVertex
100
AcDb2dVertex
 10
107.6530289202091
 20
-122.382209413849
 30
0.0
  0
SEQEND
  5
AA
330
A7
100
AcDbEntity
  8
_U+30EC_U+30A4_U+30E4_U+30FC 1
 62
     7
420
 16777215
370
     9
  0
POLYLINE
  5
AB
330
41
100
AcDbEntity
  8
_U+30EC_U+30A4_U+30E4_U+30FC 1
 62
     7
420
 16777215
370
     9
100
AcDb2dPolyline
 66
     1
 10
0.0
 20
0.0
 30
0.0
  0
VERTEX
  5
AC
330
AB
100
AcDbEntity
  8
_U+30EC_U+30A4_U+30E4_U+30FC 1
 62
     7
420
 16777215
370
     9
100
AcDbVertex
100
AcDb2dVertex
 10
96.19293726813594
 20
-135.3839755217098
 30
0.0
  0
VERTEX
  5
AD
330
AB
100
AcDbEntity
  8
_U+30EC_U+30A4_U+30E4_U+30FC 1
 62
     7
420
 16777215
370
     9
100
AcDbVertex
100
AcDb2dVertex
 10
108.652801116925
 20
-135.3839755217098
 30
0.0
  0
SEQEND
  5
AE
330
AB
100
AcDbEntity
  8
_U+30EC_U+30A4_U+30E4_U+30FC 1
 62
     7
420
 16777215
370
     9
  0
INSERT
  5
B0
330
41
100
AcDbEntity
  8
_U+30EC_U+30A4_U+30E4_U+30FC 1
100
AcDbBlockReference
  2
block 5
 10
0.0
 20
0.0
 30
0.0
  0
POLYLINE
  5
B7
330
41
100
AcDbEntity
  8
_U+30EC_U+30A4_U+30E4_U+30FC 1
 62
     7
420
 16777215
370
     9
100
AcDb2dPolyline
 66
     1
 10
0.0
 20
0.0
 30
0.0
  0
VERTEX
  5
B8
330
B7
100
AcDbEntity
  8
_U+30EC_U+30A4_U+30E4_U+30FC 1
 62
     7
420
 16777215
370
     9
100
AcDbVertex
100
AcDb2dVertex
 10
73.65269562096319
 20
-142.4443641310556
 30
0.0
  0
VERTEX
  5
B9
330
B7
100
AcDbEntity
  8
_U+30EC_U+30A4_U+30E4_U+30FC 1
 62
     7
420
 16777215
370
     9
100
AcDbVertex
100
AcDb2dVertex
 10
93.6525139996142
 20
-142.4443641310556
 30
0.0
  0
SEQEND
  5
BA
330
B7
100
AcDbEntity
  8
_U+30EC_U+30A4_U+30E4_U+30FC 1
 62
     7
420
 16777215
370
     9
  0
POLYLINE
  5
BB
330
41
100
AcDbEntity
  8
_U+30EC_U+30A4_U+30E4_U+30FC 1
 62
     7
420
 16777215
370
     9
100
AcDb2dPolyline
 66
     1
 10
0.0
 20
0.0
 30
0.0
  0
VERTEX
  5
BC
330
BB
100
AcDbEntity
  8
_U+30EC_U+30A4_U+30E4_U+30FC 1
 62
     7
420
 16777215
370
     9
100
AcDbVertex
100
AcDb2dVertex
 10
73.65269562096319
 20
-140.9843227425319
 30
0.0
  0
VERTEX
  5
BD
330
BB
100
AcDbEntity
  8
_U+30EC_U+30A4_U+30E4_U+30FC 1
 62
     7
420
 16777215
370
     9
100
AcDbVertex
100
AcDb2dVertex
 10
73.65269562096319
 20
-143.4441363530282
 30
0.0
  0
SEQEND
  5
BE
330
BB
100
AcDbEntity
  8
_U+30EC_U+30A4_U+30E4_U+30FC 1
 62
     7
420
 16777215
370
     9
  0
POLYLINE
  5
BF
330
41
100
AcDbEntity
  8
_U+30EC_U+30A4_U+30E4_U+30FC 1
 62
     7
420
 16777215
370
     9
100
AcDb2dPolyline
 66
     1
 10
0.0
 20
0.0
 30
0.0
  0
VERTEX
  5
C0
330
BF
100
AcDbEntity
  8
_U+30EC_U+30A4_U+30E4_U+30FC 1
 62
     7
420
 16777215
370
     9
100
AcDbVertex
100
AcDb2dVertex
 10
93.6525139996142
 20
-140.9843227425319
 30
0.0
  0
VERTEX
  5
C1
330
BF
100
AcDbEntity
  8
_U+30EC_U+30A4_U+30E4_U+30FC 1
 62
     7
420
 16777215
370
     9
100
AcDbVertex
100
AcDb2dVertex
 10
93.6525139996142
 20
-143.4441363530282
 30
0.0
  0
SEQEND
  5
C2
330
BF
100
AcDbEntity
  8
_U+30EC_U+30A4_U+30E4_U+30FC 1
 62
     7
420
 16777215
370
     9
  0
INSERT
  5
C4
330
41
100
AcDbEntity
  8
_U+30EC_U+30A4_U+30E4_U+30FC 1
100
AcDbBlockReference
  2
block 6
 10
0.0
 20
0.0
 30
0.0
  0
POLYLINE
  5
CC
330
41
100
AcDbEntity
  8
_U+30EC_U+30A4_U+30E4_U+30FC 1
 62
     7
420
 16777215
370
     9
100
AcDb2dPolyline
 66
     1
 10
0.0
 20
0.0
 30
0.0
  0
VERTEX
  5
CD
330
CC
100
AcDbEntity
  8
_U+30EC_U+30A4_U+30E4_U+30FC 1
 62
     7
420
 16777215
370
     9
100
AcDbVertex
100
AcDb2dVertex
 10
73.65269562096319
 20
-117.3819724706547
 30
0.0
  0
VERTEX
  5
CE
330
CC
100
AcDbEntity
  8
_U+30EC_U+30A4_U+30E4_U+30FC 1
 62
     7
420
 16777215
370
     9
100
AcDbVertex
100
AcDb2dVertex
 10
103.6525995778241
 20
-117.3819724706547
 30
0.0
  0
SEQEND
  5
CF
330
CC
100
AcDbEntity
  8
_U+30EC_U+30A4_U+30E4_U+30FC 1
 62
     7
420
 16777215
370
     9
  0
POLYLINE
  5
D0
330
41
100
AcDbEntity
  8
_U+30EC_U+30A4_U+30E4_U+30FC 1
 62
     7
420
 16777215
370
     9
100
AcDb2dPolyline
 66
     1
 10
0.0
 20
0.0
 30
0.0
  0
VERTEX
  5
D1
330
D0
100
AcDbEntity
  8
_U+30EC_U+30A4_U+30E4_U+30FC 1
 62
     7
420
 16777215
370
     9
100
AcDbVertex
100
AcDb2dVertex
 10
73.65269562096319
 20
-118.8420138591784
 30
0.0
  0
VERTEX
  5
D2
330
D0
100
AcDbEntity
  8
_U+30EC_U+30A4_U+30E4_U+30FC 1
 62
     7
420
 16777215
370
     9
100
AcDbVertex
100
AcDb2dVertex
 10
73.65269562096319
 20
-116.3822002486821
 30
0.0
  0
SEQEND
  5
D3
330
D0
100
AcDbEntity
  8
_U+30EC_U+30A4_U+30E4_U+30FC 1
 62
     7
420
 16777215
370
     9
  0
POLYLINE
  5
D4
330
41
100
AcDbEntity
  8
_U+30EC_U+30A4_U+30E4_U+30FC 1
 62
     7
420
 16777215
370
     9
100
AcDb2dPolyline
 66
     1
 10
0.0
 20
0.0
 30
0.0
  0
VERTEX
  5
D5
330
D4
100
AcDbEntity
  8
_U+30EC_U+30A4_U+30E4_U+30FC 1
 62
     7
420
 16777215
370
     9
100
AcDbVertex
100
AcDb2dVertex
 10
103.6525995778241
 20
-118.8420138591784
 30
0.0
  0
VERTEX
  5
D6
330
D4
100
AcDbEntity
  8
_U+30EC_U+30A4_U+30E4_U+30FC 1
 62
     7
420
 16777215
370
     9
100
AcDbVertex
100
AcDb2dVertex
 10
103.6525995778241
 20
-116.3822002486821
 30
0.0
  0
SEQEND
  5
D7
330
D4
100
AcDbEntity
  8
_U+30EC_U+30A4_U+30E4_U+30FC 1
 62
     7
420
 16777215
370
     9
  0
INSERT
  5
D9
330
41
100
AcDbEntity
  8
_U+30EC_U+30A4_U+30E4_U+30FC 1
100
AcDbBlockReference
  2
block 7
 10
0.0
 20
0.0
 30
0.0
  0
ENDBLK
  5
44
330
41
100
AcDbEntity
  8
0
100
AcDbBlockEnd
  0
BLOCK
  5
95
330
93
100
AcDbEntity
  8
0
100
AcDbBlockBegin
  2
block 3
 70
     0
 10
0.0
 20
0.0
 30
0.0
  3
block 3
  1

  0
SPLINE
  5
97
330
93
100
AcDbEntity
  8
_U+30EC_U+30A4_U+30E4_U+30FC 1
370
     0
100
AcDbSpline
210
0.0
220
0.0
230
1.0
 70
    11
 71
     3
 72
    26
 73
    22
 74
     0
 42
0.0000000001
 43
0.0000000001
 12
1.0
 22
0.0
 32
0.0
 13
1.0
 23
0.0
 33
0.0
 40
0.0
 40
0.0
 40
0.0
 40
0.0
 40
1.0
 40
1.0
 40
1.0
 40
2.0
 40
2.0
 40
2.0
 40
3.0
 40
3.0
 40
3.0
 40
4.0
 40
4.0
 40
4.0
 40
5.0
 40
5.0
 40
5.0
 40
6.0
 40
6.0
 40
6.0
 40
7.0
 40
7.0
 40
7.0
 40
7.0
 10
106.1244438753786
 20
-122.0731689147942
 30
0.0
 10
106.1244438753786
 20
-122.0731689147942
 30
0.0
 10
105.020290772356
 20
-122.0731689147942
 30
0.0
 10
105.020290772356
 20
-122.0731689147942
 30
0.0
 10
105.020290772356
 20
-122.0731689147942
 30
0.0
 10
105.020290772356
 20
-122.4032090622811
 30
0.0
 10
105.020290772356
 20
-122.4032090622811
 30
0.0
 10
105.020290772356
 20
-122.4032090622811
 30
0.0
 10
104.8721516664903
 20
-122.4032090622811
 30
0.0
 10
104.8721516664903
 20
-122.4032090622811
 30
0.0
 10
104.8573377559037
 20
-122.0711018575031
 30
0.0
 10
104.6943847394514
 20
-122.0245930684522
 30
0.0
 10
104.5800075693411
 20
-121.994965247279
 30
0.0
 10
104.5800075693411
 20
-121.994965247279
 30
0.0
 10
104.5800075693411
 20
-121.8488931987044
 30
0.0
 10
104.5800075693411
 20
-121.8488931987044
 30
0.0
 10
104.5800075693411
 20
-121.8488931987044
 30
0.0
 10
106.1244438753786
 20
-121.8488931987044
 30
0.0
 10
106.1244438753786
 20
-121.8488931987044
 30
0.0
 10
106.1244438753786
 20
-121.8488931987044
 30
0.0
 10
106.1244438753786
 20
-122.0731689147942
 30
0.0
 10
106.1244438753786
 20
-122.0731689147942
 30
0.0
  0
HATCH
  5
98
330
93
100
AcDbEntity
  8
_U+30EC_U+30A4_U+30E4_U+30FC 1
 62
     7
420
 16777215
100
AcDbHatch
 10
0.0
 20
0.0
 30
0.0
210
0.0
220
0.0
230
1.0
  2
SOLID
 70
     1
 71
     0
 91
        1
 92
        1
 93
        1
 72
     4
 94
        3
 73
     0
 74
     1
 95
       26
 96
       22
 40
0.0
 40
0.0
 40
0.0
 40
0.0
 40
1.0
 40
1.0
 40
1.0
 40
2.0
 40
2.0
 40
2.0
 40
3.0
 40
3.0
 40
3.0
 40
4.0
 40
4.0
 40
4.0
 40
5.0
 40
5.0
 40
5.0
 40
6.0
 40
6.0
 40
6.0
 40
7.0
 40
7.0
 40
7.0
 40
7.0
 10
106.1244438753786
 20
-122.0731689147942
 10
106.1244438753786
 20
-122.0731689147942
 10
105.020290772356
 20
-122.0731689147942
 10
105.020290772356
 20
-122.0731689147942
 10
105.020290772356
 20
-122.0731689147942
 10
105.020290772356
 20
-122.4032090622811
 10
105.020290772356
 20
-122.4032090622811
 10
105.020290772356
 20
-122.4032090622811
 10
104.8721516664903
 20
-122.4032090622811
 10
104.8721516664903
 20
-122.4032090622811
 10
104.8573377559037
 20
-122.0711018575031
 10
104.6943847394514
 20
-122.0245930684522
 10
104.5800075693411
 20
-121.994965247279
 10
104.5800075693411
 20
-121.994965247279
 10
104.5800075693411
 20
-121.8488931987044
 10
104.5800075693411
 20
-121.8488931987044
 10
104.5800075693411
 20
-121.8488931987044
 10
106.1244438753786
 20
-121.8488931987044
 10
106.1244438753786
 20
-121.8488931987044
 10
106.1244438753786
 20
-121.8488931987044
 10
106.1244438753786
 20
-122.0731689147942
 10
106.1244438753786
 20
-122.0731689147942
 97
        0
 97
        0
 75
     2
 76
     1
 98
        0
  0
ENDBLK
  5
96
330
93
100
AcDbEntity
  8
0
100
AcDbBlockEnd
  0
BLOCK
  5
A3
330
A1
100
AcDbEntity
  8
0
100
AcDbBlockBegin
  2
block 4
 70
     0
 10
0.0
 20
0.0
 30
0.0
  3
block 4
  1

  0
SPLINE
  5
A5
330
A1
100
AcDbEntity
  8
_U+30EC_U+30A4_U+30E4_U+30FC 1
370
     0
100
AcDbSpline
210
0.0
220
0.0
230
1.0
 70
    11
 71
     3
 72
    62
 73
    58
 74
     0
 42
0.0000000001
 43
0.0000000001
 12
1.0
 22
0.0
 32
0.0
 13
1.0
 23
0.0
 33
0.0
 40
0.0
 40
0.0
 40
0.0
 40
0.0
 40
1.0
 40
1.0
 40
1.0
 40
2.0
 40
2.0
 40
2.0
 40
3.0
 40
3.0
 40
3.0
 40
4.0
 40
4.0
 40
4.0
 40
5.0
 40
5.0
 40
5.0
 40
6.0
 40
6.0
 40
6.0
 40
7.0
 40
7.0
 40
7.0
 40
8.0
 40
8.0
 40
8.0
 40
9.0
 40
9.0
 40
9.0
 40
10.0
 40
10.0
 40
10.0
 40
11.0
 40
11.0
 40
11.0
 40
12.0
 40
12.0
 40
12.0
 40
13.0
 40
13.0
 40
13.0
 40
14.0
 40
14.0
 40
14.0
 40
15.0
 40
15.0
 40
15.0
 40
16.0
 40
16.0
 40
16.0
 40
17.0
 40
17.0
 40
17.0
 40
18.0
 40
18.0
 40
18.0
 40
19.0
 40
19.0
 40
19.0
 40
19.0
 10
106.1750867790118
 20
-136.8894910682082
 30
0.0
 10
106.1750867790118
 20
-136.9849202131496
 30
0.0
 10
106.1540716965518
 20
-137.2026502478174
 30
0.0
 10
105.9680365403483
 20
-137.327707213932
 30
0.0
 10
105.8557264275291
 20
-137.4014322573163
 30
0.0
 10
105.7565076775539
 20
-137.4059108814471
 30
0.0
 10
105.6717583286168
 20
-137.4100449960294
 30
0.0
 10
105.6717583286168
 20
-137.4100449960294
 30
0.0
 10
105.6717583286168
 20
-137.189903394522
 30
0.0
 10
105.6717583286168
 20
-137.189903394522
 30
0.0
 10
105.7458278815497
 20
-137.1878363372308
 30
0.0
 10
105.9804388840952
 20
-137.1775010507751
 30
0.0
 10
105.9804388840952
 20
-136.893969692339
 30
0.0
 10
105.9804388840952
 20
-136.7565103824776
 30
0.0
 10
105.9108479552931
 20
-136.603892652481
 30
0.0
 10
105.6824381246211
 20
-136.603892652481
 30
0.0
 10
105.5659938972196
 20
-136.603892652481
 30
0.0
 10
105.5174180508776
 20
-136.6421332123672
 30
0.0
 10
105.4857231724133
 20
-136.6738280908316
 30
0.0
 10
105.4116536194804
 20
-136.7478976437644
 30
0.0
 10
105.398906766185
 20
-136.8643418711659
 30
0.0
 10
105.398906766185
 20
-136.9191188893813
 30
0.0
 10
105.398906766185
 20
-136.9384114240987
 30
0.0
 10
105.4009738234761
 20
-136.9742404171453
 30
0.0
 10
105.4051079380584
 20
-137.0018011810273
 30
0.0
 10
105.4051079380584
 20
-137.0018011810273
 30
0.0
 10
105.2104600431418
 20
-137.0018011810273
 30
0.0
 10
105.2104600431418
 20
-137.0018011810273
 30
0.0
 10
105.2170057245638
 20
-136.9635606211411
 30
0.0
 10
105.219072781855
 20
-136.921530456221
 30
0.0
 10
105.219072781855
 20
-136.9149847747991
 30
0.0
 10
105.219072781855
 20
-136.8495279605793
 30
0.0
 10
105.1977131898464
 20
-136.6507459510804
 30
0.0
 10
104.9610351300097
 20
-136.6507459510804
 30
0.0
 10
104.7832682029709
 20
-136.6507459510804
 30
0.0
 10
104.7281466752069
 20
-136.7816595795199
 30
0.0
 10
104.7281466752069
 20
-136.8919026350479
 30
0.0
 10
104.7281466752069
 20
-137.1561414587665
 30
0.0
 10
104.9610351300097
 20
-137.1647541974797
 30
0.0
 10
105.0326931161029
 20
-137.1688883120619
 30
0.0
 10
105.0326931161029
 20
-137.1688883120619
 30
0.0
 10
105.0326931161029
 20
-137.3721489456917
 30
0.0
 10
105.0326931161029
 20
-137.3721489456917
 30
0.0
 10
104.9079806595369
 20
-137.3635362069786
 30
0.0
 10
104.5314317229991
 20
-137.3359754430966
 30
0.0
 10
104.5314317229991
 20
-136.8791557817524
 30
0.0
 10
104.5314317229991
 20
-136.6548800656627
 30
0.0
 10
104.6585557464048
 20
-136.4137233816952
 30
0.0
 10
104.9544894485878
 20
-136.4137233816952
 30
0.0
 10
105.1408691143398
 20
-136.4137233816952
 30
0.0
 10
105.2232068964373
 20
-136.5088080170881
 30
0.0
 10
105.2845295960747
 20
-136.6083712766118
 30
0.0
 10
105.3120903599567
 20
-136.5470485769744
 30
0.0
 10
105.392361084763
 20
-136.3651475353532
 30
0.0
 10
105.6696912713256
 20
-136.3651475353532
 30
0.0
 10
106.0079996479772
 20
-136.3651475353532
 30
0.0
 10
106.1750867790118
 20
-136.6125053911941
 30
0.0
 10
106.1750867790118
 20
-136.8894910682082
 30
0.0
  0
HATCH
  5
A6
330
A1
100
AcDbEntity
  8
_U+30EC_U+30A4_U+30E4_U+30FC 1
 62
     7
420
 16777215
100
AcDbHatch
 10
0.0
 20
0.0
 30
0.0
210
0.0
220
0.0
230
1.0
  2
SOLID
 70
     1
 71
     0
 91
        1
 92
        1
 93
        1
 72
     4
 94
        3
 73
     0
 74
     1
 95
       62
 96
       58
 40
0.0
 40
0.0
 40
0.0
 40
0.0
 40
1.0
 40
1.0
 40
1.0
 40
2.0
 40
2.0
 40
2.0
 40
3.0
 40
3.0
 40
3.0
 40
4.0
 40
4.0
 40
4.0
 40
5.0
 40
5.0
 40
5.0
 40
6.0
 40
6.0
 40
6.0
 40
7.0
 40
7.0
 40
7.0
 40
8.0
 40
8.0
 40
8.0
 40
9.0
 40
9.0
 40
9.0
 40
10.0
 40
10.0
 40
10.0
 40
11.0
 40
11.0
 40
11.0
 40
12.0
 40
12.0
 40
12.0
 40
13.0
 40
13.0
 40
13.0
 40
14.0
 40
14.0
 40
14.0
 40
15.0
 40
15.0
 40
15.0
 40
16.0
 40
16.0
 40
16.0
 40
17.0
 40
17.0
 40
17.0
 40
18.0
 40
18.0
 40
18.0
 40
19.0
 40
19.0
 40
19.0
 40
19.0
 10
106.1750867790118
 20
-136.8894910682082
 10
106.1750867790118
 20
-136.9849202131496
 10
106.1540716965518
 20
-137.2026502478174
 10
105.9680365403483
 20
-137.327707213932
 10
105.8557264275291
 20
-137.4014322573163
 10
105.7565076775539
 20
-137.4059108814471
 10
105.6717583286168
 20
-137.4100449960294
 10
105.6717583286168
 20
-137.4100449960294
 10
105.6717583286168
 20
-137.189903394522
 10
105.6717583286168
 20
-137.189903394522
 10
105.7458278815497
 20
-137.1878363372308
 10
105.9804388840952
 20
-137.1775010507751
 10
105.9804388840952
 20
-136.893969692339
 10
105.9804388840952
 20
-136.7565103824776
 10
105.9108479552931
 20
-136.603892652481
 10
105.6824381246211
 20
-136.603892652481
 10
105.5659938972196
 20
-136.603892652481
 10
105.5174180508776
 20
-136.6421332123672
 10
105.4857231724133
 20
-136.6738280908316
 10
105.4116536194804
 20
-136.7478976437644
 10
105.398906766185
 20
-136.8643418711659
 10
105.398906766185
 20
-136.9191188893813
 10
105.398906766185
 20
-136.9384114240987
 10
105.4009738234761
 20
-136.9742404171453
 10
105.4051079380584
 20
-137.0018011810273
 10
105.4051079380584
 20
-137.0018011810273
 10
105.2104600431418
 20
-137.0018011810273
 10
105.2104600431418
 20
-137.0018011810273
 10
105.2170057245638
 20
-136.9635606211411
 10
105.219072781855
 20
-136.921530456221
 10
105.219072781855
 20
-136.9149847747991
 10
105.219072781855
 20
-136.8495279605793
 10
105.1977131898464
 20
-136.6507459510804
 10
104.9610351300097
 20
-136.6507459510804
 10
104.7832682029709
 20
-136.6507459510804
 10
104.7281466752069
 20
-136.7816595795199
 10
104.7281466752069
 20
-136.8919026350479
 10
104.7281466752069
 20
-137.1561414587665
 10
104.9610351300097
 20
-137.1647541974797
 10
105.0326931161029
 20
-137.1688883120619
 10
105.0326931161029
 20
-137.1688883120619
 10
105.0326931161029
 20
-137.3721489456917
 10
105.0326931161029
 20
-137.3721489456917
 10
104.9079806595369
 20
-137.3635362069786
 10
104.5314317229991
 20
-137.3359754430966
 10
104.5314317229991
 20
-136.8791557817524
 10
104.5314317229991
 20
-136.6548800656627
 10
104.6585557464048
 20
-136.4137233816952
 10
104.9544894485878
 20
-136.4137233816952
 10
105.1408691143398
 20
-136.4137233816952
 10
105.2232068964373
 20
-136.5088080170881
 10
105.2845295960747
 20
-136.6083712766118
 10
105.3120903599567
 20
-136.5470485769744
 10
105.392361084763
 20
-136.3651475353532
 10
105.6696912713256
 20
-136.3651475353532
 10
106.0079996479772
 20
-136.3651475353532
 10
106.1750867790118
 20
-136.6125053911941
 10
106.1750867790118
 20
-136.8894910682082
 97
        0
 97
        0
 75
     2
 76
     1
 98
        0
  0
ENDBLK
  5
A4
330
A1
100
AcDbEntity
  8
0
100
AcDbBlockEnd
  0
BLOCK
  5
B1
330
AF
100
AcDbEntity
  8
0
100
AcDbBlockBegin
  2
block 5
 70
     0
 10
0.0
 20
0.0
 30
0.0
  3
block 5
  1

  0
SPLINE
  5
B3
330
AF
100
AcDbEntity
  8
_U+30EC_U+30A4_U+30E4_U+30FC 1
370
     0
100
AcDbSpline
210
0.0
220
0.0
230
1.0
 70
    11
 71
     3
 72
    26
 73
    22
 74
     0
 42
0.0000000001
 43
0.0000000001
 12
1.0
 22
0.0
 32
0.0
 13
1.0
 23
0.0
 33
0.0
 40
0.0
 40
0.0
 40
0.0
 40
0.0
 40
1.0
 40
1.0
 40
1.0
 40
2.0
 40
2.0
 40
2.0
 40
3.0
 40
3.0
 40
3.0
 40
4.0
 40
4.0
 40
4.0
 40
5.0
 40
5.0
 40
5.0
 40
6.0
 40
6.0
 40
6.0
 40
7.0
 40
7.0
 40
7.0
 40
7.0
 10
106.1244438753786
 20
-129.5169867297735
 30
0.0
 10
106.1244438753786
 20
-129.5169867297735
 30
0.0
 10
105.020290772356
 20
-129.5169867297735
 30
0.0
 10
105.020290772356
 20
-129.5169867297735
 30
0.0
 10
105.020290772356
 20
-129.5169867297735
 30
0.0
 10
105.020290772356
 20
-129.8470268772605
 30
0.0
 10
105.020290772356
 20
-129.8470268772605
 30
0.0
 10
105.020290772356
 20
-129.8470268772605
 30
0.0
 10
104.8721516664903
 20
-129.8470268772605
 30
0.0
 10
104.8721516664903
 20
-129.8470268772605
 30
0.0
 10
104.8573377559037
 20
-129.5149196724824
 30
0.0
 10
104.6943847394514
 20
-129.4684108834315
 30
0.0
 10
104.5800075693411
 20
-129.4387830622584
 30
0.0
 10
104.5800075693411
 20
-129.4387830622584
 30
0.0
 10
104.5800075693411
 20
-129.2927110136838
 30
0.0
 10
104.5800075693411
 20
-129.2927110136838
 30
0.0
 10
104.5800075693411
 20
-129.2927110136838
 30
0.0
 10
106.1244438753786
 20
-129.2927110136838
 30
0.0
 10
106.1244438753786
 20
-129.2927110136838
 30
0.0
 10
106.1244438753786
 20
-129.2927110136838
 30
0.0
 10
106.1244438753786
 20
-129.5169867297735
 30
0.0
 10
106.1244438753786
 20
-129.5169867297735
 30
0.0
  0
HATCH
  5
B4
330
AF
100
AcDbEntity
  8
_U+30EC_U+30A4_U+30E4_U+30FC 1
 62
     7
420
 16777215
100
AcDbHatch
 10
0.0
 20
0.0
 30
0.0
210
0.0
220
0.0
230
1.0
  2
SOLID
 70
     1
 71
     0
 91
        1
 92
        1
 93
        1
 72
     4
 94
        3
 73
     0
 74
     1
 95
       26
 96
       22
 40
0.0
 40
0.0
 40
0.0
 40
0.0
 40
1.0
 40
1.0
 40
1.0
 40
2.0
 40
2.0
 40
2.0
 40
3.0
 40
3.0
 40
3.0
 40
4.0
 40
4.0
 40
4.0
 40
5.0
 40
5.0
 40
5.0
 40
6.0
 40
6.0
 40
6.0
 40
7.0
 40
7.0
 40
7.0
 40
7.0
 10
106.1244438753786
 20
-129.5169867297735
 10
106.1244438753786
 20
-129.5169867297735
 10
105.020290772356
 20
-129.5169867297735
 10
105.020290772356
 20
-129.5169867297735
 10
105.020290772356
 20
-129.5169867297735
 10
105.020290772356
 20
-129.8470268772605
 10
105.020290772356
 20
-129.8470268772605
 10
105.020290772356
 20
-129.8470268772605
 10
104.8721516664903
 20
-129.8470268772605
 10
104.8721516664903
 20
-129.8470268772605
 10
104.8573377559037
 20
-129.5149196724824
 10
104.6943847394514
 20
-129.4684108834315
 10
104.5800075693411
 20
-129.4387830622584
 10
104.5800075693411
 20
-129.4387830622584
 10
104.5800075693411
 20
-129.2927110136838
 10
104.5800075693411
 20
-129.2927110136838
 10
104.5800075693411
 20
-129.2927110136838
 10
106.1244438753786
 20
-129.2927110136838
 10
106.1244438753786
 20
-129.2927110136838
 10
106.1244438753786
 20
-129.2927110136838
 10
106.1244438753786
 20
-129.5169867297735
 10
106.1244438753786
 20
-129.5169867297735
 97
        0
 97
        0
 75
     2
 76
     1
 98
        0
  0
SPLINE
  5
B5
330
AF
100
AcDbEntity
  8
_U+30EC_U+30A4_U+30E4_U+30FC 1
370
     0
100
AcDbSpline
210
0.0
220
0.0
230
1.0
 70
    11
 71
     3
 72
    62
 73
    58
 74
     0
 42
0.0000000001
 43
0.0000000001
 12
1.0
 22
0.0
 32
0.0
 13
1.0
 23
0.0
 33
0.0
 40
0.0
 40
0.0
 40
0.0
 40
0.0
 40
1.0
 40
1.0
 40
1.0
 40
2.0
 40
2.0
 40
2.0
 40
3.0
 40
3.0
 40
3.0
 40
4.0
 40
4.0
 40
4.0
 40
5.0
 40
5.0
 40
5.0
 40
6.0
 40
6.0
 40
6.0
 40
7.0
 40
7.0
 40
7.0
 40
8.0
 40
8.0
 40
8.0
 40
9.0
 40
9.0
 40
9.0
 40
10.0
 40
10.0
 40
10.0
 40
11.0
 40
11.0
 40
11.0
 40
12.0
 40
12.0
 40
12.0
 40
13.0
 40
13.0
 40
13.0
 40
14.0
 40
14.0
 40
14.0
 40
15.0
 40
15.0
 40
15.0
 40
16.0
 40
16.0
 40
16.0
 40
17.0
 40
17.0
 40
17.0
 40
18.0
 40
18.0
 40
18.0
 40
19.0
 40
19.0
 40
19.0
 40
19.0
 10
106.1750867790118
 20
-128.2998344948348
 30
0.0
 10
106.1750867790118
 20
-128.3952636397762
 30
0.0
 10
106.1540716965518
 20
-128.612993674444
 30
0.0
 10
105.9680365403483
 20
-128.7380506405586
 30
0.0
 10
105.8557264275291
 20
-128.8121201934914
 30
0.0
 10
105.7565076775539
 20
-128.8162543080737
 30
0.0
 10
105.6717583286168
 20
-128.820388422656
 30
0.0
 10
105.6717583286168
 20
-128.820388422656
 30
0.0
 10
105.6717583286168
 20
-128.6002468211485
 30
0.0
 10
105.6717583286168
 20
-128.6002468211485
 30
0.0
 10
105.7458278815497
 20
-128.5981797638574
 30
0.0
 10
105.9804388840952
 20
-128.5878444774017
 30
0.0
 10
105.9804388840952
 20
-128.3043131189656
 30
0.0
 10
105.9804388840952
 20
-128.1668538091041
 30
0.0
 10
105.9108479552931
 20
-128.0142360791075
 30
0.0
 10
105.6824381246211
 20
-128.0142360791075
 30
0.0
 10
105.5659938972196
 20
-128.0142360791075
 30
0.0
 10
105.5174180508776
 20
-128.0524766389938
 30
0.0
 10
105.4857231724133
 20
-128.0841715174581
 30
0.0
 10
105.4116536194804
 20
-128.158241070391
 30
0.0
 10
105.398906766185
 20
-128.2746852977924
 30
0.0
 10
105.398906766185
 20
-128.3294623160079
 30
0.0
 10
105.398906766185
 20
-128.3487548507253
 30
0.0
 10
105.4009738234761
 20
-128.3845838437719
 30
0.0
 10
105.4051079380584
 20
-128.4121446076539
 30
0.0
 10
105.4051079380584
 20
-128.4121446076539
 30
0.0
 10
105.2104600431418
 20
-128.4121446076539
 30
0.0
 10
105.2104600431418
 20
-128.4121446076539
 30
0.0
 10
105.2170057245638
 20
-128.3739040477676
 30
0.0
 10
105.219072781855
 20
-128.3318738828476
 30
0.0
 10
105.219072781855
 20
-128.3253282014256
 30
0.0
 10
105.219072781855
 20
-128.2598713872059
 30
0.0
 10
105.1977131898464
 20
-128.061089377707
 30
0.0
 10
104.9610351300097
 20
-128.061089377707
 30
0.0
 10
104.7832682029709
 20
-128.061089377707
 30
0.0
 10
104.7281466752069
 20
-128.1920030061465
 30
0.0
 10
104.7281466752069
 20
-128.3022460616745
 30
0.0
 10
104.7281466752069
 20
-128.5664848853931
 30
0.0
 10
104.9610351300097
 20
-128.5750976241062
 30
0.0
 10
105.0326931161029
 20
-128.5792317386885
 30
0.0
 10
105.0326931161029
 20
-128.5792317386885
 30
0.0
 10
105.0326931161029
 20
-128.7824923723183
 30
0.0
 10
105.0326931161029
 20
-128.7824923723183
 30
0.0
 10
104.9079806595369
 20
-128.7738796336051
 30
0.0
 10
104.5314317229991
 20
-128.7463188697232
 30
0.0
 10
104.5314317229991
 20
-128.289499208379
 30
0.0
 10
104.5314317229991
 20
-128.0652234922892
 30
0.0
 10
104.6585557464048
 20
-127.8240668083218
 30
0.0
 10
104.9544894485878
 20
-127.8240668083218
 30
0.0
 10
105.1408691143398
 20
-127.8240668083218
 30
0.0
 10
105.2232068964373
 20
-127.9191514437147
 30
0.0
 10
105.2845295960747
 20
-128.0187147032384
 30
0.0
 10
105.3120903599567
 20
-127.9573920036009
 30
0.0
 10
105.392361084763
 20
-127.7754909619797
 30
0.0
 10
105.6696912713256
 20
-127.7754909619797
 30
0.0
 10
106.0079996479772
 20
-127.7754909619797
 30
0.0
 10
106.1750867790118
 20
-128.0228488178207
 30
0.0
 10
106.1750867790118
 20
-128.2998344948348
 30
0.0
  0
HATCH
  5
B6
330
AF
100
AcDbEntity
  8
_U+30EC_U+30A4_U+30E4_U+30FC 1
 62
     7
420
 16777215
100
AcDbHatch
 10
0.0
 20
0.0
 30
0.0
210
0.0
220
0.0
230
1.0
  2
SOLID
 70
     1
 71
     0
 91
        1
 92
        1
 93
        1
 72
     4
 94
        3
 73
     0
 74
     1
 95
       62
 96
       58
 40
0.0
 40
0.0
 40
0.0
 40
0.0
 40
1.0
 40
1.0
 40
1.0
 40
2.0
 40
2.0
 40
2.0
 40
3.0
 40
3.0
 40
3.0
 40
4.0
 40
4.0
 40
4.0
 40
5.0
 40
5.0
 40
5.0
 40
6.0
 40
6.0
 40
6.0
 40
7.0
 40
7.0
 40
7.0
 40
8.0
 40
8.0
 40
8.0
 40
9.0
 40
9.0
 40
9.0
 40
10.0
 40
10.0
 40
10.0
 40
11.0
 40
11.0
 40
11.0
 40
12.0
 40
12.0
 40
12.0
 40
13.0
 40
13.0
 40
13.0
 40
14.0
 40
14.0
 40
14.0
 40
15.0
 40
15.0
 40
15.0
 40
16.0
 40
16.0
 40
16.0
 40
17.0
 40
17.0
 40
17.0
 40
18.0
 40
18.0
 40
18.0
 40
19.0
 40
19.0
 40
19.0
 40
19.0
 10
106.1750867790118
 20
-128.2998344948348
 10
106.1750867790118
 20
-128.3952636397762
 10
106.1540716965518
 20
-128.612993674444
 10
105.9680365403483
 20
-128.7380506405586
 10
105.8557264275291
 20
-128.8121201934914
 10
105.7565076775539
 20
-128.8162543080737
 10
105.6717583286168
 20
-128.820388422656
 10
105.6717583286168
 20
-128.820388422656
 10
105.6717583286168
 20
-128.6002468211485
 10
105.6717583286168
 20
-128.6002468211485
 10
105.7458278815497
 20
-128.5981797638574
 10
105.9804388840952
 20
-128.5878444774017
 10
105.9804388840952
 20
-128.3043131189656
 10
105.9804388840952
 20
-128.1668538091041
 10
105.9108479552931
 20
-128.0142360791075
 10
105.6824381246211
 20
-128.0142360791075
 10
105.5659938972196
 20
-128.0142360791075
 10
105.5174180508776
 20
-128.0524766389938
 10
105.4857231724133
 20
-128.0841715174581
 10
105.4116536194804
 20
-128.158241070391
 10
105.398906766185
 20
-128.2746852977924
 10
105.398906766185
 20
-128.3294623160079
 10
105.398906766185
 20
-128.3487548507253
 10
105.4009738234761
 20
-128.3845838437719
 10
105.4051079380584
 20
-128.4121446076539
 10
105.4051079380584
 20
-128.4121446076539
 10
105.2104600431418
 20
-128.4121446076539
 10
105.2104600431418
 20
-128.4121446076539
 10
105.2170057245638
 20
-128.3739040477676
 10
105.219072781855
 20
-128.3318738828476
 10
105.219072781855
 20
-128.3253282014256
 10
105.219072781855
 20
-128.2598713872059
 10
105.1977131898464
 20
-128.061089377707
 10
104.9610351300097
 20
-128.061089377707
 10
104.7832682029709
 20
-128.061089377707
 10
104.7281466752069
 20
-128.1920030061465
 10
104.7281466752069
 20
-128.3022460616745
 10
104.7281466752069
 20
-128.5664848853931
 10
104.9610351300097
 20
-128.5750976241062
 10
105.0326931161029
 20
-128.5792317386885
 10
105.0326931161029
 20
-128.5792317386885
 10
105.0326931161029
 20
-128.7824923723183
 10
105.0326931161029
 20
-128.7824923723183
 10
104.9079806595369
 20
-128.7738796336051
 10
104.5314317229991
 20
-128.7463188697232
 10
104.5314317229991
 20
-128.289499208379
 10
104.5314317229991
 20
-128.0652234922892
 10
104.6585557464048
 20
-127.8240668083218
 10
104.9544894485878
 20
-127.8240668083218
 10
105.1408691143398
 20
-127.8240668083218
 10
105.2232068964373
 20
-127.9191514437147
 10
105.2845295960747
 20
-128.0187147032384
 10
105.3120903599567
 20
-127.9573920036009
 10
105.392361084763
 20
-127.7754909619797
 10
105.6696912713256
 20
-127.7754909619797
 10
106.0079996479772
 20
-127.7754909619797
 10
106.1750867790118
 20
-128.0228488178207
 10
106.1750867790118
 20
-128.2998344948348
 97
        0
 97
        0
 75
     2
 76
     1
 98
        0
  0
ENDBLK
  5
B2
330
AF
100
AcDbEntity
  8
0
100
AcDbBlockEnd
  0
BLOCK
  5
C5
330
C3
100
AcDbEntity
  8
0
100
AcDbBlockBegin
  2
block 6
 70
     0
 10
0.0
 20
0.0
 30
0.0
  3
block 6
  1

  0
SPLINE
  5
C7
330
C3
100
AcDbEntity
  8
_U+30EC_U+30A4_U+30E4_U+30FC 1
370
     0
100
AcDbSpline
210
0.0
220
0.0
230
1.0
 70
    11
 71
     3
 72
    44
 73
    40
 74
     0
 42
0.0000000001
 43
0.0000000001
 12
1.0
 22
0.0
 32
0.0
 13
1.0
 23
0.0
 33
0.0
 40
0.0
 40
0.0
 40
0.0
 40
0.0
 40
1.0
 40
1.0
 40
1.0
 40
2.0
 40
2.0
 40
2.0
 40
3.0
 40
3.0
 40
3.0
 40
4.0
 40
4.0
 40
4.0
 40
5.0
 40
5.0
 40
5.0
 40
6.0
 40
6.0
 40
6.0
 40
7.0
 40
7.0
 40
7.0
 40
8.0
 40
8.0
 40
8.0
 40
9.0
 40
9.0
 40
9.0
 40
10.0
 40
10.0
 40
10.0
 40
11.0
 40
11.0
 40
11.0
 40
12.0
 40
12.0
 40
12.0
 40
13.0
 40
13.0
 40
13.0
 40
13.0
 10
83.15685354908926
 20
-141.216530997682
 30
0.0
 10
82.93895125964721
 20
-141.375349899552
 30
0.0
 10
82.8457614267712
 20
-141.4494194524849
 30
0.0
 10
82.79718558042919
 20
-141.5930799342198
 30
0.0
 10
82.79718558042919
 20
-141.5930799342198
 30
0.0
 10
83.57560490532138
 20
-141.5930799342198
 30
0.0
 10
83.57560490532138
 20
-141.5930799342198
 30
0.0
 10
83.57560490532138
 20
-141.5930799342198
 30
0.0
 10
83.57560490532138
 20
-141.7984076251407
 30
0.0
 10
83.57560490532138
 20
-141.7984076251407
 30
0.0
 10
83.57560490532138
 20
-141.7984076251407
 30
0.0
 10
82.54758841252283
 20
-141.7984076251407
 30
0.0
 10
82.54758841252283
 20
-141.7984076251407
 30
0.0
 10
82.57928329098712
 20
-141.4408067137717
 30
0.0
 10
82.64491235998113
 20
-141.3626030462566
 30
0.0
 10
83.0299017804578
 20
-141.0642577772339
 30
0.0
 10
83.28587237501186
 20
-140.865475767735
 30
0.0
 10
83.35132918923162
 20
-140.7976073866756
 30
0.0
 10
83.35132918923162
 20
-140.6601480768141
 30
0.0
 10
83.35132918923162
 20
-140.5416367921216
 30
0.0
 10
83.27949894836415
 20
-140.410723163682
 30
0.0
 10
83.0827839961564
 20
-140.410723163682
 30
0.0
 10
82.82250703224577
 20
-140.410723163682
 30
0.0
 10
82.8140665483069
 20
-140.6412000516453
 30
0.0
 10
82.80976017895034
 20
-140.7576442790467
 30
0.0
 10
82.80976017895034
 20
-140.7576442790467
 30
0.0
 10
82.58565671763483
 20
-140.7576442790467
 30
0.0
 10
82.58565671763483
 20
-140.7576442790467
 30
0.0
 10
82.5940972015737
 20
-140.630520255641
 30
0.0
 10
82.60460474280372
 20
-140.5185546523704
 30
0.0
 10
82.6850477223843
 20
-140.4000433676778
 30
0.0
 10
82.79494626836377
 20
-140.2391574085166
 30
0.0
 10
82.98115367934152
 20
-140.2053954727612
 30
0.0
 10
83.09759790674296
 20
-140.2053954727612
 30
0.0
 10
83.37475583853131
 20
-140.2053954727612
 30
0.0
 10
83.5819783319691
 20
-140.3893635716735
 30
0.0
 10
83.5819783319691
 20
-140.6622151341053
 30
0.0
 10
83.5819783319691
 20
-140.8909694743259
 30
0.0
 10
83.46570635934191
 20
-140.9901882243011
 30
0.0
 10
83.15685354908926
 20
-141.216530997682
 30
0.0
  0
HATCH
  5
C8
330
C3
100
AcDbEntity
  8
_U+30EC_U+30A4_U+30E4_U+30FC 1
 62
     7
420
 16777215
100
AcDbHatch
 10
0.0
 20
0.0
 30
0.0
210
0.0
220
0.0
230
1.0
  2
SOLID
 70
     1
 71
     0
 91
        1
 92
        1
 93
        1
 72
     4
 94
        3
 73
     0
 74
     1
 95
       44
 96
       40
 40
0.0
 40
0.0
 40
0.0
 40
0.0
 40
1.0
 40
1.0
 40
1.0
 40
2.0
 40
2.0
 40
2.0
 40
3.0
 40
3.0
 40
3.0
 40
4.0
 40
4.0
 40
4.0
 40
5.0
 40
5.0
 40
5.0
 40
6.0
 40
6.0
 40
6.0
 40
7.0
 40
7.0
 40
7.0
 40
8.0
 40
8.0
 40
8.0
 40
9.0
 40
9.0
 40
9.0
 40
10.0
 40
10.0
 40
10.0
 40
11.0
 40
11.0
 40
11.0
 40
12.0
 40
12.0
 40
12.0
 40
13.0
 40
13.0
 40
13.0
 40
13.0
 10
83.15685354908926
 20
-141.216530997682
 10
82.93895125964721
 20
-141.375349899552
 10
82.8457614267712
 20
-141.4494194524849
 10
82.79718558042919
 20
-141.5930799342198
 10
82.79718558042919
 20
-141.5930799342198
 10
83.57560490532138
 20
-141.5930799342198
 10
83.57560490532138
 20
-141.5930799342198
 10
83.57560490532138
 20
-141.5930799342198
 10
83.57560490532138
 20
-141.7984076251407
 10
83.57560490532138
 20
-141.7984076251407
 10
83.57560490532138
 20
-141.7984076251407
 10
82.54758841252283
 20
-141.7984076251407
 10
82.54758841252283
 20
-141.7984076251407
 10
82.57928329098712
 20
-141.4408067137717
 10
82.64491235998113
 20
-141.3626030462566
 10
83.0299017804578
 20
-141.0642577772339
 10
83.28587237501186
 20
-140.865475767735
 10
83.35132918923162
 20
-140.7976073866756
 10
83.35132918923162
 20
-140.6601480768141
 10
83.35132918923162
 20
-140.5416367921216
 10
83.27949894836415
 20
-140.410723163682
 10
83.0827839961564
 20
-140.410723163682
 10
82.82250703224577
 20
-140.410723163682
 10
82.8140665483069
 20
-140.6412000516453
 10
82.80976017895034
 20
-140.7576442790467
 10
82.80976017895034
 20
-140.7576442790467
 10
82.58565671763483
 20
-140.7576442790467
 10
82.58565671763483
 20
-140.7576442790467
 10
82.5940972015737
 20
-140.630520255641
 10
82.60460474280372
 20
-140.5185546523704
 10
82.6850477223843
 20
-140.4000433676778
 10
82.79494626836377
 20
-140.2391574085166
 10
82.98115367934152
 20
-140.2053954727612
 10
83.09759790674296
 20
-140.2053954727612
 10
83.37475583853131
 20
-140.2053954727612
 10
83.5819783319691
 20
-140.3893635716735
 10
83.5819783319691
 20
-140.6622151341053
 10
83.5819783319691
 20
-140.8909694743259
 10
83.46570635934191
 20
-140.9901882243011
 10
83.15685354908926
 20
-141.216530997682
 97
        0
 97
        0
 75
     2
 76
     1
 98
        0
  0
SPLINE
  5
C9
330
C3
100
AcDbEntity
  8
_U+30EC_U+30A4_U+30E4_U+30FC 1
370
     0
100
AcDbSpline
210
0.0
220
0.0
230
1.0
 70
    11
 71
     3
 72
    29
 73
    25
 74
     0
 42
0.0000000001
 43
0.0000000001
 12
1.0
 22
0.0
 32
0.0
 13
1.0
 23
0.0
 33
0.0
 40
0.0
 40
0.0
 40
0.0
 40
0.0
 40
1.0
 40
1.0
 40
1.0
 40
2.0
 40
2.0
 40
2.0
 40
3.0
 40
3.0
 40
3.0
 40
4.0
 40
4.0
 40
4.0
 40
5.0
 40
5.0
 40
5.0
 40
6.0
 40
6.0
 40
6.0
 40
7.0
 40
7.0
 40
7.0
 40
8.0
 40
8.0
 40
8.0
 40
8.0
 10
84.6382446077467
 20
-141.6206406981018
 30
0.0
 10
84.53041311905837
 20
-141.830102503605
 30
0.0
 10
84.35695256137605
 20
-141.8490505287739
 30
0.0
 10
84.2405083339746
 20
-141.8490505287739
 30
0.0
 10
84.0797946295877
 20
-141.8490505287739
 30
0.0
 10
83.93802895036967
 20
-141.802541739723
 30
0.0
 10
83.8427720602025
 20
-141.6206406981018
 30
0.0
 10
83.73924694087074
 20
-141.4259928031852
 30
0.0
 10
83.7201266609276
 20
-141.1889702338
 30
0.0
 10
83.7201266609276
 20
-141.0263617268962
 30
0.0
 10
83.7201266609276
 20
-140.8823567356127
 30
0.0
 10
83.73700762880533
 20
-140.630520255641
 30
0.0
 10
83.8427720602025
 20
-140.4317382461421
 30
0.0
 10
83.95077580366508
 20
-140.2288221220608
 30
0.0
 10
84.11148950805199
 20
-140.2053954727612
 30
0.0
 10
84.2405083339746
 20
-140.2053954727612
 30
0.0
 10
84.39915498107035
 20
-140.2053954727612
 30
0.0
 10
84.54298771757954
 20
-140.2498372045209
 30
0.0
 10
84.6382446077467
 20
-140.4317382461421
 30
0.0
 10
84.73763561249615
 20
-140.6243190837675
 30
0.0
 10
84.76089000702159
 20
-140.8527289144396
 30
0.0
 10
84.76089000702159
 20
-141.0263617268962
 30
0.0
 10
84.76089000702159
 20
-141.1975829725131
 30
0.0
 10
84.73987492456156
 20
-141.4280598604763
 30
0.0
 10
84.6382446077467
 20
-141.6206406981018
 30
0.0
  0
SPLINE
  5
CA
330
C3
100
AcDbEntity
  8
_U+30EC_U+30A4_U+30E4_U+30FC 1
370
     0
100
AcDbSpline
210
0.0
220
0.0
230
1.0
 70
    11
 71
     3
 72
    17
 73
    13
 74
     0
 42
0.0000000001
 43
0.0000000001
 12
1.0
 22
0.0
 32
0.0
 13
1.0
 23
0.0
 33
0.0
 40
0.0
 40
0.0
 40
0.0
 40
0.0
 40
1.0
 40
1.0
 40
1.0
 40
2.0
 40
2.0
 40
2.0
 40
3.0
 40
3.0
 40
3.0
 40
4.0
 40
4.0
 40
4.0
 40
4.0
 10
84.2405083339746
 20
-140.3979763103866
 30
0.0
 10
83.99091116606824
 20
-140.3979763103866
 30
0.0
 10
83.94440237701737
 20
-140.6815076688227
 30
0.0
 10
83.94440237701737
 20
-141.0263617268962
 30
0.0
 10
83.94440237701737
 20
-141.3457220783789
 30
0.0
 10
83.98040362483823
 20
-141.6544026338572
 30
0.0
 10
84.2405083339746
 20
-141.6544026338572
 30
0.0
 10
84.4880384445898
 20
-141.6544026338572
 30
0.0
 10
84.53678654570608
 20
-141.3732828422609
 30
0.0
 10
84.53678654570608
 20
-141.0263617268962
 30
0.0
 10
84.53678654570608
 20
-140.706656865865
 30
0.0
 10
84.49871824059407
 20
-140.3979763103866
 30
0.0
 10
84.2405083339746
 20
-140.3979763103866
 30
0.0
  0
HATCH
  5
CB
330
C3
100
AcDbEntity
  8
_U+30EC_U+30A4_U+30E4_U+30FC 1
 62
     7
420
 16777215
100
AcDbHatch
 10
0.0
 20
0.0
 30
0.0
210
0.0
220
0.0
230
1.0
  2
SOLID
 70
     1
 71
     0
 91
        2
 92
        1
 93
        1
 72
     4
 94
        3
 73
     0
 74
     1
 95
       29
 96
       25
 40
0.0
 40
0.0
 40
0.0
 40
0.0
 40
1.0
 40
1.0
 40
1.0
 40
2.0
 40
2.0
 40
2.0
 40
3.0
 40
3.0
 40
3.0
 40
4.0
 40
4.0
 40
4.0
 40
5.0
 40
5.0
 40
5.0
 40
6.0
 40
6.0
 40
6.0
 40
7.0
 40
7.0
 40
7.0
 40
8.0
 40
8.0
 40
8.0
 40
8.0
 10
84.6382446077467
 20
-141.6206406981018
 10
84.53041311905837
 20
-141.830102503605
 10
84.35695256137605
 20
-141.8490505287739
 10
84.2405083339746
 20
-141.8490505287739
 10
84.0797946295877
 20
-141.8490505287739
 10
83.93802895036967
 20
-141.802541739723
 10
83.8427720602025
 20
-141.6206406981018
 10
83.73924694087074
 20
-141.4259928031852
 10
83.7201266609276
 20
-141.1889702338
 10
83.7201266609276
 20
-141.0263617268962
 10
83.7201266609276
 20
-140.8823567356127
 10
83.73700762880533
 20
-140.630520255641
 10
83.8427720602025
 20
-140.4317382461421
 10
83.95077580366508
 20
-140.2288221220608
 10
84.11148950805199
 20
-140.2053954727612
 10
84.2405083339746
 20
-140.2053954727612
 10
84.39915498107035
 20
-140.2053954727612
 10
84.54298771757954
 20
-140.2498372045209
 10
84.6382446077467
 20
-140.4317382461421
 10
84.73763561249615
 20
-140.6243190837675
 10
84.76089000702159
 20
-140.8527289144396
 10
84.76089000702159
 20
-141.0263617268962
 10
84.76089000702159
 20
-141.1975829725131
 10
84.73987492456156
 20
-141.4280598604763
 10
84.6382446077467
 20
-141.6206406981018
 97
        0
 97
        0
 92
        1
 93
        1
 72
     4
 94
        3
 73
     0
 74
     1
 95
       17
 96
       13
 40
0.0
 40
0.0
 40
0.0
 40
0.0
 40
1.0
 40
1.0
 40
1.0
 40
2.0
 40
2.0
 40
2.0
 40
3.0
 40
3.0
 40
3.0
 40
4.0
 40
4.0
 40
4.0
 40
4.0
 10
84.2405083339746
 20
-140.3979763103866
 10
83.99091116606824
 20
-140.3979763103866
 10
83.94440237701737
 20
-140.6815076688227
 10
83.94440237701737
 20
-141.0263617268962
 10
83.94440237701737
 20
-141.3457220783789
 10
83.98040362483823
 20
-141.6544026338572
 10
84.2405083339746
 20
-141.6544026338572
 10
84.4880384445898
 20
-141.6544026338572
 10
84.53678654570608
 20
-141.3732828422609
 10
84.53678654570608
 20
-141.0263617268962
 10
84.53678654570608
 20
-140.706656865865
 10
84.49871824059407
 20
-140.3979763103866
 10
84.2405083339746
 20
-140.3979763103866
 97
        0
 97
        0
 75
     2
 76
     1
 98
        0
  0
ENDBLK
  5
C6
330
C3
100
AcDbEntity
  8
0
100
AcDbBlockEnd
  0
BLOCK
  5
DA
330
D8
100
AcDbEntity
  8
0
100
AcDbBlockBegin
  2
block 7
 70
     0
 10
0.0
 20
0.0
 30
0.0
  3
block 7
  1

  0
SPLINE
  5
DC
330
D8
100
AcDbEntity
  8
_U+30EC_U+30A4_U+30E4_U+30FC 1
370
     0
100
AcDbSpline
210
0.0
220
0.0
230
1.0
 70
    11
 71
     3
 72
    62
 73
    58
 74
     0
 42
0.0000000001
 43
0.0000000001
 12
1.0
 22
0.0
 32
0.0
 13
1.0
 23
0.0
 33
0.0
 40
0.0
 40
0.0
 40
0.0
 40
0.0
 40
1.0
 40
1.0
 40
1.0
 40
2.0
 40
2.0
 40
2.0
 40
3.0
 40
3.0
 40
3.0
 40
4.0
 40
4.0
 40
4.0
 40
5.0
 40
5.0
 40
5.0
 40
6.0
 40
6.0
 40
6.0
 40
7.0
 40
7.0
 40
7.0
 40
8.0
 40
8.0
 40
8.0
 40
9.0
 40
9.0
 40
9.0
 40
10.0
 40
10.0
 40
10.0
 40
11.0
 40
11.0
 40
11.0
 40
12.0
 40
12.0
 40
12.0
 40
13.0
 40
13.0
 40
13.0
 40
14.0
 40
14.0
 40
14.0
 40
15.0
 40
15.0
 40
15.0
 40
16.0
 40
16.0
 40
16.0
 40
17.0
 40
17.0
 40
17.0
 40
18.0
 40
18.0
 40
18.0
 40
19.0
 40
19.0
 40
19.0
 40
19.0
 10
88.05526256479175
 20
-116.7877034213239
 30
0.0
 10
87.95983341985033
 20
-116.7877034213239
 30
0.0
 10
87.74210338518253
 20
-116.7665160840896
 30
0.0
 10
87.61704641906796
 20
-116.5803086731119
 30
0.0
 10
87.54297686613509
 20
-116.468170815067
 30
0.0
 10
87.53884275155279
 20
-116.3687798103175
 30
0.0
 10
87.53470863697049
 20
-116.2842027161547
 30
0.0
 10
87.53470863697049
 20
-116.2842027161547
 30
0.0
 10
87.75485023847796
 20
-116.2842027161547
 30
0.0
 10
87.75485023847796
 20
-116.2842027161547
 30
0.0
 10
87.75691729576911
 20
-116.3582722690875
 30
0.0
 10
87.76725258222486
 20
-116.5930555264073
 30
0.0
 10
88.05078394066092
 20
-116.5930555264073
 30
0.0
 10
88.18824325052239
 20
-116.5930555264073
 30
0.0
 10
88.34086098051895
 20
-116.523292342831
 30
0.0
 10
88.34086098051895
 20
-116.2947102573847
 30
0.0
 10
88.34086098051895
 20
-116.1784382847575
 30
0.0
 10
88.30262042063268
 20
-116.1296901836412
 30
0.0
 10
88.27092554216838
 20
-116.0979953051769
 30
0.0
 10
88.19685598923552
 20
-116.023925752244
 30
0.0
 10
88.08041176183407
 20
-116.0113511537229
 30
0.0
 10
88.0256347436186
 20
-116.0113511537229
 30
0.0
 10
88.0063422089012
 20
-116.0113511537229
 30
0.0
 10
87.9705132158546
 20
-116.013418211014
 30
0.0
 10
87.9429524519726
 20
-116.0175523255963
 30
0.0
 10
87.9429524519726
 20
-116.0175523255963
 30
0.0
 10
87.9429524519726
 20
-115.8229044306797
 30
0.0
 10
87.9429524519726
 20
-115.8229044306797
 30
0.0
 10
87.98119301185888
 20
-115.8292778573274
 30
0.0
 10
88.02322317677893
 20
-115.8315171693928
 30
0.0
 10
88.0297688582009
 20
-115.8315171693928
 30
0.0
 10
88.09522567242064
 20
-115.8315171693928
 30
0.0
 10
88.29400768191955
 20
-115.8103298321585
 30
0.0
 10
88.29400768191955
 20
-115.5733072627733
 30
0.0
 10
88.29400768191955
 20
-115.3957125905087
 30
0.0
 10
88.16309405348007
 20
-115.3405910627447
 30
0.0
 10
88.05285099795206
 20
-115.3405910627447
 30
0.0
 10
87.7886121742334
 20
-115.3405910627447
 30
0.0
 10
87.77999943552028
 20
-115.5733072627733
 30
0.0
 10
87.77586532093798
 20
-115.6453097584151
 30
0.0
 10
87.77586532093798
 20
-115.6453097584151
 30
0.0
 10
87.57260468730824
 20
-115.6453097584151
 30
0.0
 10
87.57260468730824
 20
-115.6453097584151
 30
0.0
 10
87.58121742602137
 20
-115.5204250470748
 30
0.0
 10
87.60877818990336
 20
-115.143876110537
 30
0.0
 10
88.06559785124749
 20
-115.143876110537
 30
0.0
 10
88.28987356733725
 20
-115.143876110537
 30
0.0
 10
88.53103025130474
 20
-115.2708278791684
 30
0.0
 10
88.53103025130474
 20
-115.5669338361256
 30
0.0
 10
88.53103025130474
 20
-115.7531412471034
 30
0.0
 10
88.43594561591185
 20
-115.8356512839751
 30
0.0
 10
88.33638235638813
 20
-115.8969739836126
 30
0.0
 10
88.39770505602557
 20
-115.9245347474946
 30
0.0
 10
88.57960609764677
 20
-116.0049777270751
 30
0.0
 10
88.57960609764677
 20
-116.2821356588635
 30
0.0
 10
88.57960609764677
 20
-116.6206162902893
 30
0.0
 10
88.33224824180583
 20
-116.7877034213239
 30
0.0
 10
88.05526256479175
 20
-116.7877034213239
 30
0.0
  0
HATCH
  5
DD
330
D8
100
AcDbEntity
  8
_U+30EC_U+30A4_U+30E4_U+30FC 1
 62
     7
420
 16777215
100
AcDbHatch
 10
0.0
 20
0.0
 30
0.0
210
0.0
220
0.0
230
1.0
  2
SOLID
 70
     1
 71
     0
 91
        1
 92
        1
 93
        1
 72
     4
 94
        3
 73
     0
 74
     1
 95
       62
 96
       58
 40
0.0
 40
0.0
 40
0.0
 40
0.0
 40
1.0
 40
1.0
 40
1.0
 40
2.0
 40
2.0
 40
2.0
 40
3.0
 40
3.0
 40
3.0
 40
4.0
 40
4.0
 40
4.0
 40
5.0
 40
5.0
 40
5.0
 40
6.0
 40
6.0
 40
6.0
 40
7.0
 40
7.0
 40
7.0
 40
8.0
 40
8.0
 40
8.0
 40
9.0
 40
9.0
 40
9.0
 40
10.0
 40
10.0
 40
10.0
 40
11.0
 40
11.0
 40
11.0
 40
12.0
 40
12.0
 40
12.0
 40
13.0
 40
13.0
 40
13.0
 40
14.0
 40
14.0
 40
14.0
 40
15.0
 40
15.0
 40
15.0
 40
16.0
 40
16.0
 40
16.0
 40
17.0
 40
17.0
 40
17.0
 40
18.0
 40
18.0
 40
18.0
 40
19.0
 40
19.0
 40
19.0
 40
19.0
 10
88.05526256479175
 20
-116.7877034213239
 10
87.95983341985033
 20
-116.7877034213239
 10
87.74210338518253
 20
-116.7665160840896
 10
87.61704641906796
 20
-116.5803086731119
 10
87.54297686613509
 20
-116.468170815067
 10
87.53884275155279
 20
-116.3687798103175
 10
87.53470863697049
 20
-116.2842027161547
 10
87.53470863697049
 20
-116.2842027161547
 10
87.75485023847796
 20
-116.2842027161547
 10
87.75485023847796
 20
-116.2842027161547
 10
87.75691729576911
 20
-116.3582722690875
 10
87.76725258222486
 20
-116.5930555264073
 10
88.05078394066092
 20
-116.5930555264073
 10
88.18824325052239
 20
-116.5930555264073
 10
88.34086098051895
 20
-116.523292342831
 10
88.34086098051895
 20
-116.2947102573847
 10
88.34086098051895
 20
-116.1784382847575
 10
88.30262042063268
 20
-116.1296901836412
 10
88.27092554216838
 20
-116.0979953051769
 10
88.19685598923552
 20
-116.023925752244
 10
88.08041176183407
 20
-116.0113511537229
 10
88.0256347436186
 20
-116.0113511537229
 10
88.0063422089012
 20
-116.0113511537229
 10
87.9705132158546
 20
-116.013418211014
 10
87.9429524519726
 20
-116.0175523255963
 10
87.9429524519726
 20
-116.0175523255963
 10
87.9429524519726
 20
-115.8229044306797
 10
87.9429524519726
 20
-115.8229044306797
 10
87.98119301185888
 20
-115.8292778573274
 10
88.02322317677893
 20
-115.8315171693928
 10
88.0297688582009
 20
-115.8315171693928
 10
88.09522567242064
 20
-115.8315171693928
 10
88.29400768191955
 20
-115.8103298321585
 10
88.29400768191955
 20
-115.5733072627733
 10
88.29400768191955
 20
-115.3957125905087
 10
88.16309405348007
 20
-115.3405910627447
 10
88.05285099795206
 20
-115.3405910627447
 10
87.7886121742334
 20
-115.3405910627447
 10
87.77999943552028
 20
-115.5733072627733
 10
87.77586532093798
 20
-115.6453097584151
 10
87.77586532093798
 20
-115.6453097584151
 10
87.57260468730824
 20
-115.6453097584151
 10
87.57260468730824
 20
-115.6453097584151
 10
87.58121742602137
 20
-115.5204250470748
 10
87.60877818990336
 20
-115.143876110537
 10
88.06559785124749
 20
-115.143876110537
 10
88.28987356733725
 20
-115.143876110537
 10
88.53103025130474
 20
-115.2708278791684
 10
88.53103025130474
 20
-115.5669338361256
 10
88.53103025130474
 20
-115.7531412471034
 10
88.43594561591185
 20
-115.8356512839751
 10
88.33638235638813
 20
-115.8969739836126
 10
88.39770505602557
 20
-115.9245347474946
 10
88.57960609764677
 20
-116.0049777270751
 10
88.57960609764677
 20
-116.2821356588635
 10
88.57960609764677
 20
-116.6206162902893
 10
88.33224824180583
 20
-116.7877034213239
 10
88.05526256479175
 20
-116.7877034213239
 97
        0
 97
        0
 75
     2
 76
     1
 98
        0
  0
SPLINE
  5
DE
330
D8
100
AcDbEntity
  8
_U+30EC_U+30A4_U+30E4_U+30FC 1
370
     0
100
AcDbSpline
210
0.0
220
0.0
230
1.0
 70
    11
 71
     3
 72
    29
 73
    25
 74
     0
 42
0.0000000001
 43
0.0000000001
 12
1.0
 22
0.0
 32
0.0
 13
1.0
 23
0.0
 33
0.0
 40
0.0
 40
0.0
 40
0.0
 40
0.0
 40
1.0
 40
1.0
 40
1.0
 40
2.0
 40
2.0
 40
2.0
 40
3.0
 40
3.0
 40
3.0
 40
4.0
 40
4.0
 40
4.0
 40
5.0
 40
5.0
 40
5.0
 40
6.0
 40
6.0
 40
6.0
 40
7.0
 40
7.0
 40
7.0
 40
8.0
 40
8.0
 40
8.0
 40
8.0
 10
89.63828394026405
 20
-116.5591213358776
 30
0.0
 10
89.5301079420272
 20
-116.7685831413808
 30
0.0
 10
89.35681963911914
 20
-116.7877034213239
 30
0.0
 10
89.2403754117177
 20
-116.7877034213239
 30
0.0
 10
89.07948945255652
 20
-116.7877034213239
 30
0.0
 10
88.93789602811275
 20
-116.741194632273
 30
0.0
 10
88.84281139271985
 20
-116.5591213358776
 30
0.0
 10
88.73911401861383
 20
-116.364473440961
 30
0.0
 10
88.71982148389644
 20
-116.12762312635
 30
0.0
 10
88.71982148389644
 20
-115.9646701098977
 30
0.0
 10
88.71982148389644
 20
-115.8208373733885
 30
0.0
 10
88.73704696132269
 20
-115.569173148191
 30
0.0
 10
88.84281139271985
 20
-115.3702188839179
 30
0.0
 10
88.95064288140817
 20
-115.1671305050624
 30
0.0
 10
89.11152884056935
 20
-115.143876110537
 30
0.0
 10
89.2403754117177
 20
-115.143876110537
 30
0.0
 10
89.3991943135877
 20
-115.143876110537
 30
0.0
 10
89.54285479532263
 20
-115.1883178422967
 30
0.0
 10
89.63828394026405
 20
-115.3702188839179
 30
0.0
 10
89.73750269023924
 20
-115.5627997215433
 30
0.0
 10
89.76092933953893
 20
-115.7912095522154
 30
0.0
 10
89.76092933953893
 20
-115.9646701098977
 30
0.0
 10
89.76092933953893
 20
-116.1360636102889
 30
0.0
 10
89.7395697475304
 20
-116.3667127530264
 30
0.0
 10
89.63828394026405
 20
-116.5591213358776
 30
0.0
  0
SPLINE
  5
DF
330
D8
100
AcDbEntity
  8
_U+30EC_U+30A4_U+30E4_U+30FC 1
370
     0
100
AcDbSpline
210
0.0
220
0.0
230
1.0
 70
    11
 71
     3
 72
    17
 73
    13
 74
     0
 42
0.0000000001
 43
0.0000000001
 12
1.0
 22
0.0
 32
0.0
 13
1.0
 23
0.0
 33
0.0
 40
0.0
 40
0.0
 40
0.0
 40
0.0
 40
1.0
 40
1.0
 40
1.0
 40
2.0
 40
2.0
 40
2.0
 40
3.0
 40
3.0
 40
3.0
 40
4.0
 40
4.0
 40
4.0
 40
4.0
 10
89.2403754117177
 20
-115.3364569481624
 30
0.0
 10
88.99060598903708
 20
-115.3364569481624
 30
0.0
 10
88.9440971999862
 20
-115.6199883065985
 30
0.0
 10
88.9440971999862
 20
-115.9646701098977
 30
0.0
 10
88.9440971999862
 20
-116.2842027161547
 30
0.0
 10
88.98027070258132
 20
-116.5930555264073
 30
0.0
 10
89.2403754117177
 20
-116.5930555264073
 30
0.0
 10
89.48807777710715
 20
-116.5930555264073
 30
0.0
 10
89.53665362344917
 20
-116.3115912252624
 30
0.0
 10
89.53665362344917
 20
-115.9646701098977
 30
0.0
 10
89.53665362344917
 20
-115.6453097584151
 30
0.0
 10
89.49841306356291
 20
-115.3364569481624
 30
0.0
 10
89.2403754117177
 20
-115.3364569481624
 30
0.0
  0
HATCH
  5
E0
330
D8
100
AcDbEntity
  8
_U+30EC_U+30A4_U+30E4_U+30FC 1
 62
     7
420
 16777215
100
AcDbHatch
 10
0.0
 20
0.0
 30
0.0
210
0.0
220
0.0
230
1.0
  2
SOLID
 70
     1
 71
     0
 91
        2
 92
        1
 93
        1
 72
     4
 94
        3
 73
     0
 74
     1
 95
       29
 96
       25
 40
0.0
 40
0.0
 40
0.0
 40
0.0
 40
1.0
 40
1.0
 40
1.0
 40
2.0
 40
2.0
 40
2.0
 40
3.0
 40
3.0
 40
3.0
 40
4.0
 40
4.0
 40
4.0
 40
5.0
 40
5.0
 40
5.0
 40
6.0
 40
6.0
 40
6.0
 40
7.0
 40
7.0
 40
7.0
 40
8.0
 40
8.0
 40
8.0
 40
8.0
 10
89.63828394026405
 20
-116.5591213358776
 10
89.5301079420272
 20
-116.7685831413808
 10
89.35681963911914
 20
-116.7877034213239
 10
89.2403754117177
 20
-116.7877034213239
 10
89.07948945255652
 20
-116.7877034213239
 10
88.93789602811275
 20
-116.741194632273
 10
88.84281139271985
 20
-116.5591213358776
 10
88.73911401861383
 20
-116.364473440961
 10
88.71982148389644
 20
-116.12762312635
 10
88.71982148389644
 20
-115.9646701098977
 10
88.71982148389644
 20
-115.8208373733885
 10
88.73704696132269
 20
-115.569173148191
 10
88.84281139271985
 20
-115.3702188839179
 10
88.95064288140817
 20
-115.1671305050624
 10
89.11152884056935
 20
-115.143876110537
 10
89.2403754117177
 20
-115.143876110537
 10
89.3991943135877
 20
-115.143876110537
 10
89.54285479532263
 20
-115.1883178422967
 10
89.63828394026405
 20
-115.3702188839179
 10
89.73750269023924
 20
-115.5627997215433
 10
89.76092933953893
 20
-115.7912095522154
 10
89.76092933953893
 20
-115.9646701098977
 10
89.76092933953893
 20
-116.1360636102889
 10
89.7395697475304
 20
-116.3667127530264
 10
89.63828394026405
 20
-116.5591213358776
 97
        0
 97
        0
 92
        1
 93
        1
 72
     4
 94
        3
 73
     0
 74
     1
 95
       17
 96
       13
 40
0.0
 40
0.0
 40
0.0
 40
0.0
 40
1.0
 40
1.0
 40
1.0
 40
2.0
 40
2.0
 40
2.0
 40
3.0
 40
3.0
 40
3.0
 40
4.0
 40
4.0
 40
4.0
 40
4.0
 10
89.2403754117177
 20
-115.3364569481624
 10
88.99060598903708
 20
-115.3364569481624
 10
88.9440971999862
 20
-115.6199883065985
 10
88.9440971999862
 20
-115.9646701098977
 10
88.9440971999862
 20
-116.2842027161547
 10
88.98027070258132
 20
-116.5930555264073
 10
89.2403754117177
 20
-116.5930555264073
 10
89.48807777710715
 20
-116.5930555264073
 10
89.53665362344917
 20
-116.3115912252624
 10
89.53665362344917
 20
-115.9646701098977
 10
89.53665362344917
 20
-115.6453097584151
 10
89.49841306356291
 20
-115.3364569481624
 10
89.2403754117177
 20
-115.3364569481624
 97
        0
 97
        0
 75
     2
 76
     1
 98
        0
  0
ENDBLK
  5
DB
330
D8
100
AcDbEntity
  8
0
100
AcDbBlockEnd
  0
ENDSEC
  0
SECTION
  2
ENTITIES
  0
INSERT
  5
42
330
1F
100
AcDbEntity
  8
_U+30EC_U+30A4_U+30E4_U+30FC 1
100
AcDbBlockReference
  2
block 2
 10
0.0
 20
0.0
 30
0.0
  0
ENDSEC
  0
SECTION
  2
OBJECTS
  0
DICTIONARY
  5
C
330
0
100
AcDbDictionary
281
     1
  3
ACAD_GROUP
350
D
  3
ACAD_LAYOUT
350
1A
  3
ACAD_MATERIAL
350
3B
  3
ACAD_MLEADERSTYLE
350
E2
  3
ACAD_MLINESTYLE
350
17
  3
ACAD_PLOTSETTINGS
350
19
  3
ACAD_PLOTSTYLENAME
350
E
  3
ACAD_TABLESTYLE
350
E1
  3
ACAD_VISUALSTYLE
350
2A
  0
SUN
  5
3F
330
29
100
AcDbSun
 90
        1
290
     0
 63
     7
421
 16777215
 40
1.0
291
     1
 91
  2455826
 92
 54000000
292
     0
 70
     2
 71
   256
280
     1
  0
DICTIONARY
  5
D
102
{ACAD_REACTORS
330
C
102
}
330
C
100
AcDbDictionary
281
     1
  0
DICTIONARY
  5
1A
102
{ACAD_REACTORS
330
C
102
}
330
C
100
AcDbDictionary
281
     1
  3
Layout1
350
1E
  3
Layout2
350
26
  3
Model
350
22
  0
DICTIONARY
  5
3B
102
{ACAD_REACTORS
330
C
102
}
330
C
100
AcDbDictionary
281
     1
  3
ByBlock
350
3D
  3
ByLayer
350
3C
  3
Global
350
3E
  0
DICTIONARY
  5
E2
102
{ACAD_REACTORS
330
C
102
}
330
C
100
AcDbDictionary
281
     1
  0
DICTIONARY
  5
17
102
{ACAD_REACTORS
330
C
102
}
330
C
100
AcDbDictionary
281
     1
  3
Standard
350
18
  0
DICTIONARY
  5
19
102
{ACAD_REACTORS
330
C
102
}
330
C
100
AcDbDictionary
281
     1
  0
ACDBDICTIONARYWDFLT
  5
E
102
{ACAD_REACTORS
330
C
102
}
330
C
100
AcDbDictionary
281
     1
  3
Normal
350
F
100
AcDbDictionaryWithDefault
340
F
  0
DICTIONARY
  5
E1
102
{ACAD_REACTORS
330
C
102
}
330
C
100
AcDbDictionary
281
     1
  0
DICTIONARY
  5
2A
102
{ACAD_REACTORS
330
C
102
}
330
C
100
AcDbDictionary
281
     1
  3
2dWireframe
350
2F
  3
3D Hidden
350
31
  3
3dWireframe
350
30
  3
Basic
350
32
  3
Brighten
350
36
  3
ColorChange
350
3A
  3
Conceptual
350
34
  3
Dim
350
35
  3
Facepattern
350
39
  3
Flat
350
2B
  3
FlatWithEdges
350
2C
  3
Gouraud
350
2D
  3
GouraudWithEdges
350
2E
  3
Linepattern
350
38
  3
Realistic
350
33
  3
Thicken
350
37
  0
LAYOUT
  5
1E
102
{ACAD_REACTORS
330
1A
102
}
330
1A
100
AcDbPlotSettings
  1

  2
none_device
  4

  6

 40
0.0
 41
0.0
 42
0.0
 43
0.0
 44
0.0
 45
0.0
 46
0.0
 47
0.0
 48
0.0
 49
0.0
140
0.0
141
0.0
142
1.0
143
1.0
 70
   688
 72
     0
 73
     0
 74
     5
  7

 75
    16
 76
     0
 77
     2
 78
   300
147
1.0
148
0.0
149
0.0
100
AcDbLayout
  1
Layout1
 70
     1
 71
     1
 10
0.0
 20
0.0
 11
12.0
 21
9.0
 12
0.0
 22
0.0
 32
0.0
 14
1.000000000000000E+20
 24
1.000000000000000E+20
 34
1.000000000000000E+20
 15
-1.000000000000000E+20
 25
-1.000000000000000E+20
 35
-1.000000000000000E+20
146
0.0
 13
0.0
 23
0.0
 33
0.0
 16
1.0
 26
0.0
 36
0.0
 17
0.0
 27
1.0
 37
0.0
 76
     0
330
1B
  0
LAYOUT
  5
26
102
{ACAD_REACTORS
330
1A
102
}
330
1A
100
AcDbPlotSettings
  1

  2
none_device
  4

  6

 40
0.0
 41
0.0
 42
0.0
 43
0.0
 44
0.0
 45
0.0
 46
0.0
 47
0.0
 48
0.0
 49
0.0
140
0.0
141
0.0
142
1.0
143
1.0
 70
   688
 72
     0
 73
     0
 74
     5
  7

 75
    16
 76
     0
 77
     2
 78
   300
147
1.0
148
0.0
149
0.0
100
AcDbLayout
  1
Layout2
 70
     1
 71
     2
 10
0.0
 20
0.0
 11
0.0
 21
0.0
 12
0.0
 22
0.0
 32
0.0
 14
0.0
 24
0.0
 34
0.0
 15
0.0
 25
0.0
 35
0.0
146
0.0
 13
0.0
 23
0.0
 33
0.0
 16
1.0
 26
0.0
 36
0.0
 17
0.0
 27
1.0
 37
0.0
 76
     0
330
23
  0
LAYOUT
  5
22
102
{ACAD_REACTORS
330
1A
102
}
330
1A
100
AcDbPlotSettings
  1

  2
none_device
  4

  6

 40
0.0
 41
0.0
 42
0.0
 43
0.0
 44
0.0
 45
0.0
 46
0.0
 47
0.0
 48
0.0
 49
0.0
140
0.0
141
0.0
142
1.0
143
1.0
 70
  1712
 72
     0
 73
     0
 74
     0
  7

 75
     0
 76
     0
 77
     2
 78
   300
147
1.0
148
0.0
149
0.0
100
AcDbLayout
  1
Model
 70
     1
 71
     0
 10
0.0
 20
0.0
 11
12.0
 21
9.0
 12
0.0
 22
0.0
 32
0.0
 14
1.000000000000000E+20
 24
1.000000000000000E+20
 34
1.000000000000000E+20
 15
-1.000000000000000E+20
 25
-1.000000000000000E+20
 35
-1.000000000000000E+20
146
0.0
 13
0.0
 23
0.0
 33
0.0
 16
1.0
 26
0.0
 36
0.0
 17
0.0
 27
1.0
 37
0.0
 76
     0
330
1F
331
29
  0
MATERIAL
  5
3D
102
{ACAD_REACTORS
330
3B
102
}
330
3B
100
AcDbMaterial
  1
ByBlock
 72
     1
 94
      127
  0
MATERIAL
  5
3C
102
{ACAD_REACTORS
330
3B
102
}
330
3B
100
AcDbMaterial
  1
ByLayer
 72
     1
 94
      127
  0
MATERIAL
  5
3E
102
{ACAD_REACTORS
330
3B
102
}
330
3B
100
AcDbMaterial
  1
Global
 72
     1
 94
      127
  0
MLINESTYLE
  5
18
102
{ACAD_REACTORS
330
17
102
}
330
17
100
AcDbMlineStyle
  2
Standard
 70
     0
  3

 62
   256
 51
90.0
 52
90.0
 71
     2
 49
0.5
 62
   256
  6
BYLAYER
 49
-0.5
 62
   256
  6
BYLAYER
  0
ACDBPLACEHOLDER
  5
F
102
{ACAD_REACTORS
330
E
102
}
330
E
  0
VISUALSTYLE
  5
2F
102
{ACAD_REACTORS
330
2A
102
}
330
2A
100
AcDbVisualStyle
  2
2dWireframe
 70
     4
177
     2
291
     0
 71
     0
176
     1
 72
     2
176
     1
 73
     0
176
     1
 90
        0
176
     1
 40
-0.6
176
     1
 41
-30.0
176
     1
 62
     5
 63
     7
421
 16777215
176
     1
 74
     1
176
     1
 91
        4
176
     1
 64
     7
176
     1
 65
   257
176
     1
 75
     1
176
     1
175
     1
176
     1
 42
1.0
176
     1
 92
        0
176
     1
 66
   257
176
     1
 43
1.0
176
     1
 76
     1
176
     1
 77
     6
176
     1
 78
     2
176
     1
 67
     7
176
     1
 79
     5
176
     1
170
     0
176
     1
171
     0
176
     1
290
     0
176
     1
 93
        1
176
     1
 44
0.0
176
     1
173
     0
176
     1
  0
VISUALSTYLE
  5
31
102
{ACAD_REACTORS
330
2A
102
}
330
2A
100
AcDbVisualStyle
  2
3D Hidden
 70
     6
177
     2
291
     0
 71
     1
176
     1
 72
     2
176
     1
 73
     2
176
     1
 90
        0
176
     1
 40
-0.6
176
     1
 41
-30.0
176
     1
 62
     5
 63
     7
421
 16777215
176
     1
 74
     2
176
     1
 91
        2
176
     1
 64
     7
176
     1
 65
   257
176
     1
 75
     2
176
     1
175
     1
176
     1
 42
40.0
176
     1
 92
        0
176
     1
 66
   257
176
     1
 43
1.0
176
     1
 76
     1
176
     1
 77
     6
176
     1
 78
     2
176
     1
 67
     7
176
     1
 79
     3
176
     1
170
     0
176
     1
171
     0
176
     1
290
     0
176
     1
 93
        1
176
     1
 44
0.0
176
     1
173
     0
176
     1
  0
VISUALSTYLE
  5
30
102
{ACAD_REACTORS
330
2A
102
}
330
2A
100
AcDbVisualStyle
  2
3dWireframe
 70
     5
177
     2
291
     0
 71
     0
176
     1
 72
     2
176
     1
 73
     0
176
     1
 90
        0
176
     1
 40
-0.6
176
     1
 41
-30.0
176
     1
 62
     5
 63
     7
421
 16777215
176
     1
 74
     1
176
     1
 91
        4
176
     1
 64
     7
176
     1
 65
   257
176
     1
 75
     1
176
     1
175
     1
176
     1
 42
1.0
176
     1
 92
        0
176
     1
 66
   257
176
     1
 43
1.0
176
     1
 76
     1
176
     1
 77
     6
176
     1
 78
     2
176
     1
 67
     7
176
     1
 79
     5
176
     1
170
     0
176
     1
171
     0
176
     1
290
     0
176
     1
 93
        1
176
     1
 44
0.0
176
     1
173
     0
176
     1
  0
VISUALSTYLE
  5
32
102
{ACAD_REACTORS
330
2A
102
}
330
2A
100
AcDbVisualStyle
  2
Basic
 70
     7
177
     2
291
     1
 71
     1
176
     1
 72
     0
176
     1
 73
     1
176
     1
 90
        0
176
     1
 40
-0.6
176
     1
 41
-30.0
176
     1
 62
     5
 63
     7
421
 16777215
176
     1
 74
     0
176
     1
 91
        4
176
     1
 64
     7
176
     1
 65
   257
176
     1
 75
     1
176
     1
175
     1
176
     1
 42
1.0
176
     1
 92
        8
176
     1
 66
     7
176
     1
 43
1.0
176
     1
 76
     1
176
     1
 77
     6
176
     1
 78
     2
176
     1
 67
     7
176
     1
 79
     5
176
     1
170
     0
176
     1
171
     0
176
     1
290
     0
176
     1
 93
        1
176
     1
 44
0.0
176
     1
173
     0
176
     1
  0
VISUALSTYLE
  5
36
102
{ACAD_REACTORS
330
2A
102
}
330
2A
100
AcDbVisualStyle
  2
Brighten
 70
    12
177
     2
291
     1
 71
     2
176
     1
 72
     2
176
     1
 73
     0
176
     1
 90
        0
176
     1
 40
-0.6
176
     1
 41
-30.0
176
     1
 62
     5
 63
     7
421
 16777215
176
     1
 74
     1
176
     1
 91
        4
176
     1
 64
     7
176
     1
 65
   257
176
     1
 75
     1
176
     1
175
     1
176
     1
 42
1.0
176
     1
 92
        8
176
     1
 66
     7
176
     1
 43
1.0
176
     1
 76
     1
176
     1
 77
     6
176
     1
 78
     2
176
     1
 67
     7
176
     1
 79
     5
176
     1
170
     0
176
     1
171
     0
176
     1
290
     0
176
     1
 93
        1
176
     1
 44
50.0
176
     1
173
     0
176
     1
  0
VISUALSTYLE
  5
3A
102
{ACAD_REACTORS
330
2A
102
}
330
2A
100
AcDbVisualStyle
  2
ColorChange
 70
    16
177
     2
291
     1
 71
     2
176
     1
 72
     2
176
     1
 73
     3
176
     1
 90
        0
176
     1
 40
-0.6
176
     1
 41
-30.0
176
     1
 62
     5
 63
     8
421
  8421504
176
     1
 74
     1
176
     1
 91
        4
176
     1
 64
     7
176
     1
 65
   257
176
     1
 75
     1
176
     1
175
     1
176
     1
 42
1.0
176
     1
 92
        8
176
     1
 66
     8
424
  8421504
176
     1
 43
1.0
176
     1
 76
     1
176
     1
 77
     6
176
     1
 78
     2
176
     1
 67
     7
176
     1
 79
     5
176
     1
170
     0
176
     1
171
     0
176
     1
290
     0
176
     1
 93
        1
176
     1
 44
0.0
176
     1
173
     0
176
     1
  0
VISUALSTYLE
  5
34
102
{ACAD_REACTORS
330
2A
102
}
330
2A
100
AcDbVisualStyle
  2
Conceptual
 70
     9
177
     2
291
     0
 71
     3
176
     1
 72
     2
176
     1
 73
     0
176
     1
 90
        0
176
     1
 40
-0.6
176
     1
 41
-30.0
176
     1
 62
     5
 63
     7
421
 16777215
176
     1
 74
     2
176
     1
 91
        2
176
     1
 64
     7
176
     1
 65
   257
176
     1
 75
     1
176
     1
175
     1
176
     1
 42
40.0
176
     1
 92
        8
176
     1
 66
     7
176
     1
 43
1.0
176
     1
 76
     1
176
     1
 77
     6
176
     1
 78
     2
176
     1
 67
     7
176
     1
 79
     3
176
     1
170
     0
176
     1
171
     0
176
     1
290
     0
176
     1
 93
        1
176
     1
 44
0.0
176
     1
173
     0
176
     1
  0
VISUALSTYLE
  5
35
102
{ACAD_REACTORS
330
2A
102
}
330
2A
100
AcDbVisualStyle
  2
Dim
 70
    11
177
     2
291
     1
 71
     2
176
     1
 72
     2
176
     1
 73
     0
176
     1
 90
        0
176
     1
 40
-0.6
176
     1
 41
-30.0
176
     1
 62
     5
 63
     7
421
 16777215
176
     1
 74
     1
176
     1
 91
        4
176
     1
 64
     7
176
     1
 65
   257
176
     1
 75
     1
176
     1
175
     1
176
     1
 42
1.0
176
     1
 92
        8
176
     1
 66
     7
176
     1
 43
1.0
176
     1
 76
     1
176
     1
 77
     6
176
     1
 78
     2
176
     1
 67
     7
176
     1
 79
     5
176
     1
170
     0
176
     1
171
     0
176
     1
290
     0
176
     1
 93
        1
176
     1
 44
-50.0
176
     1
173
     0
176
     1
  0
VISUALSTYLE
  5
39
102
{ACAD_REACTORS
330
2A
102
}
330
2A
100
AcDbVisualStyle
  2
Facepattern
 70
    15
177
     2
291
     1
 71
     2
176
     1
 72
     2
176
     1
 73
     0
176
     1
 90
        0
176
     1
 40
-0.6
176
     1
 41
-30.0
176
     1
 62
     5
 63
     7
421
 16777215
176
     1
 74
     1
176
     1
 91
        4
176
     1
 64
     7
176
     1
 65
   257
176
     1
 75
     1
176
     1
175
     1
176
     1
 42
1.0
176
     1
 92
        8
176
     1
 66
     7
176
     1
 43
1.0
176
     1
 76
     1
176
     1
 77
     6
176
     1
 78
     2
176
     1
 67
     7
176
     1
 79
     5
176
     1
170
     0
176
     1
171
     0
176
     1
290
     0
176
     1
 93
        1
176
     1
 44
0.0
176
     1
173
     0
176
     1
  0
VISUALSTYLE
  5
2B
102
{ACAD_REACTORS
330
2A
102
}
330
2A
100
AcDbVisualStyle
  2
Flat
 70
     0
177
     2
291
     1
 71
     2
176
     1
 72
     1
176
     1
 73
     1
176
     1
 90
        2
176
     1
 40
-0.6
176
     1
 41
30.0
176
     1
 62
     5
 63
     7
421
 16777215
176
     1
 74
     0
176
     1
 91
        4
176
     1
 64
     7
176
     1
 65
   257
176
     1
 75
     1
176
     1
175
     1
176
     1
 42
1.0
176
     1
 92
        8
176
     1
 66
     7
176
     1
 43
1.0
176
     1
 76
     1
176
     1
 77
     6
176
     1
 78
     2
176
     1
 67
     7
176
     1
 79
     5
176
     1
170
     0
176
     1
171
     0
176
     1
290
     0
176
     1
 93
       13
176
     1
 44
0.0
176
     1
173
     0
176
     1
  0
VISUALSTYLE
  5
2C
102
{ACAD_REACTORS
330
2A
102
}
330
2A
100
AcDbVisualStyle
  2
FlatWithEdges
 70
     1
177
     2
291
     1
 71
     2
176
     1
 72
     1
176
     1
 73
     1
176
     1
 90
        2
176
     1
 40
-0.6
176
     1
 41
30.0
176
     1
 62
     5
 63
     7
421
 16777215
176
     1
 74
     1
176
     1
 91
        4
176
     1
 64
     7
176
     1
 65
   257
176
     1
 75
     1
176
     1
175
     1
176
     1
 42
1.0
176
     1
 92
        0
176
     1
 66
   257
176
     1
 43
1.0
176
     1
 76
     1
176
     1
 77
     6
176
     1
 78
     2
176
     1
 67
     7
176
     1
 79
     5
176
     1
170
     0
176
     1
171
     0
176
     1
290
     0
176
     1
 93
       13
176
     1
 44
0.0
176
     1
173
     0
176
     1
  0
VISUALSTYLE
  5
2D
102
{ACAD_REACTORS
330
2A
102
}
330
2A
100
AcDbVisualStyle
  2
Gouraud
 70
     2
177
     2
291
     1
 71
     2
176
     1
 72
     2
176
     1
 73
     1
176
     1
 90
        2
176
     1
 40
-0.6
176
     1
 41
30.0
176
     1
 62
     5
 63
     7
421
 16777215
176
     1
 74
     0
176
     1
 91
        4
176
     1
 64
     7
176
     1
 65
   257
176
     1
 75
     1
176
     1
175
     1
176
     1
 42
1.0
176
     1
 92
        0
176
     1
 66
     7
176
     1
 43
1.0
176
     1
 76
     1
176
     1
 77
     6
176
     1
 78
     2
176
     1
 67
     7
176
     1
 79
     5
176
     1
170
     0
176
     1
171
     0
176
     1
290
     0
176
     1
 93
       13
176
     1
 44
0.0
176
     1
173
     0
176
     1
  0
VISUALSTYLE
  5
2E
102
{ACAD_REACTORS
330
2A
102
}
330
2A
100
AcDbVisualStyle
  2
GouraudWithEdges
 70
     3
177
     2
291
     1
 71
     2
176
     1
 72
     2
176
     1
 73
     1
176
     1
 90
        2
176
     1
 40
-0.6
176
     1
 41
30.0
176
     1
 62
     5
 63
     7
421
 16777215
176
     1
 74
     1
176
     1
 91
        4
176
     1
 64
     7
176
     1
 65
   257
176
     1
 75
     1
176
     1
175
     1
176
     1
 42
1.0
176
     1
 92
        0
176
     1
 66
   257
176
     1
 43
1.0
176
     1
 76
     1
176
     1
 77
     6
176
     1
 78
     2
176
     1
 67
     7
176
     1
 79
     5
176
     1
170
     0
176
     1
171
     0
176
     1
290
     0
176
     1
 93
       13
176
     1
 44
0.0
176
     1
173
     0
176
     1
  0
VISUALSTYLE
  5
38
102
{ACAD_REACTORS
330
2A
102
}
330
2A
100
AcDbVisualStyle
  2
Linepattern
 70
    14
177
     2
291
     1
 71
     2
176
     1
 72
     2
176
     1
 73
     0
176
     1
 90
        0
176
     1
 40
-0.6
176
     1
 41
-30.0
176
     1
 62
     5
 63
     7
421
 16777215
176
     1
 74
     1
176
     1
 91
        4
176
     1
 64
     7
176
     1
 65
   257
176
     1
 75
     7
176
     1
175
     7
176
     1
 42
1.0
176
     1
 92
        8
176
     1
 66
     7
176
     1
 43
1.0
176
     1
 76
     1
176
     1
 77
     6
176
     1
 78
     2
176
     1
 67
     7
176
     1
 79
     5
176
     1
170
     0
176
     1
171
     0
176
     1
290
     0
176
     1
 93
        1
176
     1
 44
0.0
176
     1
173
     0
176
     1
  0
VISUALSTYLE
  5
33
102
{ACAD_REACTORS
330
2A
102
}
330
2A
100
AcDbVisualStyle
  2
Realistic
 70
     8
177
     2
291
     0
 71
     2
176
     1
 72
     2
176
     1
 73
     0
176
     1
 90
        0
176
     1
 40
-0.6
176
     1
 41
-30.0
176
     1
 62
     5
 63
     7
421
 16777215
176
     1
 74
     1
176
     1
 91
        0
176
     1
 64
     7
176
     1
 65
   257
176
     1
 75
     1
176
     1
175
     1
176
     1
 42
1.0
176
     1
 92
        8
176
     1
 66
     8
424
  7895160
176
     1
 43
1.0
176
     1
 76
     1
176
     1
 77
     6
176
     1
 78
     2
176
     1
 67
     7
176
     1
 79
     5
176
     1
170
     0
176
     1
171
     0
176
     1
290
     0
176
     1
 93
       13
176
     1
 44
0.0
176
     1
173
     0
176
     1
  0
VISUALSTYLE
  5
37
102
{ACAD_REACTORS
330
2A
102
}
330
2A
100
AcDbVisualStyle
  2
Thicken
 70
    13
177
     2
291
     1
 71
     2
176
     1
 72
     2
176
     1
 73
     0
176
     1
 90
        0
176
     1
 40
-0.6
176
     1
 41
-30.0
176
     1
 62
     5
 63
     7
421
 16777215
176
     1
 74
     1
176
     1
 91
        4
176
     1
 64
     7
176
     1
 65
   257
176
     1
 75
     1
176
     1
175
     1
176
     1
 42
1.0
176
     1
 92
       12
176
     1
 66
     7
176
     1
 43
1.0
176
     1
 76
     1
176
     1
 77
     6
176
     1
 78
     2
176
     1
 67
     7
176
     1
 79
     5
176
     1
170
     0
176
     1
171
     0
176
     1
290
     0
176
     1
 93
        1
176
     1
 44
0.0
176
     1
173
     0
176
     1
  0
ENDSEC
  0
EOF
