  0
SECTION
  2
HEADER
  9
$ACADVER
  1
AC1024
  9
$ACADMAINTVER
 70
     6
  9
$DWGCODEPAGE
  3
UNDEFINED
  9
$INSBASE
 10
0.0
 20
0.0
 30
0.0
  9
$EXTMIN
 10
1.000000000000000E+20
 20
1.000000000000000E+20
 30
1.000000000000000E+20
  9
$EXTMAX
 10
-1.000000000000000E+20
 20
-1.000000000000000E+20
 30
-1.000000000000000E+20
  9
$LIMMIN
 10
0.0
 20
0.0
  9
$LIMMAX
 10
12.0
 20
9.0
  9
$ORTHOMODE
 70
     0
  9
$REGENMODE
 70
     1
  9
$FILLMODE
 70
     1
  9
$QTEXTMODE
 70
     0
  9
$MIRRTEXT
 70
     1
  9
$LTSCALE
 40
1.0
  9
$ATTMODE
 70
     1
  9
$TEXTSIZE
 40
0.2
  9
$TRACEWID
 40
0.05
  9
$TEXTSTYLE
  7
Standard
  9
$CLAYER
  8
0
  9
$CELTYPE
  6
ByLayer
  9
$CECOLOR
 62
   256
  9
$CELTSCALE
 40
1.0
  9
$DISPSILH
 70
     0
  9
$DIMSCALE
 40
1.0
  9
$DIMASZ
 40
0.18
  9
$DIMEXO
 40
0.0625
  9
$DIMDLI
 40
0.38
  9
$DIMRND
 40
0.0
  9
$DIMDLE
 40
0.0
  9
$DIMEXE
 40
0.18
  9
$DIMTP
 40
0.0
  9
$DIMTM
 40
0.0
  9
$DIMTXT
 40
0.18
  9
$DIMCEN
 40
0.09
  9
$DIMTSZ
 40
0.0
  9
$DIMTOL
 70
     0
  9
$DIMLIM
 70
     0
  9
$DIMTIH
 70
     1
  9
$DIMTOH
 70
     1
  9
$DIMSE1
 70
     0
  9
$DIMSE2
 70
     0
  9
$DIMTAD
 70
     0
  9
$DIMZIN
 70
     0
  9
$DIMBLK
  1

  9
$DIMASO
 70
     1
  9
$DIMSHO
 70
     1
  9
$DIMPOST
  1

  9
$DIMAPOST
  1

  9
$DIMALT
 70
     0
  9
$DIMALTD
 70
     2
  9
$DIMALTF
 40
25.4
  9
$DIMLFAC
 40
1.0
  9
$DIMTOFL
 70
     0
  9
$DIMTVP
 40
0.0
  9
$DIMTIX
 70
     0
  9
$DIMSOXD
 70
     0
  9
$DIMSAH
 70
     0
  9
$DIMBLK1
  1

  9
$DIMBLK2
  1

  9
$DIMSTYLE
  2
Standard
  9
$DIMCLRD
 70
     0
  9
$DIMCLRE
 70
     0
  9
$DIMCLRT
 70
     0
  9
$DIMTFAC
 40
1.0
  9
$DIMGAP
 40
0.09
  9
$DIMJUST
 70
     0
  9
$DIMSD1
 70
     0
  9
$DIMSD2
 70
     0
  9
$DIMTOLJ
 70
     1
  9
$DIMTZIN
 70
     0
  9
$DIMALTZ
 70
     0
  9
$DIMALTTZ
 70
     0
  9
$DIMUPT
 70
     0
  9
$DIMDEC
 70
     4
  9
$DIMTDEC
 70
     4
  9
$DIMALTU
 70
     2
  9
$DIMALTTD
 70
     2
  9
$DIMTXSTY
  7
Standard
  9
$DIMAUNIT
 70
     0
  9
$DIMADEC
 70
     0
  9
$DIMALTRND
 40
0.0
  9
$DIMAZIN
 70
     0
  9
$DIMDSEP
 70
    46
  9
$DIMATFIT
 70
     3
  9
$DIMFRAC
 70
     0
  9
$DIMLDRBLK
  1

  9
$DIMLUNIT
 70
     2
  9
$DIMLWD
 70
    -2
  9
$DIMLWE
 70
    -2
  9
$DIMTMOVE
 70
     0
  9
$DIMFXL
 40
1.0
  9
$DIMFXLON
 70
     0
  9
$DIMJOGANG
 40
0.7853981633974483
  9
$DIMTFILL
 70
     0
  9
$DIMTFILLCLR
 70
     0
  9
$DIMARCSYM
 70
     0
  9
$DIMLTYPE
  6

  9
$DIMLTEX1
  6

  9
$DIMLTEX2
  6

  9
$DIMTXTDIRECTION
 70
     0
  9
$LUNITS
 70
     2
  9
$LUPREC
 70
     4
  9
$SKETCHINC
 40
0.1
  9
$FILLETRAD
 40
0.5
  9
$AUNITS
 70
     0
  9
$AUPREC
 70
     0
  9
$MENU
  1
.
  9
$ELEVATION
 40
0.0
  9
$PELEVATION
 40
0.0
  9
$THICKNESS
 40
0.0
  9
$LIMCHECK
 70
     0
  9
$CHAMFERA
 40
0.5
  9
$CHAMFERB
 40
0.5
  9
$CHAMFERC
 40
1.0
  9
$CHAMFERD
 40
0.0
  9
$SKPOLY
 70
     0
  9
$TDCREATE
 40
2457917.616053241
  9
$TDUCREATE
 40
2457917.241053241
  9
$TDUPDATE
 40
2457917.616053241
  9
$TDUUPDATE
 40
2457917.241053241
  9
$TDINDWG
 40
0.0000000116
  9
$TDUSRTIMER
 40
0.0000000116
  9
$USRTIMER
 70
     1
  9
$ANGBASE
 50
0.0
  9
$ANGDIR
 70
     0
  9
$PDMODE
 70
     0
  9
$PDSIZE
 40
0.0
  9
$PLINEWID
 40
0.0
  9
$SPLFRAME
 70
     0
  9
$SPLINETYPE
 70
     6
  9
$SPLINESEGS
 70
     8
  9
$HANDSEED
  5
E4
  9
$SURFTAB1
 70
     6
  9
$SURFTAB2
 70
     6
  9
$SURFTYPE
 70
     6
  9
$SURFU
 70
     6
  9
$SURFV
 70
     6
  9
$UCSBASE
  2

  9
$UCSNAME
  2

  9
$UCSORG
 10
0.0
 20
0.0
 30
0.0
  9
$UCSXDIR
 10
1.0
 20
0.0
 30
0.0
  9
$UCSYDIR
 10
0.0
 20
1.0
 30
0.0
  9
$UCSORTHOREF
  2

  9
$UCSORTHOVIEW
 70
     0
  9
$UCSORGTOP
 10
0.0
 20
0.0
 30
0.0
  9
$UCSORGBOTTOM
 10
0.0
 20
0.0
 30
0.0
  9
$UCSORGLEFT
 10
0.0
 20
0.0
 30
0.0
  9
$UCSORGRIGHT
 10
0.0
 20
0.0
 30
0.0
  9
$UCSORGFRONT
 10
0.0
 20
0.0
 30
0.0
  9
$UCSORGBACK
 10
0.0
 20
0.0
 30
0.0
  9
$PUCSBASE
  2

  9
$PUCSNAME
  2

  9
$PUCSORG
 10
0.0
 20
0.0
 30
0.0
  9
$PUCSXDIR
 10
1.0
 20
0.0
 30
0.0
  9
$PUCSYDIR
 10
0.0
 20
1.0
 30
0.0
  9
$PUCSORTHOREF
  2

  9
$PUCSORTHOVIEW
 70
     0
  9
$PUCSORGTOP
 10
0.0
 20
0.0
 30
0.0
  9
$PUCSORGBOTTOM
 10
0.0
 20
0.0
 30
0.0
  9
$PUCSORGLEFT
 10
0.0
 20
0.0
 30
0.0
  9
$PUCSORGRIGHT
 10
0.0
 20
0.0
 30
0.0
  9
$PUCSORGFRONT
 10
0.0
 20
0.0
 30
0.0
  9
$PUCSORGBACK
 10
0.0
 20
0.0
 30
0.0
  9
$USERI1
 70
     0
  9
$USERI2
 70
     0
  9
$USERI3
 70
     0
  9
$USERI4
 70
     0
  9
$USERI5
 70
     0
  9
$USERR1
 40
0.0
  9
$USERR2
 40
0.0
  9
$USERR3
 40
0.0
  9
$USERR4
 40
0.0
  9
$USERR5
 40
0.0
  9
$WORLDVIEW
 70
     1
  9
$SHADEDGE
 70
     3
  9
$SHADEDIF
 70
    70
  9
$TILEMODE
 70
     1
  9
$MAXACTVP
 70
    64
  9
$PINSBASE
 10
0.0
 20
0.0
 30
0.0
  9
$PLIMCHECK
 70
     0
  9
$PEXTMIN
 10
1.000000000000000E+20
 20
1.000000000000000E+20
 30
1.000000000000000E+20
  9
$PEXTMAX
 10
-1.000000000000000E+20
 20
-1.000000000000000E+20
 30
-1.000000000000000E+20
  9
$PLIMMIN
 10
0.0
 20
0.0
  9
$PLIMMAX
 10
12.0
 20
9.0
  9
$UNITMODE
 70
     0
  9
$VISRETAIN
 70
     1
  9
$PLINEGEN
 70
     0
  9
$PSLTSCALE
 70
     1
  9
$TREEDEPTH
 70
  3020
  9
$CMLSTYLE
  2
Standard
  9
$CMLJUST
 70
     0
  9
$CMLSCALE
 40
1.0
  9
$PROXYGRAPHICS
 70
     1
  9
$MEASUREMENT
 70
     0
  9
$CELWEIGHT
370
    -1
  9
$ENDCAPS
280
     0
  9
$JOINSTYLE
280
     0
  9
$LWDISPLAY
290
     1
  9
$INSUNITS
 70
     1
  9
$HYPERLINKBASE
  1

  9
$STYLESHEET
  1

  9
$XEDIT
290
     1
  9
$CEPSNTYPE
380
     0
  9
$PSTYLEMODE
290
     1
  9
$FINGERPRINTGUID
  2
{25191771-FECF-F4A6-1987-FE2BF3F275D8}
  9
$VERSIONGUID
  2
{FAEB1C32-E019-11D5-929B-00C0DF256EC4}
  9
$EXTNAMES
290
     1
  9
$PSVPSCALE
 40
0.0
  9
$OLESTARTUP
290
     0
  9
$SORTENTS
280
   127
  9
$INDEXCTL
280
     0
  9
$HIDETEXT
280
     1
  9
$XCLIPFRAME
280
     2
  9
$HALOGAP
280
     0
  9
$OBSCOLOR
 70
   257
  9
$OBSLTYPE
280
     0
  9
$INTERSECTIONDISPLAY
280
     0
  9
$INTERSECTIONCOLOR
 70
   257
  9
$DIMASSOC
280
     2
  9
$PROJECTNAME
  1

  9
$CAMERADISPLAY
290
     0
  9
$LENSLENGTH
 40
50.0
  9
$CAMERAHEIGHT
 40
0.0
  9
$STEPSPERSEC
 40
2.0
  9
$STEPSIZE
 40
6.0
  9
$3DDWFPREC
 40
2.0
  9
$PSOLWIDTH
 40
0.25
  9
$PSOLHEIGHT
 40
4.0
  9
$LOFTANG1
 40
1.570796326794897
  9
$LOFTANG2
 40
1.570796326794897
  9
$LOFTMAG1
 40
0.0
  9
$LOFTMAG2
 40
0.0
  9
$LOFTPARAM
 70
     7
  9
$LOFTNORMALS
280
     1
  9
$LATITUDE
 40
37.795
  9
$LONGITUDE
 40
-122.394
  9
$NORTHDIRECTION
 40
0.0
  9
$TIMEZONE
 70
 -8000
  9
$LIGHTGLYPHDISPLAY
280
     1
  9
$TILEMODELIGHTSYNCH
280
     1
  9
$CMATERIAL
347
3C
  9
$SOLIDHIST
280
     1
  9
$SHOWHIST
280
     1
  9
$DWFFRAME
280
     2
  9
$DGNFRAME
280
     2
  9
$REALWORLDSCALE
290
     1
  9
$INTERFERECOLOR
 62
   256
  9
$CSHADOW
280
     0
  9
$SHADOWPLANELOCATION
 40
0.0
  0
ENDSEC
  0
SECTION
  2
CLASSES
  0
CLASS
  1
ACDBDICTIONARYWDFLT
  2
AcDbDictionaryWithDefault
  3
ObjectDBX Classes
 90
        0
 91
        4
280
     0
281
     0
  0
CLASS
  1
VISUALSTYLE
  2
AcDbVisualStyle
  3
ObjectDBX Classes
 90
     4095
 91
        4
280
     0
281
     0
  0
CLASS
  1
MATERIAL
  2
AcDbMaterial
  3
ObjectDBX Classes
 90
     1153
 91
        4
280
     0
281
     0
  0
CLASS
  1
SUN
  2
AcDbSun
  3
SCENEOE
 90
     1024
 91
        4
280
     0
281
     0
  0
ENDSEC
  0
SECTION
  2
TABLES
  0
TABLE
  2
VPORT
  5
8
330
0
100
AcDbSymbolTable
 70
     1
  0
VPORT
  5
29
330
8
100
AcDbSymbolTableRecord
100
AcDbViewportTableRecord
  2
*Active
 70
     0
 10
0.0
 20
0.0
 11
1.0
 21
1.0
 12
0.0
 22
0.0
 13
0.0
 23
0.0
 14
0.5
 24
0.5
 15
0.5
 25
0.5
 16
0.0
 26
0.0
 36
1.0
 17
91.00082462281999
 27
-128.4993055234307
 37
0.0
 40
256.9986110468615
 41
0.7081814508812795
 42
50.0
 43
0.0
 44
0.0
 50
0.0
 51
0.0
 71
     0
 72
   100
 73
     1
 74
     3
 75
     0
 76
     0
 77
     0
 78
     0
281
     0
 65
     1
110
0.0
120
0.0
130
0.0
111
1.0
121
0.0
131
0.0
112
0.0
122
1.0
132
0.0
 79
     0
146
0.0
 60
     3
 61
     5
292
     1
282
     1
141
0.0
142
0.0
 63
   250
361
3F
  0
ENDTAB
  0
TABLE
  2
LTYPE
  5
5
330
0
100
AcDbSymbolTable
 70
     1
  0
LTYPE
  5
14
330
5
100
AcDbSymbolTableRecord
100
AcDbLinetypeTableRecord
  2
ByBlock
 70
     0
  3

 72
    65
 73
     0
 40
0.0
  0
LTYPE
  5
15
330
5
100
AcDbSymbolTableRecord
100
AcDbLinetypeTableRecord
  2
ByLayer
 70
     0
  3

 72
    65
 73
     0
 40
0.0
  0
LTYPE
  5
16
330
5
100
AcDbSymbolTableRecord
100
AcDbLinetypeTableRecord
  2
Continuous
 70
     0
  3
Solid line
 72
    65
 73
     0
 40
0.0
  0
ENDTAB
  0
TABLE
  2
LAYER
  5
2
330
0
100
AcDbSymbolTable
 70
     2
  0
LAYER
  5
10
330
2
100
AcDbSymbolTableRecord
100
AcDbLayerTableRecord
  2
0
 70
     0
 62
     7
  6
Continuous
370
    -3
390
F
347
3E
  0
LAYER
  5
40
330
2
100
AcDbSymbolTableRecord
100
AcDbLayerTableRecord
  2
_U+30EC_U+30A4_U+30E4_U+30FC 1
 70
     0
 62
     7
  6
Continuous
370
    -3
390
F
347
3E
  0
ENDTAB
  0
TABLE
  2
STYLE
  5
3
330
0
100
AcDbSymbolTable
 70
     1
  0
STYLE
  5
11
330
3
100
AcDbSymbolTableRecord
100
AcDbTextStyleTableRecord
  2
Standard
 70
     0
 40
0.0
 41
1.0
 50
0.0
 71
     0
 42
0.2
  3
txt
  4

  0
ENDTAB
  0
TABLE
  2
VIEW
  5
6
330
0
100
AcDbSymbolTable
 70
     0
  0
ENDTAB
  0
TABLE
  2
UCS
  5
7
330
0
100
AcDbSymbolTable
 70
     0
  0
ENDTAB
  0
TABLE
  2
APPID
  5
9
330
0
100
AcDbSymbolTable
 70
     1
  0
APPID
  5
12
330
9
100
AcDbSymbolTableRecord
100
AcDbRegAppTableRecord
  2
ACAD
 70
     0
  0
ENDTAB
  0
TABLE
  2
DIMSTYLE
  5
A
330
0
100
AcDbSymbolTable
 70
     1
100
AcDbDimStyleTable
  0
DIMSTYLE
105
27
330
A
100
AcDbSymbolTableRecord
100
AcDbDimStyleTableRecord
  2
Standard
 70
     0
178
     0
340
11
  0
ENDTAB
  0
TABLE
  2
BLOCK_RECORD
  5
1
330
0
100
AcDbSymbolTable
 70
     7
  0
BLOCK_RECORD
  5
1F
330
1
100
AcDbSymbolTableRecord
100
AcDbBlockTableRecord
  2
*Model_Space
340
22
 70
     0
280
     1
281
     0
  0
BLOCK_RECORD
  5
1B
330
1
100
AcDbSymbolTableRecord
100
AcDbBlockTableRecord
  2
*Paper_Space
340
1E
 70
     0
280
     1
281
     0
  0
BLOCK_RECORD
  5
23
330
1
100
AcDbSymbolTableRecord
100
AcDbBlockTableRecord
  2
*Paper_Space0
340
26
 70
     0
280
     1
281
     0
  0
BLOCK_RECORD
  5
41
330
1
100
AcDbSymbolTableRecord
100
AcDbBlockTableRecord
  2
block 2
340
0
102
{BLKREFS
331
42
102
}
 70
     0
280
     1
281
     0
  0
BLOCK_RECORD
  5
93
330
1
100
AcDbSymbolTableRecord
100
AcDbBlockTableRecord
  2
block 3
340
0
102
{BLKREFS
331
94
102
}
 70
     0
280
     1
281
     0
  0
BLOCK_RECORD
  5
A1
330
1
100
AcDbSymbolTableRecord
100
AcDbBlockTableRecord
  2
block 4
340
0
102
{BLKREFS
331
A2
102
}
 70
     0
280
     1
281
     0
  0
BLOCK_RECORD
  5
AF
330
1
100
AcDbSymbolTableRecord
100
AcDbBlockTableRecord
  2
block 5
340
0
102
{BLKREFS
331
B0
102
}
 70
     0
280
     1
281
     0
  0
BLOCK_RECORD
  5
C4
330
1
100
AcDbSymbolTableRecord
100
AcDbBlockTableRecord
  2
block 6
340
0
102
{BLKREFS
331
C5
102
}
 70
     0
280
     1
281
     0
  0
BLOCK_RECORD
  5
D9
330
1
100
AcDbSymbolTableRecord
100
AcDbBlockTableRecord
  2
block 7
340
0
102
{BLKREFS
331
DA
102
}
 70
     0
280
     1
281
     0
  0
ENDTAB
  0
ENDSEC
  0
SECTION
  2
BLOCKS
  0
BLOCK
  5
20
330
1F
100
AcDbEntity
  8
0
100
AcDbBlockBegin
  2
*Model_Space
 70
     0
 10
0.0
 20
0.0
 30
0.0
  3
*Model_Space
  1

  0
ENDBLK
  5
21
330
1F
100
AcDbEntity
  8
0
100
AcDbBlockEnd
  0
BLOCK
  5
1C
330
1B
100
AcDbEntity
 67
     1
  8
0
100
AcDbBlockBegin
  2
*Paper_Space
 70
     0
 10
0.0
 20
0.0
 30
0.0
  3
*Paper_Space
  1

  0
ENDBLK
  5
1D
330
1B
100
AcDbEntity
 67
     1
  8
0
100
AcDbBlockEnd
  0
BLOCK
  5
24
330
23
100
AcDbEntity
  8
0
100
AcDbBlockBegin
  2
*Paper_Space0
 70
     0
 10
0.0
 20
0.0
 30
0.0
  3
*Paper_Space0
  1

  0
ENDBLK
  5
25
330
23
100
AcDbEntity
  8
0
100
AcDbBlockEnd
  0
BLOCK
  5
43
330
41
100
AcDbEntity
  8
0
100
AcDbBlockBegin
  2
block 2
 70
     0
 10
0.0
 20
0.0
 30
0.0
  3
block 2
  1

  0
POLYLINE
  5
45
330
41
100
AcDbEntity
  8
_U+30EC_U+30A4_U+30E4_U+30FC 1
370
     0
100
AcDb2dPolyline
 66
     1
 10
0.0
 20
0.0
 30
0.0
  0
VERTEX
  5
46
330
45
100
AcDbEntity
  8
_U+30EC_U+30A4_U+30E4_U+30FC 1
370
     0
100
AcDbVertex
100
AcDb2dVertex
 10
73.62771895493373
 20
-136.6814216324964
 30
0.0
  0
VERTEX
  5
47
330
45
100
AcDbEntity
  8
_U+30EC_U+30A4_U+30E4_U+30FC 1
370
     0
100
AcDbVertex
100
AcDb2dVertex
 10
93.67075261026001
 20
-136.6814216324964
 30
0.0
  0
VERTEX
  5
48
330
45
100
AcDbEntity
  8
_U+30EC_U+30A4_U+30E4_U+30FC 1
370
     0
100
AcDbVertex
100
AcDb2dVertex
 10
93.6266553891628
 20
-133.6607619110293
 30
0.0
  0
VERTEX
  5
49
330
45
100
AcDbEntity
  8
_U+30EC_U+30A4_U+30E4_U+30FC 1
370
     0
100
AcDbVertex
100
AcDb2dVertex
 10
92.5903706933784
 20
-133.6387132999237
 30
0.0
  0
VERTEX
  5
4A
330
45
100
AcDbEntity
  8
_U+30EC_U+30A4_U+30E4_U+30FC 1
370
     0
100
AcDbVertex
100
AcDb2dVertex
 10
92.62758874798445
 20
-135.6451369105332
 30
0.0
  0
VERTEX
  5
4B
330
45
100
AcDbEntity
  8
_U+30EC_U+30A4_U+30E4_U+30FC 1
370
     0
100
AcDbVertex
100
AcDb2dVertex
 10
74.62816142941031
 20
-135.5789910772164
 30
0.0
  0
VERTEX
  5
4C
330
45
100
AcDbEntity
  8
_U+30EC_U+30A4_U+30E4_U+30FC 1
370
     0
100
AcDbVertex
100
AcDb2dVertex
 10
74.62816142941031
 20
-123.6183074690954
 30
0.0
  0
VERTEX
  5
4D
330
45
100
AcDbEntity
  8
_U+30EC_U+30A4_U+30E4_U+30FC 1
370
     0
100
AcDbVertex
100
AcDb2dVertex
 10
103.6029637457571
 20
-123.6183074690954
 30
0.0
  0
VERTEX
  5
4E
330
45
100
AcDbEntity
  8
_U+30EC_U+30A4_U+30E4_U+30FC 1
370
     0
100
AcDbVertex
100
AcDb2dVertex
 10
103.6029637457571
 20
-122.6185352471232
 30
0.0
  0
VERTEX
  5
4F
330
45
100
AcDbEntity
  8
_U+30EC_U+30A4_U+30E4_U+30FC 1
370
     0
100
AcDbVertex
100
AcDb2dVertex
 10
73.62771895493373
 20
-122.6185352471232
 30
0.0
  0
VERTEX
  5
50
330
45
100
AcDbEntity
  8
_U+30EC_U+30A4_U+30E4_U+30FC 1
370
     0
100
AcDbVertex
100
AcDb2dVertex
 10
73.62771895493373
 20
-136.6814216324964
 30
0.0
  0
SEQEND
  5
52
330
45
100
AcDbEntity
  8
_U+30EC_U+30A4_U+30E4_U+30FC 1
370
     0
  0
HATCH
  5
51
330
41
100
AcDbEntity
  8
_U+30EC_U+30A4_U+30E4_U+30FC 1
 62
   253
420
 11711154
100
AcDbHatch
 10
0.0
 20
0.0
 30
0.0
210
0.0
220
0.0
230
1.0
  2
SOLID
 70
     1
 71
     0
 91
        1
 92
        1
 93
       10
 72
     1
 10
73.62771895493373
 20
-136.6814216324964
 11
93.67075261026001
 21
-136.6814216324964
 72
     1
 10
93.67075261026001
 20
-136.6814216324964
 11
93.6266553891628
 21
-133.6607619110293
 72
     1
 10
93.6266553891628
 20
-133.6607619110293
 11
92.5903706933784
 21
-133.6387132999237
 72
     1
 10
92.5903706933784
 20
-133.6387132999237
 11
92.62758874798445
 21
-135.6451369105332
 72
     1
 10
92.62758874798445
 20
-135.6451369105332
 11
74.62816142941031
 21
-135.5789910772164
 72
     1
 10
74.62816142941031
 20
-135.5789910772164
 11
74.62816142941031
 21
-123.6183074690954
 72
     1
 10
74.62816142941031
 20
-123.6183074690954
 11
103.6029637457571
 21
-123.6183074690954
 72
     1
 10
103.6029637457571
 20
-123.6183074690954
 11
103.6029637457571
 21
-122.6185352471232
 72
     1
 10
103.6029637457571
 20
-122.6185352471232
 11
73.62771895493373
 21
-122.6185352471232
 72
     1
 10
73.62771895493373
 20
-122.6185352471232
 11
73.62771895493373
 21
-136.6814216324964
 97
        0
 75
     2
 76
     1
 98
        0
  0
POLYLINE
  5
53
330
41
100
AcDbEntity
  8
_U+30EC_U+30A4_U+30E4_U+30FC 1
 62
     7
420
 16777215
370
    25
100
AcDb2dPolyline
 66
     1
 10
0.0
 20
0.0
 30
0.0
  0
VERTEX
  5
54
330
53
100
AcDbEntity
  8
_U+30EC_U+30A4_U+30E4_U+30FC 1
 62
     7
420
 16777215
370
    25
100
AcDbVertex
100
AcDb2dVertex
 10
73.62771895493373
 20
-122.6185352471232
 30
0.0
  0
VERTEX
  5
55
330
53
100
AcDbEntity
  8
_U+30EC_U+30A4_U+30E4_U+30FC 1
 62
     7
420
 16777215
370
    25
100
AcDbVertex
100
AcDb2dVertex
 10
103.6277666407596
 20
-122.6185352471232
 30
0.0
  0
SEQEND
  5
56
330
53
100
AcDbEntity
  8
_U+30EC_U+30A4_U+30E4_U+30FC 1
 62
     7
420
 16777215
370
    25
  0
POLYLINE
  5
57
330
41
100
AcDbEntity
  8
_U+30EC_U+30A4_U+30E4_U+30FC 1
 62
     7
420
 16777215
370
    25
100
AcDb2dPolyline
 66
     1
 10
0.0
 20
0.0
 30
0.0
  0
VERTEX
  5
58
330
57
100
AcDbEntity
  8
_U+30EC_U+30A4_U+30E4_U+30FC 1
 62
     7
420
 16777215
370
    25
100
AcDbVertex
100
AcDb2dVertex
 10
73.62771895493373
 20
-122.6185352471232
 30
0.0
  0
VERTEX
  5
59
330
57
100
AcDbEntity
  8
_U+30EC_U+30A4_U+30E4_U+30FC 1
 62
     7
420
 16777215
370
    25
100
AcDbVertex
100
AcDb2dVertex
 10
73.62771895493373
 20
-136.5187910769817
 30
0.0
  0
SEQEND
  5
5A
330
57
100
AcDbEntity
  8
_U+30EC_U+30A4_U+30E4_U+30FC 1
 62
     7
420
 16777215
370
    25
  0
POLYLINE
  5
5B
330
41
100
AcDbEntity
  8
_U+30EC_U+30A4_U+30E4_U+30FC 1
 62
     7
420
 16777215
370
    25
100
AcDb2dPolyline
 66
     1
 10
0.0
 20
0.0
 30
0.0
  0
VERTEX
  5
5C
330
5B
100
AcDbEntity
  8
_U+30EC_U+30A4_U+30E4_U+30FC 1
 62
     7
420
 16777215
370
    25
100
AcDbVertex
100
AcDb2dVertex
 10
103.6277666407596
 20
-122.6185352471232
 30
0.0
  0
VERTEX
  5
5D
330
5B
100
AcDbEntity
  8
_U+30EC_U+30A4_U+30E4_U+30FC 1
 62
     7
420
 16777215
370
    25
100
AcDbVertex
100
AcDb2dVertex
 10
103.6277666407596
 20
-123.6183074690954
 30
0.0
  0
SEQEND
  5
5E
330
5B
100
AcDbEntity
  8
_U+30EC_U+30A4_U+30E4_U+30FC 1
 62
     7
420
 16777215
370
    25
  0
POLYLINE
  5
5F
330
41
100
AcDbEntity
  8
_U+30EC_U+30A4_U+30E4_U+30FC 1
 62
     7
420
 16777215
370
    25
100
AcDb2dPolyline
 66
     1
 10
0.0
 20
0.0
 30
0.0
  0
VERTEX
  5
60
330
5F
100
AcDbEntity
  8
_U+30EC_U+30A4_U+30E4_U+30FC 1
 62
     7
420
 16777215
370
    25
100
AcDbVertex
100
AcDb2dVertex
 10
74.62816142941031
 20
-123.6183074690954
 30
0.0
  0
VERTEX
  5
61
330
5F
100
AcDbEntity
  8
_U+30EC_U+30A4_U+30E4_U+30FC 1
 62
     7
420
 16777215
370
    25
100
AcDbVertex
100
AcDb2dVertex
 10
103.6277666407596
 20
-123.6183074690954
 30
0.0
  0
SEQEND
  5
62
330
5F
100
AcDbEntity
  8
_U+30EC_U+30A4_U+30E4_U+30FC 1
 62
     7
420
 16777215
370
    25
  0
POLYLINE
  5
63
330
41
100
AcDbEntity
  8
_U+30EC_U+30A4_U+30E4_U+30FC 1
 62
     7
420
 16777215
370
    25
100
AcDb2dPolyline
 66
     1
 10
0.0
 20
0.0
 30
0.0
  0
VERTEX
  5
64
330
63
100
AcDbEntity
  8
_U+30EC_U+30A4_U+30E4_U+30FC 1
 62
     7
420
 16777215
370
    25
100
AcDbVertex
100
AcDb2dVertex
 10
93.62736094470036
 20
-133.6200866332619
 30
0.0
  0
VERTEX
  5
65
330
63
100
AcDbEntity
  8
_U+30EC_U+30A4_U+30E4_U+30FC 1
 62
     7
420
 16777215
370
    25
100
AcDbVertex
100
AcDb2dVertex
 10
93.62736094470036
 20
-136.6200735769562
 30
0.0
  0
SEQEND
  5
66
330
63
100
AcDbEntity
  8
_U+30EC_U+30A4_U+30E4_U+30FC 1
 62
     7
420
 16777215
370
    25
  0
POLYLINE
  5
67
330
41
100
AcDbEntity
  8
_U+30EC_U+30A4_U+30E4_U+30FC 1
 62
     7
420
 16777215
370
    25
100
AcDb2dPolyline
 66
     1
 10
0.0
 20
0.0
 30
0.0
  0
VERTEX
  5
68
330
67
100
AcDbEntity
  8
_U+30EC_U+30A4_U+30E4_U+30FC 1
 62
     7
420
 16777215
370
    25
100
AcDbVertex
100
AcDb2dVertex
 10
92.62758874798445
 20
-133.6200866332619
 30
0.0
  0
VERTEX
  5
69
330
67
100
AcDbEntity
  8
_U+30EC_U+30A4_U+30E4_U+30FC 1
 62
     7
420
 16777215
370
    25
100
AcDbVertex
100
AcDb2dVertex
 10
92.62758874798445
 20
-135.6203013549837
 30
0.0
  0
SEQEND
  5
6A
330
67
100
AcDbEntity
  8
_U+30EC_U+30A4_U+30E4_U+30FC 1
 62
     7
420
 16777215
370
    25
  0
POLYLINE
  5
6B
330
41
100
AcDbEntity
  8
_U+30EC_U+30A4_U+30E4_U+30FC 1
 62
     7
420
 16777215
370
    25
100
AcDb2dPolyline
 66
     1
 10
0.0
 20
0.0
 30
0.0
  0
VERTEX
  5
6C
330
6B
100
AcDbEntity
  8
_U+30EC_U+30A4_U+30E4_U+30FC 1
 62
     7
420
 16777215
370
    25
100
AcDbVertex
100
AcDb2dVertex
 10
74.62816142941031
 20
-123.6183074690954
 30
0.0
  0
VERTEX
  5
6D
330
6B
100
AcDbEntity
  8
_U+30EC_U+30A4_U+30E4_U+30FC 1
 62
     7
420
 16777215
370
    25
100
AcDbVertex
100
AcDb2dVertex
 10
74.62816142941031
 20
-135.5183485772318
 30
0.0
  0
SEQEND
  5
6E
330
6B
100
AcDbEntity
  8
_U+30EC_U+30A4_U+30E4_U+30FC 1
 62
     7
420
 16777215
370
    25
  0
POLYLINE
  5
6F
330
41
100
AcDbEntity
  8
_U+30EC_U+30A4_U+30E4_U+30FC 1
 62
     7
420
 16777215
370
    25
100
AcDb2dPolyline
 66
     1
 10
0.0
 20
0.0
 30
0.0
  0
VERTEX
  5
70
330
6F
100
AcDbEntity
  8
_U+30EC_U+30A4_U+30E4_U+30FC 1
 62
     7
420
 16777215
370
    25
100
AcDbVertex
100
AcDb2dVertex
 10
92.62758874798445
 20
-133.6200866332619
 30
0.0
  0
VERTEX
  5
71
330
6F
100
AcDbEntity
  8
_U+30EC_U+30A4_U+30E4_U+30FC 1
 62
     7
420
 16777215
370
    25
100
AcDbVertex
100
AcDb2dVertex
 10
93.62736094470036
 20
-133.6200866332619
 30
0.0
  0
SEQEND
  5
72
330
6F
100
AcDbEntity
  8
_U+30EC_U+30A4_U+30E4_U+30FC 1
 62
     7
420
 16777215
370
    25
  0
POLYLINE
  5
73
330
41
100
AcDbEntity
  8
_U+30EC_U+30A4_U+30E4_U+30FC 1
 62
     7
420
 16777215
370
    25
100
AcDb2dPolyline
 66
     1
 10
0.0
 20
0.0
 30
0.0
  0
VERTEX
  5
74
330
73
100
AcDbEntity
  8
_U+30EC_U+30A4_U+30E4_U+30FC 1
 62
     7
420
 16777215
370
    25
100
AcDbVertex
100
AcDb2dVertex
 10
73.62771895493373
 20
-136.6200735769562
 30
0.0
  0
VERTEX
  5
75
330
73
100
AcDbEntity
  8
_U+30EC_U+30A4_U+30E4_U+30FC 1
 62
     7
420
 16777215
370
    25
100
AcDbVertex
100
AcDb2dVertex
 10
93.62736094470036
 20
-136.6200735769562
 30
0.0
  0
SEQEND
  5
76
330
73
100
AcDbEntity
  8
_U+30EC_U+30A4_U+30E4_U+30FC 1
 62
     7
420
 16777215
370
    25
  0
POLYLINE
  5
77
330
41
100
AcDbEntity
  8
_U+30EC_U+30A4_U+30E4_U+30FC 1
 62
     7
420
 16777215
370
    25
100
AcDb2dPolyline
 66
     1
 10
0.0
 20
0.0
 30
0.0
  0
VERTEX
  5
78
330
77
100
AcDbEntity
  8
_U+30EC_U+30A4_U+30E4_U+30FC 1
 62
     7
420
 16777215
370
    25
100
AcDbVertex
100
AcDb2dVertex
 10
74.62816142941031
 20
-135.6203013549837
 30
0.0
  0
VERTEX
  5
79
330
77
100
AcDbEntity
  8
_U+30EC_U+30A4_U+30E4_U+30FC 1
 62
     7
420
 16777215
370
    25
100
AcDbVertex
100
AcDb2dVertex
 10
92.62758874798445
 20
-135.6203013549837
 30
0.0
  0
SEQEND
  5
7A
330
77
100
AcDbEntity
  8
_U+30EC_U+30A4_U+30E4_U+30FC 1
 62
     7
420
 16777215
370
    25
  0
SPLINE
  5
7B
330
41
100
AcDbEntity
  8
_U+30EC_U+30A4_U+30E4_U+30FC 1
 62
     7
420
 16777215
370
     9
100
AcDbSpline
210
0.0
220
0.0
230
1.0
 70
    11
 71
     3
 72
    17
 73
    13
 74
     0
 42
0.0000000001
 43
0.0000000001
 12
1.0
 22
0.0
 32
0.0
 13
1.0
 23
0.0
 33
0.0
 40
0.0
 40
0.0
 40
0.0
 40
0.0
 40
1.0
 40
1.0
 40
1.0
 40
2.0
 40
2.0
 40
2.0
 40
3.0
 40
3.0
 40
3.0
 40
4.0
 40
4.0
 40
4.0
 40
4.0
 10
73.72762561905157
 20
-118.6180705259011
 30
0.0
 10
73.72762561905157
 20
-118.5629666370259
 30
0.0
 10
73.6828228424168
 20
-118.5181638592595
 30
0.0
 10
73.62771895493373
 20
-118.5181638592595
 30
0.0
 10
73.57257978967378
 20
-118.5181638592595
 30
0.0
 10
73.5278122908159
 20
-118.5629666370259
 30
0.0
 10
73.5278122908159
 20
-118.6180705259011
 30
0.0
 10
73.5278122908159
 20
-118.6738799703316
 30
0.0
 10
73.57257978967378
 20
-118.7186827480983
 30
0.0
 10
73.62771895493373
 20
-118.7186827480983
 30
0.0
 10
73.6828228424168
 20
-118.7186827480983
 30
0.0
 10
73.72762561905157
 20
-118.6738799703316
 30
0.0
 10
73.72762561905157
 20
-118.6180705259011
 30
0.0
  0
SPLINE
  5
7C
330
41
100
AcDbEntity
  8
_U+30EC_U+30A4_U+30E4_U+30FC 1
 62
     7
420
 16777215
370
     9
100
AcDbSpline
210
0.0
220
0.0
230
1.0
 70
    11
 71
     3
 72
    17
 73
    13
 74
     0
 42
0.0000000001
 43
0.0000000001
 12
1.0
 22
0.0
 32
0.0
 13
1.0
 23
0.0
 33
0.0
 40
0.0
 40
0.0
 40
0.0
 40
0.0
 40
1.0
 40
1.0
 40
1.0
 40
2.0
 40
2.0
 40
2.0
 40
3.0
 40
3.0
 40
3.0
 40
4.0
 40
4.0
 40
4.0
 40
4.0
 10
103.7277059647969
 20
-118.6180705259011
 30
0.0
 10
103.7277059647969
 20
-118.5629666370259
 30
0.0
 10
103.6829031881621
 20
-118.5181638592595
 30
0.0
 10
103.6277666407596
 20
-118.5181638592595
 30
0.0
 10
103.5726601354191
 20
-118.5181638592595
 30
0.0
 10
103.5278573587843
 20
-118.5629666370259
 30
0.0
 10
103.5278573587843
 20
-118.6180705259011
 30
0.0
 10
103.5278573587843
 20
-118.6738799703316
 30
0.0
 10
103.5726601354191
 20
-118.7186827480983
 30
0.0
 10
103.6277666407596
 20
-118.7186827480983
 30
0.0
 10
103.6829031881621
 20
-118.7186827480983
 30
0.0
 10
103.7277059647969
 20
-118.6738799703316
 30
0.0
 10
103.7277059647969
 20
-118.6180705259011
 30
0.0
  0
SPLINE
  5
7D
330
41
100
AcDbEntity
  8
_U+30EC_U+30A4_U+30E4_U+30FC 1
 62
     7
420
 16777215
370
     9
100
AcDbSpline
210
0.0
220
0.0
230
1.0
 70
    11
 71
     3
 72
    17
 73
    13
 74
     0
 42
0.0000000001
 43
0.0000000001
 12
1.0
 22
0.0
 32
0.0
 13
1.0
 23
0.0
 33
0.0
 40
0.0
 40
0.0
 40
0.0
 40
0.0
 40
1.0
 40
1.0
 40
1.0
 40
2.0
 40
2.0
 40
2.0
 40
3.0
 40
3.0
 40
3.0
 40
4.0
 40
4.0
 40
4.0
 40
4.0
 10
107.7281353071819
 20
-122.6185352471232
 30
0.0
 10
107.7281353071819
 20
-122.5633960804704
 30
0.0
 10
107.6833325305471
 20
-122.5186285804816
 30
0.0
 10
107.628228643064
 20
-122.5186285804816
 30
0.0
 10
107.5724192000434
 20
-122.5186285804816
 30
0.0
 10
107.5276164234086
 20
-122.5633960804704
 30
0.0
 10
107.5276164234086
 20
-122.6185352471232
 30
0.0
 10
107.5276164234086
 20
-122.6736391359984
 30
0.0
 10
107.5724192000434
 20
-122.7184419137648
 30
0.0
 10
107.628228643064
 20
-122.7184419137648
 30
0.0
 10
107.6833325305471
 20
-122.7184419137648
 30
0.0
 10
107.7281353071819
 20
-122.6736391359984
 30
0.0
 10
107.7281353071819
 20
-122.6185352471232
 30
0.0
  0
SPLINE
  5
7E
330
41
100
AcDbEntity
  8
_U+30EC_U+30A4_U+30E4_U+30FC 1
 62
     7
420
 16777215
370
     9
100
AcDbSpline
210
0.0
220
0.0
230
1.0
 70
    11
 71
     3
 72
    17
 73
    13
 74
     0
 42
0.0000000001
 43
0.0000000001
 12
1.0
 22
0.0
 32
0.0
 13
1.0
 23
0.0
 33
0.0
 40
0.0
 40
0.0
 40
0.0
 40
0.0
 40
1.0
 40
1.0
 40
1.0
 40
2.0
 40
2.0
 40
2.0
 40
3.0
 40
3.0
 40
3.0
 40
4.0
 40
4.0
 40
4.0
 40
4.0
 10
107.7281353071819
 20
-123.6183074690954
 30
0.0
 10
107.7281353071819
 20
-123.5631683024427
 30
0.0
 10
107.6833325305471
 20
-123.5184008024538
 30
0.0
 10
107.628228643064
 20
-123.5184008024538
 30
0.0
 10
107.5724192000434
 20
-123.5184008024538
 30
0.0
 10
107.5276164234086
 20
-123.5631683024427
 30
0.0
 10
107.5276164234086
 20
-123.6183074690954
 30
0.0
 10
107.5276164234086
 20
-123.6734113579707
 30
0.0
 10
107.5724192000434
 20
-123.7182141357371
 30
0.0
 10
107.628228643064
 20
-123.7182141357371
 30
0.0
 10
107.6833325305471
 20
-123.7182141357371
 30
0.0
 10
107.7281353071819
 20
-123.6734113579707
 30
0.0
 10
107.7281353071819
 20
-123.6183074690954
 30
0.0
  0
SPLINE
  5
7F
330
41
100
AcDbEntity
  8
_U+30EC_U+30A4_U+30E4_U+30FC 1
 62
     7
420
 16777215
370
     9
100
AcDbSpline
210
0.0
220
0.0
230
1.0
 70
    11
 71
     3
 72
    17
 73
    13
 74
     0
 42
0.0000000001
 43
0.0000000001
 12
1.0
 22
0.0
 32
0.0
 13
1.0
 23
0.0
 33
0.0
 40
0.0
 40
0.0
 40
0.0
 40
0.0
 40
1.0
 40
1.0
 40
1.0
 40
2.0
 40
2.0
 40
2.0
 40
3.0
 40
3.0
 40
3.0
 40
4.0
 40
4.0
 40
4.0
 40
4.0
 10
107.7281353071819
 20
-133.6200866332619
 30
0.0
 10
107.7281353071819
 20
-133.5649827443863
 30
0.0
 10
107.6833325305471
 20
-133.5201799666202
 30
0.0
 10
107.628228643064
 20
-133.5201799666202
 30
0.0
 10
107.5724192000434
 20
-133.5201799666202
 30
0.0
 10
107.5276164234086
 20
-133.5649827443863
 30
0.0
 10
107.5276164234086
 20
-133.6200866332619
 30
0.0
 10
107.5276164234086
 20
-133.6752257999143
 30
0.0
 10
107.5724192000434
 20
-133.7199932999035
 30
0.0
 10
107.628228643064
 20
-133.7199932999035
 30
0.0
 10
107.6833325305471
 20
-133.7199932999035
 30
0.0
 10
107.7281353071819
 20
-133.6752257999143
 30
0.0
 10
107.7281353071819
 20
-133.6200866332619
 30
0.0
  0
SPLINE
  5
80
330
41
100
AcDbEntity
  8
_U+30EC_U+30A4_U+30E4_U+30FC 1
 62
     7
420
 16777215
370
     9
100
AcDbSpline
210
0.0
220
0.0
230
1.0
 70
    11
 71
     3
 72
    17
 73
    13
 74
     0
 42
0.0000000001
 43
0.0000000001
 12
1.0
 22
0.0
 32
0.0
 13
1.0
 23
0.0
 33
0.0
 40
0.0
 40
0.0
 40
0.0
 40
0.0
 40
1.0
 40
1.0
 40
1.0
 40
2.0
 40
2.0
 40
2.0
 40
3.0
 40
3.0
 40
3.0
 40
4.0
 40
4.0
 40
4.0
 40
4.0
 10
107.7281353071819
 20
-136.6200735769562
 30
0.0
 10
107.7281353071819
 20
-136.5649696880813
 30
0.0
 10
107.6833325305471
 20
-136.5201669103146
 30
0.0
 10
107.628228643064
 20
-136.5201669103146
 30
0.0
 10
107.5724192000434
 20
-136.5201669103146
 30
0.0
 10
107.5276164234086
 20
-136.5649696880813
 30
0.0
 10
107.5276164234086
 20
-136.6200735769562
 30
0.0
 10
107.5276164234086
 20
-136.6752127436093
 30
0.0
 10
107.5724192000434
 20
-136.7199802435979
 30
0.0
 10
107.628228643064
 20
-136.7199802435979
 30
0.0
 10
107.6833325305471
 20
-136.7199802435979
 30
0.0
 10
107.7281353071819
 20
-136.6752127436093
 30
0.0
 10
107.7281353071819
 20
-136.6200735769562
 30
0.0
  0
SPLINE
  5
81
330
41
100
AcDbEntity
  8
_U+30EC_U+30A4_U+30E4_U+30FC 1
 62
     7
420
 16777215
370
     9
100
AcDbSpline
210
0.0
220
0.0
230
1.0
 70
    11
 71
     3
 72
    17
 73
    13
 74
     0
 42
0.0000000001
 43
0.0000000001
 12
1.0
 22
0.0
 32
0.0
 13
1.0
 23
0.0
 33
0.0
 40
0.0
 40
0.0
 40
0.0
 40
0.0
 40
1.0
 40
1.0
 40
1.0
 40
2.0
 40
2.0
 40
2.0
 40
3.0
 40
3.0
 40
3.0
 40
4.0
 40
4.0
 40
4.0
 40
4.0
 10
93.7272676088182
 20
-140.6804752426077
 30
0.0
 10
93.7272676088182
 20
-140.6253360759546
 30
0.0
 10
93.68246483218343
 20
-140.5805685759661
 30
0.0
 10
93.62736094470036
 20
-140.5805685759661
 30
0.0
 10
93.57222177944041
 20
-140.5805685759661
 30
0.0
 10
93.52745428058252
 20
-140.6253360759546
 30
0.0
 10
93.52745428058252
 20
-140.6804752426077
 30
0.0
 10
93.52745428058252
 20
-140.7355791314826
 30
0.0
 10
93.57222177944041
 20
-140.7803819092493
 30
0.0
 10
93.62736094470036
 20
-140.7803819092493
 30
0.0
 10
93.68246483218343
 20
-140.7803819092493
 30
0.0
 10
93.7272676088182
 20
-140.7355791314826
 30
0.0
 10
93.7272676088182
 20
-140.6804752426077
 30
0.0
  0
SPLINE
  5
82
330
41
100
AcDbEntity
  8
_U+30EC_U+30A4_U+30E4_U+30FC 1
 62
     7
420
 16777215
370
     9
100
AcDbSpline
210
0.0
220
0.0
230
1.0
 70
    11
 71
     3
 72
    17
 73
    13
 74
     0
 42
0.0000000001
 43
0.0000000001
 12
1.0
 22
0.0
 32
0.0
 13
1.0
 23
0.0
 33
0.0
 40
0.0
 40
0.0
 40
0.0
 40
0.0
 40
1.0
 40
1.0
 40
1.0
 40
2.0
 40
2.0
 40
2.0
 40
3.0
 40
3.0
 40
3.0
 40
4.0
 40
4.0
 40
4.0
 40
4.0
 10
73.72762561905157
 20
-140.6804752426077
 30
0.0
 10
73.72762561905157
 20
-140.6253360759546
 30
0.0
 10
73.6828228424168
 20
-140.5805685759661
 30
0.0
 10
73.62771895493373
 20
-140.5805685759661
 30
0.0
 10
73.57257978967378
 20
-140.5805685759661
 30
0.0
 10
73.5278122908159
 20
-140.6253360759546
 30
0.0
 10
73.5278122908159
 20
-140.6804752426077
 30
0.0
 10
73.5278122908159
 20
-140.7355791314826
 30
0.0
 10
73.57257978967378
 20
-140.7803819092493
 30
0.0
 10
73.62771895493373
 20
-140.7803819092493
 30
0.0
 10
73.6828228424168
 20
-140.7803819092493
 30
0.0
 10
73.72762561905157
 20
-140.7355791314826
 30
0.0
 10
73.72762561905157
 20
-140.6804752426077
 30
0.0
  0
POLYLINE
  5
83
330
41
100
AcDbEntity
  8
_U+30EC_U+30A4_U+30E4_U+30FC 1
 62
     7
420
 16777215
370
     9
100
AcDb2dPolyline
 66
     1
 10
0.0
 20
0.0
 30
0.0
  0
VERTEX
  5
84
330
83
100
AcDbEntity
  8
_U+30EC_U+30A4_U+30E4_U+30FC 1
 62
     7
420
 16777215
370
     9
100
AcDbVertex
100
AcDb2dVertex
 10
107.628228643064
 20
-122.6185352471232
 30
0.0
  0
VERTEX
  5
85
330
83
100
AcDbEntity
  8
_U+30EC_U+30A4_U+30E4_U+30FC 1
 62
     7
420
 16777215
370
     9
100
AcDbVertex
100
AcDb2dVertex
 10
107.628228643064
 20
-118.8482227480658
 30
0.0
  0
SEQEND
  5
86
330
83
100
AcDbEntity
  8
_U+30EC_U+30A4_U+30E4_U+30FC 1
 62
     7
420
 16777215
370
     9
  0
POLYLINE
  5
87
330
41
100
AcDbEntity
  8
_U+30EC_U+30A4_U+30E4_U+30FC 1
 62
     7
420
 16777215
370
     9
100
AcDb2dPolyline
 66
     1
 10
0.0
 20
0.0
 30
0.0
  0
VERTEX
  5
88
330
87
100
AcDbEntity
  8
_U+30EC_U+30A4_U+30E4_U+30FC 1
 62
     7
420
 16777215
370
     9
100
AcDbVertex
100
AcDb2dVertex
 10
107.628228643064
 20
-122.6185352471232
 30
0.0
  0
VERTEX
  5
89
330
87
100
AcDbEntity
  8
_U+30EC_U+30A4_U+30E4_U+30FC 1
 62
     7
420
 16777215
370
     9
100
AcDbVertex
100
AcDb2dVertex
 10
107.628228643064
 20
-123.6183074690954
 30
0.0
  0
SEQEND
  5
8A
330
87
100
AcDbEntity
  8
_U+30EC_U+30A4_U+30E4_U+30FC 1
 62
     7
420
 16777215
370
     9
  0
POLYLINE
  5
8B
330
41
100
AcDbEntity
  8
_U+30EC_U+30A4_U+30E4_U+30FC 1
 62
     7
420
 16777215
370
     9
100
AcDb2dPolyline
 66
     1
 10
0.0
 20
0.0
 30
0.0
  0
VERTEX
  5
8C
330
8B
100
AcDbEntity
  8
_U+30EC_U+30A4_U+30E4_U+30FC 1
 62
     7
420
 16777215
370
     9
100
AcDbVertex
100
AcDb2dVertex
 10
106.1681872914239
 20
-122.6185352471232
 30
0.0
  0
VERTEX
  5
8D
330
8B
100
AcDbEntity
  8
_U+30EC_U+30A4_U+30E4_U+30FC 1
 62
     7
420
 16777215
370
     9
100
AcDbVertex
100
AcDb2dVertex
 10
108.6280008397799
 20
-122.6185352471232
 30
0.0
  0
SEQEND
  5
8E
330
8B
100
AcDbEntity
  8
_U+30EC_U+30A4_U+30E4_U+30FC 1
 62
     7
420
 16777215
370
     9
  0
POLYLINE
  5
8F
330
41
100
AcDbEntity
  8
_U+30EC_U+30A4_U+30E4_U+30FC 1
 62
     7
420
 16777215
370
     9
100
AcDb2dPolyline
 66
     1
 10
0.0
 20
0.0
 30
0.0
  0
VERTEX
  5
90
330
8F
100
AcDbEntity
  8
_U+30EC_U+30A4_U+30E4_U+30FC 1
 62
     7
420
 16777215
370
     9
100
AcDbVertex
100
AcDb2dVertex
 10
106.1681872914239
 20
-123.6183074690954
 30
0.0
  0
VERTEX
  5
91
330
8F
100
AcDbEntity
  8
_U+30EC_U+30A4_U+30E4_U+30FC 1
 62
     7
420
 16777215
370
     9
100
AcDbVertex
100
AcDb2dVertex
 10
108.6280008397799
 20
-123.6183074690954
 30
0.0
  0
SEQEND
  5
92
330
8F
100
AcDbEntity
  8
_U+30EC_U+30A4_U+30E4_U+30FC 1
 62
     7
420
 16777215
370
     9
  0
INSERT
  5
94
330
41
100
AcDbEntity
  8
_U+30EC_U+30A4_U+30E4_U+30FC 1
100
AcDbBlockReference
  2
block 3
 10
0.0
 20
0.0
 30
0.0
  0
POLYLINE
  5
99
330
41
100
AcDbEntity
  8
_U+30EC_U+30A4_U+30E4_U+30FC 1
 62
     7
420
 16777215
370
     9
100
AcDb2dPolyline
 66
     1
 10
0.0
 20
0.0
 30
0.0
  0
VERTEX
  5
9A
330
99
100
AcDbEntity
  8
_U+30EC_U+30A4_U+30E4_U+30FC 1
 62
     7
420
 16777215
370
     9
100
AcDbVertex
100
AcDb2dVertex
 10
107.628228643064
 20
-133.6200866332619
 30
0.0
  0
VERTEX
  5
9B
330
99
100
AcDbEntity
  8
_U+30EC_U+30A4_U+30E4_U+30FC 1
 62
     7
420
 16777215
370
     9
100
AcDbVertex
100
AcDb2dVertex
 10
107.628228643064
 20
-136.6200735769562
 30
0.0
  0
SEQEND
  5
9C
330
99
100
AcDbEntity
  8
_U+30EC_U+30A4_U+30E4_U+30FC 1
 62
     7
420
 16777215
370
     9
  0
POLYLINE
  5
9D
330
41
100
AcDbEntity
  8
_U+30EC_U+30A4_U+30E4_U+30FC 1
 62
     7
420
 16777215
370
     9
100
AcDb2dPolyline
 66
     1
 10
0.0
 20
0.0
 30
0.0
  0
VERTEX
  5
9E
330
9D
100
AcDbEntity
  8
_U+30EC_U+30A4_U+30E4_U+30FC 1
 62
     7
420
 16777215
370
     9
100
AcDbVertex
100
AcDb2dVertex
 10
96.16778421322209
 20
-136.6200735769562
 30
0.0
  0
VERTEX
  5
9F
330
9D
100
AcDbEntity
  8
_U+30EC_U+30A4_U+30E4_U+30FC 1
 62
     7
420
 16777215
370
     9
100
AcDbVertex
100
AcDb2dVertex
 10
108.6280008397799
 20
-136.6200735769562
 30
0.0
  0
SEQEND
  5
A0
330
9D
100
AcDbEntity
  8
_U+30EC_U+30A4_U+30E4_U+30FC 1
 62
     7
420
 16777215
370
     9
  0
INSERT
  5
A2
330
41
100
AcDbEntity
  8
_U+30EC_U+30A4_U+30E4_U+30FC 1
100
AcDbBlockReference
  2
block 4
 10
0.0
 20
0.0
 30
0.0
  0
POLYLINE
  5
A7
330
41
100
AcDbEntity
  8
_U+30EC_U+30A4_U+30E4_U+30FC 1
 62
     7
420
 16777215
370
     9
100
AcDb2dPolyline
 66
     1
 10
0.0
 20
0.0
 30
0.0
  0
VERTEX
  5
A8
330
A7
100
AcDbEntity
  8
_U+30EC_U+30A4_U+30E4_U+30FC 1
 62
     7
420
 16777215
370
     9
100
AcDbVertex
100
AcDb2dVertex
 10
107.628228643064
 20
-133.5181338555093
 30
0.0
  0
VERTEX
  5
A9
330
A7
100
AcDbEntity
  8
_U+30EC_U+30A4_U+30E4_U+30FC 1
 62
     7
420
 16777215
370
     9
100
AcDbVertex
100
AcDb2dVertex
 10
107.628228643064
 20
-123.6183074690954
 30
0.0
  0
SEQEND
  5
AA
330
A7
100
AcDbEntity
  8
_U+30EC_U+30A4_U+30E4_U+30FC 1
 62
     7
420
 16777215
370
     9
  0
POLYLINE
  5
AB
330
41
100
AcDbEntity
  8
_U+30EC_U+30A4_U+30E4_U+30FC 1
 62
     7
420
 16777215
370
     9
100
AcDb2dPolyline
 66
     1
 10
0.0
 20
0.0
 30
0.0
  0
VERTEX
  5
AC
330
AB
100
AcDbEntity
  8
_U+30EC_U+30A4_U+30E4_U+30FC 1
 62
     7
420
 16777215
370
     9
100
AcDbVertex
100
AcDb2dVertex
 10
96.16778421322209
 20
-133.6200866332619
 30
0.0
  0
VERTEX
  5
AD
330
AB
100
AcDbEntity
  8
_U+30EC_U+30A4_U+30E4_U+30FC 1
 62
     7
420
 16777215
370
     9
100
AcDbVertex
100
AcDb2dVertex
 10
108.6280008397799
 20
-133.6200866332619
 30
0.0
  0
SEQEND
  5
AE
330
AB
100
AcDbEntity
  8
_U+30EC_U+30A4_U+30E4_U+30FC 1
 62
     7
420
 16777215
370
     9
  0
INSERT
  5
B0
330
41
100
AcDbEntity
  8
_U+30EC_U+30A4_U+30E4_U+30FC 1
100
AcDbBlockReference
  2
block 5
 10
0.0
 20
0.0
 30
0.0
  0
POLYLINE
  5
B8
330
41
100
AcDbEntity
  8
_U+30EC_U+30A4_U+30E4_U+30FC 1
 62
     7
420
 16777215
370
     9
100
AcDb2dPolyline
 66
     1
 10
0.0
 20
0.0
 30
0.0
  0
VERTEX
  5
B9
330
B8
100
AcDbEntity
  8
_U+30EC_U+30A4_U+30E4_U+30FC 1
 62
     7
420
 16777215
370
     9
100
AcDbVertex
100
AcDb2dVertex
 10
73.62771895493373
 20
-140.6804752426077
 30
0.0
  0
VERTEX
  5
BA
330
B8
100
AcDbEntity
  8
_U+30EC_U+30A4_U+30E4_U+30FC 1
 62
     7
420
 16777215
370
     9
100
AcDbVertex
100
AcDb2dVertex
 10
93.62736094470036
 20
-140.6804752426077
 30
0.0
  0
SEQEND
  5
BB
330
B8
100
AcDbEntity
  8
_U+30EC_U+30A4_U+30E4_U+30FC 1
 62
     7
420
 16777215
370
     9
  0
POLYLINE
  5
BC
330
41
100
AcDbEntity
  8
_U+30EC_U+30A4_U+30E4_U+30FC 1
 62
     7
420
 16777215
370
     9
100
AcDb2dPolyline
 66
     1
 10
0.0
 20
0.0
 30
0.0
  0
VERTEX
  5
BD
330
BC
100
AcDbEntity
  8
_U+30EC_U+30A4_U+30E4_U+30FC 1
 62
     7
420
 16777215
370
     9
100
AcDbVertex
100
AcDb2dVertex
 10
73.62771895493373
 20
-139.220433854084
 30
0.0
  0
VERTEX
  5
BE
330
BC
100
AcDbEntity
  8
_U+30EC_U+30A4_U+30E4_U+30FC 1
 62
     7
420
 16777215
370
     9
100
AcDbVertex
100
AcDb2dVertex
 10
73.62771895493373
 20
-141.6802474645802
 30
0.0
  0
SEQEND
  5
BF
330
BC
100
AcDbEntity
  8
_U+30EC_U+30A4_U+30E4_U+30FC 1
 62
     7
420
 16777215
370
     9
  0
POLYLINE
  5
C0
330
41
100
AcDbEntity
  8
_U+30EC_U+30A4_U+30E4_U+30FC 1
 62
     7
420
 16777215
370
     9
100
AcDb2dPolyline
 66
     1
 10
0.0
 20
0.0
 30
0.0
  0
VERTEX
  5
C1
330
C0
100
AcDbEntity
  8
_U+30EC_U+30A4_U+30E4_U+30FC 1
 62
     7
420
 16777215
370
     9
100
AcDbVertex
100
AcDb2dVertex
 10
93.62736094470036
 20
-139.220433854084
 30
0.0
  0
VERTEX
  5
C2
330
C0
100
AcDbEntity
  8
_U+30EC_U+30A4_U+30E4_U+30FC 1
 62
     7
420
 16777215
370
     9
100
AcDbVertex
100
AcDb2dVertex
 10
93.62736094470036
 20
-141.6802474645802
 30
0.0
  0
SEQEND
  5
C3
330
C0
100
AcDbEntity
  8
_U+30EC_U+30A4_U+30E4_U+30FC 1
 62
     7
420
 16777215
370
     9
  0
INSERT
  5
C5
330
41
100
AcDbEntity
  8
_U+30EC_U+30A4_U+30E4_U+30FC 1
100
AcDbBlockReference
  2
block 6
 10
0.0
 20
0.0
 30
0.0
  0
POLYLINE
  5
CD
330
41
100
AcDbEntity
  8
_U+30EC_U+30A4_U+30E4_U+30FC 1
 62
     7
420
 16777215
370
     9
100
AcDb2dPolyline
 66
     1
 10
0.0
 20
0.0
 30
0.0
  0
VERTEX
  5
CE
330
CD
100
AcDbEntity
  8
_U+30EC_U+30A4_U+30E4_U+30FC 1
 62
     7
420
 16777215
370
     9
100
AcDbVertex
100
AcDb2dVertex
 10
73.62771895493373
 20
-118.6180705259011
 30
0.0
  0
VERTEX
  5
CF
330
CD
100
AcDbEntity
  8
_U+30EC_U+30A4_U+30E4_U+30FC 1
 62
     7
420
 16777215
370
     9
100
AcDbVertex
100
AcDb2dVertex
 10
103.6277666407596
 20
-118.6180705259011
 30
0.0
  0
SEQEND
  5
D0
330
CD
100
AcDbEntity
  8
_U+30EC_U+30A4_U+30E4_U+30FC 1
 62
     7
420
 16777215
370
     9
  0
POLYLINE
  5
D1
330
41
100
AcDbEntity
  8
_U+30EC_U+30A4_U+30E4_U+30FC 1
 62
     7
420
 16777215
370
     9
100
AcDb2dPolyline
 66
     1
 10
0.0
 20
0.0
 30
0.0
  0
VERTEX
  5
D2
330
D1
100
AcDbEntity
  8
_U+30EC_U+30A4_U+30E4_U+30FC 1
 62
     7
420
 16777215
370
     9
100
AcDbVertex
100
AcDb2dVertex
 10
73.62771895493373
 20
-120.0781119144248
 30
0.0
  0
VERTEX
  5
D3
330
D1
100
AcDbEntity
  8
_U+30EC_U+30A4_U+30E4_U+30FC 1
 62
     7
420
 16777215
370
     9
100
AcDbVertex
100
AcDb2dVertex
 10
73.62771895493373
 20
-117.6183335817064
 30
0.0
  0
SEQEND
  5
D4
330
D1
100
AcDbEntity
  8
_U+30EC_U+30A4_U+30E4_U+30FC 1
 62
     7
420
 16777215
370
     9
  0
POLYLINE
  5
D5
330
41
100
AcDbEntity
  8
_U+30EC_U+30A4_U+30E4_U+30FC 1
 62
     7
420
 16777215
370
     9
100
AcDb2dPolyline
 66
     1
 10
0.0
 20
0.0
 30
0.0
  0
VERTEX
  5
D6
330
D5
100
AcDbEntity
  8
_U+30EC_U+30A4_U+30E4_U+30FC 1
 62
     7
420
 16777215
370
     9
100
AcDbVertex
100
AcDb2dVertex
 10
103.6277666407596
 20
-120.0781119144248
 30
0.0
  0
VERTEX
  5
D7
330
D5
100
AcDbEntity
  8
_U+30EC_U+30A4_U+30E4_U+30FC 1
 62
     7
420
 16777215
370
     9
100
AcDbVertex
100
AcDb2dVertex
 10
103.6277666407596
 20
-117.6183335817064
 30
0.0
  0
SEQEND
  5
D8
330
D5
100
AcDbEntity
  8
_U+30EC_U+30A4_U+30E4_U+30FC 1
 62
     7
420
 16777215
370
     9
  0
INSERT
  5
DA
330
41
100
AcDbEntity
  8
_U+30EC_U+30A4_U+30E4_U+30FC 1
100
AcDbBlockReference
  2
block 7
 10
0.0
 20
0.0
 30
0.0
  0
ENDBLK
  5
44
330
41
100
AcDbEntity
  8
0
100
AcDbBlockEnd
  0
BLOCK
  5
95
330
93
100
AcDbEntity
  8
0
100
AcDbBlockBegin
  2
block 3
 70
     0
 10
0.0
 20
0.0
 30
0.0
  3
block 3
  1

  0
SPLINE
  5
97
330
93
100
AcDbEntity
  8
_U+30EC_U+30A4_U+30E4_U+30FC 1
370
     0
100
AcDbSpline
210
0.0
220
0.0
230
1.0
 70
    11
 71
     3
 72
    26
 73
    22
 74
     0
 42
0.0000000001
 43
0.0000000001
 12
1.0
 22
0.0
 32
0.0
 13
1.0
 23
0.0
 33
0.0
 40
0.0
 40
0.0
 40
0.0
 40
0.0
 40
1.0
 40
1.0
 40
1.0
 40
2.0
 40
2.0
 40
2.0
 40
3.0
 40
3.0
 40
3.0
 40
4.0
 40
4.0
 40
4.0
 40
5.0
 40
5.0
 40
5.0
 40
6.0
 40
6.0
 40
6.0
 40
7.0
 40
7.0
 40
7.0
 40
7.0
 10
106.0992946783363
 20
-123.3137477990327
 30
0.0
 10
106.0992946783363
 20
-123.3137477990327
 30
0.0
 10
104.9951415753137
 20
-123.3137477990327
 30
0.0
 10
104.9951415753137
 20
-123.3137477990327
 30
0.0
 10
104.9951415753137
 20
-123.3137477990327
 30
0.0
 10
104.9951415753137
 20
-123.6437879465196
 30
0.0
 10
104.9951415753137
 20
-123.6437879465196
 30
0.0
 10
104.9951415753137
 20
-123.6437879465196
 30
0.0
 10
104.847002469448
 20
-123.6437879465196
 30
0.0
 10
104.847002469448
 20
-123.6437879465196
 30
0.0
 10
104.8321885588614
 20
-123.3116807417415
 30
0.0
 10
104.6692355424091
 20
-123.2651719526907
 30
0.0
 10
104.5548583722988
 20
-123.2355441315175
 30
0.0
 10
104.5548583722988
 20
-123.2355441315175
 30
0.0
 10
104.5548583722988
 20
-123.0894720829429
 30
0.0
 10
104.5548583722988
 20
-123.0894720829429
 30
0.0
 10
104.5548583722988
 20
-123.0894720829429
 30
0.0
 10
106.0992946783363
 20
-123.0894720829429
 30
0.0
 10
106.0992946783363
 20
-123.0894720829429
 30
0.0
 10
106.0992946783363
 20
-123.0894720829429
 30
0.0
 10
106.0992946783363
 20
-123.3137477990327
 30
0.0
 10
106.0992946783363
 20
-123.3137477990327
 30
0.0
  0
HATCH
  5
98
330
93
100
AcDbEntity
  8
_U+30EC_U+30A4_U+30E4_U+30FC 1
 62
     7
420
 16777215
100
AcDbHatch
 10
0.0
 20
0.0
 30
0.0
210
0.0
220
0.0
230
1.0
  2
SOLID
 70
     1
 71
     0
 91
        1
 92
        1
 93
        1
 72
     4
 94
        3
 73
     0
 74
     1
 95
       26
 96
       22
 40
0.0
 40
0.0
 40
0.0
 40
0.0
 40
1.0
 40
1.0
 40
1.0
 40
2.0
 40
2.0
 40
2.0
 40
3.0
 40
3.0
 40
3.0
 40
4.0
 40
4.0
 40
4.0
 40
5.0
 40
5.0
 40
5.0
 40
6.0
 40
6.0
 40
6.0
 40
7.0
 40
7.0
 40
7.0
 40
7.0
 10
106.0992946783363
 20
-123.3137477990327
 10
106.0992946783363
 20
-123.3137477990327
 10
104.9951415753137
 20
-123.3137477990327
 10
104.9951415753137
 20
-123.3137477990327
 10
104.9951415753137
 20
-123.3137477990327
 10
104.9951415753137
 20
-123.6437879465196
 10
104.9951415753137
 20
-123.6437879465196
 10
104.9951415753137
 20
-123.6437879465196
 10
104.847002469448
 20
-123.6437879465196
 10
104.847002469448
 20
-123.6437879465196
 10
104.8321885588614
 20
-123.3116807417415
 10
104.6692355424091
 20
-123.2651719526907
 10
104.5548583722988
 20
-123.2355441315175
 10
104.5548583722988
 20
-123.2355441315175
 10
104.5548583722988
 20
-123.0894720829429
 10
104.5548583722988
 20
-123.0894720829429
 10
104.5548583722988
 20
-123.0894720829429
 10
106.0992946783363
 20
-123.0894720829429
 10
106.0992946783363
 20
-123.0894720829429
 10
106.0992946783363
 20
-123.0894720829429
 10
106.0992946783363
 20
-123.3137477990327
 10
106.0992946783363
 20
-123.3137477990327
 97
        0
 97
        0
 75
     2
 76
     1
 98
        0
  0
ENDBLK
  5
96
330
93
100
AcDbEntity
  8
0
100
AcDbBlockEnd
  0
BLOCK
  5
A3
330
A1
100
AcDbEntity
  8
0
100
AcDbBlockBegin
  2
block 4
 70
     0
 10
0.0
 20
0.0
 30
0.0
  3
block 4
  1

  0
SPLINE
  5
A5
330
A1
100
AcDbEntity
  8
_U+30EC_U+30A4_U+30E4_U+30FC 1
370
     0
100
AcDbSpline
210
0.0
220
0.0
230
1.0
 70
    11
 71
     3
 72
    62
 73
    58
 74
     0
 42
0.0000000001
 43
0.0000000001
 12
1.0
 22
0.0
 32
0.0
 13
1.0
 23
0.0
 33
0.0
 40
0.0
 40
0.0
 40
0.0
 40
0.0
 40
1.0
 40
1.0
 40
1.0
 40
2.0
 40
2.0
 40
2.0
 40
3.0
 40
3.0
 40
3.0
 40
4.0
 40
4.0
 40
4.0
 40
5.0
 40
5.0
 40
5.0
 40
6.0
 40
6.0
 40
6.0
 40
7.0
 40
7.0
 40
7.0
 40
8.0
 40
8.0
 40
8.0
 40
9.0
 40
9.0
 40
9.0
 40
10.0
 40
10.0
 40
10.0
 40
11.0
 40
11.0
 40
11.0
 40
12.0
 40
12.0
 40
12.0
 40
13.0
 40
13.0
 40
13.0
 40
14.0
 40
14.0
 40
14.0
 40
15.0
 40
15.0
 40
15.0
 40
16.0
 40
16.0
 40
16.0
 40
17.0
 40
17.0
 40
17.0
 40
18.0
 40
18.0
 40
18.0
 40
19.0
 40
19.0
 40
19.0
 40
19.0
 10
106.1499375819695
 20
-135.1300808038911
 30
0.0
 10
106.1499375819695
 20
-135.2255099488325
 30
0.0
 10
106.1289224995094
 20
-135.4432399835003
 30
0.0
 10
105.942887343306
 20
-135.5682969496149
 30
0.0
 10
105.8305772304868
 20
-135.6423665025478
 30
0.0
 10
105.7313584805116
 20
-135.64650061713
 30
0.0
 10
105.6466091315745
 20
-135.6506347317124
 30
0.0
 10
105.6466091315745
 20
-135.6506347317124
 30
0.0
 10
105.6466091315745
 20
-135.4304931302049
 30
0.0
 10
105.6466091315745
 20
-135.4304931302049
 30
0.0
 10
105.7206786845073
 20
-135.4284260729137
 30
0.0
 10
105.9552896870529
 20
-135.418090786458
 30
0.0
 10
105.9552896870529
 20
-135.1345594280219
 30
0.0
 10
105.9552896870529
 20
-134.9971001181605
 30
0.0
 10
105.8856987582508
 20
-134.8444823881639
 30
0.0
 10
105.6572889275787
 20
-134.8444823881639
 30
0.0
 10
105.5408447001773
 20
-134.8444823881639
 30
0.0
 10
105.4922688538353
 20
-134.8827229480502
 30
0.0
 10
105.460573975371
 20
-134.9144178265145
 30
0.0
 10
105.3865044224381
 20
-134.9884873794473
 30
0.0
 10
105.3737575691427
 20
-135.1049316068488
 30
0.0
 10
105.3737575691427
 20
-135.1597086250642
 30
0.0
 10
105.3737575691427
 20
-135.1790011597816
 30
0.0
 10
105.3758246264338
 20
-135.2148301528283
 30
0.0
 10
105.3799587410161
 20
-135.2423909167102
 30
0.0
 10
105.3799587410161
 20
-135.2423909167102
 30
0.0
 10
105.1853108460995
 20
-135.2423909167102
 30
0.0
 10
105.1853108460995
 20
-135.2423909167102
 30
0.0
 10
105.1918565275215
 20
-135.204150356824
 30
0.0
 10
105.1939235848126
 20
-135.1621201919039
 30
0.0
 10
105.1939235848126
 20
-135.155574510482
 30
0.0
 10
105.1939235848126
 20
-135.0901176962622
 30
0.0
 10
105.1725639928041
 20
-134.8913356867633
 30
0.0
 10
104.9358859329674
 20
-134.8913356867633
 30
0.0
 10
104.7581190059285
 20
-134.8913356867633
 30
0.0
 10
104.7029974781645
 20
-135.0222493152028
 30
0.0
 10
104.7029974781645
 20
-135.1324923707308
 30
0.0
 10
104.7029974781645
 20
-135.3967311944494
 30
0.0
 10
104.9358859329674
 20
-135.4053439331626
 30
0.0
 10
105.0075439190606
 20
-135.4094780477449
 30
0.0
 10
105.0075439190606
 20
-135.4094780477449
 30
0.0
 10
105.0075439190606
 20
-135.6127386813746
 30
0.0
 10
105.0075439190606
 20
-135.6127386813746
 30
0.0
 10
104.8828314624946
 20
-135.6041259426615
 30
0.0
 10
104.5062825259568
 20
-135.5765651787795
 30
0.0
 10
104.5062825259568
 20
-135.1197455174353
 30
0.0
 10
104.5062825259568
 20
-134.8954698013456
 30
0.0
 10
104.6334065493625
 20
-134.6543131173781
 30
0.0
 10
104.9293402515455
 20
-134.6543131173781
 30
0.0
 10
105.1157199172975
 20
-134.6543131173781
 30
0.0
 10
105.1980576993949
 20
-134.749397752771
 30
0.0
 10
105.2593803990324
 20
-134.8489610122947
 30
0.0
 10
105.2869411629144
 20
-134.7876383126573
 30
0.0
 10
105.3672118877207
 20
-134.6057372710361
 30
0.0
 10
105.6445420742833
 20
-134.6057372710361
 30
0.0
 10
105.9828504509348
 20
-134.6057372710361
 30
0.0
 10
106.1499375819695
 20
-134.853095126877
 30
0.0
 10
106.1499375819695
 20
-135.1300808038911
 30
0.0
  0
HATCH
  5
A6
330
A1
100
AcDbEntity
  8
_U+30EC_U+30A4_U+30E4_U+30FC 1
 62
     7
420
 16777215
100
AcDbHatch
 10
0.0
 20
0.0
 30
0.0
210
0.0
220
0.0
230
1.0
  2
SOLID
 70
     1
 71
     0
 91
        1
 92
        1
 93
        1
 72
     4
 94
        3
 73
     0
 74
     1
 95
       62
 96
       58
 40
0.0
 40
0.0
 40
0.0
 40
0.0
 40
1.0
 40
1.0
 40
1.0
 40
2.0
 40
2.0
 40
2.0
 40
3.0
 40
3.0
 40
3.0
 40
4.0
 40
4.0
 40
4.0
 40
5.0
 40
5.0
 40
5.0
 40
6.0
 40
6.0
 40
6.0
 40
7.0
 40
7.0
 40
7.0
 40
8.0
 40
8.0
 40
8.0
 40
9.0
 40
9.0
 40
9.0
 40
10.0
 40
10.0
 40
10.0
 40
11.0
 40
11.0
 40
11.0
 40
12.0
 40
12.0
 40
12.0
 40
13.0
 40
13.0
 40
13.0
 40
14.0
 40
14.0
 40
14.0
 40
15.0
 40
15.0
 40
15.0
 40
16.0
 40
16.0
 40
16.0
 40
17.0
 40
17.0
 40
17.0
 40
18.0
 40
18.0
 40
18.0
 40
19.0
 40
19.0
 40
19.0
 40
19.0
 10
106.1499375819695
 20
-135.1300808038911
 10
106.1499375819695
 20
-135.2255099488325
 10
106.1289224995094
 20
-135.4432399835003
 10
105.942887343306
 20
-135.5682969496149
 10
105.8305772304868
 20
-135.6423665025478
 10
105.7313584805116
 20
-135.64650061713
 10
105.6466091315745
 20
-135.6506347317124
 10
105.6466091315745
 20
-135.6506347317124
 10
105.6466091315745
 20
-135.4304931302049
 10
105.6466091315745
 20
-135.4304931302049
 10
105.7206786845073
 20
-135.4284260729137
 10
105.9552896870529
 20
-135.418090786458
 10
105.9552896870529
 20
-135.1345594280219
 10
105.9552896870529
 20
-134.9971001181605
 10
105.8856987582508
 20
-134.8444823881639
 10
105.6572889275787
 20
-134.8444823881639
 10
105.5408447001773
 20
-134.8444823881639
 10
105.4922688538353
 20
-134.8827229480502
 10
105.460573975371
 20
-134.9144178265145
 10
105.3865044224381
 20
-134.9884873794473
 10
105.3737575691427
 20
-135.1049316068488
 10
105.3737575691427
 20
-135.1597086250642
 10
105.3737575691427
 20
-135.1790011597816
 10
105.3758246264338
 20
-135.2148301528283
 10
105.3799587410161
 20
-135.2423909167102
 10
105.3799587410161
 20
-135.2423909167102
 10
105.1853108460995
 20
-135.2423909167102
 10
105.1853108460995
 20
-135.2423909167102
 10
105.1918565275215
 20
-135.204150356824
 10
105.1939235848126
 20
-135.1621201919039
 10
105.1939235848126
 20
-135.155574510482
 10
105.1939235848126
 20
-135.0901176962622
 10
105.1725639928041
 20
-134.8913356867633
 10
104.9358859329674
 20
-134.8913356867633
 10
104.7581190059285
 20
-134.8913356867633
 10
104.7029974781645
 20
-135.0222493152028
 10
104.7029974781645
 20
-135.1324923707308
 10
104.7029974781645
 20
-135.3967311944494
 10
104.9358859329674
 20
-135.4053439331626
 10
105.0075439190606
 20
-135.4094780477449
 10
105.0075439190606
 20
-135.4094780477449
 10
105.0075439190606
 20
-135.6127386813746
 10
105.0075439190606
 20
-135.6127386813746
 10
104.8828314624946
 20
-135.6041259426615
 10
104.5062825259568
 20
-135.5765651787795
 10
104.5062825259568
 20
-135.1197455174353
 10
104.5062825259568
 20
-134.8954698013456
 10
104.6334065493625
 20
-134.6543131173781
 10
104.9293402515455
 20
-134.6543131173781
 10
105.1157199172975
 20
-134.6543131173781
 10
105.1980576993949
 20
-134.749397752771
 10
105.2593803990324
 20
-134.8489610122947
 10
105.2869411629144
 20
-134.7876383126573
 10
105.3672118877207
 20
-134.6057372710361
 10
105.6445420742833
 20
-134.6057372710361
 10
105.9828504509348
 20
-134.6057372710361
 10
106.1499375819695
 20
-134.853095126877
 10
106.1499375819695
 20
-135.1300808038911
 97
        0
 97
        0
 75
     2
 76
     1
 98
        0
  0
ENDBLK
  5
A4
330
A1
100
AcDbEntity
  8
0
100
AcDbBlockEnd
  0
BLOCK
  5
B1
330
AF
100
AcDbEntity
  8
0
100
AcDbBlockBegin
  2
block 5
 70
     0
 10
0.0
 20
0.0
 30
0.0
  3
block 5
  1

  0
SPLINE
  5
B3
330
AF
100
AcDbEntity
  8
_U+30EC_U+30A4_U+30E4_U+30FC 1
370
     0
100
AcDbSpline
210
0.0
220
0.0
230
1.0
 70
    11
 71
     3
 72
    26
 73
    22
 74
     0
 42
0.0000000001
 43
0.0000000001
 12
1.0
 22
0.0
 32
0.0
 13
1.0
 23
0.0
 33
0.0
 40
0.0
 40
0.0
 40
0.0
 40
0.0
 40
1.0
 40
1.0
 40
1.0
 40
2.0
 40
2.0
 40
2.0
 40
3.0
 40
3.0
 40
3.0
 40
4.0
 40
4.0
 40
4.0
 40
5.0
 40
5.0
 40
5.0
 40
6.0
 40
6.0
 40
6.0
 40
7.0
 40
7.0
 40
7.0
 40
7.0
 10
106.0992946783363
 20
-129.2575710397342
 30
0.0
 10
106.0992946783363
 20
-129.2575710397342
 30
0.0
 10
104.9951415753137
 20
-129.2575710397342
 30
0.0
 10
104.9951415753137
 20
-129.2575710397342
 30
0.0
 10
104.9951415753137
 20
-129.2575710397342
 30
0.0
 10
104.9951415753137
 20
-129.5876111872212
 30
0.0
 10
104.9951415753137
 20
-129.5876111872212
 30
0.0
 10
104.9951415753137
 20
-129.5876111872212
 30
0.0
 10
104.847002469448
 20
-129.5876111872212
 30
0.0
 10
104.847002469448
 20
-129.5876111872212
 30
0.0
 10
104.8321885588614
 20
-129.2555039824431
 30
0.0
 10
104.6692355424091
 20
-129.2089951933922
 30
0.0
 10
104.5548583722988
 20
-129.179367372219
 30
0.0
 10
104.5548583722988
 20
-129.179367372219
 30
0.0
 10
104.5548583722988
 20
-129.0332953236445
 30
0.0
 10
104.5548583722988
 20
-129.0332953236445
 30
0.0
 10
104.5548583722988
 20
-129.0332953236445
 30
0.0
 10
106.0992946783363
 20
-129.0332953236445
 30
0.0
 10
106.0992946783363
 20
-129.0332953236445
 30
0.0
 10
106.0992946783363
 20
-129.0332953236445
 30
0.0
 10
106.0992946783363
 20
-129.2575710397342
 30
0.0
 10
106.0992946783363
 20
-129.2575710397342
 30
0.0
  0
HATCH
  5
B4
330
AF
100
AcDbEntity
  8
_U+30EC_U+30A4_U+30E4_U+30FC 1
 62
     7
420
 16777215
100
AcDbHatch
 10
0.0
 20
0.0
 30
0.0
210
0.0
220
0.0
230
1.0
  2
SOLID
 70
     1
 71
     0
 91
        1
 92
        1
 93
        1
 72
     4
 94
        3
 73
     0
 74
     1
 95
       26
 96
       22
 40
0.0
 40
0.0
 40
0.0
 40
0.0
 40
1.0
 40
1.0
 40
1.0
 40
2.0
 40
2.0
 40
2.0
 40
3.0
 40
3.0
 40
3.0
 40
4.0
 40
4.0
 40
4.0
 40
5.0
 40
5.0
 40
5.0
 40
6.0
 40
6.0
 40
6.0
 40
7.0
 40
7.0
 40
7.0
 40
7.0
 10
106.0992946783363
 20
-129.2575710397342
 10
106.0992946783363
 20
-129.2575710397342
 10
104.9951415753137
 20
-129.2575710397342
 10
104.9951415753137
 20
-129.2575710397342
 10
104.9951415753137
 20
-129.2575710397342
 10
104.9951415753137
 20
-129.5876111872212
 10
104.9951415753137
 20
-129.5876111872212
 10
104.9951415753137
 20
-129.5876111872212
 10
104.847002469448
 20
-129.5876111872212
 10
104.847002469448
 20
-129.5876111872212
 10
104.8321885588614
 20
-129.2555039824431
 10
104.6692355424091
 20
-129.2089951933922
 10
104.5548583722988
 20
-129.179367372219
 10
104.5548583722988
 20
-129.179367372219
 10
104.5548583722988
 20
-129.0332953236445
 10
104.5548583722988
 20
-129.0332953236445
 10
104.5548583722988
 20
-129.0332953236445
 10
106.0992946783363
 20
-129.0332953236445
 10
106.0992946783363
 20
-129.0332953236445
 10
106.0992946783363
 20
-129.0332953236445
 10
106.0992946783363
 20
-129.2575710397342
 10
106.0992946783363
 20
-129.2575710397342
 97
        0
 97
        0
 75
     2
 76
     1
 98
        0
  0
SPLINE
  5
B5
330
AF
100
AcDbEntity
  8
_U+30EC_U+30A4_U+30E4_U+30FC 1
370
     0
100
AcDbSpline
210
0.0
220
0.0
230
1.0
 70
    11
 71
     3
 72
    29
 73
    25
 74
     0
 42
0.0000000001
 43
0.0000000001
 12
1.0
 22
0.0
 32
0.0
 13
1.0
 23
0.0
 33
0.0
 40
0.0
 40
0.0
 40
0.0
 40
0.0
 40
1.0
 40
1.0
 40
1.0
 40
2.0
 40
2.0
 40
2.0
 40
3.0
 40
3.0
 40
3.0
 40
4.0
 40
4.0
 40
4.0
 40
5.0
 40
5.0
 40
5.0
 40
6.0
 40
6.0
 40
6.0
 40
7.0
 40
7.0
 40
7.0
 40
8.0
 40
8.0
 40
8.0
 40
8.0
 10
105.9215277512974
 20
-127.6342420470845
 30
0.0
 10
106.1309895568006
 20
-127.7424180453213
 30
0.0
 10
106.1499375819695
 20
-127.9157063482294
 30
0.0
 10
106.1499375819695
 20
-128.0321505756309
 30
0.0
 10
106.1499375819695
 20
-128.193036534792
 30
0.0
 10
106.1034287929186
 20
-128.3346299592358
 30
0.0
 10
105.9215277512974
 20
-128.4297145946287
 30
0.0
 10
105.7268798563808
 20
-128.5334119687347
 30
0.0
 10
105.4902017965441
 20
-128.5523599939036
 30
0.0
 10
105.3272487800918
 20
-128.5523599939036
 30
0.0
 10
105.1832437888084
 20
-128.5523599939036
 30
0.0
 10
104.9314073088366
 20
-128.5354790260259
 30
0.0
 10
104.7326252993377
 20
-128.4297145946287
 30
0.0
 10
104.5297091752565
 20
-128.3218831059404
 30
0.0
 10
104.5062825259568
 20
-128.1609971467792
 30
0.0
 10
104.5062825259568
 20
-128.0321505756309
 30
0.0
 10
104.5062825259568
 20
-127.8733316737608
 30
0.0
 10
104.5507242577165
 20
-127.7296711920259
 30
0.0
 10
104.7326252993377
 20
-127.6342420470845
 30
0.0
 10
104.9252061369632
 20
-127.5350232971093
 30
0.0
 10
105.1536159676352
 20
-127.5115966478096
 30
0.0
 10
105.3272487800918
 20
-127.5115966478096
 30
0.0
 10
105.4984700257087
 20
-127.5115966478096
 30
0.0
 10
105.7289469136719
 20
-127.5329562398182
 30
0.0
 10
105.9215277512974
 20
-127.6342420470845
 30
0.0
  0
SPLINE
  5
B6
330
AF
100
AcDbEntity
  8
_U+30EC_U+30A4_U+30E4_U+30FC 1
370
     0
100
AcDbSpline
210
0.0
220
0.0
230
1.0
 70
    11
 71
     3
 72
    17
 73
    13
 74
     0
 42
0.0000000001
 43
0.0000000001
 12
1.0
 22
0.0
 32
0.0
 13
1.0
 23
0.0
 33
0.0
 40
0.0
 40
0.0
 40
0.0
 40
0.0
 40
1.0
 40
1.0
 40
1.0
 40
2.0
 40
2.0
 40
2.0
 40
3.0
 40
3.0
 40
3.0
 40
4.0
 40
4.0
 40
4.0
 40
4.0
 10
104.6988633635822
 20
-128.0321505756309
 30
0.0
 10
104.6988633635822
 20
-128.2815754887629
 30
0.0
 10
104.9823947220183
 20
-128.3284287873624
 30
0.0
 10
105.3272487800918
 20
-128.3284287873624
 30
0.0
 10
105.6466091315745
 20
-128.3284287873624
 30
0.0
 10
105.9552896870529
 20
-128.2922552847672
 30
0.0
 10
105.9552896870529
 20
-128.0321505756309
 30
0.0
 10
105.9552896870529
 20
-127.7844482102414
 30
0.0
 10
105.6741698954565
 20
-127.7358723638994
 30
0.0
 10
105.3272487800918
 20
-127.7358723638994
 30
0.0
 10
105.0075439190606
 20
-127.7358723638994
 30
0.0
 10
104.6988633635822
 20
-127.7741129237857
 30
0.0
 10
104.6988633635822
 20
-128.0321505756309
 30
0.0
  0
HATCH
  5
B7
330
AF
100
AcDbEntity
  8
_U+30EC_U+30A4_U+30E4_U+30FC 1
 62
     7
420
 16777215
100
AcDbHatch
 10
0.0
 20
0.0
 30
0.0
210
0.0
220
0.0
230
1.0
  2
SOLID
 70
     1
 71
     0
 91
        2
 92
        1
 93
        1
 72
     4
 94
        3
 73
     0
 74
     1
 95
       29
 96
       25
 40
0.0
 40
0.0
 40
0.0
 40
0.0
 40
1.0
 40
1.0
 40
1.0
 40
2.0
 40
2.0
 40
2.0
 40
3.0
 40
3.0
 40
3.0
 40
4.0
 40
4.0
 40
4.0
 40
5.0
 40
5.0
 40
5.0
 40
6.0
 40
6.0
 40
6.0
 40
7.0
 40
7.0
 40
7.0
 40
8.0
 40
8.0
 40
8.0
 40
8.0
 10
105.9215277512974
 20
-127.6342420470845
 10
106.1309895568006
 20
-127.7424180453213
 10
106.1499375819695
 20
-127.9157063482294
 10
106.1499375819695
 20
-128.0321505756309
 10
106.1499375819695
 20
-128.193036534792
 10
106.1034287929186
 20
-128.3346299592358
 10
105.9215277512974
 20
-128.4297145946287
 10
105.7268798563808
 20
-128.5334119687347
 10
105.4902017965441
 20
-128.5523599939036
 10
105.3272487800918
 20
-128.5523599939036
 10
105.1832437888084
 20
-128.5523599939036
 10
104.9314073088366
 20
-128.5354790260259
 10
104.7326252993377
 20
-128.4297145946287
 10
104.5297091752565
 20
-128.3218831059404
 10
104.5062825259568
 20
-128.1609971467792
 10
104.5062825259568
 20
-128.0321505756309
 10
104.5062825259568
 20
-127.8733316737608
 10
104.5507242577165
 20
-127.7296711920259
 10
104.7326252993377
 20
-127.6342420470845
 10
104.9252061369632
 20
-127.5350232971093
 10
105.1536159676352
 20
-127.5115966478096
 10
105.3272487800918
 20
-127.5115966478096
 10
105.4984700257087
 20
-127.5115966478096
 10
105.7289469136719
 20
-127.5329562398182
 10
105.9215277512974
 20
-127.6342420470845
 97
        0
 97
        0
 92
        1
 93
        1
 72
     4
 94
        3
 73
     0
 74
     1
 95
       17
 96
       13
 40
0.0
 40
0.0
 40
0.0
 40
0.0
 40
1.0
 40
1.0
 40
1.0
 40
2.0
 40
2.0
 40
2.0
 40
3.0
 40
3.0
 40
3.0
 40
4.0
 40
4.0
 40
4.0
 40
4.0
 10
104.6988633635822
 20
-128.0321505756309
 10
104.6988633635822
 20
-128.2815754887629
 10
104.9823947220183
 20
-128.3284287873624
 10
105.3272487800918
 20
-128.3284287873624
 10
105.6466091315745
 20
-128.3284287873624
 10
105.9552896870529
 20
-128.2922552847672
 10
105.9552896870529
 20
-128.0321505756309
 10
105.9552896870529
 20
-127.7844482102414
 10
105.6741698954565
 20
-127.7358723638994
 10
105.3272487800918
 20
-127.7358723638994
 10
105.0075439190606
 20
-127.7358723638994
 10
104.6988633635822
 20
-127.7741129237857
 10
104.6988633635822
 20
-128.0321505756309
 97
        0
 97
        0
 75
     2
 76
     1
 98
        0
  0
ENDBLK
  5
B2
330
AF
100
AcDbEntity
  8
0
100
AcDbBlockEnd
  0
BLOCK
  5
C6
330
C4
100
AcDbEntity
  8
0
100
AcDbBlockBegin
  2
block 6
 70
     0
 10
0.0
 20
0.0
 30
0.0
  3
block 6
  1

  0
SPLINE
  5
C8
330
C4
100
AcDbEntity
  8
_U+30EC_U+30A4_U+30E4_U+30FC 1
370
     0
100
AcDbSpline
210
0.0
220
0.0
230
1.0
 70
    11
 71
     3
 72
    44
 73
    40
 74
     0
 42
0.0000000001
 43
0.0000000001
 12
1.0
 22
0.0
 32
0.0
 13
1.0
 23
0.0
 33
0.0
 40
0.0
 40
0.0
 40
0.0
 40
0.0
 40
1.0
 40
1.0
 40
1.0
 40
2.0
 40
2.0
 40
2.0
 40
3.0
 40
3.0
 40
3.0
 40
4.0
 40
4.0
 40
4.0
 40
5.0
 40
5.0
 40
5.0
 40
6.0
 40
6.0
 40
6.0
 40
7.0
 40
7.0
 40
7.0
 40
8.0
 40
8.0
 40
8.0
 40
9.0
 40
9.0
 40
9.0
 40
10.0
 40
10.0
 40
10.0
 40
11.0
 40
11.0
 40
11.0
 40
12.0
 40
12.0
 40
12.0
 40
13.0
 40
13.0
 40
13.0
 40
13.0
 10
83.13170435204694
 20
-139.4526421092341
 30
0.0
 10
82.91380206260489
 20
-139.6114610111041
 30
0.0
 10
82.82061222972888
 20
-139.685530564037
 30
0.0
 10
82.77203638338686
 20
-139.8291910457719
 30
0.0
 10
82.77203638338686
 20
-139.8291910457719
 30
0.0
 10
83.55045570827906
 20
-139.8291910457719
 30
0.0
 10
83.55045570827906
 20
-139.8291910457719
 30
0.0
 10
83.55045570827906
 20
-139.8291910457719
 30
0.0
 10
83.55045570827906
 20
-140.0345187366928
 30
0.0
 10
83.55045570827906
 20
-140.0345187366928
 30
0.0
 10
83.55045570827906
 20
-140.0345187366928
 30
0.0
 10
82.5224392154805
 20
-140.0345187366928
 30
0.0
 10
82.5224392154805
 20
-140.0345187366928
 30
0.0
 10
82.55413409394481
 20
-139.6769178253238
 30
0.0
 10
82.61959090816455
 20
-139.5987141578087
 30
0.0
 10
83.00475258341548
 20
-139.300368888786
 30
0.0
 10
83.26072317796954
 20
-139.1015868792871
 30
0.0
 10
83.3261799921893
 20
-139.0337184982277
 30
0.0
 10
83.3261799921893
 20
-138.8962591883662
 30
0.0
 10
83.3261799921893
 20
-138.7777479036736
 30
0.0
 10
83.25434975132184
 20
-138.6468342752341
 30
0.0
 10
83.05763479911407
 20
-138.6468342752341
 30
0.0
 10
82.79735783520344
 20
-138.6468342752341
 30
0.0
 10
82.78891735126459
 20
-138.8773111631973
 30
0.0
 10
82.78461098190802
 20
-138.9937553905988
 30
0.0
 10
82.78461098190802
 20
-138.9937553905988
 30
0.0
 10
82.56050752059251
 20
-138.9937553905988
 30
0.0
 10
82.56050752059251
 20
-138.9937553905988
 30
0.0
 10
82.56894800453138
 20
-138.8666313671931
 30
0.0
 10
82.57945554576139
 20
-138.7546657639224
 30
0.0
 10
82.65989852534197
 20
-138.6361544792298
 30
0.0
 10
82.76979707132145
 20
-138.4752685200687
 30
0.0
 10
82.95600448229919
 20
-138.4415065843132
 30
0.0
 10
83.07244870970064
 20
-138.4415065843132
 30
0.0
 10
83.34960664148899
 20
-138.4415065843132
 30
0.0
 10
83.55682913492677
 20
-138.6254746832256
 30
0.0
 10
83.55682913492677
 20
-138.8983262456574
 30
0.0
 10
83.55682913492677
 20
-139.127080585878
 30
0.0
 10
83.44055716229958
 20
-139.2262993358532
 30
0.0
 10
83.13170435204694
 20
-139.4526421092341
 30
0.0
  0
HATCH
  5
C9
330
C4
100
AcDbEntity
  8
_U+30EC_U+30A4_U+30E4_U+30FC 1
 62
     7
420
 16777215
100
AcDbHatch
 10
0.0
 20
0.0
 30
0.0
210
0.0
220
0.0
230
1.0
  2
SOLID
 70
     1
 71
     0
 91
        1
 92
        1
 93
        1
 72
     4
 94
        3
 73
     0
 74
     1
 95
       44
 96
       40
 40
0.0
 40
0.0
 40
0.0
 40
0.0
 40
1.0
 40
1.0
 40
1.0
 40
2.0
 40
2.0
 40
2.0
 40
3.0
 40
3.0
 40
3.0
 40
4.0
 40
4.0
 40
4.0
 40
5.0
 40
5.0
 40
5.0
 40
6.0
 40
6.0
 40
6.0
 40
7.0
 40
7.0
 40
7.0
 40
8.0
 40
8.0
 40
8.0
 40
9.0
 40
9.0
 40
9.0
 40
10.0
 40
10.0
 40
10.0
 40
11.0
 40
11.0
 40
11.0
 40
12.0
 40
12.0
 40
12.0
 40
13.0
 40
13.0
 40
13.0
 40
13.0
 10
83.13170435204694
 20
-139.4526421092341
 10
82.91380206260489
 20
-139.6114610111041
 10
82.82061222972888
 20
-139.685530564037
 10
82.77203638338686
 20
-139.8291910457719
 10
82.77203638338686
 20
-139.8291910457719
 10
83.55045570827906
 20
-139.8291910457719
 10
83.55045570827906
 20
-139.8291910457719
 10
83.55045570827906
 20
-139.8291910457719
 10
83.55045570827906
 20
-140.0345187366928
 10
83.55045570827906
 20
-140.0345187366928
 10
83.55045570827906
 20
-140.0345187366928
 10
82.5224392154805
 20
-140.0345187366928
 10
82.5224392154805
 20
-140.0345187366928
 10
82.55413409394481
 20
-139.6769178253238
 10
82.61959090816455
 20
-139.5987141578087
 10
83.00475258341548
 20
-139.300368888786
 10
83.26072317796954
 20
-139.1015868792871
 10
83.3261799921893
 20
-139.0337184982277
 10
83.3261799921893
 20
-138.8962591883662
 10
83.3261799921893
 20
-138.7777479036736
 10
83.25434975132184
 20
-138.6468342752341
 10
83.05763479911407
 20
-138.6468342752341
 10
82.79735783520344
 20
-138.6468342752341
 10
82.78891735126459
 20
-138.8773111631973
 10
82.78461098190802
 20
-138.9937553905988
 10
82.78461098190802
 20
-138.9937553905988
 10
82.56050752059251
 20
-138.9937553905988
 10
82.56050752059251
 20
-138.9937553905988
 10
82.56894800453138
 20
-138.8666313671931
 10
82.57945554576139
 20
-138.7546657639224
 10
82.65989852534197
 20
-138.6361544792298
 10
82.76979707132145
 20
-138.4752685200687
 10
82.95600448229919
 20
-138.4415065843132
 10
83.07244870970064
 20
-138.4415065843132
 10
83.34960664148899
 20
-138.4415065843132
 10
83.55682913492677
 20
-138.6254746832256
 10
83.55682913492677
 20
-138.8983262456574
 10
83.55682913492677
 20
-139.127080585878
 10
83.44055716229958
 20
-139.2262993358532
 10
83.13170435204694
 20
-139.4526421092341
 97
        0
 97
        0
 75
     2
 76
     1
 98
        0
  0
SPLINE
  5
CA
330
C4
100
AcDbEntity
  8
_U+30EC_U+30A4_U+30E4_U+30FC 1
370
     0
100
AcDbSpline
210
0.0
220
0.0
230
1.0
 70
    11
 71
     3
 72
    29
 73
    25
 74
     0
 42
0.0000000001
 43
0.0000000001
 12
1.0
 22
0.0
 32
0.0
 13
1.0
 23
0.0
 33
0.0
 40
0.0
 40
0.0
 40
0.0
 40
0.0
 40
1.0
 40
1.0
 40
1.0
 40
2.0
 40
2.0
 40
2.0
 40
3.0
 40
3.0
 40
3.0
 40
4.0
 40
4.0
 40
4.0
 40
5.0
 40
5.0
 40
5.0
 40
6.0
 40
6.0
 40
6.0
 40
7.0
 40
7.0
 40
7.0
 40
8.0
 40
8.0
 40
8.0
 40
8.0
 10
84.61309541070437
 20
-139.8567518096539
 30
0.0
 10
84.50526392201606
 20
-140.0662136151571
 30
0.0
 10
84.33180336433372
 20
-140.0851616403259
 30
0.0
 10
84.21535913693228
 20
-140.0851616403259
 30
0.0
 10
84.05464543254537
 20
-140.0851616403259
 30
0.0
 10
83.91287975332735
 20
-140.0386528512751
 30
0.0
 10
83.81762286316018
 20
-139.8567518096539
 30
0.0
 10
83.71409774382842
 20
-139.6621039147373
 30
0.0
 10
83.69497746388528
 20
-139.4250813453521
 30
0.0
 10
83.69497746388528
 20
-139.2624728384483
 30
0.0
 10
83.69497746388528
 20
-139.1184678471648
 30
0.0
 10
83.711858431763
 20
-138.8666313671931
 30
0.0
 10
83.81762286316018
 20
-138.6678493576942
 30
0.0
 10
83.92562660662276
 20
-138.464933233613
 30
0.0
 10
84.08634031100966
 20
-138.4415065843132
 30
0.0
 10
84.21535913693228
 20
-138.4415065843132
 30
0.0
 10
84.37400578402803
 20
-138.4415065843132
 30
0.0
 10
84.51783852053721
 20
-138.4859483160729
 30
0.0
 10
84.61309541070437
 20
-138.6678493576942
 30
0.0
 10
84.71248641545382
 20
-138.8604301953196
 30
0.0
 10
84.73574080997926
 20
-139.0888400259917
 30
0.0
 10
84.73574080997926
 20
-139.2624728384483
 30
0.0
 10
84.73574080997926
 20
-139.4336940840652
 30
0.0
 10
84.71472572751924
 20
-139.6641709720284
 30
0.0
 10
84.61309541070437
 20
-139.8567518096539
 30
0.0
  0
SPLINE
  5
CB
330
C4
100
AcDbEntity
  8
_U+30EC_U+30A4_U+30E4_U+30FC 1
370
     0
100
AcDbSpline
210
0.0
220
0.0
230
1.0
 70
    11
 71
     3
 72
    17
 73
    13
 74
     0
 42
0.0000000001
 43
0.0000000001
 12
1.0
 22
0.0
 32
0.0
 13
1.0
 23
0.0
 33
0.0
 40
0.0
 40
0.0
 40
0.0
 40
0.0
 40
1.0
 40
1.0
 40
1.0
 40
2.0
 40
2.0
 40
2.0
 40
3.0
 40
3.0
 40
3.0
 40
4.0
 40
4.0
 40
4.0
 40
4.0
 10
84.21535913693228
 20
-138.6340874219387
 30
0.0
 10
83.96576196902592
 20
-138.6340874219387
 30
0.0
 10
83.91925317997506
 20
-138.9176187803748
 30
0.0
 10
83.91925317997506
 20
-139.2624728384483
 30
0.0
 10
83.91925317997506
 20
-139.5818331899309
 30
0.0
 10
83.95525442779591
 20
-139.8905137454093
 30
0.0
 10
84.21535913693228
 20
-139.8905137454093
 30
0.0
 10
84.46288924754748
 20
-139.8905137454093
 30
0.0
 10
84.51163734866375
 20
-139.6093939538129
 30
0.0
 10
84.51163734866375
 20
-139.2624728384483
 30
0.0
 10
84.51163734866375
 20
-138.9427679774171
 30
0.0
 10
84.47339678877749
 20
-138.6340874219387
 30
0.0
 10
84.21535913693228
 20
-138.6340874219387
 30
0.0
  0
HATCH
  5
CC
330
C4
100
AcDbEntity
  8
_U+30EC_U+30A4_U+30E4_U+30FC 1
 62
     7
420
 16777215
100
AcDbHatch
 10
0.0
 20
0.0
 30
0.0
210
0.0
220
0.0
230
1.0
  2
SOLID
 70
     1
 71
     0
 91
        2
 92
        1
 93
        1
 72
     4
 94
        3
 73
     0
 74
     1
 95
       29
 96
       25
 40
0.0
 40
0.0
 40
0.0
 40
0.0
 40
1.0
 40
1.0
 40
1.0
 40
2.0
 40
2.0
 40
2.0
 40
3.0
 40
3.0
 40
3.0
 40
4.0
 40
4.0
 40
4.0
 40
5.0
 40
5.0
 40
5.0
 40
6.0
 40
6.0
 40
6.0
 40
7.0
 40
7.0
 40
7.0
 40
8.0
 40
8.0
 40
8.0
 40
8.0
 10
84.61309541070437
 20
-139.8567518096539
 10
84.50526392201606
 20
-140.0662136151571
 10
84.33180336433372
 20
-140.0851616403259
 10
84.21535913693228
 20
-140.0851616403259
 10
84.05464543254537
 20
-140.0851616403259
 10
83.91287975332735
 20
-140.0386528512751
 10
83.81762286316018
 20
-139.8567518096539
 10
83.71409774382842
 20
-139.6621039147373
 10
83.69497746388528
 20
-139.4250813453521
 10
83.69497746388528
 20
-139.2624728384483
 10
83.69497746388528
 20
-139.1184678471648
 10
83.711858431763
 20
-138.8666313671931
 10
83.81762286316018
 20
-138.6678493576942
 10
83.92562660662276
 20
-138.464933233613
 10
84.08634031100966
 20
-138.4415065843132
 10
84.21535913693228
 20
-138.4415065843132
 10
84.37400578402803
 20
-138.4415065843132
 10
84.51783852053721
 20
-138.4859483160729
 10
84.61309541070437
 20
-138.6678493576942
 10
84.71248641545382
 20
-138.8604301953196
 10
84.73574080997926
 20
-139.0888400259917
 10
84.73574080997926
 20
-139.2624728384483
 10
84.73574080997926
 20
-139.4336940840652
 10
84.71472572751924
 20
-139.6641709720284
 10
84.61309541070437
 20
-139.8567518096539
 97
        0
 97
        0
 92
        1
 93
        1
 72
     4
 94
        3
 73
     0
 74
     1
 95
       17
 96
       13
 40
0.0
 40
0.0
 40
0.0
 40
0.0
 40
1.0
 40
1.0
 40
1.0
 40
2.0
 40
2.0
 40
2.0
 40
3.0
 40
3.0
 40
3.0
 40
4.0
 40
4.0
 40
4.0
 40
4.0
 10
84.21535913693228
 20
-138.6340874219387
 10
83.96576196902592
 20
-138.6340874219387
 10
83.91925317997506
 20
-138.9176187803748
 10
83.91925317997506
 20
-139.2624728384483
 10
83.91925317997506
 20
-139.5818331899309
 10
83.95525442779591
 20
-139.8905137454093
 10
84.21535913693228
 20
-139.8905137454093
 10
84.46288924754748
 20
-139.8905137454093
 10
84.51163734866375
 20
-139.6093939538129
 10
84.51163734866375
 20
-139.2624728384483
 10
84.51163734866375
 20
-138.9427679774171
 10
84.47339678877749
 20
-138.6340874219387
 10
84.21535913693228
 20
-138.6340874219387
 97
        0
 97
        0
 75
     2
 76
     1
 98
        0
  0
ENDBLK
  5
C7
330
C4
100
AcDbEntity
  8
0
100
AcDbBlockEnd
  0
BLOCK
  5
DB
330
D9
100
AcDbEntity
  8
0
100
AcDbBlockBegin
  2
block 7
 70
     0
 10
0.0
 20
0.0
 30
0.0
  3
block 7
  1

  0
SPLINE
  5
DD
330
D9
100
AcDbEntity
  8
_U+30EC_U+30A4_U+30E4_U+30FC 1
370
     0
100
AcDbSpline
210
0.0
220
0.0
230
1.0
 70
    11
 71
     3
 72
    62
 73
    58
 74
     0
 42
0.0000000001
 43
0.0000000001
 12
1.0
 22
0.0
 32
0.0
 13
1.0
 23
0.0
 33
0.0
 40
0.0
 40
0.0
 40
0.0
 40
0.0
 40
1.0
 40
1.0
 40
1.0
 40
2.0
 40
2.0
 40
2.0
 40
3.0
 40
3.0
 40
3.0
 40
4.0
 40
4.0
 40
4.0
 40
5.0
 40
5.0
 40
5.0
 40
6.0
 40
6.0
 40
6.0
 40
7.0
 40
7.0
 40
7.0
 40
8.0
 40
8.0
 40
8.0
 40
9.0
 40
9.0
 40
9.0
 40
10.0
 40
10.0
 40
10.0
 40
11.0
 40
11.0
 40
11.0
 40
12.0
 40
12.0
 40
12.0
 40
13.0
 40
13.0
 40
13.0
 40
14.0
 40
14.0
 40
14.0
 40
15.0
 40
15.0
 40
15.0
 40
16.0
 40
16.0
 40
16.0
 40
17.0
 40
17.0
 40
17.0
 40
18.0
 40
18.0
 40
18.0
 40
19.0
 40
19.0
 40
19.0
 40
19.0
 10
88.03028562252368
 20
-118.0238036814316
 30
0.0
 10
87.93485647758226
 20
-118.0238036814316
 30
0.0
 10
87.71712644291448
 20
-118.0026163441973
 30
0.0
 10
87.5920694767999
 20
-117.8164089332195
 30
0.0
 10
87.51834443341556
 20
-117.7042710751746
 30
0.0
 10
87.51386580928474
 20
-117.6048800704252
 30
0.0
 10
87.50973169470244
 20
-117.5203029762623
 30
0.0
 10
87.50973169470244
 20
-117.5203029762623
 30
0.0
 10
87.7298732962099
 20
-117.5203029762623
 30
0.0
 10
87.7298732962099
 20
-117.5203029762623
 30
0.0
 10
87.73194035350105
 20
-117.5943725291952
 30
0.0
 10
87.7422756399568
 20
-117.8291557865149
 30
0.0
 10
88.02580699839285
 20
-117.8291557865149
 30
0.0
 10
88.16326630825432
 20
-117.8291557865149
 30
0.0
 10
88.3158840382509
 20
-117.7593926029386
 30
0.0
 10
88.3158840382509
 20
-117.5308105174923
 30
0.0
 10
88.3158840382509
 20
-117.4145385448651
 30
0.0
 10
88.27764347836462
 20
-117.3657904437488
 30
0.0
 10
88.24594859990032
 20
-117.3340955652845
 30
0.0
 10
88.17187904696745
 20
-117.2600260123517
 30
0.0
 10
88.055434819566
 20
-117.2474514138305
 30
0.0
 10
88.00065780135053
 20
-117.2474514138305
 30
0.0
 10
87.98136526663313
 20
-117.2474514138305
 30
0.0
 10
87.94553627358654
 20
-117.2495184711216
 30
0.0
 10
87.91797550970453
 20
-117.2536525857039
 30
0.0
 10
87.91797550970453
 20
-117.2536525857039
 30
0.0
 10
87.91797550970453
 20
-117.0590046907873
 30
0.0
 10
87.91797550970453
 20
-117.0590046907873
 30
0.0
 10
87.95621606959081
 20
-117.065378117435
 30
0.0
 10
87.99824623451086
 20
-117.0676174295005
 30
0.0
 10
88.00479191593283
 20
-117.0676174295005
 30
0.0
 10
88.07024873015258
 20
-117.0676174295005
 30
0.0
 10
88.2690307396515
 20
-117.0464300922662
 30
0.0
 10
88.2690307396515
 20
-116.809407522881
 30
0.0
 10
88.2690307396515
 20
-116.6318128506164
 30
0.0
 10
88.138117111212
 20
-116.5766913228524
 30
0.0
 10
88.02787405568401
 20
-116.5766913228524
 30
0.0
 10
87.76363523196534
 20
-116.5766913228524
 30
0.0
 10
87.75502249325223
 20
-116.809407522881
 30
0.0
 10
87.75088837866993
 20
-116.8814100185227
 30
0.0
 10
87.75088837866993
 20
-116.8814100185227
 30
0.0
 10
87.54762774504017
 20
-116.8814100185227
 30
0.0
 10
87.54762774504017
 20
-116.8814100185227
 30
0.0
 10
87.5562404837533
 20
-116.7565253071824
 30
0.0
 10
87.58380124763531
 20
-116.3799763706446
 30
0.0
 10
88.04062090897943
 20
-116.3799763706446
 30
0.0
 10
88.2648966250692
 20
-116.3799763706446
 30
0.0
 10
88.50605330903669
 20
-116.5069281392761
 30
0.0
 10
88.50605330903669
 20
-116.8030340962333
 30
0.0
 10
88.50605330903669
 20
-116.989241507211
 30
0.0
 10
88.4109686736438
 20
-117.0717515440828
 30
0.0
 10
88.31140541412007
 20
-117.1330742437202
 30
0.0
 10
88.37272811375752
 20
-117.1606350076022
 30
0.0
 10
88.5546291553787
 20
-117.2410779871828
 30
0.0
 10
88.5546291553787
 20
-117.5182359189711
 30
0.0
 10
88.5546291553787
 20
-117.8567165503969
 30
0.0
 10
88.30727129953777
 20
-118.0238036814316
 30
0.0
 10
88.03028562252368
 20
-118.0238036814316
 30
0.0
  0
HATCH
  5
DE
330
D9
100
AcDbEntity
  8
_U+30EC_U+30A4_U+30E4_U+30FC 1
 62
     7
420
 16777215
100
AcDbHatch
 10
0.0
 20
0.0
 30
0.0
210
0.0
220
0.0
230
1.0
  2
SOLID
 70
     1
 71
     0
 91
        1
 92
        1
 93
        1
 72
     4
 94
        3
 73
     0
 74
     1
 95
       62
 96
       58
 40
0.0
 40
0.0
 40
0.0
 40
0.0
 40
1.0
 40
1.0
 40
1.0
 40
2.0
 40
2.0
 40
2.0
 40
3.0
 40
3.0
 40
3.0
 40
4.0
 40
4.0
 40
4.0
 40
5.0
 40
5.0
 40
5.0
 40
6.0
 40
6.0
 40
6.0
 40
7.0
 40
7.0
 40
7.0
 40
8.0
 40
8.0
 40
8.0
 40
9.0
 40
9.0
 40
9.0
 40
10.0
 40
10.0
 40
10.0
 40
11.0
 40
11.0
 40
11.0
 40
12.0
 40
12.0
 40
12.0
 40
13.0
 40
13.0
 40
13.0
 40
14.0
 40
14.0
 40
14.0
 40
15.0
 40
15.0
 40
15.0
 40
16.0
 40
16.0
 40
16.0
 40
17.0
 40
17.0
 40
17.0
 40
18.0
 40
18.0
 40
18.0
 40
19.0
 40
19.0
 40
19.0
 40
19.0
 10
88.03028562252368
 20
-118.0238036814316
 10
87.93485647758226
 20
-118.0238036814316
 10
87.71712644291448
 20
-118.0026163441973
 10
87.5920694767999
 20
-117.8164089332195
 10
87.51834443341556
 20
-117.7042710751746
 10
87.51386580928474
 20
-117.6048800704252
 10
87.50973169470244
 20
-117.5203029762623
 10
87.50973169470244
 20
-117.5203029762623
 10
87.7298732962099
 20
-117.5203029762623
 10
87.7298732962099
 20
-117.5203029762623
 10
87.73194035350105
 20
-117.5943725291952
 10
87.7422756399568
 20
-117.8291557865149
 10
88.02580699839285
 20
-117.8291557865149
 10
88.16326630825432
 20
-117.8291557865149
 10
88.3158840382509
 20
-117.7593926029386
 10
88.3158840382509
 20
-117.5308105174923
 10
88.3158840382509
 20
-117.4145385448651
 10
88.27764347836462
 20
-117.3657904437488
 10
88.24594859990032
 20
-117.3340955652845
 10
88.17187904696745
 20
-117.2600260123517
 10
88.055434819566
 20
-117.2474514138305
 10
88.00065780135053
 20
-117.2474514138305
 10
87.98136526663313
 20
-117.2474514138305
 10
87.94553627358654
 20
-117.2495184711216
 10
87.91797550970453
 20
-117.2536525857039
 10
87.91797550970453
 20
-117.2536525857039
 10
87.91797550970453
 20
-117.0590046907873
 10
87.91797550970453
 20
-117.0590046907873
 10
87.95621606959081
 20
-117.065378117435
 10
87.99824623451086
 20
-117.0676174295005
 10
88.00479191593283
 20
-117.0676174295005
 10
88.07024873015258
 20
-117.0676174295005
 10
88.2690307396515
 20
-117.0464300922662
 10
88.2690307396515
 20
-116.809407522881
 10
88.2690307396515
 20
-116.6318128506164
 10
88.138117111212
 20
-116.5766913228524
 10
88.02787405568401
 20
-116.5766913228524
 10
87.76363523196534
 20
-116.5766913228524
 10
87.75502249325223
 20
-116.809407522881
 10
87.75088837866993
 20
-116.8814100185227
 10
87.75088837866993
 20
-116.8814100185227
 10
87.54762774504017
 20
-116.8814100185227
 10
87.54762774504017
 20
-116.8814100185227
 10
87.5562404837533
 20
-116.7565253071824
 10
87.58380124763531
 20
-116.3799763706446
 10
88.04062090897943
 20
-116.3799763706446
 10
88.2648966250692
 20
-116.3799763706446
 10
88.50605330903669
 20
-116.5069281392761
 10
88.50605330903669
 20
-116.8030340962333
 10
88.50605330903669
 20
-116.989241507211
 10
88.4109686736438
 20
-117.0717515440828
 10
88.31140541412007
 20
-117.1330742437202
 10
88.37272811375752
 20
-117.1606350076022
 10
88.5546291553787
 20
-117.2410779871828
 10
88.5546291553787
 20
-117.5182359189711
 10
88.5546291553787
 20
-117.8567165503969
 10
88.30727129953777
 20
-118.0238036814316
 10
88.03028562252368
 20
-118.0238036814316
 97
        0
 97
        0
 75
     2
 76
     1
 98
        0
  0
SPLINE
  5
DF
330
D9
100
AcDbEntity
  8
_U+30EC_U+30A4_U+30E4_U+30FC 1
370
     0
100
AcDbSpline
210
0.0
220
0.0
230
1.0
 70
    11
 71
     3
 72
    29
 73
    25
 74
     0
 42
0.0000000001
 43
0.0000000001
 12
1.0
 22
0.0
 32
0.0
 13
1.0
 23
0.0
 33
0.0
 40
0.0
 40
0.0
 40
0.0
 40
0.0
 40
1.0
 40
1.0
 40
1.0
 40
2.0
 40
2.0
 40
2.0
 40
3.0
 40
3.0
 40
3.0
 40
4.0
 40
4.0
 40
4.0
 40
5.0
 40
5.0
 40
5.0
 40
6.0
 40
6.0
 40
6.0
 40
7.0
 40
7.0
 40
7.0
 40
8.0
 40
8.0
 40
8.0
 40
8.0
 10
89.61330699799598
 20
-117.7952215959852
 30
0.0
 10
89.50513099975913
 20
-118.0046834014884
 30
0.0
 10
89.33184269685107
 20
-118.0238036814316
 30
0.0
 10
89.21539846944962
 20
-118.0238036814316
 30
0.0
 10
89.05451251028846
 20
-118.0238036814316
 30
0.0
 10
88.91291908584469
 20
-117.9772948923807
 30
0.0
 10
88.8178344504518
 20
-117.7952215959852
 30
0.0
 10
88.71413707634578
 20
-117.6005737010686
 30
0.0
 10
88.6951890511769
 20
-117.3637233864577
 30
0.0
 10
88.6951890511769
 20
-117.2007703700054
 30
0.0
 10
88.6951890511769
 20
-117.0569376334962
 30
0.0
 10
88.71207001905462
 20
-116.8052734082987
 30
0.0
 10
88.8178344504518
 20
-116.6063191440255
 30
0.0
 10
88.92566593914012
 20
-116.40323076517
 30
0.0
 10
89.08655189830128
 20
-116.3799763706446
 30
0.0
 10
89.21539846944962
 20
-116.3799763706446
 30
0.0
 10
89.37421737131965
 20
-116.3799763706446
 30
0.0
 10
89.51787785305456
 20
-116.4244181024043
 30
0.0
 10
89.61330699799598
 20
-116.6063191440255
 30
0.0
 10
89.71252574797118
 20
-116.798899981651
 30
0.0
 10
89.73595239727088
 20
-117.027309812323
 30
0.0
 10
89.73595239727088
 20
-117.2007703700054
 30
0.0
 10
89.73595239727088
 20
-117.3721638703965
 30
0.0
 10
89.71459280526233
 20
-117.602813013134
 30
0.0
 10
89.61330699799598
 20
-117.7952215959852
 30
0.0
  0
SPLINE
  5
E0
330
D9
100
AcDbEntity
  8
_U+30EC_U+30A4_U+30E4_U+30FC 1
370
     0
100
AcDbSpline
210
0.0
220
0.0
230
1.0
 70
    11
 71
     3
 72
    17
 73
    13
 74
     0
 42
0.0000000001
 43
0.0000000001
 12
1.0
 22
0.0
 32
0.0
 13
1.0
 23
0.0
 33
0.0
 40
0.0
 40
0.0
 40
0.0
 40
0.0
 40
1.0
 40
1.0
 40
1.0
 40
2.0
 40
2.0
 40
2.0
 40
3.0
 40
3.0
 40
3.0
 40
4.0
 40
4.0
 40
4.0
 40
4.0
 10
89.21539846944962
 20
-116.5725572082701
 30
0.0
 10
88.96597355631754
 20
-116.5725572082701
 30
0.0
 10
88.91912025771813
 20
-116.8560885667061
 30
0.0
 10
88.91912025771813
 20
-117.2007703700054
 30
0.0
 10
88.91912025771813
 20
-117.5203029762623
 30
0.0
 10
88.95529376031327
 20
-117.8291557865149
 30
0.0
 10
89.21539846944962
 20
-117.8291557865149
 30
0.0
 10
89.4631008348391
 20
-117.8291557865149
 30
0.0
 10
89.51167668118111
 20
-117.54769148537
 30
0.0
 10
89.51167668118111
 20
-117.2007703700054
 30
0.0
 10
89.51167668118111
 20
-116.8814100185227
 30
0.0
 10
89.47343612129484
 20
-116.5725572082701
 30
0.0
 10
89.21539846944962
 20
-116.5725572082701
 30
0.0
  0
HATCH
  5
E1
330
D9
100
AcDbEntity
  8
_U+30EC_U+30A4_U+30E4_U+30FC 1
 62
     7
420
 16777215
100
AcDbHatch
 10
0.0
 20
0.0
 30
0.0
210
0.0
220
0.0
230
1.0
  2
SOLID
 70
     1
 71
     0
 91
        2
 92
        1
 93
        1
 72
     4
 94
        3
 73
     0
 74
     1
 95
       29
 96
       25
 40
0.0
 40
0.0
 40
0.0
 40
0.0
 40
1.0
 40
1.0
 40
1.0
 40
2.0
 40
2.0
 40
2.0
 40
3.0
 40
3.0
 40
3.0
 40
4.0
 40
4.0
 40
4.0
 40
5.0
 40
5.0
 40
5.0
 40
6.0
 40
6.0
 40
6.0
 40
7.0
 40
7.0
 40
7.0
 40
8.0
 40
8.0
 40
8.0
 40
8.0
 10
89.61330699799598
 20
-117.7952215959852
 10
89.50513099975913
 20
-118.0046834014884
 10
89.33184269685107
 20
-118.0238036814316
 10
89.21539846944962
 20
-118.0238036814316
 10
89.05451251028846
 20
-118.0238036814316
 10
88.91291908584469
 20
-117.9772948923807
 10
88.8178344504518
 20
-117.7952215959852
 10
88.71413707634578
 20
-117.6005737010686
 10
88.6951890511769
 20
-117.3637233864577
 10
88.6951890511769
 20
-117.2007703700054
 10
88.6951890511769
 20
-117.0569376334962
 10
88.71207001905462
 20
-116.8052734082987
 10
88.8178344504518
 20
-116.6063191440255
 10
88.92566593914012
 20
-116.40323076517
 10
89.08655189830128
 20
-116.3799763706446
 10
89.21539846944962
 20
-116.3799763706446
 10
89.37421737131965
 20
-116.3799763706446
 10
89.51787785305456
 20
-116.4244181024043
 10
89.61330699799598
 20
-116.6063191440255
 10
89.71252574797118
 20
-116.798899981651
 10
89.73595239727088
 20
-117.027309812323
 10
89.73595239727088
 20
-117.2007703700054
 10
89.73595239727088
 20
-117.3721638703965
 10
89.71459280526233
 20
-117.602813013134
 10
89.61330699799598
 20
-117.7952215959852
 97
        0
 97
        0
 92
        1
 93
        1
 72
     4
 94
        3
 73
     0
 74
     1
 95
       17
 96
       13
 40
0.0
 40
0.0
 40
0.0
 40
0.0
 40
1.0
 40
1.0
 40
1.0
 40
2.0
 40
2.0
 40
2.0
 40
3.0
 40
3.0
 40
3.0
 40
4.0
 40
4.0
 40
4.0
 40
4.0
 10
89.21539846944962
 20
-116.5725572082701
 10
88.96597355631754
 20
-116.5725572082701
 10
88.91912025771813
 20
-116.8560885667061
 10
88.91912025771813
 20
-117.2007703700054
 10
88.91912025771813
 20
-117.5203029762623
 10
88.95529376031327
 20
-117.8291557865149
 10
89.21539846944962
 20
-117.8291557865149
 10
89.4631008348391
 20
-117.8291557865149
 10
89.51167668118111
 20
-117.54769148537
 10
89.51167668118111
 20
-117.2007703700054
 10
89.51167668118111
 20
-116.8814100185227
 10
89.47343612129484
 20
-116.5725572082701
 10
89.21539846944962
 20
-116.5725572082701
 97
        0
 97
        0
 75
     2
 76
     1
 98
        0
  0
ENDBLK
  5
DC
330
D9
100
AcDbEntity
  8
0
100
AcDbBlockEnd
  0
ENDSEC
  0
SECTION
  2
ENTITIES
  0
INSERT
  5
42
330
1F
100
AcDbEntity
  8
_U+30EC_U+30A4_U+30E4_U+30FC 1
100
AcDbBlockReference
  2
block 2
 10
0.0
 20
0.0
 30
0.0
  0
ENDSEC
  0
SECTION
  2
OBJECTS
  0
DICTIONARY
  5
C
330
0
100
AcDbDictionary
281
     1
  3
ACAD_GROUP
350
D
  3
ACAD_LAYOUT
350
1A
  3
ACAD_MATERIAL
350
3B
  3
ACAD_MLEADERSTYLE
350
E3
  3
ACAD_MLINESTYLE
350
17
  3
ACAD_PLOTSETTINGS
350
19
  3
ACAD_PLOTSTYLENAME
350
E
  3
ACAD_TABLESTYLE
350
E2
  3
ACAD_VISUALSTYLE
350
2A
  0
SUN
  5
3F
330
29
100
AcDbSun
 90
        1
290
     0
 63
     7
421
 16777215
 40
1.0
291
     1
 91
  2455826
 92
 54000000
292
     0
 70
     2
 71
   256
280
     1
  0
DICTIONARY
  5
D
102
{ACAD_REACTORS
330
C
102
}
330
C
100
AcDbDictionary
281
     1
  0
DICTIONARY
  5
1A
102
{ACAD_REACTORS
330
C
102
}
330
C
100
AcDbDictionary
281
     1
  3
Layout1
350
1E
  3
Layout2
350
26
  3
Model
350
22
  0
DICTIONARY
  5
3B
102
{ACAD_REACTORS
330
C
102
}
330
C
100
AcDbDictionary
281
     1
  3
ByBlock
350
3D
  3
ByLayer
350
3C
  3
Global
350
3E
  0
DICTIONARY
  5
E3
102
{ACAD_REACTORS
330
C
102
}
330
C
100
AcDbDictionary
281
     1
  0
DICTIONARY
  5
17
102
{ACAD_REACTORS
330
C
102
}
330
C
100
AcDbDictionary
281
     1
  3
Standard
350
18
  0
DICTIONARY
  5
19
102
{ACAD_REACTORS
330
C
102
}
330
C
100
AcDbDictionary
281
     1
  0
ACDBDICTIONARYWDFLT
  5
E
102
{ACAD_REACTORS
330
C
102
}
330
C
100
AcDbDictionary
281
     1
  3
Normal
350
F
100
AcDbDictionaryWithDefault
340
F
  0
DICTIONARY
  5
E2
102
{ACAD_REACTORS
330
C
102
}
330
C
100
AcDbDictionary
281
     1
  0
DICTIONARY
  5
2A
102
{ACAD_REACTORS
330
C
102
}
330
C
100
AcDbDictionary
281
     1
  3
2dWireframe
350
2F
  3
3D Hidden
350
31
  3
3dWireframe
350
30
  3
Basic
350
32
  3
Brighten
350
36
  3
ColorChange
350
3A
  3
Conceptual
350
34
  3
Dim
350
35
  3
Facepattern
350
39
  3
Flat
350
2B
  3
FlatWithEdges
350
2C
  3
Gouraud
350
2D
  3
GouraudWithEdges
350
2E
  3
Linepattern
350
38
  3
Realistic
350
33
  3
Thicken
350
37
  0
LAYOUT
  5
1E
102
{ACAD_REACTORS
330
1A
102
}
330
1A
100
AcDbPlotSettings
  1

  2
none_device
  4

  6

 40
0.0
 41
0.0
 42
0.0
 43
0.0
 44
0.0
 45
0.0
 46
0.0
 47
0.0
 48
0.0
 49
0.0
140
0.0
141
0.0
142
1.0
143
1.0
 70
   688
 72
     0
 73
     0
 74
     5
  7

 75
    16
 76
     0
 77
     2
 78
   300
147
1.0
148
0.0
149
0.0
100
AcDbLayout
  1
Layout1
 70
     1
 71
     1
 10
0.0
 20
0.0
 11
12.0
 21
9.0
 12
0.0
 22
0.0
 32
0.0
 14
1.000000000000000E+20
 24
1.000000000000000E+20
 34
1.000000000000000E+20
 15
-1.000000000000000E+20
 25
-1.000000000000000E+20
 35
-1.000000000000000E+20
146
0.0
 13
0.0
 23
0.0
 33
0.0
 16
1.0
 26
0.0
 36
0.0
 17
0.0
 27
1.0
 37
0.0
 76
     0
330
1B
  0
LAYOUT
  5
26
102
{ACAD_REACTORS
330
1A
102
}
330
1A
100
AcDbPlotSettings
  1

  2
none_device
  4

  6

 40
0.0
 41
0.0
 42
0.0
 43
0.0
 44
0.0
 45
0.0
 46
0.0
 47
0.0
 48
0.0
 49
0.0
140
0.0
141
0.0
142
1.0
143
1.0
 70
   688
 72
     0
 73
     0
 74
     5
  7

 75
    16
 76
     0
 77
     2
 78
   300
147
1.0
148
0.0
149
0.0
100
AcDbLayout
  1
Layout2
 70
     1
 71
     2
 10
0.0
 20
0.0
 11
0.0
 21
0.0
 12
0.0
 22
0.0
 32
0.0
 14
0.0
 24
0.0
 34
0.0
 15
0.0
 25
0.0
 35
0.0
146
0.0
 13
0.0
 23
0.0
 33
0.0
 16
1.0
 26
0.0
 36
0.0
 17
0.0
 27
1.0
 37
0.0
 76
     0
330
23
  0
LAYOUT
  5
22
102
{ACAD_REACTORS
330
1A
102
}
330
1A
100
AcDbPlotSettings
  1

  2
none_device
  4

  6

 40
0.0
 41
0.0
 42
0.0
 43
0.0
 44
0.0
 45
0.0
 46
0.0
 47
0.0
 48
0.0
 49
0.0
140
0.0
141
0.0
142
1.0
143
1.0
 70
  1712
 72
     0
 73
     0
 74
     0
  7

 75
     0
 76
     0
 77
     2
 78
   300
147
1.0
148
0.0
149
0.0
100
AcDbLayout
  1
Model
 70
     1
 71
     0
 10
0.0
 20
0.0
 11
12.0
 21
9.0
 12
0.0
 22
0.0
 32
0.0
 14
1.000000000000000E+20
 24
1.000000000000000E+20
 34
1.000000000000000E+20
 15
-1.000000000000000E+20
 25
-1.000000000000000E+20
 35
-1.000000000000000E+20
146
0.0
 13
0.0
 23
0.0
 33
0.0
 16
1.0
 26
0.0
 36
0.0
 17
0.0
 27
1.0
 37
0.0
 76
     0
330
1F
331
29
  0
MATERIAL
  5
3D
102
{ACAD_REACTORS
330
3B
102
}
330
3B
100
AcDbMaterial
  1
ByBlock
 72
     1
 94
      127
  0
MATERIAL
  5
3C
102
{ACAD_REACTORS
330
3B
102
}
330
3B
100
AcDbMaterial
  1
ByLayer
 72
     1
 94
      127
  0
MATERIAL
  5
3E
102
{ACAD_REACTORS
330
3B
102
}
330
3B
100
AcDbMaterial
  1
Global
 72
     1
 94
      127
  0
MLINESTYLE
  5
18
102
{ACAD_REACTORS
330
17
102
}
330
17
100
AcDbMlineStyle
  2
Standard
 70
     0
  3

 62
   256
 51
90.0
 52
90.0
 71
     2
 49
0.5
 62
   256
  6
BYLAYER
 49
-0.5
 62
   256
  6
BYLAYER
  0
ACDBPLACEHOLDER
  5
F
102
{ACAD_REACTORS
330
E
102
}
330
E
  0
VISUALSTYLE
  5
2F
102
{ACAD_REACTORS
330
2A
102
}
330
2A
100
AcDbVisualStyle
  2
2dWireframe
 70
     4
177
     2
291
     0
 71
     0
176
     1
 72
     2
176
     1
 73
     0
176
     1
 90
        0
176
     1
 40
-0.6
176
     1
 41
-30.0
176
     1
 62
     5
 63
     7
421
 16777215
176
     1
 74
     1
176
     1
 91
        4
176
     1
 64
     7
176
     1
 65
   257
176
     1
 75
     1
176
     1
175
     1
176
     1
 42
1.0
176
     1
 92
        0
176
     1
 66
   257
176
     1
 43
1.0
176
     1
 76
     1
176
     1
 77
     6
176
     1
 78
     2
176
     1
 67
     7
176
     1
 79
     5
176
     1
170
     0
176
     1
171
     0
176
     1
290
     0
176
     1
 93
        1
176
     1
 44
0.0
176
     1
173
     0
176
     1
  0
VISUALSTYLE
  5
31
102
{ACAD_REACTORS
330
2A
102
}
330
2A
100
AcDbVisualStyle
  2
3D Hidden
 70
     6
177
     2
291
     0
 71
     1
176
     1
 72
     2
176
     1
 73
     2
176
     1
 90
        0
176
     1
 40
-0.6
176
     1
 41
-30.0
176
     1
 62
     5
 63
     7
421
 16777215
176
     1
 74
     2
176
     1
 91
        2
176
     1
 64
     7
176
     1
 65
   257
176
     1
 75
     2
176
     1
175
     1
176
     1
 42
40.0
176
     1
 92
        0
176
     1
 66
   257
176
     1
 43
1.0
176
     1
 76
     1
176
     1
 77
     6
176
     1
 78
     2
176
     1
 67
     7
176
     1
 79
     3
176
     1
170
     0
176
     1
171
     0
176
     1
290
     0
176
     1
 93
        1
176
     1
 44
0.0
176
     1
173
     0
176
     1
  0
VISUALSTYLE
  5
30
102
{ACAD_REACTORS
330
2A
102
}
330
2A
100
AcDbVisualStyle
  2
3dWireframe
 70
     5
177
     2
291
     0
 71
     0
176
     1
 72
     2
176
     1
 73
     0
176
     1
 90
        0
176
     1
 40
-0.6
176
     1
 41
-30.0
176
     1
 62
     5
 63
     7
421
 16777215
176
     1
 74
     1
176
     1
 91
        4
176
     1
 64
     7
176
     1
 65
   257
176
     1
 75
     1
176
     1
175
     1
176
     1
 42
1.0
176
     1
 92
        0
176
     1
 66
   257
176
     1
 43
1.0
176
     1
 76
     1
176
     1
 77
     6
176
     1
 78
     2
176
     1
 67
     7
176
     1
 79
     5
176
     1
170
     0
176
     1
171
     0
176
     1
290
     0
176
     1
 93
        1
176
     1
 44
0.0
176
     1
173
     0
176
     1
  0
VISUALSTYLE
  5
32
102
{ACAD_REACTORS
330
2A
102
}
330
2A
100
AcDbVisualStyle
  2
Basic
 70
     7
177
     2
291
     1
 71
     1
176
     1
 72
     0
176
     1
 73
     1
176
     1
 90
        0
176
     1
 40
-0.6
176
     1
 41
-30.0
176
     1
 62
     5
 63
     7
421
 16777215
176
     1
 74
     0
176
     1
 91
        4
176
     1
 64
     7
176
     1
 65
   257
176
     1
 75
     1
176
     1
175
     1
176
     1
 42
1.0
176
     1
 92
        8
176
     1
 66
     7
176
     1
 43
1.0
176
     1
 76
     1
176
     1
 77
     6
176
     1
 78
     2
176
     1
 67
     7
176
     1
 79
     5
176
     1
170
     0
176
     1
171
     0
176
     1
290
     0
176
     1
 93
        1
176
     1
 44
0.0
176
     1
173
     0
176
     1
  0
VISUALSTYLE
  5
36
102
{ACAD_REACTORS
330
2A
102
}
330
2A
100
AcDbVisualStyle
  2
Brighten
 70
    12
177
     2
291
     1
 71
     2
176
     1
 72
     2
176
     1
 73
     0
176
     1
 90
        0
176
     1
 40
-0.6
176
     1
 41
-30.0
176
     1
 62
     5
 63
     7
421
 16777215
176
     1
 74
     1
176
     1
 91
        4
176
     1
 64
     7
176
     1
 65
   257
176
     1
 75
     1
176
     1
175
     1
176
     1
 42
1.0
176
     1
 92
        8
176
     1
 66
     7
176
     1
 43
1.0
176
     1
 76
     1
176
     1
 77
     6
176
     1
 78
     2
176
     1
 67
     7
176
     1
 79
     5
176
     1
170
     0
176
     1
171
     0
176
     1
290
     0
176
     1
 93
        1
176
     1
 44
50.0
176
     1
173
     0
176
     1
  0
VISUALSTYLE
  5
3A
102
{ACAD_REACTORS
330
2A
102
}
330
2A
100
AcDbVisualStyle
  2
ColorChange
 70
    16
177
     2
291
     1
 71
     2
176
     1
 72
     2
176
     1
 73
     3
176
     1
 90
        0
176
     1
 40
-0.6
176
     1
 41
-30.0
176
     1
 62
     5
 63
     8
421
  8421504
176
     1
 74
     1
176
     1
 91
        4
176
     1
 64
     7
176
     1
 65
   257
176
     1
 75
     1
176
     1
175
     1
176
     1
 42
1.0
176
     1
 92
        8
176
     1
 66
     8
424
  8421504
176
     1
 43
1.0
176
     1
 76
     1
176
     1
 77
     6
176
     1
 78
     2
176
     1
 67
     7
176
     1
 79
     5
176
     1
170
     0
176
     1
171
     0
176
     1
290
     0
176
     1
 93
        1
176
     1
 44
0.0
176
     1
173
     0
176
     1
  0
VISUALSTYLE
  5
34
102
{ACAD_REACTORS
330
2A
102
}
330
2A
100
AcDbVisualStyle
  2
Conceptual
 70
     9
177
     2
291
     0
 71
     3
176
     1
 72
     2
176
     1
 73
     0
176
     1
 90
        0
176
     1
 40
-0.6
176
     1
 41
-30.0
176
     1
 62
     5
 63
     7
421
 16777215
176
     1
 74
     2
176
     1
 91
        2
176
     1
 64
     7
176
     1
 65
   257
176
     1
 75
     1
176
     1
175
     1
176
     1
 42
40.0
176
     1
 92
        8
176
     1
 66
     7
176
     1
 43
1.0
176
     1
 76
     1
176
     1
 77
     6
176
     1
 78
     2
176
     1
 67
     7
176
     1
 79
     3
176
     1
170
     0
176
     1
171
     0
176
     1
290
     0
176
     1
 93
        1
176
     1
 44
0.0
176
     1
173
     0
176
     1
  0
VISUALSTYLE
  5
35
102
{ACAD_REACTORS
330
2A
102
}
330
2A
100
AcDbVisualStyle
  2
Dim
 70
    11
177
     2
291
     1
 71
     2
176
     1
 72
     2
176
     1
 73
     0
176
     1
 90
        0
176
     1
 40
-0.6
176
     1
 41
-30.0
176
     1
 62
     5
 63
     7
421
 16777215
176
     1
 74
     1
176
     1
 91
        4
176
     1
 64
     7
176
     1
 65
   257
176
     1
 75
     1
176
     1
175
     1
176
     1
 42
1.0
176
     1
 92
        8
176
     1
 66
     7
176
     1
 43
1.0
176
     1
 76
     1
176
     1
 77
     6
176
     1
 78
     2
176
     1
 67
     7
176
     1
 79
     5
176
     1
170
     0
176
     1
171
     0
176
     1
290
     0
176
     1
 93
        1
176
     1
 44
-50.0
176
     1
173
     0
176
     1
  0
VISUALSTYLE
  5
39
102
{ACAD_REACTORS
330
2A
102
}
330
2A
100
AcDbVisualStyle
  2
Facepattern
 70
    15
177
     2
291
     1
 71
     2
176
     1
 72
     2
176
     1
 73
     0
176
     1
 90
        0
176
     1
 40
-0.6
176
     1
 41
-30.0
176
     1
 62
     5
 63
     7
421
 16777215
176
     1
 74
     1
176
     1
 91
        4
176
     1
 64
     7
176
     1
 65
   257
176
     1
 75
     1
176
     1
175
     1
176
     1
 42
1.0
176
     1
 92
        8
176
     1
 66
     7
176
     1
 43
1.0
176
     1
 76
     1
176
     1
 77
     6
176
     1
 78
     2
176
     1
 67
     7
176
     1
 79
     5
176
     1
170
     0
176
     1
171
     0
176
     1
290
     0
176
     1
 93
        1
176
     1
 44
0.0
176
     1
173
     0
176
     1
  0
VISUALSTYLE
  5
2B
102
{ACAD_REACTORS
330
2A
102
}
330
2A
100
AcDbVisualStyle
  2
Flat
 70
     0
177
     2
291
     1
 71
     2
176
     1
 72
     1
176
     1
 73
     1
176
     1
 90
        2
176
     1
 40
-0.6
176
     1
 41
30.0
176
     1
 62
     5
 63
     7
421
 16777215
176
     1
 74
     0
176
     1
 91
        4
176
     1
 64
     7
176
     1
 65
   257
176
     1
 75
     1
176
     1
175
     1
176
     1
 42
1.0
176
     1
 92
        8
176
     1
 66
     7
176
     1
 43
1.0
176
     1
 76
     1
176
     1
 77
     6
176
     1
 78
     2
176
     1
 67
     7
176
     1
 79
     5
176
     1
170
     0
176
     1
171
     0
176
     1
290
     0
176
     1
 93
       13
176
     1
 44
0.0
176
     1
173
     0
176
     1
  0
VISUALSTYLE
  5
2C
102
{ACAD_REACTORS
330
2A
102
}
330
2A
100
AcDbVisualStyle
  2
FlatWithEdges
 70
     1
177
     2
291
     1
 71
     2
176
     1
 72
     1
176
     1
 73
     1
176
     1
 90
        2
176
     1
 40
-0.6
176
     1
 41
30.0
176
     1
 62
     5
 63
     7
421
 16777215
176
     1
 74
     1
176
     1
 91
        4
176
     1
 64
     7
176
     1
 65
   257
176
     1
 75
     1
176
     1
175
     1
176
     1
 42
1.0
176
     1
 92
        0
176
     1
 66
   257
176
     1
 43
1.0
176
     1
 76
     1
176
     1
 77
     6
176
     1
 78
     2
176
     1
 67
     7
176
     1
 79
     5
176
     1
170
     0
176
     1
171
     0
176
     1
290
     0
176
     1
 93
       13
176
     1
 44
0.0
176
     1
173
     0
176
     1
  0
VISUALSTYLE
  5
2D
102
{ACAD_REACTORS
330
2A
102
}
330
2A
100
AcDbVisualStyle
  2
Gouraud
 70
     2
177
     2
291
     1
 71
     2
176
     1
 72
     2
176
     1
 73
     1
176
     1
 90
        2
176
     1
 40
-0.6
176
     1
 41
30.0
176
     1
 62
     5
 63
     7
421
 16777215
176
     1
 74
     0
176
     1
 91
        4
176
     1
 64
     7
176
     1
 65
   257
176
     1
 75
     1
176
     1
175
     1
176
     1
 42
1.0
176
     1
 92
        0
176
     1
 66
     7
176
     1
 43
1.0
176
     1
 76
     1
176
     1
 77
     6
176
     1
 78
     2
176
     1
 67
     7
176
     1
 79
     5
176
     1
170
     0
176
     1
171
     0
176
     1
290
     0
176
     1
 93
       13
176
     1
 44
0.0
176
     1
173
     0
176
     1
  0
VISUALSTYLE
  5
2E
102
{ACAD_REACTORS
330
2A
102
}
330
2A
100
AcDbVisualStyle
  2
GouraudWithEdges
 70
     3
177
     2
291
     1
 71
     2
176
     1
 72
     2
176
     1
 73
     1
176
     1
 90
        2
176
     1
 40
-0.6
176
     1
 41
30.0
176
     1
 62
     5
 63
     7
421
 16777215
176
     1
 74
     1
176
     1
 91
        4
176
     1
 64
     7
176
     1
 65
   257
176
     1
 75
     1
176
     1
175
     1
176
     1
 42
1.0
176
     1
 92
        0
176
     1
 66
   257
176
     1
 43
1.0
176
     1
 76
     1
176
     1
 77
     6
176
     1
 78
     2
176
     1
 67
     7
176
     1
 79
     5
176
     1
170
     0
176
     1
171
     0
176
     1
290
     0
176
     1
 93
       13
176
     1
 44
0.0
176
     1
173
     0
176
     1
  0
VISUALSTYLE
  5
38
102
{ACAD_REACTORS
330
2A
102
}
330
2A
100
AcDbVisualStyle
  2
Linepattern
 70
    14
177
     2
291
     1
 71
     2
176
     1
 72
     2
176
     1
 73
     0
176
     1
 90
        0
176
     1
 40
-0.6
176
     1
 41
-30.0
176
     1
 62
     5
 63
     7
421
 16777215
176
     1
 74
     1
176
     1
 91
        4
176
     1
 64
     7
176
     1
 65
   257
176
     1
 75
     7
176
     1
175
     7
176
     1
 42
1.0
176
     1
 92
        8
176
     1
 66
     7
176
     1
 43
1.0
176
     1
 76
     1
176
     1
 77
     6
176
     1
 78
     2
176
     1
 67
     7
176
     1
 79
     5
176
     1
170
     0
176
     1
171
     0
176
     1
290
     0
176
     1
 93
        1
176
     1
 44
0.0
176
     1
173
     0
176
     1
  0
VISUALSTYLE
  5
33
102
{ACAD_REACTORS
330
2A
102
}
330
2A
100
AcDbVisualStyle
  2
Realistic
 70
     8
177
     2
291
     0
 71
     2
176
     1
 72
     2
176
     1
 73
     0
176
     1
 90
        0
176
     1
 40
-0.6
176
     1
 41
-30.0
176
     1
 62
     5
 63
     7
421
 16777215
176
     1
 74
     1
176
     1
 91
        0
176
     1
 64
     7
176
     1
 65
   257
176
     1
 75
     1
176
     1
175
     1
176
     1
 42
1.0
176
     1
 92
        8
176
     1
 66
     8
424
  7895160
176
     1
 43
1.0
176
     1
 76
     1
176
     1
 77
     6
176
     1
 78
     2
176
     1
 67
     7
176
     1
 79
     5
176
     1
170
     0
176
     1
171
     0
176
     1
290
     0
176
     1
 93
       13
176
     1
 44
0.0
176
     1
173
     0
176
     1
  0
VISUALSTYLE
  5
37
102
{ACAD_REACTORS
330
2A
102
}
330
2A
100
AcDbVisualStyle
  2
Thicken
 70
    13
177
     2
291
     1
 71
     2
176
     1
 72
     2
176
     1
 73
     0
176
     1
 90
        0
176
     1
 40
-0.6
176
     1
 41
-30.0
176
     1
 62
     5
 63
     7
421
 16777215
176
     1
 74
     1
176
     1
 91
        4
176
     1
 64
     7
176
     1
 65
   257
176
     1
 75
     1
176
     1
175
     1
176
     1
 42
1.0
176
     1
 92
       12
176
     1
 66
     7
176
     1
 43
1.0
176
     1
 76
     1
176
     1
 77
     6
176
     1
 78
     2
176
     1
 67
     7
176
     1
 79
     5
176
     1
170
     0
176
     1
171
     0
176
     1
290
     0
176
     1
 93
        1
176
     1
 44
0.0
176
     1
173
     0
176
     1
  0
ENDSEC
  0
EOF
