  0
SECTION
  2
HEADER
  9
$ACADVER
  1
AC1024
  9
$ACADMAINTVER
 70
     6
  9
$DWGCODEPAGE
  3
UNDEFINED
  9
$INSBASE
 10
0.0
 20
0.0
 30
0.0
  9
$EXTMIN
 10
1.000000000000000E+20
 20
1.000000000000000E+20
 30
1.000000000000000E+20
  9
$EXTMAX
 10
-1.000000000000000E+20
 20
-1.000000000000000E+20
 30
-1.000000000000000E+20
  9
$LIMMIN
 10
0.0
 20
0.0
  9
$LIMMAX
 10
12.0
 20
9.0
  9
$ORTHOMODE
 70
     0
  9
$REGENMODE
 70
     1
  9
$FILLMODE
 70
     1
  9
$QTEXTMODE
 70
     0
  9
$MIRRTEXT
 70
     1
  9
$LTSCALE
 40
1.0
  9
$ATTMODE
 70
     1
  9
$TEXTSIZE
 40
0.2
  9
$TRACEWID
 40
0.05
  9
$TEXTSTYLE
  7
Standard
  9
$CLAYER
  8
0
  9
$CELTYPE
  6
ByLayer
  9
$CECOLOR
 62
   256
  9
$CELTSCALE
 40
1.0
  9
$DISPSILH
 70
     0
  9
$DIMSCALE
 40
1.0
  9
$DIMASZ
 40
0.18
  9
$DIMEXO
 40
0.0625
  9
$DIMDLI
 40
0.38
  9
$DIMRND
 40
0.0
  9
$DIMDLE
 40
0.0
  9
$DIMEXE
 40
0.18
  9
$DIMTP
 40
0.0
  9
$DIMTM
 40
0.0
  9
$DIMTXT
 40
0.18
  9
$DIMCEN
 40
0.09
  9
$DIMTSZ
 40
0.0
  9
$DIMTOL
 70
     0
  9
$DIMLIM
 70
     0
  9
$DIMTIH
 70
     1
  9
$DIMTOH
 70
     1
  9
$DIMSE1
 70
     0
  9
$DIMSE2
 70
     0
  9
$DIMTAD
 70
     0
  9
$DIMZIN
 70
     0
  9
$DIMBLK
  1

  9
$DIMASO
 70
     1
  9
$DIMSHO
 70
     1
  9
$DIMPOST
  1

  9
$DIMAPOST
  1

  9
$DIMALT
 70
     0
  9
$DIMALTD
 70
     2
  9
$DIMALTF
 40
25.4
  9
$DIMLFAC
 40
1.0
  9
$DIMTOFL
 70
     0
  9
$DIMTVP
 40
0.0
  9
$DIMTIX
 70
     0
  9
$DIMSOXD
 70
     0
  9
$DIMSAH
 70
     0
  9
$DIMBLK1
  1

  9
$DIMBLK2
  1

  9
$DIMSTYLE
  2
Standard
  9
$DIMCLRD
 70
     0
  9
$DIMCLRE
 70
     0
  9
$DIMCLRT
 70
     0
  9
$DIMTFAC
 40
1.0
  9
$DIMGAP
 40
0.09
  9
$DIMJUST
 70
     0
  9
$DIMSD1
 70
     0
  9
$DIMSD2
 70
     0
  9
$DIMTOLJ
 70
     1
  9
$DIMTZIN
 70
     0
  9
$DIMALTZ
 70
     0
  9
$DIMALTTZ
 70
     0
  9
$DIMUPT
 70
     0
  9
$DIMDEC
 70
     4
  9
$DIMTDEC
 70
     4
  9
$DIMALTU
 70
     2
  9
$DIMALTTD
 70
     2
  9
$DIMTXSTY
  7
Standard
  9
$DIMAUNIT
 70
     0
  9
$DIMADEC
 70
     0
  9
$DIMALTRND
 40
0.0
  9
$DIMAZIN
 70
     0
  9
$DIMDSEP
 70
    46
  9
$DIMATFIT
 70
     3
  9
$DIMFRAC
 70
     0
  9
$DIMLDRBLK
  1

  9
$DIMLUNIT
 70
     2
  9
$DIMLWD
 70
    -2
  9
$DIMLWE
 70
    -2
  9
$DIMTMOVE
 70
     0
  9
$DIMFXL
 40
1.0
  9
$DIMFXLON
 70
     0
  9
$DIMJOGANG
 40
0.7853981633974483
  9
$DIMTFILL
 70
     0
  9
$DIMTFILLCLR
 70
     0
  9
$DIMARCSYM
 70
     0
  9
$DIMLTYPE
  6

  9
$DIMLTEX1
  6

  9
$DIMLTEX2
  6

  9
$DIMTXTDIRECTION
 70
     0
  9
$LUNITS
 70
     2
  9
$LUPREC
 70
     4
  9
$SKETCHINC
 40
0.1
  9
$FILLETRAD
 40
0.5
  9
$AUNITS
 70
     0
  9
$AUPREC
 70
     0
  9
$MENU
  1
.
  9
$ELEVATION
 40
0.0
  9
$PELEVATION
 40
0.0
  9
$THICKNESS
 40
0.0
  9
$LIMCHECK
 70
     0
  9
$CHAMFERA
 40
0.5
  9
$CHAMFERB
 40
0.5
  9
$CHAMFERC
 40
1.0
  9
$CHAMFERD
 40
0.0
  9
$SKPOLY
 70
     0
  9
$TDCREATE
 40
2457917.616030093
  9
$TDUCREATE
 40
2457917.241030093
  9
$TDUPDATE
 40
2457917.616030093
  9
$TDUUPDATE
 40
2457917.241030093
  9
$TDINDWG
 40
0.0000000116
  9
$TDUSRTIMER
 40
0.0000000116
  9
$USRTIMER
 70
     1
  9
$ANGBASE
 50
0.0
  9
$ANGDIR
 70
     0
  9
$PDMODE
 70
     0
  9
$PDSIZE
 40
0.0
  9
$PLINEWID
 40
0.0
  9
$SPLFRAME
 70
     0
  9
$SPLINETYPE
 70
     6
  9
$SPLINESEGS
 70
     8
  9
$HANDSEED
  5
E1
  9
$SURFTAB1
 70
     6
  9
$SURFTAB2
 70
     6
  9
$SURFTYPE
 70
     6
  9
$SURFU
 70
     6
  9
$SURFV
 70
     6
  9
$UCSBASE
  2

  9
$UCSNAME
  2

  9
$UCSORG
 10
0.0
 20
0.0
 30
0.0
  9
$UCSXDIR
 10
1.0
 20
0.0
 30
0.0
  9
$UCSYDIR
 10
0.0
 20
1.0
 30
0.0
  9
$UCSORTHOREF
  2

  9
$UCSORTHOVIEW
 70
     0
  9
$UCSORGTOP
 10
0.0
 20
0.0
 30
0.0
  9
$UCSORGBOTTOM
 10
0.0
 20
0.0
 30
0.0
  9
$UCSORGLEFT
 10
0.0
 20
0.0
 30
0.0
  9
$UCSORGRIGHT
 10
0.0
 20
0.0
 30
0.0
  9
$UCSORGFRONT
 10
0.0
 20
0.0
 30
0.0
  9
$UCSORGBACK
 10
0.0
 20
0.0
 30
0.0
  9
$PUCSBASE
  2

  9
$PUCSNAME
  2

  9
$PUCSORG
 10
0.0
 20
0.0
 30
0.0
  9
$PUCSXDIR
 10
1.0
 20
0.0
 30
0.0
  9
$PUCSYDIR
 10
0.0
 20
1.0
 30
0.0
  9
$PUCSORTHOREF
  2

  9
$PUCSORTHOVIEW
 70
     0
  9
$PUCSORGTOP
 10
0.0
 20
0.0
 30
0.0
  9
$PUCSORGBOTTOM
 10
0.0
 20
0.0
 30
0.0
  9
$PUCSORGLEFT
 10
0.0
 20
0.0
 30
0.0
  9
$PUCSORGRIGHT
 10
0.0
 20
0.0
 30
0.0
  9
$PUCSORGFRONT
 10
0.0
 20
0.0
 30
0.0
  9
$PUCSORGBACK
 10
0.0
 20
0.0
 30
0.0
  9
$USERI1
 70
     0
  9
$USERI2
 70
     0
  9
$USERI3
 70
     0
  9
$USERI4
 70
     0
  9
$USERI5
 70
     0
  9
$USERR1
 40
0.0
  9
$USERR2
 40
0.0
  9
$USERR3
 40
0.0
  9
$USERR4
 40
0.0
  9
$USERR5
 40
0.0
  9
$WORLDVIEW
 70
     1
  9
$SHADEDGE
 70
     3
  9
$SHADEDIF
 70
    70
  9
$TILEMODE
 70
     1
  9
$MAXACTVP
 70
    64
  9
$PINSBASE
 10
0.0
 20
0.0
 30
0.0
  9
$PLIMCHECK
 70
     0
  9
$PEXTMIN
 10
1.000000000000000E+20
 20
1.000000000000000E+20
 30
1.000000000000000E+20
  9
$PEXTMAX
 10
-1.000000000000000E+20
 20
-1.000000000000000E+20
 30
-1.000000000000000E+20
  9
$PLIMMIN
 10
0.0
 20
0.0
  9
$PLIMMAX
 10
12.0
 20
9.0
  9
$UNITMODE
 70
     0
  9
$VISRETAIN
 70
     1
  9
$PLINEGEN
 70
     0
  9
$PSLTSCALE
 70
     1
  9
$TREEDEPTH
 70
  3020
  9
$CMLSTYLE
  2
Standard
  9
$CMLJUST
 70
     0
  9
$CMLSCALE
 40
1.0
  9
$PROXYGRAPHICS
 70
     1
  9
$MEASUREMENT
 70
     0
  9
$CELWEIGHT
370
    -1
  9
$ENDCAPS
280
     0
  9
$JOINSTYLE
280
     0
  9
$LWDISPLAY
290
     1
  9
$INSUNITS
 70
     1
  9
$HYPERLINKBASE
  1

  9
$STYLESHEET
  1

  9
$XEDIT
290
     1
  9
$CEPSNTYPE
380
     0
  9
$PSTYLEMODE
290
     1
  9
$FINGERPRINTGUID
  2
{6AEEBF77-DBFC-10B1-F66A-C20413CCE6E1}
  9
$VERSIONGUID
  2
{FAEB1C32-E019-11D5-929B-00C0DF256EC4}
  9
$EXTNAMES
290
     1
  9
$PSVPSCALE
 40
0.0
  9
$OLESTARTUP
290
     0
  9
$SORTENTS
280
   127
  9
$INDEXCTL
280
     0
  9
$HIDETEXT
280
     1
  9
$XCLIPFRAME
280
     2
  9
$HALOGAP
280
     0
  9
$OBSCOLOR
 70
   257
  9
$OBSLTYPE
280
     0
  9
$INTERSECTIONDISPLAY
280
     0
  9
$INTERSECTIONCOLOR
 70
   257
  9
$DIMASSOC
280
     2
  9
$PROJECTNAME
  1

  9
$CAMERADISPLAY
290
     0
  9
$LENSLENGTH
 40
50.0
  9
$CAMERAHEIGHT
 40
0.0
  9
$STEPSPERSEC
 40
2.0
  9
$STEPSIZE
 40
6.0
  9
$3DDWFPREC
 40
2.0
  9
$PSOLWIDTH
 40
0.25
  9
$PSOLHEIGHT
 40
4.0
  9
$LOFTANG1
 40
1.570796326794897
  9
$LOFTANG2
 40
1.570796326794897
  9
$LOFTMAG1
 40
0.0
  9
$LOFTMAG2
 40
0.0
  9
$LOFTPARAM
 70
     7
  9
$LOFTNORMALS
280
     1
  9
$LATITUDE
 40
37.795
  9
$LONGITUDE
 40
-122.394
  9
$NORTHDIRECTION
 40
0.0
  9
$TIMEZONE
 70
 -8000
  9
$LIGHTGLYPHDISPLAY
280
     1
  9
$TILEMODELIGHTSYNCH
280
     1
  9
$CMATERIAL
347
3C
  9
$SOLIDHIST
280
     1
  9
$SHOWHIST
280
     1
  9
$DWFFRAME
280
     2
  9
$DGNFRAME
280
     2
  9
$REALWORLDSCALE
290
     1
  9
$INTERFERECOLOR
 62
   256
  9
$CSHADOW
280
     0
  9
$SHADOWPLANELOCATION
 40
0.0
  0
ENDSEC
  0
SECTION
  2
CLASSES
  0
CLASS
  1
ACDBDICTIONARYWDFLT
  2
AcDbDictionaryWithDefault
  3
ObjectDBX Classes
 90
        0
 91
        4
280
     0
281
     0
  0
CLASS
  1
VISUALSTYLE
  2
AcDbVisualStyle
  3
ObjectDBX Classes
 90
     4095
 91
        4
280
     0
281
     0
  0
CLASS
  1
MATERIAL
  2
AcDbMaterial
  3
ObjectDBX Classes
 90
     1153
 91
        4
280
     0
281
     0
  0
CLASS
  1
SUN
  2
AcDbSun
  3
SCENEOE
 90
     1024
 91
        4
280
     0
281
     0
  0
ENDSEC
  0
SECTION
  2
TABLES
  0
TABLE
  2
VPORT
  5
8
330
0
100
AcDbSymbolTable
 70
     1
  0
VPORT
  5
29
330
8
100
AcDbSymbolTableRecord
100
AcDbViewportTableRecord
  2
*Active
 70
     0
 10
0.0
 20
0.0
 11
1.0
 21
1.0
 12
0.0
 22
0.0
 13
0.0
 23
0.0
 14
0.5
 24
0.5
 15
0.5
 25
0.5
 16
0.0
 26
0.0
 36
1.0
 17
91.00082462281999
 27
-128.4993055234307
 37
0.0
 40
256.9986110468615
 41
0.7081814508812795
 42
50.0
 43
0.0
 44
0.0
 50
0.0
 51
0.0
 71
     0
 72
   100
 73
     1
 74
     3
 75
     0
 76
     0
 77
     0
 78
     0
281
     0
 65
     1
110
0.0
120
0.0
130
0.0
111
1.0
121
0.0
131
0.0
112
0.0
122
1.0
132
0.0
 79
     0
146
0.0
 60
     3
 61
     5
292
     1
282
     1
141
0.0
142
0.0
 63
   250
361
3F
  0
ENDTAB
  0
TABLE
  2
LTYPE
  5
5
330
0
100
AcDbSymbolTable
 70
     1
  0
LTYPE
  5
14
330
5
100
AcDbSymbolTableRecord
100
AcDbLinetypeTableRecord
  2
ByBlock
 70
     0
  3

 72
    65
 73
     0
 40
0.0
  0
LTYPE
  5
15
330
5
100
AcDbSymbolTableRecord
100
AcDbLinetypeTableRecord
  2
ByLayer
 70
     0
  3

 72
    65
 73
     0
 40
0.0
  0
LTYPE
  5
16
330
5
100
AcDbSymbolTableRecord
100
AcDbLinetypeTableRecord
  2
Continuous
 70
     0
  3
Solid line
 72
    65
 73
     0
 40
0.0
  0
ENDTAB
  0
TABLE
  2
LAYER
  5
2
330
0
100
AcDbSymbolTable
 70
     2
  0
LAYER
  5
10
330
2
100
AcDbSymbolTableRecord
100
AcDbLayerTableRecord
  2
0
 70
     0
 62
     7
  6
Continuous
370
    -3
390
F
347
3E
  0
LAYER
  5
40
330
2
100
AcDbSymbolTableRecord
100
AcDbLayerTableRecord
  2
_U+30EC_U+30A4_U+30E4_U+30FC 1
 70
     0
 62
     7
  6
Continuous
370
    -3
390
F
347
3E
  0
ENDTAB
  0
TABLE
  2
STYLE
  5
3
330
0
100
AcDbSymbolTable
 70
     1
  0
STYLE
  5
11
330
3
100
AcDbSymbolTableRecord
100
AcDbTextStyleTableRecord
  2
Standard
 70
     0
 40
0.0
 41
1.0
 50
0.0
 71
     0
 42
0.2
  3
txt
  4

  0
ENDTAB
  0
TABLE
  2
VIEW
  5
6
330
0
100
AcDbSymbolTable
 70
     0
  0
ENDTAB
  0
TABLE
  2
UCS
  5
7
330
0
100
AcDbSymbolTable
 70
     0
  0
ENDTAB
  0
TABLE
  2
APPID
  5
9
330
0
100
AcDbSymbolTable
 70
     1
  0
APPID
  5
12
330
9
100
AcDbSymbolTableRecord
100
AcDbRegAppTableRecord
  2
ACAD
 70
     0
  0
ENDTAB
  0
TABLE
  2
DIMSTYLE
  5
A
330
0
100
AcDbSymbolTable
 70
     1
100
AcDbDimStyleTable
  0
DIMSTYLE
105
27
330
A
100
AcDbSymbolTableRecord
100
AcDbDimStyleTableRecord
  2
Standard
 70
     0
178
     0
340
11
  0
ENDTAB
  0
TABLE
  2
BLOCK_RECORD
  5
1
330
0
100
AcDbSymbolTable
 70
     7
  0
BLOCK_RECORD
  5
1F
330
1
100
AcDbSymbolTableRecord
100
AcDbBlockTableRecord
  2
*Model_Space
340
22
 70
     0
280
     1
281
     0
  0
BLOCK_RECORD
  5
1B
330
1
100
AcDbSymbolTableRecord
100
AcDbBlockTableRecord
  2
*Paper_Space
340
1E
 70
     0
280
     1
281
     0
  0
BLOCK_RECORD
  5
23
330
1
100
AcDbSymbolTableRecord
100
AcDbBlockTableRecord
  2
*Paper_Space0
340
26
 70
     0
280
     1
281
     0
  0
BLOCK_RECORD
  5
41
330
1
100
AcDbSymbolTableRecord
100
AcDbBlockTableRecord
  2
block 2
340
0
102
{BLKREFS
331
42
102
}
 70
     0
280
     1
281
     0
  0
BLOCK_RECORD
  5
93
330
1
100
AcDbSymbolTableRecord
100
AcDbBlockTableRecord
  2
block 3
340
0
102
{BLKREFS
331
94
102
}
 70
     0
280
     1
281
     0
  0
BLOCK_RECORD
  5
A1
330
1
100
AcDbSymbolTableRecord
100
AcDbBlockTableRecord
  2
block 4
340
0
102
{BLKREFS
331
A2
102
}
 70
     0
280
     1
281
     0
  0
BLOCK_RECORD
  5
AF
330
1
100
AcDbSymbolTableRecord
100
AcDbBlockTableRecord
  2
block 5
340
0
102
{BLKREFS
331
B0
102
}
 70
     0
280
     1
281
     0
  0
BLOCK_RECORD
  5
C1
330
1
100
AcDbSymbolTableRecord
100
AcDbBlockTableRecord
  2
block 6
340
0
102
{BLKREFS
331
C2
102
}
 70
     0
280
     1
281
     0
  0
BLOCK_RECORD
  5
D6
330
1
100
AcDbSymbolTableRecord
100
AcDbBlockTableRecord
  2
block 7
340
0
102
{BLKREFS
331
D7
102
}
 70
     0
280
     1
281
     0
  0
ENDTAB
  0
ENDSEC
  0
SECTION
  2
BLOCKS
  0
BLOCK
  5
20
330
1F
100
AcDbEntity
  8
0
100
AcDbBlockBegin
  2
*Model_Space
 70
     0
 10
0.0
 20
0.0
 30
0.0
  3
*Model_Space
  1

  0
ENDBLK
  5
21
330
1F
100
AcDbEntity
  8
0
100
AcDbBlockEnd
  0
BLOCK
  5
1C
330
1B
100
AcDbEntity
 67
     1
  8
0
100
AcDbBlockBegin
  2
*Paper_Space
 70
     0
 10
0.0
 20
0.0
 30
0.0
  3
*Paper_Space
  1

  0
ENDBLK
  5
1D
330
1B
100
AcDbEntity
 67
     1
  8
0
100
AcDbBlockEnd
  0
BLOCK
  5
24
330
23
100
AcDbEntity
  8
0
100
AcDbBlockBegin
  2
*Paper_Space0
 70
     0
 10
0.0
 20
0.0
 30
0.0
  3
*Paper_Space0
  1

  0
ENDBLK
  5
25
330
23
100
AcDbEntity
  8
0
100
AcDbBlockEnd
  0
BLOCK
  5
43
330
41
100
AcDbEntity
  8
0
100
AcDbBlockBegin
  2
block 2
 70
     0
 10
0.0
 20
0.0
 30
0.0
  3
block 2
  1

  0
POLYLINE
  5
45
330
41
100
AcDbEntity
  8
_U+30EC_U+30A4_U+30E4_U+30FC 1
370
     0
100
AcDb2dPolyline
 66
     1
 10
0.0
 20
0.0
 30
0.0
  0
VERTEX
  5
46
330
45
100
AcDbEntity
  8
_U+30EC_U+30A4_U+30E4_U+30FC 1
370
     0
100
AcDbVertex
100
AcDb2dVertex
 10
73.60274228890427
 20
-135.270310521738
 30
0.0
  0
VERTEX
  5
47
330
45
100
AcDbEntity
  8
_U+30EC_U+30A4_U+30E4_U+30FC 1
370
     0
100
AcDbVertex
100
AcDb2dVertex
 10
93.64595233311493
 20
-135.270310521738
 30
0.0
  0
VERTEX
  5
48
330
45
100
AcDbEntity
  8
_U+30EC_U+30A4_U+30E4_U+30FC 1
370
     0
100
AcDbVertex
100
AcDb2dVertex
 10
93.60185511201773
 20
-132.249650800271
 30
0.0
  0
VERTEX
  5
49
330
45
100
AcDbEntity
  8
_U+30EC_U+30A4_U+30E4_U+30FC 1
370
     0
100
AcDbVertex
100
AcDb2dVertex
 10
92.56557041623333
 20
-132.2276021891654
 30
0.0
  0
VERTEX
  5
4A
330
45
100
AcDbEntity
  8
_U+30EC_U+30A4_U+30E4_U+30FC 1
370
     0
100
AcDbVertex
100
AcDb2dVertex
 10
92.60278847083937
 20
-134.2340257997749
 30
0.0
  0
VERTEX
  5
4B
330
45
100
AcDbEntity
  8
_U+30EC_U+30A4_U+30E4_U+30FC 1
370
     0
100
AcDbVertex
100
AcDb2dVertex
 10
74.60318476338085
 20
-134.1678799664581
 30
0.0
  0
VERTEX
  5
4C
330
45
100
AcDbEntity
  8
_U+30EC_U+30A4_U+30E4_U+30FC 1
370
     0
100
AcDbVertex
100
AcDb2dVertex
 10
74.60318476338085
 20
-125.2113108020304
 30
0.0
  0
VERTEX
  5
4D
330
45
100
AcDbEntity
  8
_U+30EC_U+30A4_U+30E4_U+30FC 1
370
     0
100
AcDbVertex
100
AcDb2dVertex
 10
103.5778106908432
 20
-125.2113108020304
 30
0.0
  0
VERTEX
  5
4E
330
45
100
AcDbEntity
  8
_U+30EC_U+30A4_U+30E4_U+30FC 1
370
     0
100
AcDbVertex
100
AcDb2dVertex
 10
103.5778106908432
 20
-124.2115385800582
 30
0.0
  0
VERTEX
  5
4F
330
45
100
AcDbEntity
  8
_U+30EC_U+30A4_U+30E4_U+30FC 1
370
     0
100
AcDbVertex
100
AcDb2dVertex
 10
73.60274228890427
 20
-124.2115385800582
 30
0.0
  0
VERTEX
  5
50
330
45
100
AcDbEntity
  8
_U+30EC_U+30A4_U+30E4_U+30FC 1
370
     0
100
AcDbVertex
100
AcDb2dVertex
 10
73.60274228890427
 20
-135.270310521738
 30
0.0
  0
SEQEND
  5
52
330
45
100
AcDbEntity
  8
_U+30EC_U+30A4_U+30E4_U+30FC 1
370
     0
  0
HATCH
  5
51
330
41
100
AcDbEntity
  8
_U+30EC_U+30A4_U+30E4_U+30FC 1
 62
   253
420
 11711154
100
AcDbHatch
 10
0.0
 20
0.0
 30
0.0
210
0.0
220
0.0
230
1.0
  2
SOLID
 70
     1
 71
     0
 91
        1
 92
        1
 93
       10
 72
     1
 10
73.60274228890427
 20
-135.270310521738
 11
93.64595233311493
 21
-135.270310521738
 72
     1
 10
93.64595233311493
 20
-135.270310521738
 11
93.60185511201773
 21
-132.249650800271
 72
     1
 10
93.60185511201773
 20
-132.249650800271
 11
92.56557041623333
 21
-132.2276021891654
 72
     1
 10
92.56557041623333
 20
-132.2276021891654
 11
92.60278847083937
 21
-134.2340257997749
 72
     1
 10
92.60278847083937
 20
-134.2340257997749
 11
74.60318476338085
 21
-134.1678799664581
 72
     1
 10
74.60318476338085
 20
-134.1678799664581
 11
74.60318476338085
 21
-125.2113108020304
 72
     1
 10
74.60318476338085
 20
-125.2113108020304
 11
103.5778106908432
 21
-125.2113108020304
 72
     1
 10
103.5778106908432
 20
-125.2113108020304
 11
103.5778106908432
 21
-124.2115385800582
 72
     1
 10
103.5778106908432
 20
-124.2115385800582
 11
73.60274228890427
 21
-124.2115385800582
 72
     1
 10
73.60274228890427
 20
-124.2115385800582
 11
73.60274228890427
 21
-135.270310521738
 97
        0
 75
     2
 76
     1
 98
        0
  0
POLYLINE
  5
53
330
41
100
AcDbEntity
  8
_U+30EC_U+30A4_U+30E4_U+30FC 1
 62
     7
420
 16777215
370
    25
100
AcDb2dPolyline
 66
     1
 10
0.0
 20
0.0
 30
0.0
  0
VERTEX
  5
54
330
53
100
AcDbEntity
  8
_U+30EC_U+30A4_U+30E4_U+30FC 1
 62
     7
420
 16777215
370
    25
100
AcDbVertex
100
AcDb2dVertex
 10
73.60274228890427
 20
-124.2115385800582
 30
0.0
  0
VERTEX
  5
55
330
53
100
AcDbEntity
  8
_U+30EC_U+30A4_U+30E4_U+30FC 1
 62
     7
420
 16777215
370
    25
100
AcDbVertex
100
AcDb2dVertex
 10
103.6026462457652
 20
-124.2115385800582
 30
0.0
  0
SEQEND
  5
56
330
53
100
AcDbEntity
  8
_U+30EC_U+30A4_U+30E4_U+30FC 1
 62
     7
420
 16777215
370
    25
  0
POLYLINE
  5
57
330
41
100
AcDbEntity
  8
_U+30EC_U+30A4_U+30E4_U+30FC 1
 62
     7
420
 16777215
370
    25
100
AcDb2dPolyline
 66
     1
 10
0.0
 20
0.0
 30
0.0
  0
VERTEX
  5
58
330
57
100
AcDbEntity
  8
_U+30EC_U+30A4_U+30E4_U+30FC 1
 62
     7
420
 16777215
370
    25
100
AcDbVertex
100
AcDb2dVertex
 10
73.60274228890427
 20
-124.2115385800582
 30
0.0
  0
VERTEX
  5
59
330
57
100
AcDbEntity
  8
_U+30EC_U+30A4_U+30E4_U+30FC 1
 62
     7
420
 16777215
370
    25
100
AcDbVertex
100
AcDb2dVertex
 10
73.60274228890427
 20
-135.1076799662234
 30
0.0
  0
SEQEND
  5
5A
330
57
100
AcDbEntity
  8
_U+30EC_U+30A4_U+30E4_U+30FC 1
 62
     7
420
 16777215
370
    25
  0
POLYLINE
  5
5B
330
41
100
AcDbEntity
  8
_U+30EC_U+30A4_U+30E4_U+30FC 1
 62
     7
420
 16777215
370
    25
100
AcDb2dPolyline
 66
     1
 10
0.0
 20
0.0
 30
0.0
  0
VERTEX
  5
5C
330
5B
100
AcDbEntity
  8
_U+30EC_U+30A4_U+30E4_U+30FC 1
 62
     7
420
 16777215
370
    25
100
AcDbVertex
100
AcDb2dVertex
 10
103.6026462457652
 20
-124.2115385800582
 30
0.0
  0
VERTEX
  5
5D
330
5B
100
AcDbEntity
  8
_U+30EC_U+30A4_U+30E4_U+30FC 1
 62
     7
420
 16777215
370
    25
100
AcDbVertex
100
AcDb2dVertex
 10
103.6026462457652
 20
-125.2113108020304
 30
0.0
  0
SEQEND
  5
5E
330
5B
100
AcDbEntity
  8
_U+30EC_U+30A4_U+30E4_U+30FC 1
 62
     7
420
 16777215
370
    25
  0
POLYLINE
  5
5F
330
41
100
AcDbEntity
  8
_U+30EC_U+30A4_U+30E4_U+30FC 1
 62
     7
420
 16777215
370
    25
100
AcDb2dPolyline
 66
     1
 10
0.0
 20
0.0
 30
0.0
  0
VERTEX
  5
60
330
5F
100
AcDbEntity
  8
_U+30EC_U+30A4_U+30E4_U+30FC 1
 62
     7
420
 16777215
370
    25
100
AcDbVertex
100
AcDb2dVertex
 10
74.60318476338085
 20
-125.2113108020304
 30
0.0
  0
VERTEX
  5
61
330
5F
100
AcDbEntity
  8
_U+30EC_U+30A4_U+30E4_U+30FC 1
 62
     7
420
 16777215
370
    25
100
AcDbVertex
100
AcDb2dVertex
 10
103.6029637457571
 20
-125.2113108020304
 30
0.0
  0
SEQEND
  5
62
330
5F
100
AcDbEntity
  8
_U+30EC_U+30A4_U+30E4_U+30FC 1
 62
     7
420
 16777215
370
    25
  0
POLYLINE
  5
63
330
41
100
AcDbEntity
  8
_U+30EC_U+30A4_U+30E4_U+30FC 1
 62
     7
420
 16777215
370
    25
100
AcDb2dPolyline
 66
     1
 10
0.0
 20
0.0
 30
0.0
  0
VERTEX
  5
64
330
63
100
AcDbEntity
  8
_U+30EC_U+30A4_U+30E4_U+30FC 1
 62
     7
420
 16777215
370
    25
100
AcDbVertex
100
AcDb2dVertex
 10
93.60256066755528
 20
-132.2089755225036
 30
0.0
  0
VERTEX
  5
65
330
63
100
AcDbEntity
  8
_U+30EC_U+30A4_U+30E4_U+30FC 1
 62
     7
420
 16777215
370
    25
100
AcDbVertex
100
AcDb2dVertex
 10
93.60256066755528
 20
-135.2089624661979
 30
0.0
  0
SEQEND
  5
66
330
63
100
AcDbEntity
  8
_U+30EC_U+30A4_U+30E4_U+30FC 1
 62
     7
420
 16777215
370
    25
  0
POLYLINE
  5
67
330
41
100
AcDbEntity
  8
_U+30EC_U+30A4_U+30E4_U+30FC 1
 62
     7
420
 16777215
370
    25
100
AcDb2dPolyline
 66
     1
 10
0.0
 20
0.0
 30
0.0
  0
VERTEX
  5
68
330
67
100
AcDbEntity
  8
_U+30EC_U+30A4_U+30E4_U+30FC 1
 62
     7
420
 16777215
370
    25
100
AcDbVertex
100
AcDb2dVertex
 10
92.60278847083937
 20
-132.2089755225036
 30
0.0
  0
VERTEX
  5
69
330
67
100
AcDbEntity
  8
_U+30EC_U+30A4_U+30E4_U+30FC 1
 62
     7
420
 16777215
370
    25
100
AcDbVertex
100
AcDb2dVertex
 10
92.60278847083937
 20
-134.2091902442253
 30
0.0
  0
SEQEND
  5
6A
330
67
100
AcDbEntity
  8
_U+30EC_U+30A4_U+30E4_U+30FC 1
 62
     7
420
 16777215
370
    25
  0
POLYLINE
  5
6B
330
41
100
AcDbEntity
  8
_U+30EC_U+30A4_U+30E4_U+30FC 1
 62
     7
420
 16777215
370
    25
100
AcDb2dPolyline
 66
     1
 10
0.0
 20
0.0
 30
0.0
  0
VERTEX
  5
6C
330
6B
100
AcDbEntity
  8
_U+30EC_U+30A4_U+30E4_U+30FC 1
 62
     7
420
 16777215
370
    25
100
AcDbVertex
100
AcDb2dVertex
 10
74.60318476338085
 20
-125.2113108020304
 30
0.0
  0
VERTEX
  5
6D
330
6B
100
AcDbEntity
  8
_U+30EC_U+30A4_U+30E4_U+30FC 1
 62
     7
420
 16777215
370
    25
100
AcDbVertex
100
AcDb2dVertex
 10
74.60318476338085
 20
-134.1072374664735
 30
0.0
  0
SEQEND
  5
6E
330
6B
100
AcDbEntity
  8
_U+30EC_U+30A4_U+30E4_U+30FC 1
 62
     7
420
 16777215
370
    25
  0
POLYLINE
  5
6F
330
41
100
AcDbEntity
  8
_U+30EC_U+30A4_U+30E4_U+30FC 1
 62
     7
420
 16777215
370
    25
100
AcDb2dPolyline
 66
     1
 10
0.0
 20
0.0
 30
0.0
  0
VERTEX
  5
70
330
6F
100
AcDbEntity
  8
_U+30EC_U+30A4_U+30E4_U+30FC 1
 62
     7
420
 16777215
370
    25
100
AcDbVertex
100
AcDb2dVertex
 10
92.60278847083937
 20
-132.2089755225036
 30
0.0
  0
VERTEX
  5
71
330
6F
100
AcDbEntity
  8
_U+30EC_U+30A4_U+30E4_U+30FC 1
 62
     7
420
 16777215
370
    25
100
AcDbVertex
100
AcDb2dVertex
 10
93.60256066755528
 20
-132.2089755225036
 30
0.0
  0
SEQEND
  5
72
330
6F
100
AcDbEntity
  8
_U+30EC_U+30A4_U+30E4_U+30FC 1
 62
     7
420
 16777215
370
    25
  0
POLYLINE
  5
73
330
41
100
AcDbEntity
  8
_U+30EC_U+30A4_U+30E4_U+30FC 1
 62
     7
420
 16777215
370
    25
100
AcDb2dPolyline
 66
     1
 10
0.0
 20
0.0
 30
0.0
  0
VERTEX
  5
74
330
73
100
AcDbEntity
  8
_U+30EC_U+30A4_U+30E4_U+30FC 1
 62
     7
420
 16777215
370
    25
100
AcDbVertex
100
AcDb2dVertex
 10
73.60274228890427
 20
-135.2089624661979
 30
0.0
  0
VERTEX
  5
75
330
73
100
AcDbEntity
  8
_U+30EC_U+30A4_U+30E4_U+30FC 1
 62
     7
420
 16777215
370
    25
100
AcDbVertex
100
AcDb2dVertex
 10
93.60256066755528
 20
-135.2089624661979
 30
0.0
  0
SEQEND
  5
76
330
73
100
AcDbEntity
  8
_U+30EC_U+30A4_U+30E4_U+30FC 1
 62
     7
420
 16777215
370
    25
  0
POLYLINE
  5
77
330
41
100
AcDbEntity
  8
_U+30EC_U+30A4_U+30E4_U+30FC 1
 62
     7
420
 16777215
370
    25
100
AcDb2dPolyline
 66
     1
 10
0.0
 20
0.0
 30
0.0
  0
VERTEX
  5
78
330
77
100
AcDbEntity
  8
_U+30EC_U+30A4_U+30E4_U+30FC 1
 62
     7
420
 16777215
370
    25
100
AcDbVertex
100
AcDb2dVertex
 10
74.60318476338085
 20
-134.2091902442253
 30
0.0
  0
VERTEX
  5
79
330
77
100
AcDbEntity
  8
_U+30EC_U+30A4_U+30E4_U+30FC 1
 62
     7
420
 16777215
370
    25
100
AcDbVertex
100
AcDb2dVertex
 10
92.60278847083937
 20
-134.2091902442253
 30
0.0
  0
SEQEND
  5
7A
330
77
100
AcDbEntity
  8
_U+30EC_U+30A4_U+30E4_U+30FC 1
 62
     7
420
 16777215
370
    25
  0
SPLINE
  5
7B
330
41
100
AcDbEntity
  8
_U+30EC_U+30A4_U+30E4_U+30FC 1
 62
     7
420
 16777215
370
     9
100
AcDbSpline
210
0.0
220
0.0
230
1.0
 70
    11
 71
     3
 72
    17
 73
    13
 74
     0
 42
0.0000000001
 43
0.0000000001
 12
1.0
 22
0.0
 32
0.0
 13
1.0
 23
0.0
 33
0.0
 40
0.0
 40
0.0
 40
0.0
 40
0.0
 40
1.0
 40
1.0
 40
1.0
 40
2.0
 40
2.0
 40
2.0
 40
3.0
 40
3.0
 40
3.0
 40
4.0
 40
4.0
 40
4.0
 40
4.0
 10
73.7026489530221
 20
-120.2111091366139
 30
0.0
 10
73.7026489530221
 20
-120.1559699699609
 30
0.0
 10
73.65784617638734
 20
-120.1112024699723
 30
0.0
 10
73.60274228890427
 20
-120.1112024699723
 30
0.0
 10
73.54760312364432
 20
-120.1112024699723
 30
0.0
 10
73.50283562478644
 20
-120.1559699699609
 30
0.0
 10
73.50283562478644
 20
-120.2111091366139
 30
0.0
 10
73.50283562478644
 20
-120.2669185810444
 30
0.0
 10
73.54760312364432
 20
-120.3116860810333
 30
0.0
 10
73.60274228890427
 20
-120.3116860810333
 30
0.0
 10
73.65784617638734
 20
-120.3116860810333
 30
0.0
 10
73.7026489530221
 20
-120.2669185810444
 30
0.0
 10
73.7026489530221
 20
-120.2111091366139
 30
0.0
  0
SPLINE
  5
7C
330
41
100
AcDbEntity
  8
_U+30EC_U+30A4_U+30E4_U+30FC 1
 62
     7
420
 16777215
370
     9
100
AcDbSpline
210
0.0
220
0.0
230
1.0
 70
    11
 71
     3
 72
    17
 73
    13
 74
     0
 42
0.0000000001
 43
0.0000000001
 12
1.0
 22
0.0
 32
0.0
 13
1.0
 23
0.0
 33
0.0
 40
0.0
 40
0.0
 40
0.0
 40
0.0
 40
1.0
 40
1.0
 40
1.0
 40
2.0
 40
2.0
 40
2.0
 40
3.0
 40
3.0
 40
3.0
 40
4.0
 40
4.0
 40
4.0
 40
4.0
 10
103.7025555296296
 20
-120.2111091366139
 30
0.0
 10
103.7025555296296
 20
-120.1559699699609
 30
0.0
 10
103.6577527518635
 20
-120.1112024699723
 30
0.0
 10
103.6026462457652
 20
-120.1112024699723
 30
0.0
 10
103.5475070805052
 20
-120.1112024699723
 30
0.0
 10
103.5027395816473
 20
-120.1559699699609
 30
0.0
 10
103.5027395816473
 20
-120.2111091366139
 30
0.0
 10
103.5027395816473
 20
-120.2669185810444
 30
0.0
 10
103.5475070805052
 20
-120.3116860810333
 30
0.0
 10
103.6026462457652
 20
-120.3116860810333
 30
0.0
 10
103.6577527518635
 20
-120.3116860810333
 30
0.0
 10
103.7025555296296
 20
-120.2669185810444
 30
0.0
 10
103.7025555296296
 20
-120.2111091366139
 30
0.0
  0
SPLINE
  5
7D
330
41
100
AcDbEntity
  8
_U+30EC_U+30A4_U+30E4_U+30FC 1
 62
     7
420
 16777215
370
     9
100
AcDbSpline
210
0.0
220
0.0
230
1.0
 70
    11
 71
     3
 72
    17
 73
    13
 74
     0
 42
0.0000000001
 43
0.0000000001
 12
1.0
 22
0.0
 32
0.0
 13
1.0
 23
0.0
 33
0.0
 40
0.0
 40
0.0
 40
0.0
 40
0.0
 40
1.0
 40
1.0
 40
1.0
 40
2.0
 40
2.0
 40
2.0
 40
3.0
 40
3.0
 40
3.0
 40
4.0
 40
4.0
 40
4.0
 40
4.0
 10
107.702982252268
 20
-124.2115385800582
 30
0.0
 10
107.702982252268
 20
-124.1564346911833
 30
0.0
 10
107.6582147534101
 20
-124.1116319134165
 30
0.0
 10
107.6030755881502
 20
-124.1116319134165
 30
0.0
 10
107.5472661451295
 20
-124.1116319134165
 30
0.0
 10
107.5024633684948
 20
-124.1564346911833
 30
0.0
 10
107.5024633684948
 20
-124.2115385800582
 30
0.0
 10
107.5024633684948
 20
-124.2666777467113
 30
0.0
 10
107.5472661451295
 20
-124.3114452466998
 30
0.0
 10
107.6030755881502
 20
-124.3114452466998
 30
0.0
 10
107.6582147534101
 20
-124.3114452466998
 30
0.0
 10
107.702982252268
 20
-124.2666777467113
 30
0.0
 10
107.702982252268
 20
-124.2115385800582
 30
0.0
  0
SPLINE
  5
7E
330
41
100
AcDbEntity
  8
_U+30EC_U+30A4_U+30E4_U+30FC 1
 62
     7
420
 16777215
370
     9
100
AcDbSpline
210
0.0
220
0.0
230
1.0
 70
    11
 71
     3
 72
    17
 73
    13
 74
     0
 42
0.0000000001
 43
0.0000000001
 12
1.0
 22
0.0
 32
0.0
 13
1.0
 23
0.0
 33
0.0
 40
0.0
 40
0.0
 40
0.0
 40
0.0
 40
1.0
 40
1.0
 40
1.0
 40
2.0
 40
2.0
 40
2.0
 40
3.0
 40
3.0
 40
3.0
 40
4.0
 40
4.0
 40
4.0
 40
4.0
 10
107.702982252268
 20
-125.2113108020304
 30
0.0
 10
107.702982252268
 20
-125.1561716353776
 30
0.0
 10
107.6582147534101
 20
-125.1114041353888
 30
0.0
 10
107.6030755881502
 20
-125.1114041353888
 30
0.0
 10
107.5472661451295
 20
-125.1114041353888
 30
0.0
 10
107.5024633684948
 20
-125.1561716353776
 30
0.0
 10
107.5024633684948
 20
-125.2113108020304
 30
0.0
 10
107.5024633684948
 20
-125.2664146909056
 30
0.0
 10
107.5472661451295
 20
-125.3112174686724
 30
0.0
 10
107.6030755881502
 20
-125.3112174686724
 30
0.0
 10
107.6582147534101
 20
-125.3112174686724
 30
0.0
 10
107.702982252268
 20
-125.2664146909056
 30
0.0
 10
107.702982252268
 20
-125.2113108020304
 30
0.0
  0
SPLINE
  5
7F
330
41
100
AcDbEntity
  8
_U+30EC_U+30A4_U+30E4_U+30FC 1
 62
     7
420
 16777215
370
     9
100
AcDbSpline
210
0.0
220
0.0
230
1.0
 70
    11
 71
     3
 72
    17
 73
    13
 74
     0
 42
0.0000000001
 43
0.0000000001
 12
1.0
 22
0.0
 32
0.0
 13
1.0
 23
0.0
 33
0.0
 40
0.0
 40
0.0
 40
0.0
 40
0.0
 40
1.0
 40
1.0
 40
1.0
 40
2.0
 40
2.0
 40
2.0
 40
3.0
 40
3.0
 40
3.0
 40
4.0
 40
4.0
 40
4.0
 40
4.0
 10
107.702982252268
 20
-132.2089755225036
 30
0.0
 10
107.702982252268
 20
-132.153871633628
 30
0.0
 10
107.6582147534101
 20
-132.1090688558619
 30
0.0
 10
107.6030755881502
 20
-132.1090688558619
 30
0.0
 10
107.5472661451295
 20
-132.1090688558619
 30
0.0
 10
107.5024633684948
 20
-132.153871633628
 30
0.0
 10
107.5024633684948
 20
-132.2089755225036
 30
0.0
 10
107.5024633684948
 20
-132.264114689156
 30
0.0
 10
107.5472661451295
 20
-132.3088821891452
 30
0.0
 10
107.6030755881502
 20
-132.3088821891452
 30
0.0
 10
107.6582147534101
 20
-132.3088821891452
 30
0.0
 10
107.702982252268
 20
-132.264114689156
 30
0.0
 10
107.702982252268
 20
-132.2089755225036
 30
0.0
  0
SPLINE
  5
80
330
41
100
AcDbEntity
  8
_U+30EC_U+30A4_U+30E4_U+30FC 1
 62
     7
420
 16777215
370
     9
100
AcDbSpline
210
0.0
220
0.0
230
1.0
 70
    11
 71
     3
 72
    17
 73
    13
 74
     0
 42
0.0000000001
 43
0.0000000001
 12
1.0
 22
0.0
 32
0.0
 13
1.0
 23
0.0
 33
0.0
 40
0.0
 40
0.0
 40
0.0
 40
0.0
 40
1.0
 40
1.0
 40
1.0
 40
2.0
 40
2.0
 40
2.0
 40
3.0
 40
3.0
 40
3.0
 40
4.0
 40
4.0
 40
4.0
 40
4.0
 10
107.702982252268
 20
-135.2089624661979
 30
0.0
 10
107.702982252268
 20
-135.153858577323
 30
0.0
 10
107.6582147534101
 20
-135.1090557995562
 30
0.0
 10
107.6030755881502
 20
-135.1090557995562
 30
0.0
 10
107.5472661451295
 20
-135.1090557995562
 30
0.0
 10
107.5024633684948
 20
-135.153858577323
 30
0.0
 10
107.5024633684948
 20
-135.2089624661979
 30
0.0
 10
107.5024633684948
 20
-135.264101632851
 30
0.0
 10
107.5472661451295
 20
-135.3088691328395
 30
0.0
 10
107.6030755881502
 20
-135.3088691328395
 30
0.0
 10
107.6582147534101
 20
-135.3088691328395
 30
0.0
 10
107.702982252268
 20
-135.264101632851
 30
0.0
 10
107.702982252268
 20
-135.2089624661979
 30
0.0
  0
SPLINE
  5
81
330
41
100
AcDbEntity
  8
_U+30EC_U+30A4_U+30E4_U+30FC 1
 62
     7
420
 16777215
370
     9
100
AcDbSpline
210
0.0
220
0.0
230
1.0
 70
    11
 71
     3
 72
    17
 73
    13
 74
     0
 42
0.0000000001
 43
0.0000000001
 12
1.0
 22
0.0
 32
0.0
 13
1.0
 23
0.0
 33
0.0
 40
0.0
 40
0.0
 40
0.0
 40
0.0
 40
1.0
 40
1.0
 40
1.0
 40
2.0
 40
2.0
 40
2.0
 40
3.0
 40
3.0
 40
3.0
 40
4.0
 40
4.0
 40
4.0
 40
4.0
 10
93.70246733167312
 20
-139.2693641318494
 30
0.0
 10
93.70246733167312
 20
-139.2142249651963
 30
0.0
 10
93.65766455503835
 20
-139.1694574652078
 30
0.0
 10
93.60256066755528
 20
-139.1694574652078
 30
0.0
 10
93.54742150229534
 20
-139.1694574652078
 30
0.0
 10
93.50265400343746
 20
-139.2142249651963
 30
0.0
 10
93.50265400343746
 20
-139.2693641318494
 30
0.0
 10
93.50265400343746
 20
-139.3244680207243
 30
0.0
 10
93.54742150229534
 20
-139.369270798491
 30
0.0
 10
93.60256066755528
 20
-139.369270798491
 30
0.0
 10
93.65766455503835
 20
-139.369270798491
 30
0.0
 10
93.70246733167312
 20
-139.3244680207243
 30
0.0
 10
93.70246733167312
 20
-139.2693641318494
 30
0.0
  0
SPLINE
  5
82
330
41
100
AcDbEntity
  8
_U+30EC_U+30A4_U+30E4_U+30FC 1
 62
     7
420
 16777215
370
     9
100
AcDbSpline
210
0.0
220
0.0
230
1.0
 70
    11
 71
     3
 72
    17
 73
    13
 74
     0
 42
0.0000000001
 43
0.0000000001
 12
1.0
 22
0.0
 32
0.0
 13
1.0
 23
0.0
 33
0.0
 40
0.0
 40
0.0
 40
0.0
 40
0.0
 40
1.0
 40
1.0
 40
1.0
 40
2.0
 40
2.0
 40
2.0
 40
3.0
 40
3.0
 40
3.0
 40
4.0
 40
4.0
 40
4.0
 40
4.0
 10
73.7026489530221
 20
-139.2693641318494
 30
0.0
 10
73.7026489530221
 20
-139.2142249651963
 30
0.0
 10
73.65784617638734
 20
-139.1694574652078
 30
0.0
 10
73.60274228890427
 20
-139.1694574652078
 30
0.0
 10
73.54760312364432
 20
-139.1694574652078
 30
0.0
 10
73.50283562478644
 20
-139.2142249651963
 30
0.0
 10
73.50283562478644
 20
-139.2693641318494
 30
0.0
 10
73.50283562478644
 20
-139.3244680207243
 30
0.0
 10
73.54760312364432
 20
-139.369270798491
 30
0.0
 10
73.60274228890427
 20
-139.369270798491
 30
0.0
 10
73.65784617638734
 20
-139.369270798491
 30
0.0
 10
73.7026489530221
 20
-139.3244680207243
 30
0.0
 10
73.7026489530221
 20
-139.2693641318494
 30
0.0
  0
POLYLINE
  5
83
330
41
100
AcDbEntity
  8
_U+30EC_U+30A4_U+30E4_U+30FC 1
 62
     7
420
 16777215
370
     9
100
AcDb2dPolyline
 66
     1
 10
0.0
 20
0.0
 30
0.0
  0
VERTEX
  5
84
330
83
100
AcDbEntity
  8
_U+30EC_U+30A4_U+30E4_U+30FC 1
 62
     7
420
 16777215
370
     9
100
AcDbVertex
100
AcDb2dVertex
 10
107.6030755881502
 20
-124.2115385800582
 30
0.0
  0
VERTEX
  5
85
330
83
100
AcDbEntity
  8
_U+30EC_U+30A4_U+30E4_U+30FC 1
 62
     7
420
 16777215
370
     9
100
AcDbVertex
100
AcDb2dVertex
 10
107.6030755881502
 20
-120.4412260810008
 30
0.0
  0
SEQEND
  5
86
330
83
100
AcDbEntity
  8
_U+30EC_U+30A4_U+30E4_U+30FC 1
 62
     7
420
 16777215
370
     9
  0
POLYLINE
  5
87
330
41
100
AcDbEntity
  8
_U+30EC_U+30A4_U+30E4_U+30FC 1
 62
     7
420
 16777215
370
     9
100
AcDb2dPolyline
 66
     1
 10
0.0
 20
0.0
 30
0.0
  0
VERTEX
  5
88
330
87
100
AcDbEntity
  8
_U+30EC_U+30A4_U+30E4_U+30FC 1
 62
     7
420
 16777215
370
     9
100
AcDbVertex
100
AcDb2dVertex
 10
107.6030755881502
 20
-124.2115385800582
 30
0.0
  0
VERTEX
  5
89
330
87
100
AcDbEntity
  8
_U+30EC_U+30A4_U+30E4_U+30FC 1
 62
     7
420
 16777215
370
     9
100
AcDbVertex
100
AcDb2dVertex
 10
107.6030755881502
 20
-125.2113108020304
 30
0.0
  0
SEQEND
  5
8A
330
87
100
AcDbEntity
  8
_U+30EC_U+30A4_U+30E4_U+30FC 1
 62
     7
420
 16777215
370
     9
  0
POLYLINE
  5
8B
330
41
100
AcDbEntity
  8
_U+30EC_U+30A4_U+30E4_U+30FC 1
 62
     7
420
 16777215
370
     9
100
AcDb2dPolyline
 66
     1
 10
0.0
 20
0.0
 30
0.0
  0
VERTEX
  5
8C
330
8B
100
AcDbEntity
  8
_U+30EC_U+30A4_U+30E4_U+30FC 1
 62
     7
420
 16777215
370
     9
100
AcDbVertex
100
AcDb2dVertex
 10
106.14303423651
 20
-124.2115385800582
 30
0.0
  0
VERTEX
  5
8D
330
8B
100
AcDbEntity
  8
_U+30EC_U+30A4_U+30E4_U+30FC 1
 62
     7
420
 16777215
370
     9
100
AcDbVertex
100
AcDb2dVertex
 10
108.6028477848661
 20
-124.2115385800582
 30
0.0
  0
SEQEND
  5
8E
330
8B
100
AcDbEntity
  8
_U+30EC_U+30A4_U+30E4_U+30FC 1
 62
     7
420
 16777215
370
     9
  0
POLYLINE
  5
8F
330
41
100
AcDbEntity
  8
_U+30EC_U+30A4_U+30E4_U+30FC 1
 62
     7
420
 16777215
370
     9
100
AcDb2dPolyline
 66
     1
 10
0.0
 20
0.0
 30
0.0
  0
VERTEX
  5
90
330
8F
100
AcDbEntity
  8
_U+30EC_U+30A4_U+30E4_U+30FC 1
 62
     7
420
 16777215
370
     9
100
AcDbVertex
100
AcDb2dVertex
 10
106.14303423651
 20
-125.2113108020304
 30
0.0
  0
VERTEX
  5
91
330
8F
100
AcDbEntity
  8
_U+30EC_U+30A4_U+30E4_U+30FC 1
 62
     7
420
 16777215
370
     9
100
AcDbVertex
100
AcDb2dVertex
 10
108.6028477848661
 20
-125.2113108020304
 30
0.0
  0
SEQEND
  5
92
330
8F
100
AcDbEntity
  8
_U+30EC_U+30A4_U+30E4_U+30FC 1
 62
     7
420
 16777215
370
     9
  0
INSERT
  5
94
330
41
100
AcDbEntity
  8
_U+30EC_U+30A4_U+30E4_U+30FC 1
100
AcDbBlockReference
  2
block 3
 10
0.0
 20
0.0
 30
0.0
  0
POLYLINE
  5
99
330
41
100
AcDbEntity
  8
_U+30EC_U+30A4_U+30E4_U+30FC 1
 62
     7
420
 16777215
370
     9
100
AcDb2dPolyline
 66
     1
 10
0.0
 20
0.0
 30
0.0
  0
VERTEX
  5
9A
330
99
100
AcDbEntity
  8
_U+30EC_U+30A4_U+30E4_U+30FC 1
 62
     7
420
 16777215
370
     9
100
AcDbVertex
100
AcDb2dVertex
 10
107.6030755881502
 20
-132.2089755225036
 30
0.0
  0
VERTEX
  5
9B
330
99
100
AcDbEntity
  8
_U+30EC_U+30A4_U+30E4_U+30FC 1
 62
     7
420
 16777215
370
     9
100
AcDbVertex
100
AcDb2dVertex
 10
107.6030755881502
 20
-135.2089624661979
 30
0.0
  0
SEQEND
  5
9C
330
99
100
AcDbEntity
  8
_U+30EC_U+30A4_U+30E4_U+30FC 1
 62
     7
420
 16777215
370
     9
  0
POLYLINE
  5
9D
330
41
100
AcDbEntity
  8
_U+30EC_U+30A4_U+30E4_U+30FC 1
 62
     7
420
 16777215
370
     9
100
AcDb2dPolyline
 66
     1
 10
0.0
 20
0.0
 30
0.0
  0
VERTEX
  5
9E
330
9D
100
AcDbEntity
  8
_U+30EC_U+30A4_U+30E4_U+30FC 1
 62
     7
420
 16777215
370
     9
100
AcDbVertex
100
AcDb2dVertex
 10
96.14298393607702
 20
-135.2089624661979
 30
0.0
  0
VERTEX
  5
9F
330
9D
100
AcDbEntity
  8
_U+30EC_U+30A4_U+30E4_U+30FC 1
 62
     7
420
 16777215
370
     9
100
AcDbVertex
100
AcDb2dVertex
 10
108.6028477848661
 20
-135.2089624661979
 30
0.0
  0
SEQEND
  5
A0
330
9D
100
AcDbEntity
  8
_U+30EC_U+30A4_U+30E4_U+30FC 1
 62
     7
420
 16777215
370
     9
  0
INSERT
  5
A2
330
41
100
AcDbEntity
  8
_U+30EC_U+30A4_U+30E4_U+30FC 1
100
AcDbBlockReference
  2
block 4
 10
0.0
 20
0.0
 30
0.0
  0
POLYLINE
  5
A7
330
41
100
AcDbEntity
  8
_U+30EC_U+30A4_U+30E4_U+30FC 1
 62
     7
420
 16777215
370
     9
100
AcDb2dPolyline
 66
     1
 10
0.0
 20
0.0
 30
0.0
  0
VERTEX
  5
A8
330
A7
100
AcDbEntity
  8
_U+30EC_U+30A4_U+30E4_U+30FC 1
 62
     7
420
 16777215
370
     9
100
AcDbVertex
100
AcDb2dVertex
 10
107.6030755881502
 20
-132.107022744751
 30
0.0
  0
VERTEX
  5
A9
330
A7
100
AcDbEntity
  8
_U+30EC_U+30A4_U+30E4_U+30FC 1
 62
     7
420
 16777215
370
     9
100
AcDbVertex
100
AcDb2dVertex
 10
107.6030755881502
 20
-125.2113108020304
 30
0.0
  0
SEQEND
  5
AA
330
A7
100
AcDbEntity
  8
_U+30EC_U+30A4_U+30E4_U+30FC 1
 62
     7
420
 16777215
370
     9
  0
POLYLINE
  5
AB
330
41
100
AcDbEntity
  8
_U+30EC_U+30A4_U+30E4_U+30FC 1
 62
     7
420
 16777215
370
     9
100
AcDb2dPolyline
 66
     1
 10
0.0
 20
0.0
 30
0.0
  0
VERTEX
  5
AC
330
AB
100
AcDbEntity
  8
_U+30EC_U+30A4_U+30E4_U+30FC 1
 62
     7
420
 16777215
370
     9
100
AcDbVertex
100
AcDb2dVertex
 10
96.14298393607702
 20
-132.2089755225036
 30
0.0
  0
VERTEX
  5
AD
330
AB
100
AcDbEntity
  8
_U+30EC_U+30A4_U+30E4_U+30FC 1
 62
     7
420
 16777215
370
     9
100
AcDbVertex
100
AcDb2dVertex
 10
108.6028477848661
 20
-132.2089755225036
 30
0.0
  0
SEQEND
  5
AE
330
AB
100
AcDbEntity
  8
_U+30EC_U+30A4_U+30E4_U+30FC 1
 62
     7
420
 16777215
370
     9
  0
INSERT
  5
B0
330
41
100
AcDbEntity
  8
_U+30EC_U+30A4_U+30E4_U+30FC 1
100
AcDbBlockReference
  2
block 5
 10
0.0
 20
0.0
 30
0.0
  0
POLYLINE
  5
B5
330
41
100
AcDbEntity
  8
_U+30EC_U+30A4_U+30E4_U+30FC 1
 62
     7
420
 16777215
370
     9
100
AcDb2dPolyline
 66
     1
 10
0.0
 20
0.0
 30
0.0
  0
VERTEX
  5
B6
330
B5
100
AcDbEntity
  8
_U+30EC_U+30A4_U+30E4_U+30FC 1
 62
     7
420
 16777215
370
     9
100
AcDbVertex
100
AcDb2dVertex
 10
73.60274228890427
 20
-139.2693641318494
 30
0.0
  0
VERTEX
  5
B7
330
B5
100
AcDbEntity
  8
_U+30EC_U+30A4_U+30E4_U+30FC 1
 62
     7
420
 16777215
370
     9
100
AcDbVertex
100
AcDb2dVertex
 10
93.60256066755528
 20
-139.2693641318494
 30
0.0
  0
SEQEND
  5
B8
330
B5
100
AcDbEntity
  8
_U+30EC_U+30A4_U+30E4_U+30FC 1
 62
     7
420
 16777215
370
     9
  0
POLYLINE
  5
B9
330
41
100
AcDbEntity
  8
_U+30EC_U+30A4_U+30E4_U+30FC 1
 62
     7
420
 16777215
370
     9
100
AcDb2dPolyline
 66
     1
 10
0.0
 20
0.0
 30
0.0
  0
VERTEX
  5
BA
330
B9
100
AcDbEntity
  8
_U+30EC_U+30A4_U+30E4_U+30FC 1
 62
     7
420
 16777215
370
     9
100
AcDbVertex
100
AcDb2dVertex
 10
73.60274228890427
 20
-137.8093227433257
 30
0.0
  0
VERTEX
  5
BB
330
B9
100
AcDbEntity
  8
_U+30EC_U+30A4_U+30E4_U+30FC 1
 62
     7
420
 16777215
370
     9
100
AcDbVertex
100
AcDb2dVertex
 10
73.60274228890427
 20
-140.2691363538219
 30
0.0
  0
SEQEND
  5
BC
330
B9
100
AcDbEntity
  8
_U+30EC_U+30A4_U+30E4_U+30FC 1
 62
     7
420
 16777215
370
     9
  0
POLYLINE
  5
BD
330
41
100
AcDbEntity
  8
_U+30EC_U+30A4_U+30E4_U+30FC 1
 62
     7
420
 16777215
370
     9
100
AcDb2dPolyline
 66
     1
 10
0.0
 20
0.0
 30
0.0
  0
VERTEX
  5
BE
330
BD
100
AcDbEntity
  8
_U+30EC_U+30A4_U+30E4_U+30FC 1
 62
     7
420
 16777215
370
     9
100
AcDbVertex
100
AcDb2dVertex
 10
93.60256066755528
 20
-137.8093227433257
 30
0.0
  0
VERTEX
  5
BF
330
BD
100
AcDbEntity
  8
_U+30EC_U+30A4_U+30E4_U+30FC 1
 62
     7
420
 16777215
370
     9
100
AcDbVertex
100
AcDb2dVertex
 10
93.60256066755528
 20
-140.2691363538219
 30
0.0
  0
SEQEND
  5
C0
330
BD
100
AcDbEntity
  8
_U+30EC_U+30A4_U+30E4_U+30FC 1
 62
     7
420
 16777215
370
     9
  0
INSERT
  5
C2
330
41
100
AcDbEntity
  8
_U+30EC_U+30A4_U+30E4_U+30FC 1
100
AcDbBlockReference
  2
block 6
 10
0.0
 20
0.0
 30
0.0
  0
POLYLINE
  5
CA
330
41
100
AcDbEntity
  8
_U+30EC_U+30A4_U+30E4_U+30FC 1
 62
     7
420
 16777215
370
     9
100
AcDb2dPolyline
 66
     1
 10
0.0
 20
0.0
 30
0.0
  0
VERTEX
  5
CB
330
CA
100
AcDbEntity
  8
_U+30EC_U+30A4_U+30E4_U+30FC 1
 62
     7
420
 16777215
370
     9
100
AcDbVertex
100
AcDb2dVertex
 10
73.60274228890427
 20
-120.2111091366139
 30
0.0
  0
VERTEX
  5
CC
330
CA
100
AcDbEntity
  8
_U+30EC_U+30A4_U+30E4_U+30FC 1
 62
     7
420
 16777215
370
     9
100
AcDbVertex
100
AcDb2dVertex
 10
103.6026462457652
 20
-120.2111091366139
 30
0.0
  0
SEQEND
  5
CD
330
CA
100
AcDbEntity
  8
_U+30EC_U+30A4_U+30E4_U+30FC 1
 62
     7
420
 16777215
370
     9
  0
POLYLINE
  5
CE
330
41
100
AcDbEntity
  8
_U+30EC_U+30A4_U+30E4_U+30FC 1
 62
     7
420
 16777215
370
     9
100
AcDb2dPolyline
 66
     1
 10
0.0
 20
0.0
 30
0.0
  0
VERTEX
  5
CF
330
CE
100
AcDbEntity
  8
_U+30EC_U+30A4_U+30E4_U+30FC 1
 62
     7
420
 16777215
370
     9
100
AcDbVertex
100
AcDb2dVertex
 10
73.60274228890427
 20
-121.6711152473601
 30
0.0
  0
VERTEX
  5
D0
330
CE
100
AcDbEntity
  8
_U+30EC_U+30A4_U+30E4_U+30FC 1
 62
     7
420
 16777215
370
     9
100
AcDbVertex
100
AcDb2dVertex
 10
73.60274228890427
 20
-119.2113369146417
 30
0.0
  0
SEQEND
  5
D1
330
CE
100
AcDbEntity
  8
_U+30EC_U+30A4_U+30E4_U+30FC 1
 62
     7
420
 16777215
370
     9
  0
POLYLINE
  5
D2
330
41
100
AcDbEntity
  8
_U+30EC_U+30A4_U+30E4_U+30FC 1
 62
     7
420
 16777215
370
     9
100
AcDb2dPolyline
 66
     1
 10
0.0
 20
0.0
 30
0.0
  0
VERTEX
  5
D3
330
D2
100
AcDbEntity
  8
_U+30EC_U+30A4_U+30E4_U+30FC 1
 62
     7
420
 16777215
370
     9
100
AcDbVertex
100
AcDb2dVertex
 10
103.6026462457652
 20
-121.6711152473601
 30
0.0
  0
VERTEX
  5
D4
330
D2
100
AcDbEntity
  8
_U+30EC_U+30A4_U+30E4_U+30FC 1
 62
     7
420
 16777215
370
     9
100
AcDbVertex
100
AcDb2dVertex
 10
103.6026462457652
 20
-119.2113369146417
 30
0.0
  0
SEQEND
  5
D5
330
D2
100
AcDbEntity
  8
_U+30EC_U+30A4_U+30E4_U+30FC 1
 62
     7
420
 16777215
370
     9
  0
INSERT
  5
D7
330
41
100
AcDbEntity
  8
_U+30EC_U+30A4_U+30E4_U+30FC 1
100
AcDbBlockReference
  2
block 7
 10
0.0
 20
0.0
 30
0.0
  0
ENDBLK
  5
44
330
41
100
AcDbEntity
  8
0
100
AcDbBlockEnd
  0
BLOCK
  5
95
330
93
100
AcDbEntity
  8
0
100
AcDbBlockBegin
  2
block 3
 70
     0
 10
0.0
 20
0.0
 30
0.0
  3
block 3
  1

  0
SPLINE
  5
97
330
93
100
AcDbEntity
  8
_U+30EC_U+30A4_U+30E4_U+30FC 1
370
     0
100
AcDbSpline
210
0.0
220
0.0
230
1.0
 70
    11
 71
     3
 72
    26
 73
    22
 74
     0
 42
0.0000000001
 43
0.0000000001
 12
1.0
 22
0.0
 32
0.0
 13
1.0
 23
0.0
 33
0.0
 40
0.0
 40
0.0
 40
0.0
 40
0.0
 40
1.0
 40
1.0
 40
1.0
 40
2.0
 40
2.0
 40
2.0
 40
3.0
 40
3.0
 40
3.0
 40
4.0
 40
4.0
 40
4.0
 40
5.0
 40
5.0
 40
5.0
 40
6.0
 40
6.0
 40
6.0
 40
7.0
 40
7.0
 40
7.0
 40
7.0
 10
106.0744899908425
 20
-124.9022813272814
 30
0.0
 10
106.0744899908425
 20
-124.9022813272814
 30
0.0
 10
104.9703368878199
 20
-124.9022813272814
 30
0.0
 10
104.9703368878199
 20
-124.9022813272814
 30
0.0
 10
104.9703368878199
 20
-124.9022813272814
 30
0.0
 10
104.9703368878199
 20
-125.2323214747683
 30
0.0
 10
104.9703368878199
 20
-125.2323214747683
 30
0.0
 10
104.9703368878199
 20
-125.2323214747683
 30
0.0
 10
104.8221977819542
 20
-125.2323214747683
 30
0.0
 10
104.8221977819542
 20
-125.2323214747683
 30
0.0
 10
104.8073838713676
 20
-124.9002142699902
 30
0.0
 10
104.6444308549153
 20
-124.8537054809394
 30
0.0
 10
104.530053684805
 20
-124.8240776597662
 30
0.0
 10
104.530053684805
 20
-124.8240776597662
 30
0.0
 10
104.530053684805
 20
-124.6780056111916
 30
0.0
 10
104.530053684805
 20
-124.6780056111916
 30
0.0
 10
104.530053684805
 20
-124.6780056111916
 30
0.0
 10
106.0744899908425
 20
-124.6780056111916
 30
0.0
 10
106.0744899908425
 20
-124.6780056111916
 30
0.0
 10
106.0744899908425
 20
-124.6780056111916
 30
0.0
 10
106.0744899908425
 20
-124.9022813272814
 30
0.0
 10
106.0744899908425
 20
-124.9022813272814
 30
0.0
  0
HATCH
  5
98
330
93
100
AcDbEntity
  8
_U+30EC_U+30A4_U+30E4_U+30FC 1
 62
     7
420
 16777215
100
AcDbHatch
 10
0.0
 20
0.0
 30
0.0
210
0.0
220
0.0
230
1.0
  2
SOLID
 70
     1
 71
     0
 91
        1
 92
        1
 93
        1
 72
     4
 94
        3
 73
     0
 74
     1
 95
       26
 96
       22
 40
0.0
 40
0.0
 40
0.0
 40
0.0
 40
1.0
 40
1.0
 40
1.0
 40
2.0
 40
2.0
 40
2.0
 40
3.0
 40
3.0
 40
3.0
 40
4.0
 40
4.0
 40
4.0
 40
5.0
 40
5.0
 40
5.0
 40
6.0
 40
6.0
 40
6.0
 40
7.0
 40
7.0
 40
7.0
 40
7.0
 10
106.0744899908425
 20
-124.9022813272814
 10
106.0744899908425
 20
-124.9022813272814
 10
104.9703368878199
 20
-124.9022813272814
 10
104.9703368878199
 20
-124.9022813272814
 10
104.9703368878199
 20
-124.9022813272814
 10
104.9703368878199
 20
-125.2323214747683
 10
104.9703368878199
 20
-125.2323214747683
 10
104.9703368878199
 20
-125.2323214747683
 10
104.8221977819542
 20
-125.2323214747683
 10
104.8221977819542
 20
-125.2323214747683
 10
104.8073838713676
 20
-124.9002142699902
 10
104.6444308549153
 20
-124.8537054809394
 10
104.530053684805
 20
-124.8240776597662
 10
104.530053684805
 20
-124.8240776597662
 10
104.530053684805
 20
-124.6780056111916
 10
104.530053684805
 20
-124.6780056111916
 10
104.530053684805
 20
-124.6780056111916
 10
106.0744899908425
 20
-124.6780056111916
 10
106.0744899908425
 20
-124.6780056111916
 10
106.0744899908425
 20
-124.6780056111916
 10
106.0744899908425
 20
-124.9022813272814
 10
106.0744899908425
 20
-124.9022813272814
 97
        0
 97
        0
 75
     2
 76
     1
 98
        0
  0
ENDBLK
  5
96
330
93
100
AcDbEntity
  8
0
100
AcDbBlockEnd
  0
BLOCK
  5
A3
330
A1
100
AcDbEntity
  8
0
100
AcDbBlockBegin
  2
block 4
 70
     0
 10
0.0
 20
0.0
 30
0.0
  3
block 4
  1

  0
SPLINE
  5
A5
330
A1
100
AcDbEntity
  8
_U+30EC_U+30A4_U+30E4_U+30FC 1
370
     0
100
AcDbSpline
210
0.0
220
0.0
230
1.0
 70
    11
 71
     3
 72
    62
 73
    58
 74
     0
 42
0.0000000001
 43
0.0000000001
 12
1.0
 22
0.0
 32
0.0
 13
1.0
 23
0.0
 33
0.0
 40
0.0
 40
0.0
 40
0.0
 40
0.0
 40
1.0
 40
1.0
 40
1.0
 40
2.0
 40
2.0
 40
2.0
 40
3.0
 40
3.0
 40
3.0
 40
4.0
 40
4.0
 40
4.0
 40
5.0
 40
5.0
 40
5.0
 40
6.0
 40
6.0
 40
6.0
 40
7.0
 40
7.0
 40
7.0
 40
8.0
 40
8.0
 40
8.0
 40
9.0
 40
9.0
 40
9.0
 40
10.0
 40
10.0
 40
10.0
 40
11.0
 40
11.0
 40
11.0
 40
12.0
 40
12.0
 40
12.0
 40
13.0
 40
13.0
 40
13.0
 40
14.0
 40
14.0
 40
14.0
 40
15.0
 40
15.0
 40
15.0
 40
16.0
 40
16.0
 40
16.0
 40
17.0
 40
17.0
 40
17.0
 40
18.0
 40
18.0
 40
18.0
 40
19.0
 40
19.0
 40
19.0
 40
19.0
 10
106.1251328944757
 20
-133.714491069002
 30
0.0
 10
106.1251328944757
 20
-133.8099202139434
 30
0.0
 10
106.1041178120156
 20
-134.0276502486111
 30
0.0
 10
105.9180826558122
 20
-134.1527072147257
 30
0.0
 10
105.805772542993
 20
-134.2264322581101
 30
0.0
 10
105.7065537930178
 20
-134.2309108822409
 30
0.0
 10
105.6218044440807
 20
-134.2350449968232
 30
0.0
 10
105.6218044440807
 20
-134.2350449968232
 30
0.0
 10
105.6218044440807
 20
-134.0149033953157
 30
0.0
 10
105.6218044440807
 20
-134.0149033953157
 30
0.0
 10
105.6958739970135
 20
-134.0128363380246
 30
0.0
 10
105.9304849995591
 20
-134.0025010515688
 30
0.0
 10
105.9304849995591
 20
-133.7189696931328
 30
0.0
 10
105.9304849995591
 20
-133.5815103832713
 30
0.0
 10
105.860894070757
 20
-133.4288926532747
 30
0.0
 10
105.6324842400849
 20
-133.4288926532747
 30
0.0
 10
105.5160400126835
 20
-133.4288926532747
 30
0.0
 10
105.4674641663415
 20
-133.467133213161
 30
0.0
 10
105.4357692878772
 20
-133.4988280916253
 30
0.0
 10
105.3616997349443
 20
-133.5728976445582
 30
0.0
 10
105.3489528816489
 20
-133.6893418719596
 30
0.0
 10
105.3489528816489
 20
-133.7441188901751
 30
0.0
 10
105.3489528816489
 20
-133.7634114248925
 30
0.0
 10
105.35101993894
 20
-133.7992404179391
 30
0.0
 10
105.3551540535223
 20
-133.8268011818211
 30
0.0
 10
105.3551540535223
 20
-133.8268011818211
 30
0.0
 10
105.1605061586057
 20
-133.8268011818211
 30
0.0
 10
105.1605061586057
 20
-133.8268011818211
 30
0.0
 10
105.1670518400277
 20
-133.7885606219348
 30
0.0
 10
105.1691188973188
 20
-133.7465304570148
 30
0.0
 10
105.1691188973188
 20
-133.7399847755928
 30
0.0
 10
105.1691188973188
 20
-133.674527961373
 30
0.0
 10
105.1477593053103
 20
-133.4757459518741
 30
0.0
 10
104.9110812454736
 20
-133.4757459518741
 30
0.0
 10
104.7333143184347
 20
-133.4757459518741
 30
0.0
 10
104.6781927906707
 20
-133.6066595803136
 30
0.0
 10
104.6781927906707
 20
-133.7169026358416
 30
0.0
 10
104.6781927906707
 20
-133.9811414595603
 30
0.0
 10
104.9110812454736
 20
-133.9897541982734
 30
0.0
 10
104.9827392315668
 20
-133.9938883128557
 30
0.0
 10
104.9827392315668
 20
-133.9938883128557
 30
0.0
 10
104.9827392315668
 20
-134.1971489464854
 30
0.0
 10
104.9827392315668
 20
-134.1971489464854
 30
0.0
 10
104.8580267750008
 20
-134.1885362077723
 30
0.0
 10
104.481477838463
 20
-134.1609754438903
 30
0.0
 10
104.481477838463
 20
-133.7041557825462
 30
0.0
 10
104.481477838463
 20
-133.4798800664564
 30
0.0
 10
104.6086018618687
 20
-133.2387233824889
 30
0.0
 10
104.9045355640516
 20
-133.2387233824889
 30
0.0
 10
105.0909152298037
 20
-133.2387233824889
 30
0.0
 10
105.1732530119011
 20
-133.3338080178818
 30
0.0
 10
105.2345757115386
 20
-133.4333712774055
 30
0.0
 10
105.2621364754206
 20
-133.3720485777681
 30
0.0
 10
105.3424072002269
 20
-133.1901475361469
 30
0.0
 10
105.6197373867895
 20
-133.1901475361469
 30
0.0
 10
105.958045763441
 20
-133.1901475361469
 30
0.0
 10
106.1251328944757
 20
-133.4375053919879
 30
0.0
 10
106.1251328944757
 20
-133.714491069002
 30
0.0
  0
HATCH
  5
A6
330
A1
100
AcDbEntity
  8
_U+30EC_U+30A4_U+30E4_U+30FC 1
 62
     7
420
 16777215
100
AcDbHatch
 10
0.0
 20
0.0
 30
0.0
210
0.0
220
0.0
230
1.0
  2
SOLID
 70
     1
 71
     0
 91
        1
 92
        1
 93
        1
 72
     4
 94
        3
 73
     0
 74
     1
 95
       62
 96
       58
 40
0.0
 40
0.0
 40
0.0
 40
0.0
 40
1.0
 40
1.0
 40
1.0
 40
2.0
 40
2.0
 40
2.0
 40
3.0
 40
3.0
 40
3.0
 40
4.0
 40
4.0
 40
4.0
 40
5.0
 40
5.0
 40
5.0
 40
6.0
 40
6.0
 40
6.0
 40
7.0
 40
7.0
 40
7.0
 40
8.0
 40
8.0
 40
8.0
 40
9.0
 40
9.0
 40
9.0
 40
10.0
 40
10.0
 40
10.0
 40
11.0
 40
11.0
 40
11.0
 40
12.0
 40
12.0
 40
12.0
 40
13.0
 40
13.0
 40
13.0
 40
14.0
 40
14.0
 40
14.0
 40
15.0
 40
15.0
 40
15.0
 40
16.0
 40
16.0
 40
16.0
 40
17.0
 40
17.0
 40
17.0
 40
18.0
 40
18.0
 40
18.0
 40
19.0
 40
19.0
 40
19.0
 40
19.0
 10
106.1251328944757
 20
-133.714491069002
 10
106.1251328944757
 20
-133.8099202139434
 10
106.1041178120156
 20
-134.0276502486111
 10
105.9180826558122
 20
-134.1527072147257
 10
105.805772542993
 20
-134.2264322581101
 10
105.7065537930178
 20
-134.2309108822409
 10
105.6218044440807
 20
-134.2350449968232
 10
105.6218044440807
 20
-134.2350449968232
 10
105.6218044440807
 20
-134.0149033953157
 10
105.6218044440807
 20
-134.0149033953157
 10
105.6958739970135
 20
-134.0128363380246
 10
105.9304849995591
 20
-134.0025010515688
 10
105.9304849995591
 20
-133.7189696931328
 10
105.9304849995591
 20
-133.5815103832713
 10
105.860894070757
 20
-133.4288926532747
 10
105.6324842400849
 20
-133.4288926532747
 10
105.5160400126835
 20
-133.4288926532747
 10
105.4674641663415
 20
-133.467133213161
 10
105.4357692878772
 20
-133.4988280916253
 10
105.3616997349443
 20
-133.5728976445582
 10
105.3489528816489
 20
-133.6893418719596
 10
105.3489528816489
 20
-133.7441188901751
 10
105.3489528816489
 20
-133.7634114248925
 10
105.35101993894
 20
-133.7992404179391
 10
105.3551540535223
 20
-133.8268011818211
 10
105.3551540535223
 20
-133.8268011818211
 10
105.1605061586057
 20
-133.8268011818211
 10
105.1605061586057
 20
-133.8268011818211
 10
105.1670518400277
 20
-133.7885606219348
 10
105.1691188973188
 20
-133.7465304570148
 10
105.1691188973188
 20
-133.7399847755928
 10
105.1691188973188
 20
-133.674527961373
 10
105.1477593053103
 20
-133.4757459518741
 10
104.9110812454736
 20
-133.4757459518741
 10
104.7333143184347
 20
-133.4757459518741
 10
104.6781927906707
 20
-133.6066595803136
 10
104.6781927906707
 20
-133.7169026358416
 10
104.6781927906707
 20
-133.9811414595603
 10
104.9110812454736
 20
-133.9897541982734
 10
104.9827392315668
 20
-133.9938883128557
 10
104.9827392315668
 20
-133.9938883128557
 10
104.9827392315668
 20
-134.1971489464854
 10
104.9827392315668
 20
-134.1971489464854
 10
104.8580267750008
 20
-134.1885362077723
 10
104.481477838463
 20
-134.1609754438903
 10
104.481477838463
 20
-133.7041557825462
 10
104.481477838463
 20
-133.4798800664564
 10
104.6086018618687
 20
-133.2387233824889
 10
104.9045355640516
 20
-133.2387233824889
 10
105.0909152298037
 20
-133.2387233824889
 10
105.1732530119011
 20
-133.3338080178818
 10
105.2345757115386
 20
-133.4333712774055
 10
105.2621364754206
 20
-133.3720485777681
 10
105.3424072002269
 20
-133.1901475361469
 10
105.6197373867895
 20
-133.1901475361469
 10
105.958045763441
 20
-133.1901475361469
 10
106.1251328944757
 20
-133.4375053919879
 10
106.1251328944757
 20
-133.714491069002
 97
        0
 97
        0
 75
     2
 76
     1
 98
        0
  0
ENDBLK
  5
A4
330
A1
100
AcDbEntity
  8
0
100
AcDbBlockEnd
  0
BLOCK
  5
B1
330
AF
100
AcDbEntity
  8
0
100
AcDbBlockBegin
  2
block 5
 70
     0
 10
0.0
 20
0.0
 30
0.0
  3
block 5
  1

  0
SPLINE
  5
B3
330
AF
100
AcDbEntity
  8
_U+30EC_U+30A4_U+30E4_U+30FC 1
370
     0
100
AcDbSpline
210
0.0
220
0.0
230
1.0
 70
    11
 71
     3
 72
    26
 73
    22
 74
     0
 42
0.0000000001
 43
0.0000000001
 12
1.0
 22
0.0
 32
0.0
 13
1.0
 23
0.0
 33
0.0
 40
0.0
 40
0.0
 40
0.0
 40
0.0
 40
1.0
 40
1.0
 40
1.0
 40
2.0
 40
2.0
 40
2.0
 40
3.0
 40
3.0
 40
3.0
 40
4.0
 40
4.0
 40
4.0
 40
5.0
 40
5.0
 40
5.0
 40
6.0
 40
6.0
 40
6.0
 40
7.0
 40
7.0
 40
7.0
 40
7.0
 10
106.0744899908425
 20
-128.7938611874196
 30
0.0
 10
106.0744899908425
 20
-128.7938611874196
 30
0.0
 10
106.0744899908425
 20
-129.0308837568048
 30
0.0
 10
106.0744899908425
 20
-129.0308837568048
 30
0.0
 10
105.7654649258156
 20
-129.0053900502139
 30
0.0
 10
105.247322564834
 20
-128.8128092125885
 30
0.0
 10
104.7415825475993
 20
-128.4066324548775
 30
0.0
 10
104.7415825475993
 20
-128.4066324548775
 30
0.0
 10
104.7415825475993
 20
-129.2444796768903
 30
0.0
 10
104.7415825475993
 20
-129.2444796768903
 30
0.0
 10
104.7415825475993
 20
-129.2444796768903
 30
0.0
 10
104.530053684805
 20
-129.2444796768903
 30
0.0
 10
104.530053684805
 20
-129.2444796768903
 30
0.0
 10
104.530053684805
 20
-129.2444796768903
 30
0.0
 10
104.530053684805
 20
-128.1696098854923
 30
0.0
 10
104.530053684805
 20
-128.1696098854923
 30
0.0
 10
104.530053684805
 20
-128.1696098854923
 30
0.0
 10
104.7415825475993
 20
-128.1696098854923
 30
0.0
 10
104.7415825475993
 20
-128.1696098854923
 30
0.0
 10
105.0316595874574
 20
-128.4934488611058
 30
0.0
 10
105.6238715013718
 20
-128.7600992516641
 30
0.0
 10
106.0744899908425
 20
-128.7938611874196
 30
0.0
  0
HATCH
  5
B4
330
AF
100
AcDbEntity
  8
_U+30EC_U+30A4_U+30E4_U+30FC 1
 62
     7
420
 16777215
100
AcDbHatch
 10
0.0
 20
0.0
 30
0.0
210
0.0
220
0.0
230
1.0
  2
SOLID
 70
     1
 71
     0
 91
        1
 92
        1
 93
        1
 72
     4
 94
        3
 73
     0
 74
     1
 95
       26
 96
       22
 40
0.0
 40
0.0
 40
0.0
 40
0.0
 40
1.0
 40
1.0
 40
1.0
 40
2.0
 40
2.0
 40
2.0
 40
3.0
 40
3.0
 40
3.0
 40
4.0
 40
4.0
 40
4.0
 40
5.0
 40
5.0
 40
5.0
 40
6.0
 40
6.0
 40
6.0
 40
7.0
 40
7.0
 40
7.0
 40
7.0
 10
106.0744899908425
 20
-128.7938611874196
 10
106.0744899908425
 20
-128.7938611874196
 10
106.0744899908425
 20
-129.0308837568048
 10
106.0744899908425
 20
-129.0308837568048
 10
105.7654649258156
 20
-129.0053900502139
 10
105.247322564834
 20
-128.8128092125885
 10
104.7415825475993
 20
-128.4066324548775
 10
104.7415825475993
 20
-128.4066324548775
 10
104.7415825475993
 20
-129.2444796768903
 10
104.7415825475993
 20
-129.2444796768903
 10
104.7415825475993
 20
-129.2444796768903
 10
104.530053684805
 20
-129.2444796768903
 10
104.530053684805
 20
-129.2444796768903
 10
104.530053684805
 20
-129.2444796768903
 10
104.530053684805
 20
-128.1696098854923
 10
104.530053684805
 20
-128.1696098854923
 10
104.530053684805
 20
-128.1696098854923
 10
104.7415825475993
 20
-128.1696098854923
 10
104.7415825475993
 20
-128.1696098854923
 10
105.0316595874574
 20
-128.4934488611058
 10
105.6238715013718
 20
-128.7600992516641
 10
106.0744899908425
 20
-128.7938611874196
 97
        0
 97
        0
 75
     2
 76
     1
 98
        0
  0
ENDBLK
  5
B2
330
AF
100
AcDbEntity
  8
0
100
AcDbBlockEnd
  0
BLOCK
  5
C3
330
C1
100
AcDbEntity
  8
0
100
AcDbBlockBegin
  2
block 6
 70
     0
 10
0.0
 20
0.0
 30
0.0
  3
block 6
  1

  0
SPLINE
  5
C5
330
C1
100
AcDbEntity
  8
_U+30EC_U+30A4_U+30E4_U+30FC 1
370
     0
100
AcDbSpline
210
0.0
220
0.0
230
1.0
 70
    11
 71
     3
 72
    44
 73
    40
 74
     0
 42
0.0000000001
 43
0.0000000001
 12
1.0
 22
0.0
 32
0.0
 13
1.0
 23
0.0
 33
0.0
 40
0.0
 40
0.0
 40
0.0
 40
0.0
 40
1.0
 40
1.0
 40
1.0
 40
2.0
 40
2.0
 40
2.0
 40
3.0
 40
3.0
 40
3.0
 40
4.0
 40
4.0
 40
4.0
 40
5.0
 40
5.0
 40
5.0
 40
6.0
 40
6.0
 40
6.0
 40
7.0
 40
7.0
 40
7.0
 40
8.0
 40
8.0
 40
8.0
 40
9.0
 40
9.0
 40
9.0
 40
10.0
 40
10.0
 40
10.0
 40
11.0
 40
11.0
 40
11.0
 40
12.0
 40
12.0
 40
12.0
 40
13.0
 40
13.0
 40
13.0
 40
13.0
 10
83.10672740977888
 20
-138.0415309984757
 30
0.0
 10
82.88882512033682
 20
-138.2003499003457
 30
0.0
 10
82.79563528746081
 20
-138.2744194532786
 30
0.0
 10
82.7470594411188
 20
-138.4180799350135
 30
0.0
 10
82.7470594411188
 20
-138.4180799350135
 30
0.0
 10
83.52547876601099
 20
-138.4180799350135
 30
0.0
 10
83.52547876601099
 20
-138.4180799350135
 30
0.0
 10
83.52547876601099
 20
-138.4180799350135
 30
0.0
 10
83.52547876601099
 20
-138.6234076259344
 30
0.0
 10
83.52547876601099
 20
-138.6234076259344
 30
0.0
 10
83.52547876601099
 20
-138.6234076259344
 30
0.0
 10
82.49746227321245
 20
-138.6234076259344
 30
0.0
 10
82.49746227321245
 20
-138.6234076259344
 30
0.0
 10
82.52915715167674
 20
-138.2658067145655
 30
0.0
 10
82.59478622067076
 20
-138.1876030470503
 30
0.0
 10
82.97977564114743
 20
-137.8892577780277
 30
0.0
 10
83.23574623570148
 20
-137.6904757685288
 30
0.0
 10
83.30120304992123
 20
-137.6226073874693
 30
0.0
 10
83.30120304992123
 20
-137.4851480776079
 30
0.0
 10
83.30120304992123
 20
-137.3666367929153
 30
0.0
 10
83.22937280905377
 20
-137.2357231644758
 30
0.0
 10
83.032657856846
 20
-137.2357231644758
 30
0.0
 10
82.77238089293537
 20
-137.2357231644758
 30
0.0
 10
82.76394040899652
 20
-137.466200052439
 30
0.0
 10
82.75963403963996
 20
-137.5826442798405
 30
0.0
 10
82.75963403963996
 20
-137.5826442798405
 30
0.0
 10
82.53553057832445
 20
-137.5826442798405
 30
0.0
 10
82.53553057832445
 20
-137.5826442798405
 30
0.0
 10
82.54397106226331
 20
-137.4555202564347
 30
0.0
 10
82.55447860349332
 20
-137.3435546531641
 30
0.0
 10
82.63492158307392
 20
-137.2250433684715
 30
0.0
 10
82.74482012905338
 20
-137.0641574093104
 30
0.0
 10
82.93102754003114
 20
-137.0303954735549
 30
0.0
 10
83.04747176743258
 20
-137.0303954735549
 30
0.0
 10
83.32462969922094
 20
-137.0303954735549
 30
0.0
 10
83.5318521926587
 20
-137.2143635724672
 30
0.0
 10
83.5318521926587
 20
-137.487215134899
 30
0.0
 10
83.5318521926587
 20
-137.7159694751196
 30
0.0
 10
83.41558022003153
 20
-137.8151882250948
 30
0.0
 10
83.10672740977888
 20
-138.0415309984757
 30
0.0
  0
HATCH
  5
C6
330
C1
100
AcDbEntity
  8
_U+30EC_U+30A4_U+30E4_U+30FC 1
 62
     7
420
 16777215
100
AcDbHatch
 10
0.0
 20
0.0
 30
0.0
210
0.0
220
0.0
230
1.0
  2
SOLID
 70
     1
 71
     0
 91
        1
 92
        1
 93
        1
 72
     4
 94
        3
 73
     0
 74
     1
 95
       44
 96
       40
 40
0.0
 40
0.0
 40
0.0
 40
0.0
 40
1.0
 40
1.0
 40
1.0
 40
2.0
 40
2.0
 40
2.0
 40
3.0
 40
3.0
 40
3.0
 40
4.0
 40
4.0
 40
4.0
 40
5.0
 40
5.0
 40
5.0
 40
6.0
 40
6.0
 40
6.0
 40
7.0
 40
7.0
 40
7.0
 40
8.0
 40
8.0
 40
8.0
 40
9.0
 40
9.0
 40
9.0
 40
10.0
 40
10.0
 40
10.0
 40
11.0
 40
11.0
 40
11.0
 40
12.0
 40
12.0
 40
12.0
 40
13.0
 40
13.0
 40
13.0
 40
13.0
 10
83.10672740977888
 20
-138.0415309984757
 10
82.88882512033682
 20
-138.2003499003457
 10
82.79563528746081
 20
-138.2744194532786
 10
82.7470594411188
 20
-138.4180799350135
 10
82.7470594411188
 20
-138.4180799350135
 10
83.52547876601099
 20
-138.4180799350135
 10
83.52547876601099
 20
-138.4180799350135
 10
83.52547876601099
 20
-138.4180799350135
 10
83.52547876601099
 20
-138.6234076259344
 10
83.52547876601099
 20
-138.6234076259344
 10
83.52547876601099
 20
-138.6234076259344
 10
82.49746227321245
 20
-138.6234076259344
 10
82.49746227321245
 20
-138.6234076259344
 10
82.52915715167674
 20
-138.2658067145655
 10
82.59478622067076
 20
-138.1876030470503
 10
82.97977564114743
 20
-137.8892577780277
 10
83.23574623570148
 20
-137.6904757685288
 10
83.30120304992123
 20
-137.6226073874693
 10
83.30120304992123
 20
-137.4851480776079
 10
83.30120304992123
 20
-137.3666367929153
 10
83.22937280905377
 20
-137.2357231644758
 10
83.032657856846
 20
-137.2357231644758
 10
82.77238089293537
 20
-137.2357231644758
 10
82.76394040899652
 20
-137.466200052439
 10
82.75963403963996
 20
-137.5826442798405
 10
82.75963403963996
 20
-137.5826442798405
 10
82.53553057832445
 20
-137.5826442798405
 10
82.53553057832445
 20
-137.5826442798405
 10
82.54397106226331
 20
-137.4555202564347
 10
82.55447860349332
 20
-137.3435546531641
 10
82.63492158307392
 20
-137.2250433684715
 10
82.74482012905338
 20
-137.0641574093104
 10
82.93102754003114
 20
-137.0303954735549
 10
83.04747176743258
 20
-137.0303954735549
 10
83.32462969922094
 20
-137.0303954735549
 10
83.5318521926587
 20
-137.2143635724672
 10
83.5318521926587
 20
-137.487215134899
 10
83.5318521926587
 20
-137.7159694751196
 10
83.41558022003153
 20
-137.8151882250948
 10
83.10672740977888
 20
-138.0415309984757
 97
        0
 97
        0
 75
     2
 76
     1
 98
        0
  0
SPLINE
  5
C7
330
C1
100
AcDbEntity
  8
_U+30EC_U+30A4_U+30E4_U+30FC 1
370
     0
100
AcDbSpline
210
0.0
220
0.0
230
1.0
 70
    11
 71
     3
 72
    29
 73
    25
 74
     0
 42
0.0000000001
 43
0.0000000001
 12
1.0
 22
0.0
 32
0.0
 13
1.0
 23
0.0
 33
0.0
 40
0.0
 40
0.0
 40
0.0
 40
0.0
 40
1.0
 40
1.0
 40
1.0
 40
2.0
 40
2.0
 40
2.0
 40
3.0
 40
3.0
 40
3.0
 40
4.0
 40
4.0
 40
4.0
 40
5.0
 40
5.0
 40
5.0
 40
6.0
 40
6.0
 40
6.0
 40
7.0
 40
7.0
 40
7.0
 40
8.0
 40
8.0
 40
8.0
 40
8.0
 10
84.5881184684363
 20
-138.4456406988955
 30
0.0
 10
84.48028697974799
 20
-138.6551025043987
 30
0.0
 10
84.30682642206565
 20
-138.6740505295676
 30
0.0
 10
84.19038219466421
 20
-138.6740505295676
 30
0.0
 10
84.0296684902773
 20
-138.6740505295676
 30
0.0
 10
83.88790281105928
 20
-138.6275417405167
 30
0.0
 10
83.79264592089211
 20
-138.4456406988955
 30
0.0
 10
83.68912080156036
 20
-138.2509928039789
 30
0.0
 10
83.67000052161723
 20
-138.0139702345937
 30
0.0
 10
83.67000052161723
 20
-137.8513617276899
 30
0.0
 10
83.67000052161723
 20
-137.7073567364065
 30
0.0
 10
83.68688148949495
 20
-137.4555202564347
 30
0.0
 10
83.79264592089211
 20
-137.2567382469358
 30
0.0
 10
83.9006496643547
 20
-137.0538221228546
 30
0.0
 10
84.06136336874161
 20
-137.0303954735549
 30
0.0
 10
84.19038219466421
 20
-137.0303954735549
 30
0.0
 10
84.34902884175997
 20
-137.0303954735549
 30
0.0
 10
84.49286157826916
 20
-137.0748372053146
 30
0.0
 10
84.5881184684363
 20
-137.2567382469358
 30
0.0
 10
84.68750947318577
 20
-137.4493190845613
 30
0.0
 10
84.71076386771121
 20
-137.6777289152334
 30
0.0
 10
84.71076386771121
 20
-137.8513617276899
 30
0.0
 10
84.71076386771121
 20
-138.0225829733069
 30
0.0
 10
84.68974878525118
 20
-138.2530598612701
 30
0.0
 10
84.5881184684363
 20
-138.4456406988955
 30
0.0
  0
SPLINE
  5
C8
330
C1
100
AcDbEntity
  8
_U+30EC_U+30A4_U+30E4_U+30FC 1
370
     0
100
AcDbSpline
210
0.0
220
0.0
230
1.0
 70
    11
 71
     3
 72
    17
 73
    13
 74
     0
 42
0.0000000001
 43
0.0000000001
 12
1.0
 22
0.0
 32
0.0
 13
1.0
 23
0.0
 33
0.0
 40
0.0
 40
0.0
 40
0.0
 40
0.0
 40
1.0
 40
1.0
 40
1.0
 40
2.0
 40
2.0
 40
2.0
 40
3.0
 40
3.0
 40
3.0
 40
4.0
 40
4.0
 40
4.0
 40
4.0
 10
84.19038219466421
 20
-137.2229763111804
 30
0.0
 10
83.94078502675787
 20
-137.2229763111804
 30
0.0
 10
83.89427623770699
 20
-137.5065076696164
 30
0.0
 10
83.89427623770699
 20
-137.8513617276899
 30
0.0
 10
83.89427623770699
 20
-138.1707220791726
 30
0.0
 10
83.93027748552785
 20
-138.479402634651
 30
0.0
 10
84.19038219466421
 20
-138.479402634651
 30
0.0
 10
84.43791230527941
 20
-138.479402634651
 30
0.0
 10
84.4866604063957
 20
-138.1982828430546
 30
0.0
 10
84.4866604063957
 20
-137.8513617276899
 30
0.0
 10
84.4866604063957
 20
-137.5316568666588
 30
0.0
 10
84.4485921012837
 20
-137.2229763111804
 30
0.0
 10
84.19038219466421
 20
-137.2229763111804
 30
0.0
  0
HATCH
  5
C9
330
C1
100
AcDbEntity
  8
_U+30EC_U+30A4_U+30E4_U+30FC 1
 62
     7
420
 16777215
100
AcDbHatch
 10
0.0
 20
0.0
 30
0.0
210
0.0
220
0.0
230
1.0
  2
SOLID
 70
     1
 71
     0
 91
        2
 92
        1
 93
        1
 72
     4
 94
        3
 73
     0
 74
     1
 95
       29
 96
       25
 40
0.0
 40
0.0
 40
0.0
 40
0.0
 40
1.0
 40
1.0
 40
1.0
 40
2.0
 40
2.0
 40
2.0
 40
3.0
 40
3.0
 40
3.0
 40
4.0
 40
4.0
 40
4.0
 40
5.0
 40
5.0
 40
5.0
 40
6.0
 40
6.0
 40
6.0
 40
7.0
 40
7.0
 40
7.0
 40
8.0
 40
8.0
 40
8.0
 40
8.0
 10
84.5881184684363
 20
-138.4456406988955
 10
84.48028697974799
 20
-138.6551025043987
 10
84.30682642206565
 20
-138.6740505295676
 10
84.19038219466421
 20
-138.6740505295676
 10
84.0296684902773
 20
-138.6740505295676
 10
83.88790281105928
 20
-138.6275417405167
 10
83.79264592089211
 20
-138.4456406988955
 10
83.68912080156036
 20
-138.2509928039789
 10
83.67000052161723
 20
-138.0139702345937
 10
83.67000052161723
 20
-137.8513617276899
 10
83.67000052161723
 20
-137.7073567364065
 10
83.68688148949495
 20
-137.4555202564347
 10
83.79264592089211
 20
-137.2567382469358
 10
83.9006496643547
 20
-137.0538221228546
 10
84.06136336874161
 20
-137.0303954735549
 10
84.19038219466421
 20
-137.0303954735549
 10
84.34902884175997
 20
-137.0303954735549
 10
84.49286157826916
 20
-137.0748372053146
 10
84.5881184684363
 20
-137.2567382469358
 10
84.68750947318577
 20
-137.4493190845613
 10
84.71076386771121
 20
-137.6777289152334
 10
84.71076386771121
 20
-137.8513617276899
 10
84.71076386771121
 20
-138.0225829733069
 10
84.68974878525118
 20
-138.2530598612701
 10
84.5881184684363
 20
-138.4456406988955
 97
        0
 97
        0
 92
        1
 93
        1
 72
     4
 94
        3
 73
     0
 74
     1
 95
       17
 96
       13
 40
0.0
 40
0.0
 40
0.0
 40
0.0
 40
1.0
 40
1.0
 40
1.0
 40
2.0
 40
2.0
 40
2.0
 40
3.0
 40
3.0
 40
3.0
 40
4.0
 40
4.0
 40
4.0
 40
4.0
 10
84.19038219466421
 20
-137.2229763111804
 10
83.94078502675787
 20
-137.2229763111804
 10
83.89427623770699
 20
-137.5065076696164
 10
83.89427623770699
 20
-137.8513617276899
 10
83.89427623770699
 20
-138.1707220791726
 10
83.93027748552785
 20
-138.479402634651
 10
84.19038219466421
 20
-138.479402634651
 10
84.43791230527941
 20
-138.479402634651
 10
84.4866604063957
 20
-138.1982828430546
 10
84.4866604063957
 20
-137.8513617276899
 10
84.4866604063957
 20
-137.5316568666588
 10
84.4485921012837
 20
-137.2229763111804
 10
84.19038219466421
 20
-137.2229763111804
 97
        0
 97
        0
 75
     2
 76
     1
 98
        0
  0
ENDBLK
  5
C4
330
C1
100
AcDbEntity
  8
0
100
AcDbBlockEnd
  0
BLOCK
  5
D8
330
D6
100
AcDbEntity
  8
0
100
AcDbBlockBegin
  2
block 7
 70
     0
 10
0.0
 20
0.0
 30
0.0
  3
block 7
  1

  0
SPLINE
  5
DA
330
D6
100
AcDbEntity
  8
_U+30EC_U+30A4_U+30E4_U+30FC 1
370
     0
100
AcDbSpline
210
0.0
220
0.0
230
1.0
 70
    11
 71
     3
 72
    62
 73
    58
 74
     0
 42
0.0000000001
 43
0.0000000001
 12
1.0
 22
0.0
 32
0.0
 13
1.0
 23
0.0
 33
0.0
 40
0.0
 40
0.0
 40
0.0
 40
0.0
 40
1.0
 40
1.0
 40
1.0
 40
2.0
 40
2.0
 40
2.0
 40
3.0
 40
3.0
 40
3.0
 40
4.0
 40
4.0
 40
4.0
 40
5.0
 40
5.0
 40
5.0
 40
6.0
 40
6.0
 40
6.0
 40
7.0
 40
7.0
 40
7.0
 40
8.0
 40
8.0
 40
8.0
 40
9.0
 40
9.0
 40
9.0
 40
10.0
 40
10.0
 40
10.0
 40
11.0
 40
11.0
 40
11.0
 40
12.0
 40
12.0
 40
12.0
 40
13.0
 40
13.0
 40
13.0
 40
14.0
 40
14.0
 40
14.0
 40
15.0
 40
15.0
 40
15.0
 40
16.0
 40
16.0
 40
16.0
 40
17.0
 40
17.0
 40
17.0
 40
18.0
 40
18.0
 40
18.0
 40
19.0
 40
19.0
 40
19.0
 40
19.0
 10
88.00513642548135
 20
-119.6168158338111
 30
0.0
 10
87.90970728053993
 20
-119.6168158338111
 30
0.0
 10
87.69197724587215
 20
-119.5956284965768
 30
0.0
 10
87.56692027975758
 20
-119.409421085599
 30
0.0
 10
87.49319523637324
 20
-119.2972832275542
 30
0.0
 10
87.48871661224241
 20
-119.1978922228047
 30
0.0
 10
87.48458249766011
 20
-119.1133151286418
 30
0.0
 10
87.48458249766011
 20
-119.1133151286418
 30
0.0
 10
87.70472409916758
 20
-119.1133151286418
 30
0.0
 10
87.70472409916758
 20
-119.1133151286418
 30
0.0
 10
87.70679115645872
 20
-119.1873846815747
 30
0.0
 10
87.71712644291448
 20
-119.4221679388945
 30
0.0
 10
88.00065780135053
 20
-119.4221679388945
 30
0.0
 10
88.138117111212
 20
-119.4221679388945
 30
0.0
 10
88.29073484120858
 20
-119.3524047553181
 30
0.0
 10
88.29073484120858
 20
-119.1238226698718
 30
0.0
 10
88.29073484120858
 20
-119.0075506972446
 30
0.0
 10
88.2524942813223
 20
-118.9588025961284
 30
0.0
 10
88.22079940285799
 20
-118.9271077176641
 30
0.0
 10
88.14672984992512
 20
-118.8530381647312
 30
0.0
 10
88.03028562252368
 20
-118.84046356621
 30
0.0
 10
87.97550860430822
 20
-118.84046356621
 30
0.0
 10
87.95621606959081
 20
-118.84046356621
 30
0.0
 10
87.92038707654422
 20
-118.8425306235012
 30
0.0
 10
87.89282631266221
 20
-118.8466647380835
 30
0.0
 10
87.89282631266221
 20
-118.8466647380835
 30
0.0
 10
87.89282631266221
 20
-118.6520168431669
 30
0.0
 10
87.89282631266221
 20
-118.6520168431669
 30
0.0
 10
87.93106687254848
 20
-118.6583902698146
 30
0.0
 10
87.97309703746853
 20
-118.66062958188
 30
0.0
 10
87.97964271889052
 20
-118.66062958188
 30
0.0
 10
88.04509953311026
 20
-118.66062958188
 30
0.0
 10
88.24388154260917
 20
-118.6394422446457
 30
0.0
 10
88.24388154260917
 20
-118.4024196752605
 30
0.0
 10
88.24388154260917
 20
-118.2248250029959
 30
0.0
 10
88.11296791416967
 20
-118.1697034752319
 30
0.0
 10
88.00272485864168
 20
-118.1697034752319
 30
0.0
 10
87.73848603492303
 20
-118.1697034752319
 30
0.0
 10
87.7298732962099
 20
-118.4024196752605
 30
0.0
 10
87.7257391816276
 20
-118.4744221709022
 30
0.0
 10
87.7257391816276
 20
-118.4744221709022
 30
0.0
 10
87.52247854799786
 20
-118.4744221709022
 30
0.0
 10
87.52247854799786
 20
-118.4744221709022
 30
0.0
 10
87.53109128671097
 20
-118.3495374595619
 30
0.0
 10
87.55865205059298
 20
-117.9729885230241
 30
0.0
 10
88.01547171193711
 20
-117.9729885230241
 30
0.0
 10
88.23974742802687
 20
-117.9729885230241
 30
0.0
 10
88.48090411199436
 20
-118.0999402916556
 30
0.0
 10
88.48090411199436
 20
-118.3960462486128
 30
0.0
 10
88.48090411199436
 20
-118.5822536595905
 30
0.0
 10
88.38581947660147
 20
-118.6647636964623
 30
0.0
 10
88.28625621707775
 20
-118.7260863960997
 30
0.0
 10
88.3475789167152
 20
-118.7536471599817
 30
0.0
 10
88.52947995833638
 20
-118.8340901395623
 30
0.0
 10
88.52947995833638
 20
-119.1112480713507
 30
0.0
 10
88.52947995833638
 20
-119.4497287027765
 30
0.0
 10
88.28212210249545
 20
-119.6168158338111
 30
0.0
 10
88.00513642548135
 20
-119.6168158338111
 30
0.0
  0
HATCH
  5
DB
330
D6
100
AcDbEntity
  8
_U+30EC_U+30A4_U+30E4_U+30FC 1
 62
     7
420
 16777215
100
AcDbHatch
 10
0.0
 20
0.0
 30
0.0
210
0.0
220
0.0
230
1.0
  2
SOLID
 70
     1
 71
     0
 91
        1
 92
        1
 93
        1
 72
     4
 94
        3
 73
     0
 74
     1
 95
       62
 96
       58
 40
0.0
 40
0.0
 40
0.0
 40
0.0
 40
1.0
 40
1.0
 40
1.0
 40
2.0
 40
2.0
 40
2.0
 40
3.0
 40
3.0
 40
3.0
 40
4.0
 40
4.0
 40
4.0
 40
5.0
 40
5.0
 40
5.0
 40
6.0
 40
6.0
 40
6.0
 40
7.0
 40
7.0
 40
7.0
 40
8.0
 40
8.0
 40
8.0
 40
9.0
 40
9.0
 40
9.0
 40
10.0
 40
10.0
 40
10.0
 40
11.0
 40
11.0
 40
11.0
 40
12.0
 40
12.0
 40
12.0
 40
13.0
 40
13.0
 40
13.0
 40
14.0
 40
14.0
 40
14.0
 40
15.0
 40
15.0
 40
15.0
 40
16.0
 40
16.0
 40
16.0
 40
17.0
 40
17.0
 40
17.0
 40
18.0
 40
18.0
 40
18.0
 40
19.0
 40
19.0
 40
19.0
 40
19.0
 10
88.00513642548135
 20
-119.6168158338111
 10
87.90970728053993
 20
-119.6168158338111
 10
87.69197724587215
 20
-119.5956284965768
 10
87.56692027975758
 20
-119.409421085599
 10
87.49319523637324
 20
-119.2972832275542
 10
87.48871661224241
 20
-119.1978922228047
 10
87.48458249766011
 20
-119.1133151286418
 10
87.48458249766011
 20
-119.1133151286418
 10
87.70472409916758
 20
-119.1133151286418
 10
87.70472409916758
 20
-119.1133151286418
 10
87.70679115645872
 20
-119.1873846815747
 10
87.71712644291448
 20
-119.4221679388945
 10
88.00065780135053
 20
-119.4221679388945
 10
88.138117111212
 20
-119.4221679388945
 10
88.29073484120858
 20
-119.3524047553181
 10
88.29073484120858
 20
-119.1238226698718
 10
88.29073484120858
 20
-119.0075506972446
 10
88.2524942813223
 20
-118.9588025961284
 10
88.22079940285799
 20
-118.9271077176641
 10
88.14672984992512
 20
-118.8530381647312
 10
88.03028562252368
 20
-118.84046356621
 10
87.97550860430822
 20
-118.84046356621
 10
87.95621606959081
 20
-118.84046356621
 10
87.92038707654422
 20
-118.8425306235012
 10
87.89282631266221
 20
-118.8466647380835
 10
87.89282631266221
 20
-118.8466647380835
 10
87.89282631266221
 20
-118.6520168431669
 10
87.89282631266221
 20
-118.6520168431669
 10
87.93106687254848
 20
-118.6583902698146
 10
87.97309703746853
 20
-118.66062958188
 10
87.97964271889052
 20
-118.66062958188
 10
88.04509953311026
 20
-118.66062958188
 10
88.24388154260917
 20
-118.6394422446457
 10
88.24388154260917
 20
-118.4024196752605
 10
88.24388154260917
 20
-118.2248250029959
 10
88.11296791416967
 20
-118.1697034752319
 10
88.00272485864168
 20
-118.1697034752319
 10
87.73848603492303
 20
-118.1697034752319
 10
87.7298732962099
 20
-118.4024196752605
 10
87.7257391816276
 20
-118.4744221709022
 10
87.7257391816276
 20
-118.4744221709022
 10
87.52247854799786
 20
-118.4744221709022
 10
87.52247854799786
 20
-118.4744221709022
 10
87.53109128671097
 20
-118.3495374595619
 10
87.55865205059298
 20
-117.9729885230241
 10
88.01547171193711
 20
-117.9729885230241
 10
88.23974742802687
 20
-117.9729885230241
 10
88.48090411199436
 20
-118.0999402916556
 10
88.48090411199436
 20
-118.3960462486128
 10
88.48090411199436
 20
-118.5822536595905
 10
88.38581947660147
 20
-118.6647636964623
 10
88.28625621707775
 20
-118.7260863960997
 10
88.3475789167152
 20
-118.7536471599817
 10
88.52947995833638
 20
-118.8340901395623
 10
88.52947995833638
 20
-119.1112480713507
 10
88.52947995833638
 20
-119.4497287027765
 10
88.28212210249545
 20
-119.6168158338111
 10
88.00513642548135
 20
-119.6168158338111
 97
        0
 97
        0
 75
     2
 76
     1
 98
        0
  0
SPLINE
  5
DC
330
D6
100
AcDbEntity
  8
_U+30EC_U+30A4_U+30E4_U+30FC 1
370
     0
100
AcDbSpline
210
0.0
220
0.0
230
1.0
 70
    11
 71
     3
 72
    29
 73
    25
 74
     0
 42
0.0000000001
 43
0.0000000001
 12
1.0
 22
0.0
 32
0.0
 13
1.0
 23
0.0
 33
0.0
 40
0.0
 40
0.0
 40
0.0
 40
0.0
 40
1.0
 40
1.0
 40
1.0
 40
2.0
 40
2.0
 40
2.0
 40
3.0
 40
3.0
 40
3.0
 40
4.0
 40
4.0
 40
4.0
 40
5.0
 40
5.0
 40
5.0
 40
6.0
 40
6.0
 40
6.0
 40
7.0
 40
7.0
 40
7.0
 40
8.0
 40
8.0
 40
8.0
 40
8.0
 10
89.58815780095365
 20
-119.3882337483648
 30
0.0
 10
89.47998180271681
 20
-119.5976955538679
 30
0.0
 10
89.30669349980874
 20
-119.6168158338111
 30
0.0
 10
89.1902492724073
 20
-119.6168158338111
 30
0.0
 10
89.02936331324614
 20
-119.6168158338111
 30
0.0
 10
88.88776988880237
 20
-119.5703070447602
 30
0.0
 10
88.79268525340947
 20
-119.3882337483648
 30
0.0
 10
88.68898787930345
 20
-119.1935858534481
 30
0.0
 10
88.67003985413457
 20
-118.9567355388372
 30
0.0
 10
88.67003985413457
 20
-118.7937825223849
 30
0.0
 10
88.67003985413457
 20
-118.6499497858757
 30
0.0
 10
88.6869208220123
 20
-118.3982855606782
 30
0.0
 10
88.79268525340947
 20
-118.199331296405
 30
0.0
 10
88.90051674209779
 20
-117.9962429175496
 30
0.0
 10
89.06140270125896
 20
-117.9729885230241
 30
0.0
 10
89.1902492724073
 20
-117.9729885230241
 30
0.0
 10
89.34906817427732
 20
-117.9729885230241
 30
0.0
 10
89.49272865601223
 20
-118.0174302547838
 30
0.0
 10
89.58815780095365
 20
-118.199331296405
 30
0.0
 10
89.68737655092886
 20
-118.3919121340305
 30
0.0
 10
89.71080320022855
 20
-118.6203219647026
 30
0.0
 10
89.71080320022855
 20
-118.7937825223849
 30
0.0
 10
89.71080320022855
 20
-118.9651760227761
 30
0.0
 10
89.68944360822
 20
-119.1958251655136
 30
0.0
 10
89.58815780095365
 20
-119.3882337483648
 30
0.0
  0
SPLINE
  5
DD
330
D6
100
AcDbEntity
  8
_U+30EC_U+30A4_U+30E4_U+30FC 1
370
     0
100
AcDbSpline
210
0.0
220
0.0
230
1.0
 70
    11
 71
     3
 72
    17
 73
    13
 74
     0
 42
0.0000000001
 43
0.0000000001
 12
1.0
 22
0.0
 32
0.0
 13
1.0
 23
0.0
 33
0.0
 40
0.0
 40
0.0
 40
0.0
 40
0.0
 40
1.0
 40
1.0
 40
1.0
 40
2.0
 40
2.0
 40
2.0
 40
3.0
 40
3.0
 40
3.0
 40
4.0
 40
4.0
 40
4.0
 40
4.0
 10
89.1902492724073
 20
-118.1655693606496
 30
0.0
 10
88.94082435927521
 20
-118.1655693606496
 30
0.0
 10
88.89397106067581
 20
-118.4491007190856
 30
0.0
 10
88.89397106067581
 20
-118.7937825223849
 30
0.0
 10
88.89397106067581
 20
-119.1133151286418
 30
0.0
 10
88.93014456327094
 20
-119.4221679388945
 30
0.0
 10
89.1902492724073
 20
-119.4221679388945
 30
0.0
 10
89.43795163779677
 20
-119.4221679388945
 30
0.0
 10
89.48652748413879
 20
-119.1407036377496
 30
0.0
 10
89.48652748413879
 20
-118.7937825223849
 30
0.0
 10
89.48652748413879
 20
-118.4744221709022
 30
0.0
 10
89.44828692425251
 20
-118.1655693606496
 30
0.0
 10
89.1902492724073
 20
-118.1655693606496
 30
0.0
  0
HATCH
  5
DE
330
D6
100
AcDbEntity
  8
_U+30EC_U+30A4_U+30E4_U+30FC 1
 62
     7
420
 16777215
100
AcDbHatch
 10
0.0
 20
0.0
 30
0.0
210
0.0
220
0.0
230
1.0
  2
SOLID
 70
     1
 71
     0
 91
        2
 92
        1
 93
        1
 72
     4
 94
        3
 73
     0
 74
     1
 95
       29
 96
       25
 40
0.0
 40
0.0
 40
0.0
 40
0.0
 40
1.0
 40
1.0
 40
1.0
 40
2.0
 40
2.0
 40
2.0
 40
3.0
 40
3.0
 40
3.0
 40
4.0
 40
4.0
 40
4.0
 40
5.0
 40
5.0
 40
5.0
 40
6.0
 40
6.0
 40
6.0
 40
7.0
 40
7.0
 40
7.0
 40
8.0
 40
8.0
 40
8.0
 40
8.0
 10
89.58815780095365
 20
-119.3882337483648
 10
89.47998180271681
 20
-119.5976955538679
 10
89.30669349980874
 20
-119.6168158338111
 10
89.1902492724073
 20
-119.6168158338111
 10
89.02936331324614
 20
-119.6168158338111
 10
88.88776988880237
 20
-119.5703070447602
 10
88.79268525340947
 20
-119.3882337483648
 10
88.68898787930345
 20
-119.1935858534481
 10
88.67003985413457
 20
-118.9567355388372
 10
88.67003985413457
 20
-118.7937825223849
 10
88.67003985413457
 20
-118.6499497858757
 10
88.6869208220123
 20
-118.3982855606782
 10
88.79268525340947
 20
-118.199331296405
 10
88.90051674209779
 20
-117.9962429175496
 10
89.06140270125896
 20
-117.9729885230241
 10
89.1902492724073
 20
-117.9729885230241
 10
89.34906817427732
 20
-117.9729885230241
 10
89.49272865601223
 20
-118.0174302547838
 10
89.58815780095365
 20
-118.199331296405
 10
89.68737655092886
 20
-118.3919121340305
 10
89.71080320022855
 20
-118.6203219647026
 10
89.71080320022855
 20
-118.7937825223849
 10
89.71080320022855
 20
-118.9651760227761
 10
89.68944360822
 20
-119.1958251655136
 10
89.58815780095365
 20
-119.3882337483648
 97
        0
 97
        0
 92
        1
 93
        1
 72
     4
 94
        3
 73
     0
 74
     1
 95
       17
 96
       13
 40
0.0
 40
0.0
 40
0.0
 40
0.0
 40
1.0
 40
1.0
 40
1.0
 40
2.0
 40
2.0
 40
2.0
 40
3.0
 40
3.0
 40
3.0
 40
4.0
 40
4.0
 40
4.0
 40
4.0
 10
89.1902492724073
 20
-118.1655693606496
 10
88.94082435927521
 20
-118.1655693606496
 10
88.89397106067581
 20
-118.4491007190856
 10
88.89397106067581
 20
-118.7937825223849
 10
88.89397106067581
 20
-119.1133151286418
 10
88.93014456327094
 20
-119.4221679388945
 10
89.1902492724073
 20
-119.4221679388945
 10
89.43795163779677
 20
-119.4221679388945
 10
89.48652748413879
 20
-119.1407036377496
 10
89.48652748413879
 20
-118.7937825223849
 10
89.48652748413879
 20
-118.4744221709022
 10
89.44828692425251
 20
-118.1655693606496
 10
89.1902492724073
 20
-118.1655693606496
 97
        0
 97
        0
 75
     2
 76
     1
 98
        0
  0
ENDBLK
  5
D9
330
D6
100
AcDbEntity
  8
0
100
AcDbBlockEnd
  0
ENDSEC
  0
SECTION
  2
ENTITIES
  0
INSERT
  5
42
330
1F
100
AcDbEntity
  8
_U+30EC_U+30A4_U+30E4_U+30FC 1
100
AcDbBlockReference
  2
block 2
 10
0.0
 20
0.0
 30
0.0
  0
ENDSEC
  0
SECTION
  2
OBJECTS
  0
DICTIONARY
  5
C
330
0
100
AcDbDictionary
281
     1
  3
ACAD_GROUP
350
D
  3
ACAD_LAYOUT
350
1A
  3
ACAD_MATERIAL
350
3B
  3
ACAD_MLEADERSTYLE
350
E0
  3
ACAD_MLINESTYLE
350
17
  3
ACAD_PLOTSETTINGS
350
19
  3
ACAD_PLOTSTYLENAME
350
E
  3
ACAD_TABLESTYLE
350
DF
  3
ACAD_VISUALSTYLE
350
2A
  0
SUN
  5
3F
330
29
100
AcDbSun
 90
        1
290
     0
 63
     7
421
 16777215
 40
1.0
291
     1
 91
  2455826
 92
 54000000
292
     0
 70
     2
 71
   256
280
     1
  0
DICTIONARY
  5
D
102
{ACAD_REACTORS
330
C
102
}
330
C
100
AcDbDictionary
281
     1
  0
DICTIONARY
  5
1A
102
{ACAD_REACTORS
330
C
102
}
330
C
100
AcDbDictionary
281
     1
  3
Layout1
350
1E
  3
Layout2
350
26
  3
Model
350
22
  0
DICTIONARY
  5
3B
102
{ACAD_REACTORS
330
C
102
}
330
C
100
AcDbDictionary
281
     1
  3
ByBlock
350
3D
  3
ByLayer
350
3C
  3
Global
350
3E
  0
DICTIONARY
  5
E0
102
{ACAD_REACTORS
330
C
102
}
330
C
100
AcDbDictionary
281
     1
  0
DICTIONARY
  5
17
102
{ACAD_REACTORS
330
C
102
}
330
C
100
AcDbDictionary
281
     1
  3
Standard
350
18
  0
DICTIONARY
  5
19
102
{ACAD_REACTORS
330
C
102
}
330
C
100
AcDbDictionary
281
     1
  0
ACDBDICTIONARYWDFLT
  5
E
102
{ACAD_REACTORS
330
C
102
}
330
C
100
AcDbDictionary
281
     1
  3
Normal
350
F
100
AcDbDictionaryWithDefault
340
F
  0
DICTIONARY
  5
DF
102
{ACAD_REACTORS
330
C
102
}
330
C
100
AcDbDictionary
281
     1
  0
DICTIONARY
  5
2A
102
{ACAD_REACTORS
330
C
102
}
330
C
100
AcDbDictionary
281
     1
  3
2dWireframe
350
2F
  3
3D Hidden
350
31
  3
3dWireframe
350
30
  3
Basic
350
32
  3
Brighten
350
36
  3
ColorChange
350
3A
  3
Conceptual
350
34
  3
Dim
350
35
  3
Facepattern
350
39
  3
Flat
350
2B
  3
FlatWithEdges
350
2C
  3
Gouraud
350
2D
  3
GouraudWithEdges
350
2E
  3
Linepattern
350
38
  3
Realistic
350
33
  3
Thicken
350
37
  0
LAYOUT
  5
1E
102
{ACAD_REACTORS
330
1A
102
}
330
1A
100
AcDbPlotSettings
  1

  2
none_device
  4

  6

 40
0.0
 41
0.0
 42
0.0
 43
0.0
 44
0.0
 45
0.0
 46
0.0
 47
0.0
 48
0.0
 49
0.0
140
0.0
141
0.0
142
1.0
143
1.0
 70
   688
 72
     0
 73
     0
 74
     5
  7

 75
    16
 76
     0
 77
     2
 78
   300
147
1.0
148
0.0
149
0.0
100
AcDbLayout
  1
Layout1
 70
     1
 71
     1
 10
0.0
 20
0.0
 11
12.0
 21
9.0
 12
0.0
 22
0.0
 32
0.0
 14
1.000000000000000E+20
 24
1.000000000000000E+20
 34
1.000000000000000E+20
 15
-1.000000000000000E+20
 25
-1.000000000000000E+20
 35
-1.000000000000000E+20
146
0.0
 13
0.0
 23
0.0
 33
0.0
 16
1.0
 26
0.0
 36
0.0
 17
0.0
 27
1.0
 37
0.0
 76
     0
330
1B
  0
LAYOUT
  5
26
102
{ACAD_REACTORS
330
1A
102
}
330
1A
100
AcDbPlotSettings
  1

  2
none_device
  4

  6

 40
0.0
 41
0.0
 42
0.0
 43
0.0
 44
0.0
 45
0.0
 46
0.0
 47
0.0
 48
0.0
 49
0.0
140
0.0
141
0.0
142
1.0
143
1.0
 70
   688
 72
     0
 73
     0
 74
     5
  7

 75
    16
 76
     0
 77
     2
 78
   300
147
1.0
148
0.0
149
0.0
100
AcDbLayout
  1
Layout2
 70
     1
 71
     2
 10
0.0
 20
0.0
 11
0.0
 21
0.0
 12
0.0
 22
0.0
 32
0.0
 14
0.0
 24
0.0
 34
0.0
 15
0.0
 25
0.0
 35
0.0
146
0.0
 13
0.0
 23
0.0
 33
0.0
 16
1.0
 26
0.0
 36
0.0
 17
0.0
 27
1.0
 37
0.0
 76
     0
330
23
  0
LAYOUT
  5
22
102
{ACAD_REACTORS
330
1A
102
}
330
1A
100
AcDbPlotSettings
  1

  2
none_device
  4

  6

 40
0.0
 41
0.0
 42
0.0
 43
0.0
 44
0.0
 45
0.0
 46
0.0
 47
0.0
 48
0.0
 49
0.0
140
0.0
141
0.0
142
1.0
143
1.0
 70
  1712
 72
     0
 73
     0
 74
     0
  7

 75
     0
 76
     0
 77
     2
 78
   300
147
1.0
148
0.0
149
0.0
100
AcDbLayout
  1
Model
 70
     1
 71
     0
 10
0.0
 20
0.0
 11
12.0
 21
9.0
 12
0.0
 22
0.0
 32
0.0
 14
1.000000000000000E+20
 24
1.000000000000000E+20
 34
1.000000000000000E+20
 15
-1.000000000000000E+20
 25
-1.000000000000000E+20
 35
-1.000000000000000E+20
146
0.0
 13
0.0
 23
0.0
 33
0.0
 16
1.0
 26
0.0
 36
0.0
 17
0.0
 27
1.0
 37
0.0
 76
     0
330
1F
331
29
  0
MATERIAL
  5
3D
102
{ACAD_REACTORS
330
3B
102
}
330
3B
100
AcDbMaterial
  1
ByBlock
 72
     1
 94
      127
  0
MATERIAL
  5
3C
102
{ACAD_REACTORS
330
3B
102
}
330
3B
100
AcDbMaterial
  1
ByLayer
 72
     1
 94
      127
  0
MATERIAL
  5
3E
102
{ACAD_REACTORS
330
3B
102
}
330
3B
100
AcDbMaterial
  1
Global
 72
     1
 94
      127
  0
MLINESTYLE
  5
18
102
{ACAD_REACTORS
330
17
102
}
330
17
100
AcDbMlineStyle
  2
Standard
 70
     0
  3

 62
   256
 51
90.0
 52
90.0
 71
     2
 49
0.5
 62
   256
  6
BYLAYER
 49
-0.5
 62
   256
  6
BYLAYER
  0
ACDBPLACEHOLDER
  5
F
102
{ACAD_REACTORS
330
E
102
}
330
E
  0
VISUALSTYLE
  5
2F
102
{ACAD_REACTORS
330
2A
102
}
330
2A
100
AcDbVisualStyle
  2
2dWireframe
 70
     4
177
     2
291
     0
 71
     0
176
     1
 72
     2
176
     1
 73
     0
176
     1
 90
        0
176
     1
 40
-0.6
176
     1
 41
-30.0
176
     1
 62
     5
 63
     7
421
 16777215
176
     1
 74
     1
176
     1
 91
        4
176
     1
 64
     7
176
     1
 65
   257
176
     1
 75
     1
176
     1
175
     1
176
     1
 42
1.0
176
     1
 92
        0
176
     1
 66
   257
176
     1
 43
1.0
176
     1
 76
     1
176
     1
 77
     6
176
     1
 78
     2
176
     1
 67
     7
176
     1
 79
     5
176
     1
170
     0
176
     1
171
     0
176
     1
290
     0
176
     1
 93
        1
176
     1
 44
0.0
176
     1
173
     0
176
     1
  0
VISUALSTYLE
  5
31
102
{ACAD_REACTORS
330
2A
102
}
330
2A
100
AcDbVisualStyle
  2
3D Hidden
 70
     6
177
     2
291
     0
 71
     1
176
     1
 72
     2
176
     1
 73
     2
176
     1
 90
        0
176
     1
 40
-0.6
176
     1
 41
-30.0
176
     1
 62
     5
 63
     7
421
 16777215
176
     1
 74
     2
176
     1
 91
        2
176
     1
 64
     7
176
     1
 65
   257
176
     1
 75
     2
176
     1
175
     1
176
     1
 42
40.0
176
     1
 92
        0
176
     1
 66
   257
176
     1
 43
1.0
176
     1
 76
     1
176
     1
 77
     6
176
     1
 78
     2
176
     1
 67
     7
176
     1
 79
     3
176
     1
170
     0
176
     1
171
     0
176
     1
290
     0
176
     1
 93
        1
176
     1
 44
0.0
176
     1
173
     0
176
     1
  0
VISUALSTYLE
  5
30
102
{ACAD_REACTORS
330
2A
102
}
330
2A
100
AcDbVisualStyle
  2
3dWireframe
 70
     5
177
     2
291
     0
 71
     0
176
     1
 72
     2
176
     1
 73
     0
176
     1
 90
        0
176
     1
 40
-0.6
176
     1
 41
-30.0
176
     1
 62
     5
 63
     7
421
 16777215
176
     1
 74
     1
176
     1
 91
        4
176
     1
 64
     7
176
     1
 65
   257
176
     1
 75
     1
176
     1
175
     1
176
     1
 42
1.0
176
     1
 92
        0
176
     1
 66
   257
176
     1
 43
1.0
176
     1
 76
     1
176
     1
 77
     6
176
     1
 78
     2
176
     1
 67
     7
176
     1
 79
     5
176
     1
170
     0
176
     1
171
     0
176
     1
290
     0
176
     1
 93
        1
176
     1
 44
0.0
176
     1
173
     0
176
     1
  0
VISUALSTYLE
  5
32
102
{ACAD_REACTORS
330
2A
102
}
330
2A
100
AcDbVisualStyle
  2
Basic
 70
     7
177
     2
291
     1
 71
     1
176
     1
 72
     0
176
     1
 73
     1
176
     1
 90
        0
176
     1
 40
-0.6
176
     1
 41
-30.0
176
     1
 62
     5
 63
     7
421
 16777215
176
     1
 74
     0
176
     1
 91
        4
176
     1
 64
     7
176
     1
 65
   257
176
     1
 75
     1
176
     1
175
     1
176
     1
 42
1.0
176
     1
 92
        8
176
     1
 66
     7
176
     1
 43
1.0
176
     1
 76
     1
176
     1
 77
     6
176
     1
 78
     2
176
     1
 67
     7
176
     1
 79
     5
176
     1
170
     0
176
     1
171
     0
176
     1
290
     0
176
     1
 93
        1
176
     1
 44
0.0
176
     1
173
     0
176
     1
  0
VISUALSTYLE
  5
36
102
{ACAD_REACTORS
330
2A
102
}
330
2A
100
AcDbVisualStyle
  2
Brighten
 70
    12
177
     2
291
     1
 71
     2
176
     1
 72
     2
176
     1
 73
     0
176
     1
 90
        0
176
     1
 40
-0.6
176
     1
 41
-30.0
176
     1
 62
     5
 63
     7
421
 16777215
176
     1
 74
     1
176
     1
 91
        4
176
     1
 64
     7
176
     1
 65
   257
176
     1
 75
     1
176
     1
175
     1
176
     1
 42
1.0
176
     1
 92
        8
176
     1
 66
     7
176
     1
 43
1.0
176
     1
 76
     1
176
     1
 77
     6
176
     1
 78
     2
176
     1
 67
     7
176
     1
 79
     5
176
     1
170
     0
176
     1
171
     0
176
     1
290
     0
176
     1
 93
        1
176
     1
 44
50.0
176
     1
173
     0
176
     1
  0
VISUALSTYLE
  5
3A
102
{ACAD_REACTORS
330
2A
102
}
330
2A
100
AcDbVisualStyle
  2
ColorChange
 70
    16
177
     2
291
     1
 71
     2
176
     1
 72
     2
176
     1
 73
     3
176
     1
 90
        0
176
     1
 40
-0.6
176
     1
 41
-30.0
176
     1
 62
     5
 63
     8
421
  8421504
176
     1
 74
     1
176
     1
 91
        4
176
     1
 64
     7
176
     1
 65
   257
176
     1
 75
     1
176
     1
175
     1
176
     1
 42
1.0
176
     1
 92
        8
176
     1
 66
     8
424
  8421504
176
     1
 43
1.0
176
     1
 76
     1
176
     1
 77
     6
176
     1
 78
     2
176
     1
 67
     7
176
     1
 79
     5
176
     1
170
     0
176
     1
171
     0
176
     1
290
     0
176
     1
 93
        1
176
     1
 44
0.0
176
     1
173
     0
176
     1
  0
VISUALSTYLE
  5
34
102
{ACAD_REACTORS
330
2A
102
}
330
2A
100
AcDbVisualStyle
  2
Conceptual
 70
     9
177
     2
291
     0
 71
     3
176
     1
 72
     2
176
     1
 73
     0
176
     1
 90
        0
176
     1
 40
-0.6
176
     1
 41
-30.0
176
     1
 62
     5
 63
     7
421
 16777215
176
     1
 74
     2
176
     1
 91
        2
176
     1
 64
     7
176
     1
 65
   257
176
     1
 75
     1
176
     1
175
     1
176
     1
 42
40.0
176
     1
 92
        8
176
     1
 66
     7
176
     1
 43
1.0
176
     1
 76
     1
176
     1
 77
     6
176
     1
 78
     2
176
     1
 67
     7
176
     1
 79
     3
176
     1
170
     0
176
     1
171
     0
176
     1
290
     0
176
     1
 93
        1
176
     1
 44
0.0
176
     1
173
     0
176
     1
  0
VISUALSTYLE
  5
35
102
{ACAD_REACTORS
330
2A
102
}
330
2A
100
AcDbVisualStyle
  2
Dim
 70
    11
177
     2
291
     1
 71
     2
176
     1
 72
     2
176
     1
 73
     0
176
     1
 90
        0
176
     1
 40
-0.6
176
     1
 41
-30.0
176
     1
 62
     5
 63
     7
421
 16777215
176
     1
 74
     1
176
     1
 91
        4
176
     1
 64
     7
176
     1
 65
   257
176
     1
 75
     1
176
     1
175
     1
176
     1
 42
1.0
176
     1
 92
        8
176
     1
 66
     7
176
     1
 43
1.0
176
     1
 76
     1
176
     1
 77
     6
176
     1
 78
     2
176
     1
 67
     7
176
     1
 79
     5
176
     1
170
     0
176
     1
171
     0
176
     1
290
     0
176
     1
 93
        1
176
     1
 44
-50.0
176
     1
173
     0
176
     1
  0
VISUALSTYLE
  5
39
102
{ACAD_REACTORS
330
2A
102
}
330
2A
100
AcDbVisualStyle
  2
Facepattern
 70
    15
177
     2
291
     1
 71
     2
176
     1
 72
     2
176
     1
 73
     0
176
     1
 90
        0
176
     1
 40
-0.6
176
     1
 41
-30.0
176
     1
 62
     5
 63
     7
421
 16777215
176
     1
 74
     1
176
     1
 91
        4
176
     1
 64
     7
176
     1
 65
   257
176
     1
 75
     1
176
     1
175
     1
176
     1
 42
1.0
176
     1
 92
        8
176
     1
 66
     7
176
     1
 43
1.0
176
     1
 76
     1
176
     1
 77
     6
176
     1
 78
     2
176
     1
 67
     7
176
     1
 79
     5
176
     1
170
     0
176
     1
171
     0
176
     1
290
     0
176
     1
 93
        1
176
     1
 44
0.0
176
     1
173
     0
176
     1
  0
VISUALSTYLE
  5
2B
102
{ACAD_REACTORS
330
2A
102
}
330
2A
100
AcDbVisualStyle
  2
Flat
 70
     0
177
     2
291
     1
 71
     2
176
     1
 72
     1
176
     1
 73
     1
176
     1
 90
        2
176
     1
 40
-0.6
176
     1
 41
30.0
176
     1
 62
     5
 63
     7
421
 16777215
176
     1
 74
     0
176
     1
 91
        4
176
     1
 64
     7
176
     1
 65
   257
176
     1
 75
     1
176
     1
175
     1
176
     1
 42
1.0
176
     1
 92
        8
176
     1
 66
     7
176
     1
 43
1.0
176
     1
 76
     1
176
     1
 77
     6
176
     1
 78
     2
176
     1
 67
     7
176
     1
 79
     5
176
     1
170
     0
176
     1
171
     0
176
     1
290
     0
176
     1
 93
       13
176
     1
 44
0.0
176
     1
173
     0
176
     1
  0
VISUALSTYLE
  5
2C
102
{ACAD_REACTORS
330
2A
102
}
330
2A
100
AcDbVisualStyle
  2
FlatWithEdges
 70
     1
177
     2
291
     1
 71
     2
176
     1
 72
     1
176
     1
 73
     1
176
     1
 90
        2
176
     1
 40
-0.6
176
     1
 41
30.0
176
     1
 62
     5
 63
     7
421
 16777215
176
     1
 74
     1
176
     1
 91
        4
176
     1
 64
     7
176
     1
 65
   257
176
     1
 75
     1
176
     1
175
     1
176
     1
 42
1.0
176
     1
 92
        0
176
     1
 66
   257
176
     1
 43
1.0
176
     1
 76
     1
176
     1
 77
     6
176
     1
 78
     2
176
     1
 67
     7
176
     1
 79
     5
176
     1
170
     0
176
     1
171
     0
176
     1
290
     0
176
     1
 93
       13
176
     1
 44
0.0
176
     1
173
     0
176
     1
  0
VISUALSTYLE
  5
2D
102
{ACAD_REACTORS
330
2A
102
}
330
2A
100
AcDbVisualStyle
  2
Gouraud
 70
     2
177
     2
291
     1
 71
     2
176
     1
 72
     2
176
     1
 73
     1
176
     1
 90
        2
176
     1
 40
-0.6
176
     1
 41
30.0
176
     1
 62
     5
 63
     7
421
 16777215
176
     1
 74
     0
176
     1
 91
        4
176
     1
 64
     7
176
     1
 65
   257
176
     1
 75
     1
176
     1
175
     1
176
     1
 42
1.0
176
     1
 92
        0
176
     1
 66
     7
176
     1
 43
1.0
176
     1
 76
     1
176
     1
 77
     6
176
     1
 78
     2
176
     1
 67
     7
176
     1
 79
     5
176
     1
170
     0
176
     1
171
     0
176
     1
290
     0
176
     1
 93
       13
176
     1
 44
0.0
176
     1
173
     0
176
     1
  0
VISUALSTYLE
  5
2E
102
{ACAD_REACTORS
330
2A
102
}
330
2A
100
AcDbVisualStyle
  2
GouraudWithEdges
 70
     3
177
     2
291
     1
 71
     2
176
     1
 72
     2
176
     1
 73
     1
176
     1
 90
        2
176
     1
 40
-0.6
176
     1
 41
30.0
176
     1
 62
     5
 63
     7
421
 16777215
176
     1
 74
     1
176
     1
 91
        4
176
     1
 64
     7
176
     1
 65
   257
176
     1
 75
     1
176
     1
175
     1
176
     1
 42
1.0
176
     1
 92
        0
176
     1
 66
   257
176
     1
 43
1.0
176
     1
 76
     1
176
     1
 77
     6
176
     1
 78
     2
176
     1
 67
     7
176
     1
 79
     5
176
     1
170
     0
176
     1
171
     0
176
     1
290
     0
176
     1
 93
       13
176
     1
 44
0.0
176
     1
173
     0
176
     1
  0
VISUALSTYLE
  5
38
102
{ACAD_REACTORS
330
2A
102
}
330
2A
100
AcDbVisualStyle
  2
Linepattern
 70
    14
177
     2
291
     1
 71
     2
176
     1
 72
     2
176
     1
 73
     0
176
     1
 90
        0
176
     1
 40
-0.6
176
     1
 41
-30.0
176
     1
 62
     5
 63
     7
421
 16777215
176
     1
 74
     1
176
     1
 91
        4
176
     1
 64
     7
176
     1
 65
   257
176
     1
 75
     7
176
     1
175
     7
176
     1
 42
1.0
176
     1
 92
        8
176
     1
 66
     7
176
     1
 43
1.0
176
     1
 76
     1
176
     1
 77
     6
176
     1
 78
     2
176
     1
 67
     7
176
     1
 79
     5
176
     1
170
     0
176
     1
171
     0
176
     1
290
     0
176
     1
 93
        1
176
     1
 44
0.0
176
     1
173
     0
176
     1
  0
VISUALSTYLE
  5
33
102
{ACAD_REACTORS
330
2A
102
}
330
2A
100
AcDbVisualStyle
  2
Realistic
 70
     8
177
     2
291
     0
 71
     2
176
     1
 72
     2
176
     1
 73
     0
176
     1
 90
        0
176
     1
 40
-0.6
176
     1
 41
-30.0
176
     1
 62
     5
 63
     7
421
 16777215
176
     1
 74
     1
176
     1
 91
        0
176
     1
 64
     7
176
     1
 65
   257
176
     1
 75
     1
176
     1
175
     1
176
     1
 42
1.0
176
     1
 92
        8
176
     1
 66
     8
424
  7895160
176
     1
 43
1.0
176
     1
 76
     1
176
     1
 77
     6
176
     1
 78
     2
176
     1
 67
     7
176
     1
 79
     5
176
     1
170
     0
176
     1
171
     0
176
     1
290
     0
176
     1
 93
       13
176
     1
 44
0.0
176
     1
173
     0
176
     1
  0
VISUALSTYLE
  5
37
102
{ACAD_REACTORS
330
2A
102
}
330
2A
100
AcDbVisualStyle
  2
Thicken
 70
    13
177
     2
291
     1
 71
     2
176
     1
 72
     2
176
     1
 73
     0
176
     1
 90
        0
176
     1
 40
-0.6
176
     1
 41
-30.0
176
     1
 62
     5
 63
     7
421
 16777215
176
     1
 74
     1
176
     1
 91
        4
176
     1
 64
     7
176
     1
 65
   257
176
     1
 75
     1
176
     1
175
     1
176
     1
 42
1.0
176
     1
 92
       12
176
     1
 66
     7
176
     1
 43
1.0
176
     1
 76
     1
176
     1
 77
     6
176
     1
 78
     2
176
     1
 67
     7
176
     1
 79
     5
176
     1
170
     0
176
     1
171
     0
176
     1
290
     0
176
     1
 93
        1
176
     1
 44
0.0
176
     1
173
     0
176
     1
  0
ENDSEC
  0
EOF
