  0
SECTION
  2
HEADER
  9
$ACADVER
  1
AC1024
  9
$ACADMAINTVER
 70
     6
  9
$DWGCODEPAGE
  3
UNDEFINED
  9
$INSBASE
 10
0.0
 20
0.0
 30
0.0
  9
$EXTMIN
 10
1.000000000000000E+20
 20
1.000000000000000E+20
 30
1.000000000000000E+20
  9
$EXTMAX
 10
-1.000000000000000E+20
 20
-1.000000000000000E+20
 30
-1.000000000000000E+20
  9
$LIMMIN
 10
0.0
 20
0.0
  9
$LIMMAX
 10
12.0
 20
9.0
  9
$ORTHOMODE
 70
     0
  9
$REGENMODE
 70
     1
  9
$FILLMODE
 70
     1
  9
$QTEXTMODE
 70
     0
  9
$MIRRTEXT
 70
     1
  9
$LTSCALE
 40
1.0
  9
$ATTMODE
 70
     1
  9
$TEXTSIZE
 40
0.2
  9
$TRACEWID
 40
0.05
  9
$TEXTSTYLE
  7
Standard
  9
$CLAYER
  8
0
  9
$CELTYPE
  6
ByLayer
  9
$CECOLOR
 62
   256
  9
$CELTSCALE
 40
1.0
  9
$DISPSILH
 70
     0
  9
$DIMSCALE
 40
1.0
  9
$DIMASZ
 40
0.18
  9
$DIMEXO
 40
0.0625
  9
$DIMDLI
 40
0.38
  9
$DIMRND
 40
0.0
  9
$DIMDLE
 40
0.0
  9
$DIMEXE
 40
0.18
  9
$DIMTP
 40
0.0
  9
$DIMTM
 40
0.0
  9
$DIMTXT
 40
0.18
  9
$DIMCEN
 40
0.09
  9
$DIMTSZ
 40
0.0
  9
$DIMTOL
 70
     0
  9
$DIMLIM
 70
     0
  9
$DIMTIH
 70
     1
  9
$DIMTOH
 70
     1
  9
$DIMSE1
 70
     0
  9
$DIMSE2
 70
     0
  9
$DIMTAD
 70
     0
  9
$DIMZIN
 70
     0
  9
$DIMBLK
  1

  9
$DIMASO
 70
     1
  9
$DIMSHO
 70
     1
  9
$DIMPOST
  1

  9
$DIMAPOST
  1

  9
$DIMALT
 70
     0
  9
$DIMALTD
 70
     2
  9
$DIMALTF
 40
25.4
  9
$DIMLFAC
 40
1.0
  9
$DIMTOFL
 70
     0
  9
$DIMTVP
 40
0.0
  9
$DIMTIX
 70
     0
  9
$DIMSOXD
 70
     0
  9
$DIMSAH
 70
     0
  9
$DIMBLK1
  1

  9
$DIMBLK2
  1

  9
$DIMSTYLE
  2
Standard
  9
$DIMCLRD
 70
     0
  9
$DIMCLRE
 70
     0
  9
$DIMCLRT
 70
     0
  9
$DIMTFAC
 40
1.0
  9
$DIMGAP
 40
0.09
  9
$DIMJUST
 70
     0
  9
$DIMSD1
 70
     0
  9
$DIMSD2
 70
     0
  9
$DIMTOLJ
 70
     1
  9
$DIMTZIN
 70
     0
  9
$DIMALTZ
 70
     0
  9
$DIMALTTZ
 70
     0
  9
$DIMUPT
 70
     0
  9
$DIMDEC
 70
     4
  9
$DIMTDEC
 70
     4
  9
$DIMALTU
 70
     2
  9
$DIMALTTD
 70
     2
  9
$DIMTXSTY
  7
Standard
  9
$DIMAUNIT
 70
     0
  9
$DIMADEC
 70
     0
  9
$DIMALTRND
 40
0.0
  9
$DIMAZIN
 70
     0
  9
$DIMDSEP
 70
    46
  9
$DIMATFIT
 70
     3
  9
$DIMFRAC
 70
     0
  9
$DIMLDRBLK
  1

  9
$DIMLUNIT
 70
     2
  9
$DIMLWD
 70
    -2
  9
$DIMLWE
 70
    -2
  9
$DIMTMOVE
 70
     0
  9
$DIMFXL
 40
1.0
  9
$DIMFXLON
 70
     0
  9
$DIMJOGANG
 40
0.7853981633974483
  9
$DIMTFILL
 70
     0
  9
$DIMTFILLCLR
 70
     0
  9
$DIMARCSYM
 70
     0
  9
$DIMLTYPE
  6

  9
$DIMLTEX1
  6

  9
$DIMLTEX2
  6

  9
$DIMTXTDIRECTION
 70
     0
  9
$LUNITS
 70
     2
  9
$LUPREC
 70
     4
  9
$SKETCHINC
 40
0.1
  9
$FILLETRAD
 40
0.5
  9
$AUNITS
 70
     0
  9
$AUPREC
 70
     0
  9
$MENU
  1
.
  9
$ELEVATION
 40
0.0
  9
$PELEVATION
 40
0.0
  9
$THICKNESS
 40
0.0
  9
$LIMCHECK
 70
     0
  9
$CHAMFERA
 40
0.5
  9
$CHAMFERB
 40
0.5
  9
$CHAMFERC
 40
1.0
  9
$CHAMFERD
 40
0.0
  9
$SKPOLY
 70
     0
  9
$TDCREATE
 40
2457917.615798611
  9
$TDUCREATE
 40
2457917.240798611
  9
$TDUPDATE
 40
2457917.615798611
  9
$TDUUPDATE
 40
2457917.240798611
  9
$TDINDWG
 40
0.0000000116
  9
$TDUSRTIMER
 40
0.0000000116
  9
$USRTIMER
 70
     1
  9
$ANGBASE
 50
0.0
  9
$ANGDIR
 70
     0
  9
$PDMODE
 70
     0
  9
$PDSIZE
 40
0.0
  9
$PLINEWID
 40
0.0
  9
$SPLFRAME
 70
     0
  9
$SPLINETYPE
 70
     6
  9
$SPLINESEGS
 70
     8
  9
$HANDSEED
  5
E5
  9
$SURFTAB1
 70
     6
  9
$SURFTAB2
 70
     6
  9
$SURFTYPE
 70
     6
  9
$SURFU
 70
     6
  9
$SURFV
 70
     6
  9
$UCSBASE
  2

  9
$UCSNAME
  2

  9
$UCSORG
 10
0.0
 20
0.0
 30
0.0
  9
$UCSXDIR
 10
1.0
 20
0.0
 30
0.0
  9
$UCSYDIR
 10
0.0
 20
1.0
 30
0.0
  9
$UCSORTHOREF
  2

  9
$UCSORTHOVIEW
 70
     0
  9
$UCSORGTOP
 10
0.0
 20
0.0
 30
0.0
  9
$UCSORGBOTTOM
 10
0.0
 20
0.0
 30
0.0
  9
$UCSORGLEFT
 10
0.0
 20
0.0
 30
0.0
  9
$UCSORGRIGHT
 10
0.0
 20
0.0
 30
0.0
  9
$UCSORGFRONT
 10
0.0
 20
0.0
 30
0.0
  9
$UCSORGBACK
 10
0.0
 20
0.0
 30
0.0
  9
$PUCSBASE
  2

  9
$PUCSNAME
  2

  9
$PUCSORG
 10
0.0
 20
0.0
 30
0.0
  9
$PUCSXDIR
 10
1.0
 20
0.0
 30
0.0
  9
$PUCSYDIR
 10
0.0
 20
1.0
 30
0.0
  9
$PUCSORTHOREF
  2

  9
$PUCSORTHOVIEW
 70
     0
  9
$PUCSORGTOP
 10
0.0
 20
0.0
 30
0.0
  9
$PUCSORGBOTTOM
 10
0.0
 20
0.0
 30
0.0
  9
$PUCSORGLEFT
 10
0.0
 20
0.0
 30
0.0
  9
$PUCSORGRIGHT
 10
0.0
 20
0.0
 30
0.0
  9
$PUCSORGFRONT
 10
0.0
 20
0.0
 30
0.0
  9
$PUCSORGBACK
 10
0.0
 20
0.0
 30
0.0
  9
$USERI1
 70
     0
  9
$USERI2
 70
     0
  9
$USERI3
 70
     0
  9
$USERI4
 70
     0
  9
$USERI5
 70
     0
  9
$USERR1
 40
0.0
  9
$USERR2
 40
0.0
  9
$USERR3
 40
0.0
  9
$USERR4
 40
0.0
  9
$USERR5
 40
0.0
  9
$WORLDVIEW
 70
     1
  9
$SHADEDGE
 70
     3
  9
$SHADEDIF
 70
    70
  9
$TILEMODE
 70
     1
  9
$MAXACTVP
 70
    64
  9
$PINSBASE
 10
0.0
 20
0.0
 30
0.0
  9
$PLIMCHECK
 70
     0
  9
$PEXTMIN
 10
1.000000000000000E+20
 20
1.000000000000000E+20
 30
1.000000000000000E+20
  9
$PEXTMAX
 10
-1.000000000000000E+20
 20
-1.000000000000000E+20
 30
-1.000000000000000E+20
  9
$PLIMMIN
 10
0.0
 20
0.0
  9
$PLIMMAX
 10
12.0
 20
9.0
  9
$UNITMODE
 70
     0
  9
$VISRETAIN
 70
     1
  9
$PLINEGEN
 70
     0
  9
$PSLTSCALE
 70
     1
  9
$TREEDEPTH
 70
  3020
  9
$CMLSTYLE
  2
Standard
  9
$CMLJUST
 70
     0
  9
$CMLSCALE
 40
1.0
  9
$PROXYGRAPHICS
 70
     1
  9
$MEASUREMENT
 70
     0
  9
$CELWEIGHT
370
    -1
  9
$ENDCAPS
280
     0
  9
$JOINSTYLE
280
     0
  9
$LWDISPLAY
290
     1
  9
$INSUNITS
 70
     1
  9
$HYPERLINKBASE
  1

  9
$STYLESHEET
  1

  9
$XEDIT
290
     1
  9
$CEPSNTYPE
380
     0
  9
$PSTYLEMODE
290
     1
  9
$FINGERPRINTGUID
  2
{4396D46C-6EB3-BCF4-7C0E-9B3BDD9186FA}
  9
$VERSIONGUID
  2
{FAEB1C32-E019-11D5-929B-00C0DF256EC4}
  9
$EXTNAMES
290
     1
  9
$PSVPSCALE
 40
0.0
  9
$OLESTARTUP
290
     0
  9
$SORTENTS
280
   127
  9
$INDEXCTL
280
     0
  9
$HIDETEXT
280
     1
  9
$XCLIPFRAME
280
     2
  9
$HALOGAP
280
     0
  9
$OBSCOLOR
 70
   257
  9
$OBSLTYPE
280
     0
  9
$INTERSECTIONDISPLAY
280
     0
  9
$INTERSECTIONCOLOR
 70
   257
  9
$DIMASSOC
280
     2
  9
$PROJECTNAME
  1

  9
$CAMERADISPLAY
290
     0
  9
$LENSLENGTH
 40
50.0
  9
$CAMERAHEIGHT
 40
0.0
  9
$STEPSPERSEC
 40
2.0
  9
$STEPSIZE
 40
6.0
  9
$3DDWFPREC
 40
2.0
  9
$PSOLWIDTH
 40
0.25
  9
$PSOLHEIGHT
 40
4.0
  9
$LOFTANG1
 40
1.570796326794897
  9
$LOFTANG2
 40
1.570796326794897
  9
$LOFTMAG1
 40
0.0
  9
$LOFTMAG2
 40
0.0
  9
$LOFTPARAM
 70
     7
  9
$LOFTNORMALS
280
     1
  9
$LATITUDE
 40
37.795
  9
$LONGITUDE
 40
-122.394
  9
$NORTHDIRECTION
 40
0.0
  9
$TIMEZONE
 70
 -8000
  9
$LIGHTGLYPHDISPLAY
280
     1
  9
$TILEMODELIGHTSYNCH
280
     1
  9
$CMATERIAL
347
3C
  9
$SOLIDHIST
280
     1
  9
$SHOWHIST
280
     1
  9
$DWFFRAME
280
     2
  9
$DGNFRAME
280
     2
  9
$REALWORLDSCALE
290
     1
  9
$INTERFERECOLOR
 62
   256
  9
$CSHADOW
280
     0
  9
$SHADOWPLANELOCATION
 40
0.0
  0
ENDSEC
  0
SECTION
  2
CLASSES
  0
CLASS
  1
ACDBDICTIONARYWDFLT
  2
AcDbDictionaryWithDefault
  3
ObjectDBX Classes
 90
        0
 91
        4
280
     0
281
     0
  0
CLASS
  1
VISUALSTYLE
  2
AcDbVisualStyle
  3
ObjectDBX Classes
 90
     4095
 91
        4
280
     0
281
     0
  0
CLASS
  1
MATERIAL
  2
AcDbMaterial
  3
ObjectDBX Classes
 90
     1153
 91
        4
280
     0
281
     0
  0
CLASS
  1
SUN
  2
AcDbSun
  3
SCENEOE
 90
     1024
 91
        4
280
     0
281
     0
  0
ENDSEC
  0
SECTION
  2
TABLES
  0
TABLE
  2
VPORT
  5
8
330
0
100
AcDbSymbolTable
 70
     1
  0
VPORT
  5
29
330
8
100
AcDbSymbolTableRecord
100
AcDbViewportTableRecord
  2
*Active
 70
     0
 10
0.0
 20
0.0
 11
1.0
 21
1.0
 12
0.0
 22
0.0
 13
0.0
 23
0.0
 14
0.5
 24
0.5
 15
0.5
 25
0.5
 16
0.0
 26
0.0
 36
1.0
 17
91.00082462281999
 27
-128.4993055234307
 37
0.0
 40
256.9986110468615
 41
0.7081814508812795
 42
50.0
 43
0.0
 44
0.0
 50
0.0
 51
0.0
 71
     0
 72
   100
 73
     1
 74
     3
 75
     0
 76
     0
 77
     0
 78
     0
281
     0
 65
     1
110
0.0
120
0.0
130
0.0
111
1.0
121
0.0
131
0.0
112
0.0
122
1.0
132
0.0
 79
     0
146
0.0
 60
     3
 61
     5
292
     1
282
     1
141
0.0
142
0.0
 63
   250
361
3F
  0
ENDTAB
  0
TABLE
  2
LTYPE
  5
5
330
0
100
AcDbSymbolTable
 70
     1
  0
LTYPE
  5
14
330
5
100
AcDbSymbolTableRecord
100
AcDbLinetypeTableRecord
  2
ByBlock
 70
     0
  3

 72
    65
 73
     0
 40
0.0
  0
LTYPE
  5
15
330
5
100
AcDbSymbolTableRecord
100
AcDbLinetypeTableRecord
  2
ByLayer
 70
     0
  3

 72
    65
 73
     0
 40
0.0
  0
LTYPE
  5
16
330
5
100
AcDbSymbolTableRecord
100
AcDbLinetypeTableRecord
  2
Continuous
 70
     0
  3
Solid line
 72
    65
 73
     0
 40
0.0
  0
ENDTAB
  0
TABLE
  2
LAYER
  5
2
330
0
100
AcDbSymbolTable
 70
     2
  0
LAYER
  5
10
330
2
100
AcDbSymbolTableRecord
100
AcDbLayerTableRecord
  2
0
 70
     0
 62
     7
  6
Continuous
370
    -3
390
F
347
3E
  0
LAYER
  5
40
330
2
100
AcDbSymbolTableRecord
100
AcDbLayerTableRecord
  2
_U+30EC_U+30A4_U+30E4_U+30FC 1
 70
     0
 62
     7
  6
Continuous
370
    -3
390
F
347
3E
  0
ENDTAB
  0
TABLE
  2
STYLE
  5
3
330
0
100
AcDbSymbolTable
 70
     1
  0
STYLE
  5
11
330
3
100
AcDbSymbolTableRecord
100
AcDbTextStyleTableRecord
  2
Standard
 70
     0
 40
0.0
 41
1.0
 50
0.0
 71
     0
 42
0.2
  3
txt
  4

  0
ENDTAB
  0
TABLE
  2
VIEW
  5
6
330
0
100
AcDbSymbolTable
 70
     0
  0
ENDTAB
  0
TABLE
  2
UCS
  5
7
330
0
100
AcDbSymbolTable
 70
     0
  0
ENDTAB
  0
TABLE
  2
APPID
  5
9
330
0
100
AcDbSymbolTable
 70
     1
  0
APPID
  5
12
330
9
100
AcDbSymbolTableRecord
100
AcDbRegAppTableRecord
  2
ACAD
 70
     0
  0
ENDTAB
  0
TABLE
  2
DIMSTYLE
  5
A
330
0
100
AcDbSymbolTable
 70
     1
100
AcDbDimStyleTable
  0
DIMSTYLE
105
27
330
A
100
AcDbSymbolTableRecord
100
AcDbDimStyleTableRecord
  2
Standard
 70
     0
178
     0
340
11
  0
ENDTAB
  0
TABLE
  2
BLOCK_RECORD
  5
1
330
0
100
AcDbSymbolTable
 70
     6
  0
BLOCK_RECORD
  5
1F
330
1
100
AcDbSymbolTableRecord
100
AcDbBlockTableRecord
  2
*Model_Space
340
22
 70
     0
280
     1
281
     0
  0
BLOCK_RECORD
  5
1B
330
1
100
AcDbSymbolTableRecord
100
AcDbBlockTableRecord
  2
*Paper_Space
340
1E
 70
     0
280
     1
281
     0
  0
BLOCK_RECORD
  5
23
330
1
100
AcDbSymbolTableRecord
100
AcDbBlockTableRecord
  2
*Paper_Space0
340
26
 70
     0
280
     1
281
     0
  0
BLOCK_RECORD
  5
8B
330
1
100
AcDbSymbolTableRecord
100
AcDbBlockTableRecord
  2
block 2
340
0
102
{BLKREFS
331
8C
102
}
 70
     0
280
     1
281
     0
  0
BLOCK_RECORD
  5
9F
330
1
100
AcDbSymbolTableRecord
100
AcDbBlockTableRecord
  2
block 3
340
0
102
{BLKREFS
331
A0
102
}
 70
     0
280
     1
281
     0
  0
BLOCK_RECORD
  5
B5
330
1
100
AcDbSymbolTableRecord
100
AcDbBlockTableRecord
  2
block 4
340
0
102
{BLKREFS
331
B6
102
}
 70
     0
280
     1
281
     0
  0
BLOCK_RECORD
  5
C3
330
1
100
AcDbSymbolTableRecord
100
AcDbBlockTableRecord
  2
block 5
340
0
102
{BLKREFS
331
C4
102
}
 70
     0
280
     1
281
     0
  0
BLOCK_RECORD
  5
D1
330
1
100
AcDbSymbolTableRecord
100
AcDbBlockTableRecord
  2
block 6
340
0
102
{BLKREFS
331
D2
102
}
 70
     0
280
     1
281
     0
  0
ENDTAB
  0
ENDSEC
  0
SECTION
  2
BLOCKS
  0
BLOCK
  5
20
330
1F
100
AcDbEntity
  8
0
100
AcDbBlockBegin
  2
*Model_Space
 70
     0
 10
0.0
 20
0.0
 30
0.0
  3
*Model_Space
  1

  0
ENDBLK
  5
21
330
1F
100
AcDbEntity
  8
0
100
AcDbBlockEnd
  0
BLOCK
  5
1C
330
1B
100
AcDbEntity
 67
     1
  8
0
100
AcDbBlockBegin
  2
*Paper_Space
 70
     0
 10
0.0
 20
0.0
 30
0.0
  3
*Paper_Space
  1

  0
ENDBLK
  5
1D
330
1B
100
AcDbEntity
 67
     1
  8
0
100
AcDbBlockEnd
  0
BLOCK
  5
24
330
23
100
AcDbEntity
  8
0
100
AcDbBlockBegin
  2
*Paper_Space0
 70
     0
 10
0.0
 20
0.0
 30
0.0
  3
*Paper_Space0
  1

  0
ENDBLK
  5
25
330
23
100
AcDbEntity
  8
0
100
AcDbBlockEnd
  0
BLOCK
  5
8D
330
8B
100
AcDbEntity
  8
0
100
AcDbBlockBegin
  2
block 2
 70
     0
 10
0.0
 20
0.0
 30
0.0
  3
block 2
  1

  0
SPLINE
  5
8F
330
8B
100
AcDbEntity
  8
_U+30EC_U+30A4_U+30E4_U+30FC 1
370
     0
100
AcDbSpline
210
0.0
220
0.0
230
1.0
 70
    11
 71
     3
 72
    44
 73
    40
 74
     0
 42
0.0000000001
 43
0.0000000001
 12
1.0
 22
0.0
 32
0.0
 13
1.0
 23
0.0
 33
0.0
 40
0.0
 40
0.0
 40
0.0
 40
0.0
 40
1.0
 40
1.0
 40
1.0
 40
2.0
 40
2.0
 40
2.0
 40
3.0
 40
3.0
 40
3.0
 40
4.0
 40
4.0
 40
4.0
 40
5.0
 40
5.0
 40
5.0
 40
6.0
 40
6.0
 40
6.0
 40
7.0
 40
7.0
 40
7.0
 40
8.0
 40
8.0
 40
8.0
 40
9.0
 40
9.0
 40
9.0
 40
10.0
 40
10.0
 40
10.0
 40
11.0
 40
11.0
 40
11.0
 40
12.0
 40
12.0
 40
12.0
 40
13.0
 40
13.0
 40
13.0
 40
13.0
 10
85.35447995913013
 20
-114.6625962712476
 30
0.0
 10
85.13657766968808
 20
-114.8212429183433
 30
0.0
 10
85.04338783681207
 20
-114.8953124712762
 30
0.0
 10
84.99481199047005
 20
-115.0391452077854
 30
0.0
 10
84.99481199047005
 20
-115.0391452077854
 30
0.0
 10
85.77323131536225
 20
-115.0391452077854
 30
0.0
 10
85.77323131536225
 20
-115.0391452077854
 30
0.0
 10
85.77323131536225
 20
-115.0391452077854
 30
0.0
 10
85.77323131536225
 20
-115.244300643932
 30
0.0
 10
85.77323131536225
 20
-115.244300643932
 30
0.0
 10
85.77323131536225
 20
-115.244300643932
 30
0.0
 10
84.7452148225637
 20
-115.244300643932
 30
0.0
 10
84.7452148225637
 20
-115.244300643932
 30
0.0
 10
84.776909701028
 20
-114.8866997325631
 30
0.0
 10
84.84236651524775
 20
-114.8084960650479
 30
0.0
 10
85.22752819049867
 20
-114.5101507960252
 30
0.0
 10
85.48349878505275
 20
-114.3113687865263
 30
0.0
 10
85.54895559927249
 20
-114.2436726602412
 30
0.0
 10
85.54895559927249
 20
-114.1062133503797
 30
0.0
 10
85.54895559927249
 20
-113.9877020656871
 30
0.0
 10
85.47712535840503
 20
-113.8566161824733
 30
0.0
 10
85.28041040619726
 20
-113.8566161824733
 30
0.0
 10
85.02013344228664
 20
-113.8566161824733
 30
0.0
 10
85.01169295834778
 20
-114.0870930704366
 30
0.0
 10
85.00738658899121
 20
-114.203537297838
 30
0.0
 10
85.00738658899121
 20
-114.203537297838
 30
0.0
 10
84.78328312767572
 20
-114.203537297838
 30
0.0
 10
84.78328312767572
 20
-114.203537297838
 30
0.0
 10
84.79172361161457
 20
-114.0765855292066
 30
0.0
 10
84.80223115284458
 20
-113.9644476711617
 30
0.0
 10
84.88267413242517
 20
-113.8459363864691
 30
0.0
 10
84.99257267840464
 20
-113.6852226820822
 30
0.0
 10
85.17878008938239
 20
-113.6512884915525
 30
0.0
 10
85.29522431678383
 20
-113.6512884915525
 30
0.0
 10
85.57238224857218
 20
-113.6512884915525
 30
0.0
 10
85.77960474200997
 20
-113.8354288452391
 30
0.0
 10
85.77960474200997
 20
-114.1082804076708
 30
0.0
 10
85.77960474200997
 20
-114.3366902383429
 30
0.0
 10
85.66333276938278
 20
-114.4362534978666
 30
0.0
 10
85.35447995913013
 20
-114.6625962712476
 30
0.0
  0
HATCH
  5
90
330
8B
100
AcDbEntity
  8
_U+30EC_U+30A4_U+30E4_U+30FC 1
 62
   179
420
  2234388
100
AcDbHatch
 10
0.0
 20
0.0
 30
0.0
210
0.0
220
0.0
230
1.0
  2
SOLID
 70
     1
 71
     0
 91
        1
 92
        1
 93
        1
 72
     4
 94
        3
 73
     0
 74
     1
 95
       44
 96
       40
 40
0.0
 40
0.0
 40
0.0
 40
0.0
 40
1.0
 40
1.0
 40
1.0
 40
2.0
 40
2.0
 40
2.0
 40
3.0
 40
3.0
 40
3.0
 40
4.0
 40
4.0
 40
4.0
 40
5.0
 40
5.0
 40
5.0
 40
6.0
 40
6.0
 40
6.0
 40
7.0
 40
7.0
 40
7.0
 40
8.0
 40
8.0
 40
8.0
 40
9.0
 40
9.0
 40
9.0
 40
10.0
 40
10.0
 40
10.0
 40
11.0
 40
11.0
 40
11.0
 40
12.0
 40
12.0
 40
12.0
 40
13.0
 40
13.0
 40
13.0
 40
13.0
 10
85.35447995913013
 20
-114.6625962712476
 10
85.13657766968808
 20
-114.8212429183433
 10
85.04338783681207
 20
-114.8953124712762
 10
84.99481199047005
 20
-115.0391452077854
 10
84.99481199047005
 20
-115.0391452077854
 10
85.77323131536225
 20
-115.0391452077854
 10
85.77323131536225
 20
-115.0391452077854
 10
85.77323131536225
 20
-115.0391452077854
 10
85.77323131536225
 20
-115.244300643932
 10
85.77323131536225
 20
-115.244300643932
 10
85.77323131536225
 20
-115.244300643932
 10
84.7452148225637
 20
-115.244300643932
 10
84.7452148225637
 20
-115.244300643932
 10
84.776909701028
 20
-114.8866997325631
 10
84.84236651524775
 20
-114.8084960650479
 10
85.22752819049867
 20
-114.5101507960252
 10
85.48349878505275
 20
-114.3113687865263
 10
85.54895559927249
 20
-114.2436726602412
 10
85.54895559927249
 20
-114.1062133503797
 10
85.54895559927249
 20
-113.9877020656871
 10
85.47712535840503
 20
-113.8566161824733
 10
85.28041040619726
 20
-113.8566161824733
 10
85.02013344228664
 20
-113.8566161824733
 10
85.01169295834778
 20
-114.0870930704366
 10
85.00738658899121
 20
-114.203537297838
 10
85.00738658899121
 20
-114.203537297838
 10
84.78328312767572
 20
-114.203537297838
 10
84.78328312767572
 20
-114.203537297838
 10
84.79172361161457
 20
-114.0765855292066
 10
84.80223115284458
 20
-113.9644476711617
 10
84.88267413242517
 20
-113.8459363864691
 10
84.99257267840464
 20
-113.6852226820822
 10
85.17878008938239
 20
-113.6512884915525
 10
85.29522431678383
 20
-113.6512884915525
 10
85.57238224857218
 20
-113.6512884915525
 10
85.77960474200997
 20
-113.8354288452391
 10
85.77960474200997
 20
-114.1082804076708
 10
85.77960474200997
 20
-114.3366902383429
 10
85.66333276938278
 20
-114.4362534978666
 10
85.35447995913013
 20
-114.6625962712476
 97
        0
 97
        0
 75
     2
 76
     1
 98
        0
  0
SPLINE
  5
91
330
8B
100
AcDbEntity
  8
_U+30EC_U+30A4_U+30E4_U+30FC 1
370
     0
100
AcDbSpline
210
0.0
220
0.0
230
1.0
 70
    11
 71
     3
 72
    53
 73
    49
 74
     0
 42
0.0000000001
 43
0.0000000001
 12
1.0
 22
0.0
 32
0.0
 13
1.0
 23
0.0
 33
0.0
 40
0.0
 40
0.0
 40
0.0
 40
0.0
 40
1.0
 40
1.0
 40
1.0
 40
2.0
 40
2.0
 40
2.0
 40
3.0
 40
3.0
 40
3.0
 40
4.0
 40
4.0
 40
4.0
 40
5.0
 40
5.0
 40
5.0
 40
6.0
 40
6.0
 40
6.0
 40
7.0
 40
7.0
 40
7.0
 40
8.0
 40
8.0
 40
8.0
 40
9.0
 40
9.0
 40
9.0
 40
10.0
 40
10.0
 40
10.0
 40
11.0
 40
11.0
 40
11.0
 40
12.0
 40
12.0
 40
12.0
 40
13.0
 40
13.0
 40
13.0
 40
14.0
 40
14.0
 40
14.0
 40
15.0
 40
15.0
 40
15.0
 40
16.0
 40
16.0
 40
16.0
 40
16.0
 10
86.41918671884659
 20
-115.2951158023394
 30
0.0
 10
86.34098305133142
 20
-115.2951158023394
 30
0.0
 10
86.23935273451656
 20
-115.2780625796874
 30
0.0
 10
86.13772241770168
 20
-115.2146728227588
 30
0.0
 10
85.96426186001935
 20
-115.1046020220051
 30
0.0
 10
85.94307452278507
 20
-114.9735161387914
 30
0.0
 10
85.9241264976162
 20
-114.865684650103
 30
0.0
 10
85.9241264976162
 20
-114.865684650103
 30
0.0
 10
86.1463351564148
 20
-114.865684650103
 30
0.0
 10
86.1463351564148
 20
-114.865684650103
 30
0.0
 10
86.20111217463028
 20
-115.0644666596019
 30
0.0
 10
86.328236198036
 20
-115.0940944807751
 30
0.0
 10
86.42125377613775
 20
-115.0940944807751
 30
0.0
 10
86.56078014329036
 20
-115.0940944807751
 30
0.0
 10
86.71305336373841
 20
-114.9947034760256
 30
0.0
 10
86.71305336373841
 20
-114.761987275997
 30
0.0
 10
86.71305336373841
 20
-114.5060166814429
 30
0.0
 10
86.53321937940837
 20
-114.4362534978666
 30
0.0
 10
86.41264103742462
 20
-114.4362534978666
 30
0.0
 10
86.38094615896033
 20
-114.4362534978666
 30
0.0
 10
86.23935273451656
 20
-114.4362534978666
 30
0.0
 10
86.1504692709971
 20
-114.5652723237892
 30
0.0
 10
86.1504692709971
 20
-114.5652723237892
 30
0.0
 10
85.97494165602363
 20
-114.5461520438461
 30
0.0
 10
85.97494165602363
 20
-114.5461520438461
 30
0.0
 10
85.97494165602363
 20
-114.5461520438461
 30
0.0
 10
86.0953477432331
 20
-113.7000365926688
 30
0.0
 10
86.0953477432331
 20
-113.7000365926688
 30
0.0
 10
86.0953477432331
 20
-113.7000365926688
 30
0.0
 10
86.87393932289957
 20
-113.7000365926688
 30
0.0
 10
86.87393932289957
 20
-113.7000365926688
 30
0.0
 10
86.87393932289957
 20
-113.7000365926688
 30
0.0
 10
86.87393932289957
 20
-113.8946844875854
 30
0.0
 10
86.87393932289957
 20
-113.8946844875854
 30
0.0
 10
86.87393932289957
 20
-113.8946844875854
 30
0.0
 10
86.25830075968543
 20
-113.8946844875854
 30
0.0
 10
86.25830075968543
 20
-113.8946844875854
 30
0.0
 10
86.25830075968543
 20
-113.8946844875854
 30
0.0
 10
86.19284394546568
 20
-114.317742213174
 30
0.0
 10
86.19284394546568
 20
-114.317742213174
 30
0.0
 10
86.25416664510313
 20
-114.2838080226443
 30
0.0
 10
86.3365044272006
 20
-114.2436726602412
 30
0.0
 10
86.4550157118932
 20
-114.2436726602412
 30
0.0
 10
86.70891924915611
 20
-114.2436726602412
 30
0.0
 10
86.9459418185413
 20
-114.4298800712189
 30
0.0
 10
86.9459418185413
 20
-114.7428669960539
 30
0.0
 10
86.9459418185413
 20
-115.0603325450196
 30
0.0
 10
86.72166610245154
 20
-115.2951158023394
 30
0.0
 10
86.41918671884659
 20
-115.2951158023394
 30
0.0
  0
HATCH
  5
92
330
8B
100
AcDbEntity
  8
_U+30EC_U+30A4_U+30E4_U+30FC 1
 62
   179
420
  2234388
100
AcDbHatch
 10
0.0
 20
0.0
 30
0.0
210
0.0
220
0.0
230
1.0
  2
SOLID
 70
     1
 71
     0
 91
        1
 92
        1
 93
        1
 72
     4
 94
        3
 73
     0
 74
     1
 95
       53
 96
       49
 40
0.0
 40
0.0
 40
0.0
 40
0.0
 40
1.0
 40
1.0
 40
1.0
 40
2.0
 40
2.0
 40
2.0
 40
3.0
 40
3.0
 40
3.0
 40
4.0
 40
4.0
 40
4.0
 40
5.0
 40
5.0
 40
5.0
 40
6.0
 40
6.0
 40
6.0
 40
7.0
 40
7.0
 40
7.0
 40
8.0
 40
8.0
 40
8.0
 40
9.0
 40
9.0
 40
9.0
 40
10.0
 40
10.0
 40
10.0
 40
11.0
 40
11.0
 40
11.0
 40
12.0
 40
12.0
 40
12.0
 40
13.0
 40
13.0
 40
13.0
 40
14.0
 40
14.0
 40
14.0
 40
15.0
 40
15.0
 40
15.0
 40
16.0
 40
16.0
 40
16.0
 40
16.0
 10
86.41918671884659
 20
-115.2951158023394
 10
86.34098305133142
 20
-115.2951158023394
 10
86.23935273451656
 20
-115.2780625796874
 10
86.13772241770168
 20
-115.2146728227588
 10
85.96426186001935
 20
-115.1046020220051
 10
85.94307452278507
 20
-114.9735161387914
 10
85.9241264976162
 20
-114.865684650103
 10
85.9241264976162
 20
-114.865684650103
 10
86.1463351564148
 20
-114.865684650103
 10
86.1463351564148
 20
-114.865684650103
 10
86.20111217463028
 20
-115.0644666596019
 10
86.328236198036
 20
-115.0940944807751
 10
86.42125377613775
 20
-115.0940944807751
 10
86.56078014329036
 20
-115.0940944807751
 10
86.71305336373841
 20
-114.9947034760256
 10
86.71305336373841
 20
-114.761987275997
 10
86.71305336373841
 20
-114.5060166814429
 10
86.53321937940837
 20
-114.4362534978666
 10
86.41264103742462
 20
-114.4362534978666
 10
86.38094615896033
 20
-114.4362534978666
 10
86.23935273451656
 20
-114.4362534978666
 10
86.1504692709971
 20
-114.5652723237892
 10
86.1504692709971
 20
-114.5652723237892
 10
85.97494165602363
 20
-114.5461520438461
 10
85.97494165602363
 20
-114.5461520438461
 10
85.97494165602363
 20
-114.5461520438461
 10
86.0953477432331
 20
-113.7000365926688
 10
86.0953477432331
 20
-113.7000365926688
 10
86.0953477432331
 20
-113.7000365926688
 10
86.87393932289957
 20
-113.7000365926688
 10
86.87393932289957
 20
-113.7000365926688
 10
86.87393932289957
 20
-113.7000365926688
 10
86.87393932289957
 20
-113.8946844875854
 10
86.87393932289957
 20
-113.8946844875854
 10
86.87393932289957
 20
-113.8946844875854
 10
86.25830075968543
 20
-113.8946844875854
 10
86.25830075968543
 20
-113.8946844875854
 10
86.25830075968543
 20
-113.8946844875854
 10
86.19284394546568
 20
-114.317742213174
 10
86.19284394546568
 20
-114.317742213174
 10
86.25416664510313
 20
-114.2838080226443
 10
86.3365044272006
 20
-114.2436726602412
 10
86.4550157118932
 20
-114.2436726602412
 10
86.70891924915611
 20
-114.2436726602412
 10
86.9459418185413
 20
-114.4298800712189
 10
86.9459418185413
 20
-114.7428669960539
 10
86.9459418185413
 20
-115.0603325450196
 10
86.72166610245154
 20
-115.2951158023394
 10
86.41918671884659
 20
-115.2951158023394
 97
        0
 97
        0
 75
     2
 76
     1
 98
        0
  0
ENDBLK
  5
8E
330
8B
100
AcDbEntity
  8
0
100
AcDbBlockEnd
  0
BLOCK
  5
A1
330
9F
100
AcDbEntity
  8
0
100
AcDbBlockBegin
  2
block 3
 70
     0
 10
0.0
 20
0.0
 30
0.0
  3
block 3
  1

  0
SPLINE
  5
A3
330
9F
100
AcDbEntity
  8
_U+30EC_U+30A4_U+30E4_U+30FC 1
370
     0
100
AcDbSpline
210
0.0
220
0.0
230
1.0
 70
    11
 71
     3
 72
    53
 73
    49
 74
     0
 42
0.0000000001
 43
0.0000000001
 12
1.0
 22
0.0
 32
0.0
 13
1.0
 23
0.0
 33
0.0
 40
0.0
 40
0.0
 40
0.0
 40
0.0
 40
1.0
 40
1.0
 40
1.0
 40
2.0
 40
2.0
 40
2.0
 40
3.0
 40
3.0
 40
3.0
 40
4.0
 40
4.0
 40
4.0
 40
5.0
 40
5.0
 40
5.0
 40
6.0
 40
6.0
 40
6.0
 40
7.0
 40
7.0
 40
7.0
 40
8.0
 40
8.0
 40
8.0
 40
9.0
 40
9.0
 40
9.0
 40
10.0
 40
10.0
 40
10.0
 40
11.0
 40
11.0
 40
11.0
 40
12.0
 40
12.0
 40
12.0
 40
13.0
 40
13.0
 40
13.0
 40
14.0
 40
14.0
 40
14.0
 40
15.0
 40
15.0
 40
15.0
 40
16.0
 40
16.0
 40
16.0
 40
16.0
 10
75.83068574493122
 20
-142.7950737490235
 30
0.0
 10
75.75230982264179
 20
-142.7950737490235
 30
0.0
 10
75.65085176060118
 20
-142.7781927811457
 30
0.0
 10
75.54922144378631
 20
-142.7148030242171
 30
0.0
 10
75.37576088610398
 20
-142.6049044782377
 30
0.0
 10
75.3545735488697
 20
-142.4736463402496
 30
0.0
 10
75.33562552370081
 20
-142.3658148515613
 30
0.0
 10
75.33562552370081
 20
-142.3658148515613
 30
0.0
 10
75.55766192772518
 20
-142.3658148515613
 30
0.0
 10
75.55766192772518
 20
-142.3658148515613
 30
0.0
 10
75.61278345548916
 20
-142.5645968610602
 30
0.0
 10
75.73973522412062
 20
-142.5942246822334
 30
0.0
 10
75.83275280222237
 20
-142.5942246822334
 30
0.0
 10
75.97227916937499
 20
-142.5942246822334
 30
0.0
 10
76.1247246445973
 20
-142.4946614227097
 30
0.0
 10
76.1247246445973
 20
-142.2621174774553
 30
0.0
 10
76.1247246445973
 20
-142.0061468829012
 30
0.0
 10
75.94489066026725
 20
-141.9362114445507
 30
0.0
 10
75.8243123182835
 20
-141.9362114445507
 30
0.0
 10
75.79261743981921
 20
-141.9362114445507
 30
0.0
 10
75.65085176060118
 20
-141.9362114445507
 30
0.0
 10
75.56196829708173
 20
-142.0654025252475
 30
0.0
 10
75.56196829708173
 20
-142.0654025252475
 30
0.0
 10
75.38644068210826
 20
-142.0464545000787
 30
0.0
 10
75.38644068210826
 20
-142.0464545000787
 30
0.0
 10
75.38644068210826
 20
-142.0464545000787
 30
0.0
 10
75.507019024092
 20
-141.1999945393528
 30
0.0
 10
75.507019024092
 20
-141.1999945393528
 30
0.0
 10
75.507019024092
 20
-141.1999945393528
 30
0.0
 10
76.2854383489842
 20
-141.1999945393528
 30
0.0
 10
76.2854383489842
 20
-141.1999945393528
 30
0.0
 10
76.2854383489842
 20
-141.1999945393528
 30
0.0
 10
76.2854383489842
 20
-141.3946424342694
 30
0.0
 10
76.2854383489842
 20
-141.3946424342694
 30
0.0
 10
76.2854383489842
 20
-141.3946424342694
 30
0.0
 10
75.66979978577005
 20
-141.3946424342694
 30
0.0
 10
75.66979978577005
 20
-141.3946424342694
 30
0.0
 10
75.66979978577005
 20
-141.3946424342694
 30
0.0
 10
75.60434297155031
 20
-141.8177001598581
 30
0.0
 10
75.60434297155031
 20
-141.8177001598581
 30
0.0
 10
75.66566567118775
 20
-141.7839382241026
 30
0.0
 10
75.74817570805949
 20
-141.7436306069252
 30
0.0
 10
75.86651473797782
 20
-141.7436306069252
 30
0.0
 10
76.12041827524074
 20
-141.7436306069252
 30
0.0
 10
76.35744084462593
 20
-141.9300102726772
 30
0.0
 10
76.35744084462593
 20
-142.2431694522864
 30
0.0
 10
76.35744084462593
 20
-142.560462746478
 30
0.0
 10
76.13316512853616
 20
-142.7950737490235
 30
0.0
 10
75.83068574493122
 20
-142.7950737490235
 30
0.0
  0
HATCH
  5
A4
330
9F
100
AcDbEntity
  8
_U+30EC_U+30A4_U+30E4_U+30FC 1
 62
   179
420
  2234388
100
AcDbHatch
 10
0.0
 20
0.0
 30
0.0
210
0.0
220
0.0
230
1.0
  2
SOLID
 70
     1
 71
     0
 91
        1
 92
        1
 93
        1
 72
     4
 94
        3
 73
     0
 74
     1
 95
       53
 96
       49
 40
0.0
 40
0.0
 40
0.0
 40
0.0
 40
1.0
 40
1.0
 40
1.0
 40
2.0
 40
2.0
 40
2.0
 40
3.0
 40
3.0
 40
3.0
 40
4.0
 40
4.0
 40
4.0
 40
5.0
 40
5.0
 40
5.0
 40
6.0
 40
6.0
 40
6.0
 40
7.0
 40
7.0
 40
7.0
 40
8.0
 40
8.0
 40
8.0
 40
9.0
 40
9.0
 40
9.0
 40
10.0
 40
10.0
 40
10.0
 40
11.0
 40
11.0
 40
11.0
 40
12.0
 40
12.0
 40
12.0
 40
13.0
 40
13.0
 40
13.0
 40
14.0
 40
14.0
 40
14.0
 40
15.0
 40
15.0
 40
15.0
 40
16.0
 40
16.0
 40
16.0
 40
16.0
 10
75.83068574493122
 20
-142.7950737490235
 10
75.75230982264179
 20
-142.7950737490235
 10
75.65085176060118
 20
-142.7781927811457
 10
75.54922144378631
 20
-142.7148030242171
 10
75.37576088610398
 20
-142.6049044782377
 10
75.3545735488697
 20
-142.4736463402496
 10
75.33562552370081
 20
-142.3658148515613
 10
75.33562552370081
 20
-142.3658148515613
 10
75.55766192772518
 20
-142.3658148515613
 10
75.55766192772518
 20
-142.3658148515613
 10
75.61278345548916
 20
-142.5645968610602
 10
75.73973522412062
 20
-142.5942246822334
 10
75.83275280222237
 20
-142.5942246822334
 10
75.97227916937499
 20
-142.5942246822334
 10
76.1247246445973
 20
-142.4946614227097
 10
76.1247246445973
 20
-142.2621174774553
 10
76.1247246445973
 20
-142.0061468829012
 10
75.94489066026725
 20
-141.9362114445507
 10
75.8243123182835
 20
-141.9362114445507
 10
75.79261743981921
 20
-141.9362114445507
 10
75.65085176060118
 20
-141.9362114445507
 10
75.56196829708173
 20
-142.0654025252475
 10
75.56196829708173
 20
-142.0654025252475
 10
75.38644068210826
 20
-142.0464545000787
 10
75.38644068210826
 20
-142.0464545000787
 10
75.38644068210826
 20
-142.0464545000787
 10
75.507019024092
 20
-141.1999945393528
 10
75.507019024092
 20
-141.1999945393528
 10
75.507019024092
 20
-141.1999945393528
 10
76.2854383489842
 20
-141.1999945393528
 10
76.2854383489842
 20
-141.1999945393528
 10
76.2854383489842
 20
-141.1999945393528
 10
76.2854383489842
 20
-141.3946424342694
 10
76.2854383489842
 20
-141.3946424342694
 10
76.2854383489842
 20
-141.3946424342694
 10
75.66979978577005
 20
-141.3946424342694
 10
75.66979978577005
 20
-141.3946424342694
 10
75.66979978577005
 20
-141.3946424342694
 10
75.60434297155031
 20
-141.8177001598581
 10
75.60434297155031
 20
-141.8177001598581
 10
75.66566567118775
 20
-141.7839382241026
 10
75.74817570805949
 20
-141.7436306069252
 10
75.86651473797782
 20
-141.7436306069252
 10
76.12041827524074
 20
-141.7436306069252
 10
76.35744084462593
 20
-141.9300102726772
 10
76.35744084462593
 20
-142.2431694522864
 10
76.35744084462593
 20
-142.560462746478
 10
76.13316512853616
 20
-142.7950737490235
 10
75.83068574493122
 20
-142.7950737490235
 97
        0
 97
        0
 75
     2
 76
     1
 98
        0
  0
ENDBLK
  5
A2
330
9F
100
AcDbEntity
  8
0
100
AcDbBlockEnd
  0
BLOCK
  5
B7
330
B5
100
AcDbEntity
  8
0
100
AcDbBlockBegin
  2
block 4
 70
     0
 10
0.0
 20
0.0
 30
0.0
  3
block 4
  1

  0
SPLINE
  5
B9
330
B5
100
AcDbEntity
  8
_U+30EC_U+30A4_U+30E4_U+30FC 1
370
     0
100
AcDbSpline
210
0.0
220
0.0
230
1.0
 70
    11
 71
     3
 72
    26
 73
    22
 74
     0
 42
0.0000000001
 43
0.0000000001
 12
1.0
 22
0.0
 32
0.0
 13
1.0
 23
0.0
 33
0.0
 40
0.0
 40
0.0
 40
0.0
 40
0.0
 40
1.0
 40
1.0
 40
1.0
 40
2.0
 40
2.0
 40
2.0
 40
3.0
 40
3.0
 40
3.0
 40
4.0
 40
4.0
 40
4.0
 40
5.0
 40
5.0
 40
5.0
 40
6.0
 40
6.0
 40
6.0
 40
7.0
 40
7.0
 40
7.0
 40
7.0
 10
106.6425862363602
 20
-120.7020209116648
 30
0.0
 10
106.6425862363602
 20
-120.7020209116648
 30
0.0
 10
105.5384331333376
 20
-120.7020209116648
 30
0.0
 10
105.5384331333376
 20
-120.7020209116648
 30
0.0
 10
105.5384331333376
 20
-120.7020209116648
 30
0.0
 10
105.5384331333376
 20
-121.0320610591517
 30
0.0
 10
105.5384331333376
 20
-121.0320610591517
 30
0.0
 10
105.5384331333376
 20
-121.0320610591517
 30
0.0
 10
105.3902940274719
 20
-121.0320610591517
 30
0.0
 10
105.3902940274719
 20
-121.0320610591517
 30
0.0
 10
105.3754801168853
 20
-120.6999538543736
 30
0.0
 10
105.212527100433
 20
-120.6534450653228
 30
0.0
 10
105.0981499303227
 20
-120.6238172441496
 30
0.0
 10
105.0981499303227
 20
-120.6238172441496
 30
0.0
 10
105.0981499303227
 20
-120.477745195575
 30
0.0
 10
105.0981499303227
 20
-120.477745195575
 30
0.0
 10
105.0981499303227
 20
-120.477745195575
 30
0.0
 10
106.6425862363602
 20
-120.477745195575
 30
0.0
 10
106.6425862363602
 20
-120.477745195575
 30
0.0
 10
106.6425862363602
 20
-120.477745195575
 30
0.0
 10
106.6425862363602
 20
-120.7020209116648
 30
0.0
 10
106.6425862363602
 20
-120.7020209116648
 30
0.0
  0
HATCH
  5
BA
330
B5
100
AcDbEntity
  8
_U+30EC_U+30A4_U+30E4_U+30FC 1
 62
   179
420
  2234388
100
AcDbHatch
 10
0.0
 20
0.0
 30
0.0
210
0.0
220
0.0
230
1.0
  2
SOLID
 70
     1
 71
     0
 91
        1
 92
        1
 93
        1
 72
     4
 94
        3
 73
     0
 74
     1
 95
       26
 96
       22
 40
0.0
 40
0.0
 40
0.0
 40
0.0
 40
1.0
 40
1.0
 40
1.0
 40
2.0
 40
2.0
 40
2.0
 40
3.0
 40
3.0
 40
3.0
 40
4.0
 40
4.0
 40
4.0
 40
5.0
 40
5.0
 40
5.0
 40
6.0
 40
6.0
 40
6.0
 40
7.0
 40
7.0
 40
7.0
 40
7.0
 10
106.6425862363602
 20
-120.7020209116648
 10
106.6425862363602
 20
-120.7020209116648
 10
105.5384331333376
 20
-120.7020209116648
 10
105.5384331333376
 20
-120.7020209116648
 10
105.5384331333376
 20
-120.7020209116648
 10
105.5384331333376
 20
-121.0320610591517
 10
105.5384331333376
 20
-121.0320610591517
 10
105.5384331333376
 20
-121.0320610591517
 10
105.3902940274719
 20
-121.0320610591517
 10
105.3902940274719
 20
-121.0320610591517
 10
105.3754801168853
 20
-120.6999538543736
 10
105.212527100433
 20
-120.6534450653228
 10
105.0981499303227
 20
-120.6238172441496
 10
105.0981499303227
 20
-120.6238172441496
 10
105.0981499303227
 20
-120.477745195575
 10
105.0981499303227
 20
-120.477745195575
 10
105.0981499303227
 20
-120.477745195575
 10
106.6425862363602
 20
-120.477745195575
 10
106.6425862363602
 20
-120.477745195575
 10
106.6425862363602
 20
-120.477745195575
 10
106.6425862363602
 20
-120.7020209116648
 10
106.6425862363602
 20
-120.7020209116648
 97
        0
 97
        0
 75
     2
 76
     1
 98
        0
  0
ENDBLK
  5
B8
330
B5
100
AcDbEntity
  8
0
100
AcDbBlockEnd
  0
BLOCK
  5
C5
330
C3
100
AcDbEntity
  8
0
100
AcDbBlockBegin
  2
block 5
 70
     0
 10
0.0
 20
0.0
 30
0.0
  3
block 5
  1

  0
SPLINE
  5
C7
330
C3
100
AcDbEntity
  8
_U+30EC_U+30A4_U+30E4_U+30FC 1
370
     0
100
AcDbSpline
210
0.0
220
0.0
230
1.0
 70
    11
 71
     3
 72
    62
 73
    58
 74
     0
 42
0.0000000001
 43
0.0000000001
 12
1.0
 22
0.0
 32
0.0
 13
1.0
 23
0.0
 33
0.0
 40
0.0
 40
0.0
 40
0.0
 40
0.0
 40
1.0
 40
1.0
 40
1.0
 40
2.0
 40
2.0
 40
2.0
 40
3.0
 40
3.0
 40
3.0
 40
4.0
 40
4.0
 40
4.0
 40
5.0
 40
5.0
 40
5.0
 40
6.0
 40
6.0
 40
6.0
 40
7.0
 40
7.0
 40
7.0
 40
8.0
 40
8.0
 40
8.0
 40
9.0
 40
9.0
 40
9.0
 40
10.0
 40
10.0
 40
10.0
 40
11.0
 40
11.0
 40
11.0
 40
12.0
 40
12.0
 40
12.0
 40
13.0
 40
13.0
 40
13.0
 40
14.0
 40
14.0
 40
14.0
 40
15.0
 40
15.0
 40
15.0
 40
16.0
 40
16.0
 40
16.0
 40
17.0
 40
17.0
 40
17.0
 40
18.0
 40
18.0
 40
18.0
 40
19.0
 40
19.0
 40
19.0
 40
19.0
 10
101.7546847618877
 20
-137.8985595358379
 30
0.0
 10
101.7546847618877
 20
-137.9939886807793
 30
0.0
 10
101.7336696794277
 20
-138.2117187154471
 30
0.0
 10
101.5476345232242
 20
-138.3367756815616
 30
0.0
 10
101.4353244104051
 20
-138.4108452344945
 30
0.0
 10
101.3361056604299
 20
-138.4149793490768
 30
0.0
 10
101.2513563114927
 20
-138.4191134636591
 30
0.0
 10
101.2513563114927
 20
-138.4191134636591
 30
0.0
 10
101.2513563114927
 20
-138.1989718621517
 30
0.0
 10
101.2513563114927
 20
-138.1989718621517
 30
0.0
 10
101.3254258644256
 20
-138.1969048048605
 30
0.0
 10
101.5600368669711
 20
-138.1865695184048
 30
0.0
 10
101.5600368669711
 20
-137.9030381599687
 30
0.0
 10
101.5600368669711
 20
-137.7655788501072
 30
0.0
 10
101.4904459381691
 20
-137.6129611201107
 30
0.0
 10
101.262036107497
 20
-137.6129611201107
 30
0.0
 10
101.1455918800956
 20
-137.6129611201107
 30
0.0
 10
101.0970160337535
 20
-137.6512016799969
 30
0.0
 10
101.0653211552892
 20
-137.6828965584612
 30
0.0
 10
100.9912516023564
 20
-137.7569661113941
 30
0.0
 10
100.9785047490609
 20
-137.8734103387955
 30
0.0
 10
100.9785047490609
 20
-137.928187357011
 30
0.0
 10
100.9785047490609
 20
-137.9474798917284
 30
0.0
 10
100.9805718063521
 20
-137.983308884775
 30
0.0
 10
100.9847059209344
 20
-138.010869648657
 30
0.0
 10
100.9847059209344
 20
-138.010869648657
 30
0.0
 10
100.7900580260178
 20
-138.010869648657
 30
0.0
 10
100.7900580260178
 20
-138.010869648657
 30
0.0
 10
100.7966037074397
 20
-137.9726290887707
 30
0.0
 10
100.7986707647309
 20
-137.9305989238507
 30
0.0
 10
100.7986707647309
 20
-137.9240532424287
 30
0.0
 10
100.7986707647309
 20
-137.858596428209
 30
0.0
 10
100.7773111727223
 20
-137.6598144187101
 30
0.0
 10
100.5406331128857
 20
-137.6598144187101
 30
0.0
 10
100.3628661858468
 20
-137.6598144187101
 30
0.0
 10
100.3077446580828
 20
-137.7907280471495
 30
0.0
 10
100.3077446580828
 20
-137.9009711026775
 30
0.0
 10
100.3077446580828
 20
-138.1652099263962
 30
0.0
 10
100.5406331128857
 20
-138.1738226651093
 30
0.0
 10
100.6122910989789
 20
-138.1779567796916
 30
0.0
 10
100.6122910989789
 20
-138.1779567796916
 30
0.0
 10
100.6122910989789
 20
-138.3812174133214
 30
0.0
 10
100.6122910989789
 20
-138.3812174133214
 30
0.0
 10
100.4875786424128
 20
-138.3726046746083
 30
0.0
 10
100.111029705875
 20
-138.3450439107262
 30
0.0
 10
100.111029705875
 20
-137.8882242493821
 30
0.0
 10
100.111029705875
 20
-137.6639485332923
 30
0.0
 10
100.2381537292807
 20
-137.4227918493249
 30
0.0
 10
100.5340874314637
 20
-137.4227918493249
 30
0.0
 10
100.7204670972157
 20
-137.4227918493249
 30
0.0
 10
100.8028048793132
 20
-137.5178764847178
 30
0.0
 10
100.8641275789506
 20
-137.6174397442415
 30
0.0
 10
100.8916883428326
 20
-137.556117044604
 30
0.0
 10
100.971959067639
 20
-137.3742160029828
 30
0.0
 10
101.2492892542016
 20
-137.3742160029828
 30
0.0
 10
101.5875976308531
 20
-137.3742160029828
 30
0.0
 10
101.7546847618877
 20
-137.6215738588238
 30
0.0
 10
101.7546847618877
 20
-137.8985595358379
 30
0.0
  0
HATCH
  5
C8
330
C3
100
AcDbEntity
  8
_U+30EC_U+30A4_U+30E4_U+30FC 1
 62
   179
420
  2234388
100
AcDbHatch
 10
0.0
 20
0.0
 30
0.0
210
0.0
220
0.0
230
1.0
  2
SOLID
 70
     1
 71
     0
 91
        1
 92
        1
 93
        1
 72
     4
 94
        3
 73
     0
 74
     1
 95
       62
 96
       58
 40
0.0
 40
0.0
 40
0.0
 40
0.0
 40
1.0
 40
1.0
 40
1.0
 40
2.0
 40
2.0
 40
2.0
 40
3.0
 40
3.0
 40
3.0
 40
4.0
 40
4.0
 40
4.0
 40
5.0
 40
5.0
 40
5.0
 40
6.0
 40
6.0
 40
6.0
 40
7.0
 40
7.0
 40
7.0
 40
8.0
 40
8.0
 40
8.0
 40
9.0
 40
9.0
 40
9.0
 40
10.0
 40
10.0
 40
10.0
 40
11.0
 40
11.0
 40
11.0
 40
12.0
 40
12.0
 40
12.0
 40
13.0
 40
13.0
 40
13.0
 40
14.0
 40
14.0
 40
14.0
 40
15.0
 40
15.0
 40
15.0
 40
16.0
 40
16.0
 40
16.0
 40
17.0
 40
17.0
 40
17.0
 40
18.0
 40
18.0
 40
18.0
 40
19.0
 40
19.0
 40
19.0
 40
19.0
 10
101.7546847618877
 20
-137.8985595358379
 10
101.7546847618877
 20
-137.9939886807793
 10
101.7336696794277
 20
-138.2117187154471
 10
101.5476345232242
 20
-138.3367756815616
 10
101.4353244104051
 20
-138.4108452344945
 10
101.3361056604299
 20
-138.4149793490768
 10
101.2513563114927
 20
-138.4191134636591
 10
101.2513563114927
 20
-138.4191134636591
 10
101.2513563114927
 20
-138.1989718621517
 10
101.2513563114927
 20
-138.1989718621517
 10
101.3254258644256
 20
-138.1969048048605
 10
101.5600368669711
 20
-138.1865695184048
 10
101.5600368669711
 20
-137.9030381599687
 10
101.5600368669711
 20
-137.7655788501072
 10
101.4904459381691
 20
-137.6129611201107
 10
101.262036107497
 20
-137.6129611201107
 10
101.1455918800956
 20
-137.6129611201107
 10
101.0970160337535
 20
-137.6512016799969
 10
101.0653211552892
 20
-137.6828965584612
 10
100.9912516023564
 20
-137.7569661113941
 10
100.9785047490609
 20
-137.8734103387955
 10
100.9785047490609
 20
-137.928187357011
 10
100.9785047490609
 20
-137.9474798917284
 10
100.9805718063521
 20
-137.983308884775
 10
100.9847059209344
 20
-138.010869648657
 10
100.9847059209344
 20
-138.010869648657
 10
100.7900580260178
 20
-138.010869648657
 10
100.7900580260178
 20
-138.010869648657
 10
100.7966037074397
 20
-137.9726290887707
 10
100.7986707647309
 20
-137.9305989238507
 10
100.7986707647309
 20
-137.9240532424287
 10
100.7986707647309
 20
-137.858596428209
 10
100.7773111727223
 20
-137.6598144187101
 10
100.5406331128857
 20
-137.6598144187101
 10
100.3628661858468
 20
-137.6598144187101
 10
100.3077446580828
 20
-137.7907280471495
 10
100.3077446580828
 20
-137.9009711026775
 10
100.3077446580828
 20
-138.1652099263962
 10
100.5406331128857
 20
-138.1738226651093
 10
100.6122910989789
 20
-138.1779567796916
 10
100.6122910989789
 20
-138.1779567796916
 10
100.6122910989789
 20
-138.3812174133214
 10
100.6122910989789
 20
-138.3812174133214
 10
100.4875786424128
 20
-138.3726046746083
 10
100.111029705875
 20
-138.3450439107262
 10
100.111029705875
 20
-137.8882242493821
 10
100.111029705875
 20
-137.6639485332923
 10
100.2381537292807
 20
-137.4227918493249
 10
100.5340874314637
 20
-137.4227918493249
 10
100.7204670972157
 20
-137.4227918493249
 10
100.8028048793132
 20
-137.5178764847178
 10
100.8641275789506
 20
-137.6174397442415
 10
100.8916883428326
 20
-137.556117044604
 10
100.971959067639
 20
-137.3742160029828
 10
101.2492892542016
 20
-137.3742160029828
 10
101.5875976308531
 20
-137.3742160029828
 10
101.7546847618877
 20
-137.6215738588238
 10
101.7546847618877
 20
-137.8985595358379
 97
        0
 97
        0
 75
     2
 76
     1
 98
        0
  0
ENDBLK
  5
C6
330
C3
100
AcDbEntity
  8
0
100
AcDbBlockEnd
  0
BLOCK
  5
D3
330
D1
100
AcDbEntity
  8
0
100
AcDbBlockBegin
  2
block 6
 70
     0
 10
0.0
 20
0.0
 30
0.0
  3
block 6
  1

  0
SPLINE
  5
D5
330
D1
100
AcDbEntity
  8
_U+30EC_U+30A4_U+30E4_U+30FC 1
370
     0
100
AcDbSpline
210
0.0
220
0.0
230
1.0
 70
    11
 71
     3
 72
    26
 73
    22
 74
     0
 42
0.0000000001
 43
0.0000000001
 12
1.0
 22
0.0
 32
0.0
 13
1.0
 23
0.0
 33
0.0
 40
0.0
 40
0.0
 40
0.0
 40
0.0
 40
1.0
 40
1.0
 40
1.0
 40
2.0
 40
2.0
 40
2.0
 40
3.0
 40
3.0
 40
3.0
 40
4.0
 40
4.0
 40
4.0
 40
5.0
 40
5.0
 40
5.0
 40
6.0
 40
6.0
 40
6.0
 40
7.0
 40
7.0
 40
7.0
 40
7.0
 10
101.703697348706
 20
-130.1395154839582
 30
0.0
 10
101.703697348706
 20
-130.1395154839582
 30
0.0
 10
100.5995442456834
 20
-130.1395154839582
 30
0.0
 10
100.5995442456834
 20
-130.1395154839582
 30
0.0
 10
100.5995442456834
 20
-130.1395154839582
 30
0.0
 10
100.5995442456834
 20
-130.4695556314451
 30
0.0
 10
100.5995442456834
 20
-130.4695556314451
 30
0.0
 10
100.5995442456834
 20
-130.4695556314451
 30
0.0
 10
100.4514051398177
 20
-130.4695556314451
 30
0.0
 10
100.4514051398177
 20
-130.4695556314451
 30
0.0
 10
100.4365912292311
 20
-130.137448426667
 30
0.0
 10
100.2736382127788
 20
-130.0909396376162
 30
0.0
 10
100.1592610426685
 20
-130.061311816443
 30
0.0
 10
100.1592610426685
 20
-130.061311816443
 30
0.0
 10
100.1592610426685
 20
-129.9152397678684
 30
0.0
 10
100.1592610426685
 20
-129.9152397678684
 30
0.0
 10
100.1592610426685
 20
-129.9152397678684
 30
0.0
 10
101.703697348706
 20
-129.9152397678684
 30
0.0
 10
101.703697348706
 20
-129.9152397678684
 30
0.0
 10
101.703697348706
 20
-129.9152397678684
 30
0.0
 10
101.703697348706
 20
-130.1395154839582
 30
0.0
 10
101.703697348706
 20
-130.1395154839582
 30
0.0
  0
HATCH
  5
D6
330
D1
100
AcDbEntity
  8
_U+30EC_U+30A4_U+30E4_U+30FC 1
 62
   179
420
  2234388
100
AcDbHatch
 10
0.0
 20
0.0
 30
0.0
210
0.0
220
0.0
230
1.0
  2
SOLID
 70
     1
 71
     0
 91
        1
 92
        1
 93
        1
 72
     4
 94
        3
 73
     0
 74
     1
 95
       26
 96
       22
 40
0.0
 40
0.0
 40
0.0
 40
0.0
 40
1.0
 40
1.0
 40
1.0
 40
2.0
 40
2.0
 40
2.0
 40
3.0
 40
3.0
 40
3.0
 40
4.0
 40
4.0
 40
4.0
 40
5.0
 40
5.0
 40
5.0
 40
6.0
 40
6.0
 40
6.0
 40
7.0
 40
7.0
 40
7.0
 40
7.0
 10
101.703697348706
 20
-130.1395154839582
 10
101.703697348706
 20
-130.1395154839582
 10
100.5995442456834
 20
-130.1395154839582
 10
100.5995442456834
 20
-130.1395154839582
 10
100.5995442456834
 20
-130.1395154839582
 10
100.5995442456834
 20
-130.4695556314451
 10
100.5995442456834
 20
-130.4695556314451
 10
100.5995442456834
 20
-130.4695556314451
 10
100.4514051398177
 20
-130.4695556314451
 10
100.4514051398177
 20
-130.4695556314451
 10
100.4365912292311
 20
-130.137448426667
 10
100.2736382127788
 20
-130.0909396376162
 10
100.1592610426685
 20
-130.061311816443
 10
100.1592610426685
 20
-130.061311816443
 10
100.1592610426685
 20
-129.9152397678684
 10
100.1592610426685
 20
-129.9152397678684
 10
100.1592610426685
 20
-129.9152397678684
 10
101.703697348706
 20
-129.9152397678684
 10
101.703697348706
 20
-129.9152397678684
 10
101.703697348706
 20
-129.9152397678684
 10
101.703697348706
 20
-130.1395154839582
 10
101.703697348706
 20
-130.1395154839582
 97
        0
 97
        0
 75
     2
 76
     1
 98
        0
  0
SPLINE
  5
D7
330
D1
100
AcDbEntity
  8
_U+30EC_U+30A4_U+30E4_U+30FC 1
370
     0
100
AcDbSpline
210
0.0
220
0.0
230
1.0
 70
    11
 71
     3
 72
    53
 73
    49
 74
     0
 42
0.0000000001
 43
0.0000000001
 12
1.0
 22
0.0
 32
0.0
 13
1.0
 23
0.0
 33
0.0
 40
0.0
 40
0.0
 40
0.0
 40
0.0
 40
1.0
 40
1.0
 40
1.0
 40
2.0
 40
2.0
 40
2.0
 40
3.0
 40
3.0
 40
3.0
 40
4.0
 40
4.0
 40
4.0
 40
5.0
 40
5.0
 40
5.0
 40
6.0
 40
6.0
 40
6.0
 40
7.0
 40
7.0
 40
7.0
 40
8.0
 40
8.0
 40
8.0
 40
9.0
 40
9.0
 40
9.0
 40
10.0
 40
10.0
 40
10.0
 40
11.0
 40
11.0
 40
11.0
 40
12.0
 40
12.0
 40
12.0
 40
13.0
 40
13.0
 40
13.0
 40
14.0
 40
14.0
 40
14.0
 40
15.0
 40
15.0
 40
15.0
 40
16.0
 40
16.0
 40
16.0
 40
16.0
 10
101.7543402523392
 20
-128.9330430450237
 30
0.0
 10
101.7543402523392
 20
-129.0112467125388
 30
0.0
 10
101.7374592844615
 20
-129.1128770293537
 30
0.0
 10
101.6740695275329
 20
-129.2145073461686
 30
0.0
 10
101.5641709815534
 20
-129.3877956490767
 30
0.0
 10
101.4329128435654
 20
-129.4091552410852
 30
0.0
 10
101.3250813548771
 20
-129.4281032662541
 30
0.0
 10
101.3250813548771
 20
-129.4281032662541
 30
0.0
 10
101.3250813548771
 20
-129.2058946074555
 30
0.0
 10
101.3250813548771
 20
-129.2058946074555
 30
0.0
 10
101.523863364376
 20
-129.15111758924
 30
0.0
 10
101.5534911855491
 20
-129.0239935658343
 30
0.0
 10
101.5534911855491
 20
-128.9309759877326
 30
0.0
 10
101.5534911855491
 20
-128.7914496205799
 30
0.0
 10
101.4539279260254
 20
-128.6391764001319
 30
0.0
 10
101.2213839807711
 20
-128.6391764001319
 30
0.0
 10
100.965413386217
 20
-128.6391764001319
 30
0.0
 10
100.8954779478664
 20
-128.8190103844619
 30
0.0
 10
100.8954779478664
 20
-128.9395887264457
 30
0.0
 10
100.8954779478664
 20
-128.97128360491
 30
0.0
 10
100.8954779478664
 20
-129.1128770293537
 30
0.0
 10
101.0246690285633
 20
-129.2017604928732
 30
0.0
 10
101.0246690285633
 20
-129.2017604928732
 30
0.0
 10
101.0057210033944
 20
-129.3774603626209
 30
0.0
 10
101.0057210033944
 20
-129.3774603626209
 30
0.0
 10
101.0057210033944
 20
-129.3774603626209
 30
0.0
 10
100.1592610426685
 20
-129.2568820206372
 30
0.0
 10
100.1592610426685
 20
-129.2568820206372
 30
0.0
 10
100.1592610426685
 20
-129.2568820206372
 30
0.0
 10
100.1592610426685
 20
-128.4782904409707
 30
0.0
 10
100.1592610426685
 20
-128.4782904409707
 30
0.0
 10
100.1592610426685
 20
-128.4782904409707
 30
0.0
 10
100.3539089375851
 20
-128.4782904409707
 30
0.0
 10
100.3539089375851
 20
-128.4782904409707
 30
0.0
 10
100.3539089375851
 20
-128.4782904409707
 30
0.0
 10
100.3539089375851
 20
-129.0939290041848
 30
0.0
 10
100.3539089375851
 20
-129.0939290041848
 30
0.0
 10
100.3539089375851
 20
-129.0939290041848
 30
0.0
 10
100.7769666631738
 20
-129.1593858184046
 30
0.0
 10
100.7769666631738
 20
-129.1593858184046
 30
0.0
 10
100.7432047274184
 20
-129.0980631187672
 30
0.0
 10
100.7028971102409
 20
-129.0157253366697
 30
0.0
 10
100.7028971102409
 20
-128.8972140519771
 30
0.0
 10
100.7028971102409
 20
-128.6433105147142
 30
0.0
 10
100.889276775993
 20
-128.406287945329
 30
0.0
 10
101.2024359556022
 20
-128.406287945329
 30
0.0
 10
101.5197292497937
 20
-128.406287945329
 30
0.0
 10
101.7543402523392
 20
-128.6305636614188
 30
0.0
 10
101.7543402523392
 20
-128.9330430450237
 30
0.0
  0
HATCH
  5
D8
330
D1
100
AcDbEntity
  8
_U+30EC_U+30A4_U+30E4_U+30FC 1
 62
   179
420
  2234388
100
AcDbHatch
 10
0.0
 20
0.0
 30
0.0
210
0.0
220
0.0
230
1.0
  2
SOLID
 70
     1
 71
     0
 91
        1
 92
        1
 93
        1
 72
     4
 94
        3
 73
     0
 74
     1
 95
       53
 96
       49
 40
0.0
 40
0.0
 40
0.0
 40
0.0
 40
1.0
 40
1.0
 40
1.0
 40
2.0
 40
2.0
 40
2.0
 40
3.0
 40
3.0
 40
3.0
 40
4.0
 40
4.0
 40
4.0
 40
5.0
 40
5.0
 40
5.0
 40
6.0
 40
6.0
 40
6.0
 40
7.0
 40
7.0
 40
7.0
 40
8.0
 40
8.0
 40
8.0
 40
9.0
 40
9.0
 40
9.0
 40
10.0
 40
10.0
 40
10.0
 40
11.0
 40
11.0
 40
11.0
 40
12.0
 40
12.0
 40
12.0
 40
13.0
 40
13.0
 40
13.0
 40
14.0
 40
14.0
 40
14.0
 40
15.0
 40
15.0
 40
15.0
 40
16.0
 40
16.0
 40
16.0
 40
16.0
 10
101.7543402523392
 20
-128.9330430450237
 10
101.7543402523392
 20
-129.0112467125388
 10
101.7374592844615
 20
-129.1128770293537
 10
101.6740695275329
 20
-129.2145073461686
 10
101.5641709815534
 20
-129.3877956490767
 10
101.4329128435654
 20
-129.4091552410852
 10
101.3250813548771
 20
-129.4281032662541
 10
101.3250813548771
 20
-129.4281032662541
 10
101.3250813548771
 20
-129.2058946074555
 10
101.3250813548771
 20
-129.2058946074555
 10
101.523863364376
 20
-129.15111758924
 10
101.5534911855491
 20
-129.0239935658343
 10
101.5534911855491
 20
-128.9309759877326
 10
101.5534911855491
 20
-128.7914496205799
 10
101.4539279260254
 20
-128.6391764001319
 10
101.2213839807711
 20
-128.6391764001319
 10
100.965413386217
 20
-128.6391764001319
 10
100.8954779478664
 20
-128.8190103844619
 10
100.8954779478664
 20
-128.9395887264457
 10
100.8954779478664
 20
-128.97128360491
 10
100.8954779478664
 20
-129.1128770293537
 10
101.0246690285633
 20
-129.2017604928732
 10
101.0246690285633
 20
-129.2017604928732
 10
101.0057210033944
 20
-129.3774603626209
 10
101.0057210033944
 20
-129.3774603626209
 10
101.0057210033944
 20
-129.3774603626209
 10
100.1592610426685
 20
-129.2568820206372
 10
100.1592610426685
 20
-129.2568820206372
 10
100.1592610426685
 20
-129.2568820206372
 10
100.1592610426685
 20
-128.4782904409707
 10
100.1592610426685
 20
-128.4782904409707
 10
100.1592610426685
 20
-128.4782904409707
 10
100.3539089375851
 20
-128.4782904409707
 10
100.3539089375851
 20
-128.4782904409707
 10
100.3539089375851
 20
-128.4782904409707
 10
100.3539089375851
 20
-129.0939290041848
 10
100.3539089375851
 20
-129.0939290041848
 10
100.3539089375851
 20
-129.0939290041848
 10
100.7769666631738
 20
-129.1593858184046
 10
100.7769666631738
 20
-129.1593858184046
 10
100.7432047274184
 20
-129.0980631187672
 10
100.7028971102409
 20
-129.0157253366697
 10
100.7028971102409
 20
-128.8972140519771
 10
100.7028971102409
 20
-128.6433105147142
 10
100.889276775993
 20
-128.406287945329
 10
101.2024359556022
 20
-128.406287945329
 10
101.5197292497937
 20
-128.406287945329
 10
101.7543402523392
 20
-128.6305636614188
 10
101.7543402523392
 20
-128.9330430450237
 97
        0
 97
        0
 75
     2
 76
     1
 98
        0
  0
POLYLINE
  5
D9
330
D1
100
AcDbEntity
  8
_U+30EC_U+30A4_U+30E4_U+30FC 1
370
     0
100
AcDb2dPolyline
 66
     1
 10
0.0
 20
0.0
 30
0.0
  0
VERTEX
  5
DA
330
D9
100
AcDbEntity
  8
_U+30EC_U+30A4_U+30E4_U+30FC 1
370
     0
100
AcDbVertex
100
AcDb2dVertex
 10
101.703697348706
 20
-128.1771890955599
 30
0.0
  0
VERTEX
  5
DB
330
D9
100
AcDbEntity
  8
_U+30EC_U+30A4_U+30E4_U+30FC 1
370
     0
100
AcDbVertex
100
AcDb2dVertex
 10
101.4518608687343
 20
-128.1771890955599
 30
0.0
  0
VERTEX
  5
DC
330
D9
100
AcDbEntity
  8
_U+30EC_U+30A4_U+30E4_U+30FC 1
370
     0
100
AcDbVertex
100
AcDb2dVertex
 10
101.4518608687343
 20
-127.9253526155881
 30
0.0
  0
VERTEX
  5
DD
330
D9
100
AcDbEntity
  8
_U+30EC_U+30A4_U+30E4_U+30FC 1
370
     0
100
AcDbVertex
100
AcDb2dVertex
 10
101.703697348706
 20
-127.9253526155881
 30
0.0
  0
VERTEX
  5
DE
330
D9
100
AcDbEntity
  8
_U+30EC_U+30A4_U+30E4_U+30FC 1
370
     0
100
AcDbVertex
100
AcDb2dVertex
 10
101.703697348706
 20
-128.1771890955599
 30
0.0
  0
SEQEND
  5
DF
330
D9
100
AcDbEntity
  8
_U+30EC_U+30A4_U+30E4_U+30FC 1
370
     0
  0
HATCH
  5
E0
330
D1
100
AcDbEntity
  8
_U+30EC_U+30A4_U+30E4_U+30FC 1
 62
   179
420
  2234388
100
AcDbHatch
 10
0.0
 20
0.0
 30
0.0
210
0.0
220
0.0
230
1.0
  2
SOLID
 70
     1
 71
     0
 91
        1
 92
        1
 93
        4
 72
     1
 10
101.703697348706
 20
-128.1771890955599
 11
101.4518608687343
 21
-128.1771890955599
 72
     1
 10
101.4518608687343
 20
-128.1771890955599
 11
101.4518608687343
 21
-127.9253526155881
 72
     1
 10
101.4518608687343
 20
-127.9253526155881
 11
101.703697348706
 21
-127.9253526155881
 72
     1
 10
101.703697348706
 20
-127.9253526155881
 11
101.703697348706
 21
-128.1771890955599
 97
        0
 75
     2
 76
     1
 98
        0
  0
SPLINE
  5
E1
330
D1
100
AcDbEntity
  8
_U+30EC_U+30A4_U+30E4_U+30FC 1
370
     0
100
AcDbSpline
210
0.0
220
0.0
230
1.0
 70
    11
 71
     3
 72
    53
 73
    49
 74
     0
 42
0.0000000001
 43
0.0000000001
 12
1.0
 22
0.0
 32
0.0
 13
1.0
 23
0.0
 33
0.0
 40
0.0
 40
0.0
 40
0.0
 40
0.0
 40
1.0
 40
1.0
 40
1.0
 40
2.0
 40
2.0
 40
2.0
 40
3.0
 40
3.0
 40
3.0
 40
4.0
 40
4.0
 40
4.0
 40
5.0
 40
5.0
 40
5.0
 40
6.0
 40
6.0
 40
6.0
 40
7.0
 40
7.0
 40
7.0
 40
8.0
 40
8.0
 40
8.0
 40
9.0
 40
9.0
 40
9.0
 40
10.0
 40
10.0
 40
10.0
 40
11.0
 40
11.0
 40
11.0
 40
12.0
 40
12.0
 40
12.0
 40
13.0
 40
13.0
 40
13.0
 40
14.0
 40
14.0
 40
14.0
 40
15.0
 40
15.0
 40
15.0
 40
16.0
 40
16.0
 40
16.0
 40
16.0
 10
101.7543402523392
 20
-127.2080837355591
 30
0.0
 10
101.7543402523392
 20
-127.2862874030743
 30
0.0
 10
101.7374592844615
 20
-127.3879177198891
 30
0.0
 10
101.6740695275329
 20
-127.489548036704
 30
0.0
 10
101.5641709815534
 20
-127.6628363396121
 30
0.0
 10
101.4329128435654
 20
-127.6841959316206
 30
0.0
 10
101.3250813548771
 20
-127.7031439567895
 30
0.0
 10
101.3250813548771
 20
-127.7031439567895
 30
0.0
 10
101.3250813548771
 20
-127.4809352979909
 30
0.0
 10
101.3250813548771
 20
-127.4809352979909
 30
0.0
 10
101.523863364376
 20
-127.4261582797754
 30
0.0
 10
101.5534911855491
 20
-127.2990342563697
 30
0.0
 10
101.5534911855491
 20
-127.2060166782679
 30
0.0
 10
101.5534911855491
 20
-127.0664903111153
 30
0.0
 10
101.4539279260254
 20
-126.9142170906673
 30
0.0
 10
101.2213839807711
 20
-126.9142170906673
 30
0.0
 10
100.965413386217
 20
-126.9142170906673
 30
0.0
 10
100.8954779478664
 20
-127.0940510749973
 30
0.0
 10
100.8954779478664
 20
-127.2146294169811
 30
0.0
 10
100.8954779478664
 20
-127.2463242954454
 30
0.0
 10
100.8954779478664
 20
-127.3879177198891
 30
0.0
 10
101.0246690285633
 20
-127.4768011834086
 30
0.0
 10
101.0246690285633
 20
-127.4768011834086
 30
0.0
 10
101.0057210033944
 20
-127.6525010531563
 30
0.0
 10
101.0057210033944
 20
-127.6525010531563
 30
0.0
 10
101.0057210033944
 20
-127.6525010531563
 30
0.0
 10
100.1592610426685
 20
-127.5319227111726
 30
0.0
 10
100.1592610426685
 20
-127.5319227111726
 30
0.0
 10
100.1592610426685
 20
-127.5319227111726
 30
0.0
 10
100.1592610426685
 20
-126.7533311315061
 30
0.0
 10
100.1592610426685
 20
-126.7533311315061
 30
0.0
 10
100.1592610426685
 20
-126.7533311315061
 30
0.0
 10
100.3539089375851
 20
-126.7533311315061
 30
0.0
 10
100.3539089375851
 20
-126.7533311315061
 30
0.0
 10
100.3539089375851
 20
-126.7533311315061
 30
0.0
 10
100.3539089375851
 20
-127.3689696947203
 30
0.0
 10
100.3539089375851
 20
-127.3689696947203
 30
0.0
 10
100.3539089375851
 20
-127.3689696947203
 30
0.0
 10
100.7769666631738
 20
-127.43442650894
 30
0.0
 10
100.7769666631738
 20
-127.43442650894
 30
0.0
 10
100.7432047274184
 20
-127.3731038093026
 30
0.0
 10
100.7028971102409
 20
-127.2907660272051
 30
0.0
 10
100.7028971102409
 20
-127.1722547425125
 30
0.0
 10
100.7028971102409
 20
-126.9183512052496
 30
0.0
 10
100.889276775993
 20
-126.6813286358644
 30
0.0
 10
101.2024359556022
 20
-126.6813286358644
 30
0.0
 10
101.5197292497937
 20
-126.6813286358644
 30
0.0
 10
101.7543402523392
 20
-126.9056043519542
 30
0.0
 10
101.7543402523392
 20
-127.2080837355591
 30
0.0
  0
HATCH
  5
E2
330
D1
100
AcDbEntity
  8
_U+30EC_U+30A4_U+30E4_U+30FC 1
 62
   179
420
  2234388
100
AcDbHatch
 10
0.0
 20
0.0
 30
0.0
210
0.0
220
0.0
230
1.0
  2
SOLID
 70
     1
 71
     0
 91
        1
 92
        1
 93
        1
 72
     4
 94
        3
 73
     0
 74
     1
 95
       53
 96
       49
 40
0.0
 40
0.0
 40
0.0
 40
0.0
 40
1.0
 40
1.0
 40
1.0
 40
2.0
 40
2.0
 40
2.0
 40
3.0
 40
3.0
 40
3.0
 40
4.0
 40
4.0
 40
4.0
 40
5.0
 40
5.0
 40
5.0
 40
6.0
 40
6.0
 40
6.0
 40
7.0
 40
7.0
 40
7.0
 40
8.0
 40
8.0
 40
8.0
 40
9.0
 40
9.0
 40
9.0
 40
10.0
 40
10.0
 40
10.0
 40
11.0
 40
11.0
 40
11.0
 40
12.0
 40
12.0
 40
12.0
 40
13.0
 40
13.0
 40
13.0
 40
14.0
 40
14.0
 40
14.0
 40
15.0
 40
15.0
 40
15.0
 40
16.0
 40
16.0
 40
16.0
 40
16.0
 10
101.7543402523392
 20
-127.2080837355591
 10
101.7543402523392
 20
-127.2862874030743
 10
101.7374592844615
 20
-127.3879177198891
 10
101.6740695275329
 20
-127.489548036704
 10
101.5641709815534
 20
-127.6628363396121
 10
101.4329128435654
 20
-127.6841959316206
 10
101.3250813548771
 20
-127.7031439567895
 10
101.3250813548771
 20
-127.7031439567895
 10
101.3250813548771
 20
-127.4809352979909
 10
101.3250813548771
 20
-127.4809352979909
 10
101.523863364376
 20
-127.4261582797754
 10
101.5534911855491
 20
-127.2990342563697
 10
101.5534911855491
 20
-127.2060166782679
 10
101.5534911855491
 20
-127.0664903111153
 10
101.4539279260254
 20
-126.9142170906673
 10
101.2213839807711
 20
-126.9142170906673
 10
100.965413386217
 20
-126.9142170906673
 10
100.8954779478664
 20
-127.0940510749973
 10
100.8954779478664
 20
-127.2146294169811
 10
100.8954779478664
 20
-127.2463242954454
 10
100.8954779478664
 20
-127.3879177198891
 10
101.0246690285633
 20
-127.4768011834086
 10
101.0246690285633
 20
-127.4768011834086
 10
101.0057210033944
 20
-127.6525010531563
 10
101.0057210033944
 20
-127.6525010531563
 10
101.0057210033944
 20
-127.6525010531563
 10
100.1592610426685
 20
-127.5319227111726
 10
100.1592610426685
 20
-127.5319227111726
 10
100.1592610426685
 20
-127.5319227111726
 10
100.1592610426685
 20
-126.7533311315061
 10
100.1592610426685
 20
-126.7533311315061
 10
100.1592610426685
 20
-126.7533311315061
 10
100.3539089375851
 20
-126.7533311315061
 10
100.3539089375851
 20
-126.7533311315061
 10
100.3539089375851
 20
-126.7533311315061
 10
100.3539089375851
 20
-127.3689696947203
 10
100.3539089375851
 20
-127.3689696947203
 10
100.3539089375851
 20
-127.3689696947203
 10
100.7769666631738
 20
-127.43442650894
 10
100.7769666631738
 20
-127.43442650894
 10
100.7432047274184
 20
-127.3731038093026
 10
100.7028971102409
 20
-127.2907660272051
 10
100.7028971102409
 20
-127.1722547425125
 10
100.7028971102409
 20
-126.9183512052496
 10
100.889276775993
 20
-126.6813286358644
 10
101.2024359556022
 20
-126.6813286358644
 10
101.5197292497937
 20
-126.6813286358644
 10
101.7543402523392
 20
-126.9056043519542
 10
101.7543402523392
 20
-127.2080837355591
 97
        0
 97
        0
 75
     2
 76
     1
 98
        0
  0
ENDBLK
  5
D4
330
D1
100
AcDbEntity
  8
0
100
AcDbBlockEnd
  0
ENDSEC
  0
SECTION
  2
ENTITIES
  0
POLYLINE
  5
41
330
1F
100
AcDbEntity
  8
_U+30EC_U+30A4_U+30E4_U+30FC 1
370
     0
100
AcDb2dPolyline
 66
     1
 10
0.0
 20
0.0
 30
0.0
  0
VERTEX
  5
42
330
41
100
AcDbEntity
  8
_U+30EC_U+30A4_U+30E4_U+30FC 1
370
     0
100
AcDbVertex
100
AcDb2dVertex
 10
73.34987118424444
 20
-139.3899435762637
 30
0.0
  0
VERTEX
  5
43
330
41
100
AcDbEntity
  8
_U+30EC_U+30A4_U+30E4_U+30FC 1
370
     0
100
AcDbVertex
100
AcDb2dVertex
 10
78.35007272334533
 20
-139.3899435762637
 30
0.0
  0
VERTEX
  5
44
330
41
100
AcDbEntity
  8
_U+30EC_U+30A4_U+30E4_U+30FC 1
370
     0
100
AcDbVertex
100
AcDb2dVertex
 10
78.35007272334533
 20
-136.3899566325694
 30
0.0
  0
VERTEX
  5
45
330
41
100
AcDbEntity
  8
_U+30EC_U+30A4_U+30E4_U+30FC 1
370
     0
100
AcDbVertex
100
AcDb2dVertex
 10
77.35030052662943
 20
-136.3899566325694
 30
0.0
  0
VERTEX
  5
46
330
41
100
AcDbEntity
  8
_U+30EC_U+30A4_U+30E4_U+30FC 1
370
     0
100
AcDbVertex
100
AcDb2dVertex
 10
77.35030052662943
 20
-138.3895010765138
 30
0.0
  0
VERTEX
  5
47
330
41
100
AcDbEntity
  8
_U+30EC_U+30A4_U+30E4_U+30FC 1
370
     0
100
AcDbVertex
100
AcDb2dVertex
 10
74.35031365872102
 20
-138.3895010765138
 30
0.0
  0
VERTEX
  5
48
330
41
100
AcDbEntity
  8
_U+30EC_U+30A4_U+30E4_U+30FC 1
370
     0
100
AcDbVertex
100
AcDb2dVertex
 10
74.35031365872102
 20
-120.8901358031108
 30
0.0
  0
VERTEX
  5
49
330
41
100
AcDbEntity
  8
_U+30EC_U+30A4_U+30E4_U+30FC 1
370
     0
100
AcDbVertex
100
AcDb2dVertex
 10
98.35024387976513
 20
-120.8901358031108
 30
0.0
  0
VERTEX
  5
4A
330
41
100
AcDbEntity
  8
_U+30EC_U+30A4_U+30E4_U+30FC 1
370
     0
100
AcDbVertex
100
AcDb2dVertex
 10
98.35024387976513
 20
-119.8905399700274
 30
0.0
  0
VERTEX
  5
4B
330
41
100
AcDbEntity
  8
_U+30EC_U+30A4_U+30E4_U+30FC 1
370
     0
100
AcDbVertex
100
AcDb2dVertex
 10
73.34987118424444
 20
-119.8905399700274
 30
0.0
  0
VERTEX
  5
4C
330
41
100
AcDbEntity
  8
_U+30EC_U+30A4_U+30E4_U+30FC 1
370
     0
100
AcDbVertex
100
AcDb2dVertex
 10
73.34987118424444
 20
-139.3899435762637
 30
0.0
  0
SEQEND
  5
4E
330
41
100
AcDbEntity
  8
_U+30EC_U+30A4_U+30E4_U+30FC 1
370
     0
  0
HATCH
  5
4D
330
1F
100
AcDbEntity
  8
_U+30EC_U+30A4_U+30E4_U+30FC 1
 62
     9
420
 13224394
100
AcDbHatch
 10
0.0
 20
0.0
 30
0.0
210
0.0
220
0.0
230
1.0
  2
SOLID
 70
     1
 71
     0
 91
        1
 92
        1
 93
       10
 72
     1
 10
73.34987118424444
 20
-139.3899435762637
 11
78.35007272334533
 21
-139.3899435762637
 72
     1
 10
78.35007272334533
 20
-139.3899435762637
 11
78.35007272334533
 21
-136.3899566325694
 72
     1
 10
78.35007272334533
 20
-136.3899566325694
 11
77.35030052662943
 21
-136.3899566325694
 72
     1
 10
77.35030052662943
 20
-136.3899566325694
 11
77.35030052662943
 21
-138.3895010765138
 72
     1
 10
77.35030052662943
 20
-138.3895010765138
 11
74.35031365872102
 21
-138.3895010765138
 72
     1
 10
74.35031365872102
 20
-138.3895010765138
 11
74.35031365872102
 21
-120.8901358031108
 72
     1
 10
74.35031365872102
 20
-120.8901358031108
 11
98.35024387976513
 21
-120.8901358031108
 72
     1
 10
98.35024387976513
 20
-120.8901358031108
 11
98.35024387976513
 21
-119.8905399700274
 72
     1
 10
98.35024387976513
 20
-119.8905399700274
 11
73.34987118424444
 21
-119.8905399700274
 72
     1
 10
73.34987118424444
 20
-119.8905399700274
 11
73.34987118424444
 21
-139.3899435762637
 97
        0
 75
     2
 76
     1
 98
        0
  0
POLYLINE
  5
4F
330
1F
100
AcDbEntity
  8
_U+30EC_U+30A4_U+30E4_U+30FC 1
 62
   179
420
  2234388
370
    25
100
AcDb2dPolyline
 66
     1
 10
0.0
 20
0.0
 30
0.0
  0
VERTEX
  5
50
330
4F
100
AcDbEntity
  8
_U+30EC_U+30A4_U+30E4_U+30FC 1
 62
   179
420
  2234388
370
    25
100
AcDbVertex
100
AcDb2dVertex
 10
73.34987118424444
 20
-139.3899435762637
 30
0.0
  0
VERTEX
  5
51
330
4F
100
AcDbEntity
  8
_U+30EC_U+30A4_U+30E4_U+30FC 1
 62
   179
420
  2234388
370
    25
100
AcDbVertex
100
AcDb2dVertex
 10
73.34987118424444
 20
-119.8905399700274
 30
0.0
  0
SEQEND
  5
52
330
4F
100
AcDbEntity
  8
_U+30EC_U+30A4_U+30E4_U+30FC 1
 62
   179
420
  2234388
370
    25
  0
POLYLINE
  5
53
330
1F
100
AcDbEntity
  8
_U+30EC_U+30A4_U+30E4_U+30FC 1
 62
   179
420
  2234388
370
    25
100
AcDb2dPolyline
 66
     1
 10
0.0
 20
0.0
 30
0.0
  0
VERTEX
  5
54
330
53
100
AcDbEntity
  8
_U+30EC_U+30A4_U+30E4_U+30FC 1
 62
   179
420
  2234388
370
    25
100
AcDbVertex
100
AcDb2dVertex
 10
98.35024387976513
 20
-119.8905399700274
 30
0.0
  0
VERTEX
  5
55
330
53
100
AcDbEntity
  8
_U+30EC_U+30A4_U+30E4_U+30FC 1
 62
   179
420
  2234388
370
    25
100
AcDbVertex
100
AcDb2dVertex
 10
98.35024387976513
 20
-120.8901358031108
 30
0.0
  0
SEQEND
  5
56
330
53
100
AcDbEntity
  8
_U+30EC_U+30A4_U+30E4_U+30FC 1
 62
   179
420
  2234388
370
    25
  0
POLYLINE
  5
57
330
1F
100
AcDbEntity
  8
_U+30EC_U+30A4_U+30E4_U+30FC 1
 62
   179
420
  2234388
370
    25
100
AcDb2dPolyline
 66
     1
 10
0.0
 20
0.0
 30
0.0
  0
VERTEX
  5
58
330
57
100
AcDbEntity
  8
_U+30EC_U+30A4_U+30E4_U+30FC 1
 62
   179
420
  2234388
370
    25
100
AcDbVertex
100
AcDb2dVertex
 10
74.35031365872102
 20
-120.8901358031108
 30
0.0
  0
VERTEX
  5
59
330
57
100
AcDbEntity
  8
_U+30EC_U+30A4_U+30E4_U+30FC 1
 62
   179
420
  2234388
370
    25
100
AcDbVertex
100
AcDb2dVertex
 10
98.35024387976513
 20
-120.8901358031108
 30
0.0
  0
SEQEND
  5
5A
330
57
100
AcDbEntity
  8
_U+30EC_U+30A4_U+30E4_U+30FC 1
 62
   179
420
  2234388
370
    25
  0
POLYLINE
  5
5B
330
1F
100
AcDbEntity
  8
_U+30EC_U+30A4_U+30E4_U+30FC 1
 62
   179
420
  2234388
370
    25
100
AcDb2dPolyline
 66
     1
 10
0.0
 20
0.0
 30
0.0
  0
VERTEX
  5
5C
330
5B
100
AcDbEntity
  8
_U+30EC_U+30A4_U+30E4_U+30FC 1
 62
   179
420
  2234388
370
    25
100
AcDbVertex
100
AcDb2dVertex
 10
73.34987118424444
 20
-139.3899435762637
 30
0.0
  0
VERTEX
  5
5D
330
5B
100
AcDbEntity
  8
_U+30EC_U+30A4_U+30E4_U+30FC 1
 62
   179
420
  2234388
370
    25
100
AcDbVertex
100
AcDb2dVertex
 10
78.35007272334533
 20
-139.3899435762637
 30
0.0
  0
SEQEND
  5
5E
330
5B
100
AcDbEntity
  8
_U+30EC_U+30A4_U+30E4_U+30FC 1
 62
   179
420
  2234388
370
    25
  0
POLYLINE
  5
5F
330
1F
100
AcDbEntity
  8
_U+30EC_U+30A4_U+30E4_U+30FC 1
 62
   179
420
  2234388
370
    25
100
AcDb2dPolyline
 66
     1
 10
0.0
 20
0.0
 30
0.0
  0
VERTEX
  5
60
330
5F
100
AcDbEntity
  8
_U+30EC_U+30A4_U+30E4_U+30FC 1
 62
   179
420
  2234388
370
    25
100
AcDbVertex
100
AcDb2dVertex
 10
73.34987118424444
 20
-119.8905399700274
 30
0.0
  0
VERTEX
  5
61
330
5F
100
AcDbEntity
  8
_U+30EC_U+30A4_U+30E4_U+30FC 1
 62
   179
420
  2234388
370
    25
100
AcDbVertex
100
AcDb2dVertex
 10
98.35024387976513
 20
-119.8905399700274
 30
0.0
  0
SEQEND
  5
62
330
5F
100
AcDbEntity
  8
_U+30EC_U+30A4_U+30E4_U+30FC 1
 62
   179
420
  2234388
370
    25
  0
POLYLINE
  5
63
330
1F
100
AcDbEntity
  8
_U+30EC_U+30A4_U+30E4_U+30FC 1
 62
   179
420
  2234388
370
    25
100
AcDb2dPolyline
 66
     1
 10
0.0
 20
0.0
 30
0.0
  0
VERTEX
  5
64
330
63
100
AcDbEntity
  8
_U+30EC_U+30A4_U+30E4_U+30FC 1
 62
   179
420
  2234388
370
    25
100
AcDbVertex
100
AcDb2dVertex
 10
74.35031365872102
 20
-138.3895010765138
 30
0.0
  0
VERTEX
  5
65
330
63
100
AcDbEntity
  8
_U+30EC_U+30A4_U+30E4_U+30FC 1
 62
   179
420
  2234388
370
    25
100
AcDbVertex
100
AcDb2dVertex
 10
74.35031365872102
 20
-120.8901358031108
 30
0.0
  0
SEQEND
  5
66
330
63
100
AcDbEntity
  8
_U+30EC_U+30A4_U+30E4_U+30FC 1
 62
   179
420
  2234388
370
    25
  0
POLYLINE
  5
67
330
1F
100
AcDbEntity
  8
_U+30EC_U+30A4_U+30E4_U+30FC 1
 62
   179
420
  2234388
370
    25
100
AcDb2dPolyline
 66
     1
 10
0.0
 20
0.0
 30
0.0
  0
VERTEX
  5
68
330
67
100
AcDbEntity
  8
_U+30EC_U+30A4_U+30E4_U+30FC 1
 62
   179
420
  2234388
370
    25
100
AcDbVertex
100
AcDb2dVertex
 10
77.35030052662943
 20
-136.3899566325694
 30
0.0
  0
VERTEX
  5
69
330
67
100
AcDbEntity
  8
_U+30EC_U+30A4_U+30E4_U+30FC 1
 62
   179
420
  2234388
370
    25
100
AcDbVertex
100
AcDb2dVertex
 10
78.35007272334533
 20
-136.3899566325694
 30
0.0
  0
SEQEND
  5
6A
330
67
100
AcDbEntity
  8
_U+30EC_U+30A4_U+30E4_U+30FC 1
 62
   179
420
  2234388
370
    25
  0
POLYLINE
  5
6B
330
1F
100
AcDbEntity
  8
_U+30EC_U+30A4_U+30E4_U+30FC 1
 62
   179
420
  2234388
370
    25
100
AcDb2dPolyline
 66
     1
 10
0.0
 20
0.0
 30
0.0
  0
VERTEX
  5
6C
330
6B
100
AcDbEntity
  8
_U+30EC_U+30A4_U+30E4_U+30FC 1
 62
   179
420
  2234388
370
    25
100
AcDbVertex
100
AcDb2dVertex
 10
78.35007272334533
 20
-139.3899435762637
 30
0.0
  0
VERTEX
  5
6D
330
6B
100
AcDbEntity
  8
_U+30EC_U+30A4_U+30E4_U+30FC 1
 62
   179
420
  2234388
370
    25
100
AcDbVertex
100
AcDb2dVertex
 10
78.35007272334533
 20
-136.3899566325694
 30
0.0
  0
SEQEND
  5
6E
330
6B
100
AcDbEntity
  8
_U+30EC_U+30A4_U+30E4_U+30FC 1
 62
   179
420
  2234388
370
    25
  0
POLYLINE
  5
6F
330
1F
100
AcDbEntity
  8
_U+30EC_U+30A4_U+30E4_U+30FC 1
 62
   179
420
  2234388
370
    25
100
AcDb2dPolyline
 66
     1
 10
0.0
 20
0.0
 30
0.0
  0
VERTEX
  5
70
330
6F
100
AcDbEntity
  8
_U+30EC_U+30A4_U+30E4_U+30FC 1
 62
   179
420
  2234388
370
    25
100
AcDbVertex
100
AcDb2dVertex
 10
77.35030052662943
 20
-138.3895010765138
 30
0.0
  0
VERTEX
  5
71
330
6F
100
AcDbEntity
  8
_U+30EC_U+30A4_U+30E4_U+30FC 1
 62
   179
420
  2234388
370
    25
100
AcDbVertex
100
AcDb2dVertex
 10
77.35030052662943
 20
-136.3899566325694
 30
0.0
  0
SEQEND
  5
72
330
6F
100
AcDbEntity
  8
_U+30EC_U+30A4_U+30E4_U+30FC 1
 62
   179
420
  2234388
370
    25
  0
POLYLINE
  5
73
330
1F
100
AcDbEntity
  8
_U+30EC_U+30A4_U+30E4_U+30FC 1
 62
   179
420
  2234388
370
    25
100
AcDb2dPolyline
 66
     1
 10
0.0
 20
0.0
 30
0.0
  0
VERTEX
  5
74
330
73
100
AcDbEntity
  8
_U+30EC_U+30A4_U+30E4_U+30FC 1
 62
   179
420
  2234388
370
    25
100
AcDbVertex
100
AcDb2dVertex
 10
74.35031365872102
 20
-138.3895010765138
 30
0.0
  0
VERTEX
  5
75
330
73
100
AcDbEntity
  8
_U+30EC_U+30A4_U+30E4_U+30FC 1
 62
   179
420
  2234388
370
    25
100
AcDbVertex
100
AcDb2dVertex
 10
77.35030052662943
 20
-138.3895010765138
 30
0.0
  0
SEQEND
  5
76
330
73
100
AcDbEntity
  8
_U+30EC_U+30A4_U+30E4_U+30FC 1
 62
   179
420
  2234388
370
    25
  0
SPLINE
  5
77
330
1F
100
AcDbEntity
  8
_U+30EC_U+30A4_U+30E4_U+30FC 1
 62
   179
420
  2234388
370
     9
100
AcDbSpline
210
0.0
220
0.0
230
1.0
 70
    11
 71
     3
 72
    17
 73
    13
 74
     0
 42
0.0000000001
 43
0.0000000001
 12
1.0
 22
0.0
 32
0.0
 13
1.0
 23
0.0
 33
0.0
 40
0.0
 40
0.0
 40
0.0
 40
0.0
 40
1.0
 40
1.0
 40
1.0
 40
2.0
 40
2.0
 40
2.0
 40
3.0
 40
3.0
 40
3.0
 40
4.0
 40
4.0
 40
4.0
 40
4.0
 10
73.45013062613106
 20
-143.161631908654
 30
0.0
 10
73.45013062613106
 20
-143.1065280197791
 30
0.0
 10
73.40532784949629
 20
-143.0617252420124
 30
0.0
 10
73.34987118424444
 20
-143.0617252420124
 30
0.0
 10
73.29473201898449
 20
-143.0617252420124
 30
0.0
 10
73.24996452012661
 20
-143.1065280197791
 30
0.0
 10
73.24996452012661
 20
-143.161631908654
 30
0.0
 10
73.24996452012661
 20
-143.2167710753071
 30
0.0
 10
73.29473201898449
 20
-143.2615385752957
 30
0.0
 10
73.34987118424444
 20
-143.2615385752957
 30
0.0
 10
73.40532784949629
 20
-143.2615385752957
 30
0.0
 10
73.45013062613106
 20
-143.2167710753071
 30
0.0
 10
73.45013062613106
 20
-143.161631908654
 30
0.0
  0
SPLINE
  5
78
330
1F
100
AcDbEntity
  8
_U+30EC_U+30A4_U+30E4_U+30FC 1
 62
   179
420
  2234388
370
     9
100
AcDbSpline
210
0.0
220
0.0
230
1.0
 70
    11
 71
     3
 72
    17
 73
    13
 74
     0
 42
0.0000000001
 43
0.0000000001
 12
1.0
 22
0.0
 32
0.0
 13
1.0
 23
0.0
 33
0.0
 40
0.0
 40
0.0
 40
0.0
 40
0.0
 40
1.0
 40
1.0
 40
1.0
 40
2.0
 40
2.0
 40
2.0
 40
3.0
 40
3.0
 40
3.0
 40
4.0
 40
4.0
 40
4.0
 40
4.0
 10
78.44997938746317
 20
-143.161631908654
 30
0.0
 10
78.44997938746317
 20
-143.1065280197791
 30
0.0
 10
78.40521386928766
 20
-143.0617252420124
 30
0.0
 10
78.35007272334533
 20
-143.0617252420124
 30
0.0
 10
78.29496883586226
 20
-143.0617252420124
 30
0.0
 10
78.25016605922751
 20
-143.1065280197791
 30
0.0
 10
78.25016605922751
 20
-143.161631908654
 30
0.0
 10
78.25016605922751
 20
-143.2167710753071
 30
0.0
 10
78.29496883586226
 20
-143.2615385752957
 30
0.0
 10
78.35007272334533
 20
-143.2615385752957
 30
0.0
 10
78.40521386928766
 20
-143.2615385752957
 30
0.0
 10
78.44997938746317
 20
-143.2167710753071
 30
0.0
 10
78.44997938746317
 20
-143.161631908654
 30
0.0
  0
SPLINE
  5
79
330
1F
100
AcDbEntity
  8
_U+30EC_U+30A4_U+30E4_U+30FC 1
 62
   179
420
  2234388
370
     9
100
AcDbSpline
210
0.0
220
0.0
230
1.0
 70
    11
 71
     3
 72
    17
 73
    13
 74
     0
 42
0.0000000001
 43
0.0000000001
 12
1.0
 22
0.0
 32
0.0
 13
1.0
 23
0.0
 33
0.0
 40
0.0
 40
0.0
 40
0.0
 40
0.0
 40
1.0
 40
1.0
 40
1.0
 40
2.0
 40
2.0
 40
2.0
 40
3.0
 40
3.0
 40
3.0
 40
4.0
 40
4.0
 40
4.0
 40
4.0
 10
102.4502623862761
 20
-139.3899435762637
 30
0.0
 10
102.4502623862761
 20
-139.3348044096107
 30
0.0
 10
102.4054596096413
 20
-139.2900369096221
 30
0.0
 10
102.3500055299681
 20
-139.2900369096221
 30
0.0
 10
102.2948637791295
 20
-139.2900369096221
 30
0.0
 10
102.2500962802716
 20
-139.3348044096107
 30
0.0
 10
102.2500962802716
 20
-139.3899435762637
 30
0.0
 10
102.2500962802716
 20
-139.4450474651387
 30
0.0
 10
102.2948637791295
 20
-139.4898502429054
 30
0.0
 10
102.3500055299681
 20
-139.4898502429054
 30
0.0
 10
102.4054596096413
 20
-139.4898502429054
 30
0.0
 10
102.4502623862761
 20
-139.4450474651387
 30
0.0
 10
102.4502623862761
 20
-139.3899435762637
 30
0.0
  0
SPLINE
  5
7A
330
1F
100
AcDbEntity
  8
_U+30EC_U+30A4_U+30E4_U+30FC 1
 62
   179
420
  2234388
370
     9
100
AcDbSpline
210
0.0
220
0.0
230
1.0
 70
    11
 71
     3
 72
    17
 73
    13
 74
     0
 42
0.0000000001
 43
0.0000000001
 12
1.0
 22
0.0
 32
0.0
 13
1.0
 23
0.0
 33
0.0
 40
0.0
 40
0.0
 40
0.0
 40
0.0
 40
1.0
 40
1.0
 40
1.0
 40
2.0
 40
2.0
 40
2.0
 40
3.0
 40
3.0
 40
3.0
 40
4.0
 40
4.0
 40
4.0
 40
4.0
 10
102.4502623862761
 20
-136.3899566325694
 30
0.0
 10
102.4502623862761
 20
-136.3348174659163
 30
0.0
 10
102.4054596096413
 20
-136.2900499659278
 30
0.0
 10
102.3500055299681
 20
-136.2900499659278
 30
0.0
 10
102.2948637791295
 20
-136.2900499659278
 30
0.0
 10
102.2500962802716
 20
-136.3348174659163
 30
0.0
 10
102.2500962802716
 20
-136.3899566325694
 30
0.0
 10
102.2500962802716
 20
-136.4450605214443
 30
0.0
 10
102.2948637791295
 20
-136.489863299211
 30
0.0
 10
102.3500055299681
 20
-136.489863299211
 30
0.0
 10
102.4054596096413
 20
-136.489863299211
 30
0.0
 10
102.4502623862761
 20
-136.4450605214443
 30
0.0
 10
102.4502623862761
 20
-136.3899566325694
 30
0.0
  0
SPLINE
  5
7B
330
1F
100
AcDbEntity
  8
_U+30EC_U+30A4_U+30E4_U+30FC 1
 62
   179
420
  2234388
370
     9
100
AcDbSpline
210
0.0
220
0.0
230
1.0
 70
    11
 71
     3
 72
    17
 73
    13
 74
     0
 42
0.0000000001
 43
0.0000000001
 12
1.0
 22
0.0
 32
0.0
 13
1.0
 23
0.0
 33
0.0
 40
0.0
 40
0.0
 40
0.0
 40
0.0
 40
1.0
 40
1.0
 40
1.0
 40
2.0
 40
2.0
 40
2.0
 40
3.0
 40
3.0
 40
3.0
 40
4.0
 40
4.0
 40
4.0
 40
4.0
 10
102.4502623862761
 20
-120.8901358031108
 30
0.0
 10
102.4502623862761
 20
-120.834996636458
 30
0.0
 10
102.4054596096413
 20
-120.7902291364691
 30
0.0
 10
102.3500055299681
 20
-120.7902291364691
 30
0.0
 10
102.2948637791295
 20
-120.7902291364691
 30
0.0
 10
102.2500962802716
 20
-120.834996636458
 30
0.0
 10
102.2500962802716
 20
-120.8901358031108
 30
0.0
 10
102.2500962802716
 20
-120.945239691986
 30
0.0
 10
102.2948637791295
 20
-120.9900424697524
 30
0.0
 10
102.3500055299681
 20
-120.9900424697524
 30
0.0
 10
102.4054596096413
 20
-120.9900424697524
 30
0.0
 10
102.4502623862761
 20
-120.945239691986
 30
0.0
 10
102.4502623862761
 20
-120.8901358031108
 30
0.0
  0
SPLINE
  5
7C
330
1F
100
AcDbEntity
  8
_U+30EC_U+30A4_U+30E4_U+30FC 1
 62
   179
420
  2234388
370
     9
100
AcDbSpline
210
0.0
220
0.0
230
1.0
 70
    11
 71
     3
 72
    17
 73
    13
 74
     0
 42
0.0000000001
 43
0.0000000001
 12
1.0
 22
0.0
 32
0.0
 13
1.0
 23
0.0
 33
0.0
 40
0.0
 40
0.0
 40
0.0
 40
0.0
 40
1.0
 40
1.0
 40
1.0
 40
2.0
 40
2.0
 40
2.0
 40
3.0
 40
3.0
 40
3.0
 40
4.0
 40
4.0
 40
4.0
 40
4.0
 10
102.4502623862761
 20
-119.8905399700274
 30
0.0
 10
102.4502623862761
 20
-119.8350480255969
 30
0.0
 10
102.4054596096413
 20
-119.790280525608
 30
0.0
 10
102.3500055299681
 20
-119.790280525608
 30
0.0
 10
102.2948637791295
 20
-119.790280525608
 30
0.0
 10
102.2500962802716
 20
-119.8350480255969
 30
0.0
 10
102.2500962802716
 20
-119.8905399700274
 30
0.0
 10
102.2500962802716
 20
-119.9456438589023
 30
0.0
 10
102.2948637791295
 20
-119.9904466366691
 30
0.0
 10
102.3500055299681
 20
-119.9904466366691
 30
0.0
 10
102.4054596096413
 20
-119.9904466366691
 30
0.0
 10
102.4502623862761
 20
-119.9456438589023
 30
0.0
 10
102.4502623862761
 20
-119.8905399700274
 30
0.0
  0
SPLINE
  5
7D
330
1F
100
AcDbEntity
  8
_U+30EC_U+30A4_U+30E4_U+30FC 1
 62
   179
420
  2234388
370
     9
100
AcDbSpline
210
0.0
220
0.0
230
1.0
 70
    11
 71
     3
 72
    17
 73
    13
 74
     0
 42
0.0000000001
 43
0.0000000001
 12
1.0
 22
0.0
 32
0.0
 13
1.0
 23
0.0
 33
0.0
 40
0.0
 40
0.0
 40
0.0
 40
0.0
 40
1.0
 40
1.0
 40
1.0
 40
2.0
 40
2.0
 40
2.0
 40
3.0
 40
3.0
 40
3.0
 40
4.0
 40
4.0
 40
4.0
 40
4.0
 10
98.45015054388297
 20
-115.8902516376942
 30
0.0
 10
98.45015054388297
 20
-115.835147748819
 30
0.0
 10
98.4053477672482
 20
-115.7903449710523
 30
0.0
 10
98.35024387976513
 20
-115.7903449710523
 30
0.0
 10
98.29478721451328
 20
-115.7903449710523
 30
0.0
 10
98.24998443787852
 20
-115.835147748819
 30
0.0
 10
98.24998443787852
 20
-115.8902516376942
 30
0.0
 10
98.24998443787852
 20
-115.9455671932359
 30
0.0
 10
98.29478721451328
 20
-115.9903346932247
 30
0.0
 10
98.35024387976513
 20
-115.9903346932247
 30
0.0
 10
98.4053477672482
 20
-115.9903346932247
 30
0.0
 10
98.45015054388297
 20
-115.9455671932359
 30
0.0
 10
98.45015054388297
 20
-115.8902516376942
 30
0.0
  0
SPLINE
  5
7E
330
1F
100
AcDbEntity
  8
_U+30EC_U+30A4_U+30E4_U+30FC 1
 62
   179
420
  2234388
370
     9
100
AcDbSpline
210
0.0
220
0.0
230
1.0
 70
    11
 71
     3
 72
    17
 73
    13
 74
     0
 42
0.0000000001
 43
0.0000000001
 12
1.0
 22
0.0
 32
0.0
 13
1.0
 23
0.0
 33
0.0
 40
0.0
 40
0.0
 40
0.0
 40
0.0
 40
1.0
 40
1.0
 40
1.0
 40
2.0
 40
2.0
 40
2.0
 40
3.0
 40
3.0
 40
3.0
 40
4.0
 40
4.0
 40
4.0
 40
4.0
 10
73.45013062613106
 20
-115.8902516376942
 30
0.0
 10
73.45013062613106
 20
-115.835147748819
 30
0.0
 10
73.40532784949629
 20
-115.7903449710523
 30
0.0
 10
73.34987118424444
 20
-115.7903449710523
 30
0.0
 10
73.29473201898449
 20
-115.7903449710523
 30
0.0
 10
73.24996452012661
 20
-115.835147748819
 30
0.0
 10
73.24996452012661
 20
-115.8902516376942
 30
0.0
 10
73.24996452012661
 20
-115.9455671932359
 30
0.0
 10
73.29473201898449
 20
-115.9903346932247
 30
0.0
 10
73.34987118424444
 20
-115.9903346932247
 30
0.0
 10
73.40532784949629
 20
-115.9903346932247
 30
0.0
 10
73.45013062613106
 20
-115.9455671932359
 30
0.0
 10
73.45013062613106
 20
-115.8902516376942
 30
0.0
  0
POLYLINE
  5
7F
330
1F
100
AcDbEntity
  8
_U+30EC_U+30A4_U+30E4_U+30FC 1
 62
   179
420
  2234388
370
     9
100
AcDb2dPolyline
 66
     1
 10
0.0
 20
0.0
 30
0.0
  0
VERTEX
  5
80
330
7F
100
AcDbEntity
  8
_U+30EC_U+30A4_U+30E4_U+30FC 1
 62
   179
420
  2234388
370
     9
100
AcDbVertex
100
AcDb2dVertex
 10
73.34987118424444
 20
-115.8902516376942
 30
0.0
  0
VERTEX
  5
81
330
7F
100
AcDbEntity
  8
_U+30EC_U+30A4_U+30E4_U+30FC 1
 62
   179
420
  2234388
370
     9
100
AcDbVertex
100
AcDb2dVertex
 10
98.35024387976513
 20
-115.8902516376942
 30
0.0
  0
SEQEND
  5
82
330
7F
100
AcDbEntity
  8
_U+30EC_U+30A4_U+30E4_U+30FC 1
 62
   179
420
  2234388
370
     9
  0
POLYLINE
  5
83
330
1F
100
AcDbEntity
  8
_U+30EC_U+30A4_U+30E4_U+30FC 1
 62
   179
420
  2234388
370
     9
100
AcDb2dPolyline
 66
     1
 10
0.0
 20
0.0
 30
0.0
  0
VERTEX
  5
84
330
83
100
AcDbEntity
  8
_U+30EC_U+30A4_U+30E4_U+30FC 1
 62
   179
420
  2234388
370
     9
100
AcDbVertex
100
AcDb2dVertex
 10
73.34987118424444
 20
-117.3501166373291
 30
0.0
  0
VERTEX
  5
85
330
83
100
AcDbEntity
  8
_U+30EC_U+30A4_U+30E4_U+30FC 1
 62
   179
420
  2234388
370
     9
100
AcDbVertex
100
AcDb2dVertex
 10
73.34987118424444
 20
-114.8903030268331
 30
0.0
  0
SEQEND
  5
86
330
83
100
AcDbEntity
  8
_U+30EC_U+30A4_U+30E4_U+30FC 1
 62
   179
420
  2234388
370
     9
  0
POLYLINE
  5
87
330
1F
100
AcDbEntity
  8
_U+30EC_U+30A4_U+30E4_U+30FC 1
 62
   179
420
  2234388
370
     9
100
AcDb2dPolyline
 66
     1
 10
0.0
 20
0.0
 30
0.0
  0
VERTEX
  5
88
330
87
100
AcDbEntity
  8
_U+30EC_U+30A4_U+30E4_U+30FC 1
 62
   179
420
  2234388
370
     9
100
AcDbVertex
100
AcDb2dVertex
 10
98.35024387976513
 20
-117.3501166373291
 30
0.0
  0
VERTEX
  5
89
330
87
100
AcDbEntity
  8
_U+30EC_U+30A4_U+30E4_U+30FC 1
 62
   179
420
  2234388
370
     9
100
AcDbVertex
100
AcDb2dVertex
 10
98.35024387976513
 20
-114.8903030268331
 30
0.0
  0
SEQEND
  5
8A
330
87
100
AcDbEntity
  8
_U+30EC_U+30A4_U+30E4_U+30FC 1
 62
   179
420
  2234388
370
     9
  0
INSERT
  5
8C
330
1F
100
AcDbEntity
  8
_U+30EC_U+30A4_U+30E4_U+30FC 1
100
AcDbBlockReference
  2
block 2
 10
0.0
 20
0.0
 30
0.0
  0
POLYLINE
  5
93
330
1F
100
AcDbEntity
  8
_U+30EC_U+30A4_U+30E4_U+30FC 1
 62
   179
420
  2234388
370
     9
100
AcDb2dPolyline
 66
     1
 10
0.0
 20
0.0
 30
0.0
  0
VERTEX
  5
94
330
93
100
AcDbEntity
  8
_U+30EC_U+30A4_U+30E4_U+30FC 1
 62
   179
420
  2234388
370
     9
100
AcDbVertex
100
AcDb2dVertex
 10
73.34987118424444
 20
-143.161631908654
 30
0.0
  0
VERTEX
  5
95
330
93
100
AcDbEntity
  8
_U+30EC_U+30A4_U+30E4_U+30FC 1
 62
   179
420
  2234388
370
     9
100
AcDbVertex
100
AcDb2dVertex
 10
78.35007272334533
 20
-143.161631908654
 30
0.0
  0
SEQEND
  5
96
330
93
100
AcDbEntity
  8
_U+30EC_U+30A4_U+30E4_U+30FC 1
 62
   179
420
  2234388
370
     9
  0
POLYLINE
  5
97
330
1F
100
AcDbEntity
  8
_U+30EC_U+30A4_U+30E4_U+30FC 1
 62
   179
420
  2234388
370
     9
100
AcDb2dPolyline
 66
     1
 10
0.0
 20
0.0
 30
0.0
  0
VERTEX
  5
98
330
97
100
AcDbEntity
  8
_U+30EC_U+30A4_U+30E4_U+30FC 1
 62
   179
420
  2234388
370
     9
100
AcDbVertex
100
AcDb2dVertex
 10
73.34987118424444
 20
-141.9296613534063
 30
0.0
  0
VERTEX
  5
99
330
97
100
AcDbEntity
  8
_U+30EC_U+30A4_U+30E4_U+30FC 1
 62
   179
420
  2234388
370
     9
100
AcDbVertex
100
AcDb2dVertex
 10
73.34987118424444
 20
-144.3894749639025
 30
0.0
  0
SEQEND
  5
9A
330
97
100
AcDbEntity
  8
_U+30EC_U+30A4_U+30E4_U+30FC 1
 62
   179
420
  2234388
370
     9
  0
POLYLINE
  5
9B
330
1F
100
AcDbEntity
  8
_U+30EC_U+30A4_U+30E4_U+30FC 1
 62
   179
420
  2234388
370
     9
100
AcDb2dPolyline
 66
     1
 10
0.0
 20
0.0
 30
0.0
  0
VERTEX
  5
9C
330
9B
100
AcDbEntity
  8
_U+30EC_U+30A4_U+30E4_U+30FC 1
 62
   179
420
  2234388
370
     9
100
AcDbVertex
100
AcDb2dVertex
 10
78.35007272334533
 20
-141.9296613534063
 30
0.0
  0
VERTEX
  5
9D
330
9B
100
AcDbEntity
  8
_U+30EC_U+30A4_U+30E4_U+30FC 1
 62
   179
420
  2234388
370
     9
100
AcDbVertex
100
AcDb2dVertex
 10
78.35007272334533
 20
-144.3894749639025
 30
0.0
  0
SEQEND
  5
9E
330
9B
100
AcDbEntity
  8
_U+30EC_U+30A4_U+30E4_U+30FC 1
 62
   179
420
  2234388
370
     9
  0
INSERT
  5
A0
330
1F
100
AcDbEntity
  8
_U+30EC_U+30A4_U+30E4_U+30FC 1
100
AcDbBlockReference
  2
block 3
 10
0.0
 20
0.0
 30
0.0
  0
POLYLINE
  5
A5
330
1F
100
AcDbEntity
  8
_U+30EC_U+30A4_U+30E4_U+30FC 1
 62
   179
420
  2234388
370
     9
100
AcDb2dPolyline
 66
     1
 10
0.0
 20
0.0
 30
0.0
  0
VERTEX
  5
A6
330
A5
100
AcDbEntity
  8
_U+30EC_U+30A4_U+30E4_U+30FC 1
 62
   179
420
  2234388
370
     9
100
AcDbVertex
100
AcDb2dVertex
 10
102.3500055299681
 20
-119.8905399700274
 30
0.0
  0
VERTEX
  5
A7
330
A5
100
AcDbEntity
  8
_U+30EC_U+30A4_U+30E4_U+30FC 1
 62
   179
420
  2234388
370
     9
100
AcDbVertex
100
AcDb2dVertex
 10
102.3500055299681
 20
-116.1200510820811
 30
0.0
  0
SEQEND
  5
A8
330
A5
100
AcDbEntity
  8
_U+30EC_U+30A4_U+30E4_U+30FC 1
 62
   179
420
  2234388
370
     9
  0
POLYLINE
  5
A9
330
1F
100
AcDbEntity
  8
_U+30EC_U+30A4_U+30E4_U+30FC 1
 62
   179
420
  2234388
370
     9
100
AcDb2dPolyline
 66
     1
 10
0.0
 20
0.0
 30
0.0
  0
VERTEX
  5
AA
330
A9
100
AcDbEntity
  8
_U+30EC_U+30A4_U+30E4_U+30FC 1
 62
   179
420
  2234388
370
     9
100
AcDbVertex
100
AcDb2dVertex
 10
102.3500055299681
 20
-119.8905399700274
 30
0.0
  0
VERTEX
  5
AB
330
A9
100
AcDbEntity
  8
_U+30EC_U+30A4_U+30E4_U+30FC 1
 62
   179
420
  2234388
370
     9
100
AcDbVertex
100
AcDb2dVertex
 10
102.3500055299681
 20
-120.8901358031108
 30
0.0
  0
SEQEND
  5
AC
330
A9
100
AcDbEntity
  8
_U+30EC_U+30A4_U+30E4_U+30FC 1
 62
   179
420
  2234388
370
     9
  0
POLYLINE
  5
AD
330
1F
100
AcDbEntity
  8
_U+30EC_U+30A4_U+30E4_U+30FC 1
 62
   179
420
  2234388
370
     9
100
AcDb2dPolyline
 66
     1
 10
0.0
 20
0.0
 30
0.0
  0
VERTEX
  5
AE
330
AD
100
AcDbEntity
  8
_U+30EC_U+30A4_U+30E4_U+30FC 1
 62
   179
420
  2234388
370
     9
100
AcDbVertex
100
AcDb2dVertex
 10
100.8899615927493
 20
-119.8905399700274
 30
0.0
  0
VERTEX
  5
AF
330
AD
100
AcDbEntity
  8
_U+30EC_U+30A4_U+30E4_U+30FC 1
 62
   179
420
  2234388
370
     9
100
AcDbVertex
100
AcDb2dVertex
 10
103.3500926410972
 20
-119.8905399700274
 30
0.0
  0
SEQEND
  5
B0
330
AD
100
AcDbEntity
  8
_U+30EC_U+30A4_U+30E4_U+30FC 1
 62
   179
420
  2234388
370
     9
  0
POLYLINE
  5
B1
330
1F
100
AcDbEntity
  8
_U+30EC_U+30A4_U+30E4_U+30FC 1
 62
   179
420
  2234388
370
     9
100
AcDb2dPolyline
 66
     1
 10
0.0
 20
0.0
 30
0.0
  0
VERTEX
  5
B2
330
B1
100
AcDbEntity
  8
_U+30EC_U+30A4_U+30E4_U+30FC 1
 62
   179
420
  2234388
370
     9
100
AcDbVertex
100
AcDb2dVertex
 10
100.8899615927493
 20
-120.8901358031108
 30
0.0
  0
VERTEX
  5
B3
330
B1
100
AcDbEntity
  8
_U+30EC_U+30A4_U+30E4_U+30FC 1
 62
   179
420
  2234388
370
     9
100
AcDbVertex
100
AcDb2dVertex
 10
103.3500926410972
 20
-120.8901358031108
 30
0.0
  0
SEQEND
  5
B4
330
B1
100
AcDbEntity
  8
_U+30EC_U+30A4_U+30E4_U+30FC 1
 62
   179
420
  2234388
370
     9
  0
INSERT
  5
B6
330
1F
100
AcDbEntity
  8
_U+30EC_U+30A4_U+30E4_U+30FC 1
100
AcDbBlockReference
  2
block 4
 10
0.0
 20
0.0
 30
0.0
  0
POLYLINE
  5
BB
330
1F
100
AcDbEntity
  8
_U+30EC_U+30A4_U+30E4_U+30FC 1
 62
   179
420
  2234388
370
     9
100
AcDb2dPolyline
 66
     1
 10
0.0
 20
0.0
 30
0.0
  0
VERTEX
  5
BC
330
BB
100
AcDbEntity
  8
_U+30EC_U+30A4_U+30E4_U+30FC 1
 62
   179
420
  2234388
370
     9
100
AcDbVertex
100
AcDb2dVertex
 10
102.3500055299681
 20
-139.3899435762637
 30
0.0
  0
VERTEX
  5
BD
330
BB
100
AcDbEntity
  8
_U+30EC_U+30A4_U+30E4_U+30FC 1
 62
   179
420
  2234388
370
     9
100
AcDbVertex
100
AcDb2dVertex
 10
102.3500055299681
 20
-136.3899566325694
 30
0.0
  0
SEQEND
  5
BE
330
BB
100
AcDbEntity
  8
_U+30EC_U+30A4_U+30E4_U+30FC 1
 62
   179
420
  2234388
370
     9
  0
POLYLINE
  5
BF
330
1F
100
AcDbEntity
  8
_U+30EC_U+30A4_U+30E4_U+30FC 1
 62
   179
420
  2234388
370
     9
100
AcDb2dPolyline
 66
     1
 10
0.0
 20
0.0
 30
0.0
  0
VERTEX
  5
C0
330
BF
100
AcDbEntity
  8
_U+30EC_U+30A4_U+30E4_U+30FC 1
 62
   179
420
  2234388
370
     9
100
AcDbVertex
100
AcDb2dVertex
 10
80.8901432140983
 20
-139.3899435762637
 30
0.0
  0
VERTEX
  5
C1
330
BF
100
AcDbEntity
  8
_U+30EC_U+30A4_U+30E4_U+30FC 1
 62
   179
420
  2234388
370
     9
100
AcDbVertex
100
AcDb2dVertex
 10
103.3500926410972
 20
-139.3899435762637
 30
0.0
  0
SEQEND
  5
C2
330
BF
100
AcDbEntity
  8
_U+30EC_U+30A4_U+30E4_U+30FC 1
 62
   179
420
  2234388
370
     9
  0
INSERT
  5
C4
330
1F
100
AcDbEntity
  8
_U+30EC_U+30A4_U+30E4_U+30FC 1
100
AcDbBlockReference
  2
block 5
 10
0.0
 20
0.0
 30
0.0
  0
POLYLINE
  5
C9
330
1F
100
AcDbEntity
  8
_U+30EC_U+30A4_U+30E4_U+30FC 1
 62
   179
420
  2234388
370
     9
100
AcDb2dPolyline
 66
     1
 10
0.0
 20
0.0
 30
0.0
  0
VERTEX
  5
CA
330
C9
100
AcDbEntity
  8
_U+30EC_U+30A4_U+30E4_U+30FC 1
 62
   179
420
  2234388
370
     9
100
AcDbVertex
100
AcDb2dVertex
 10
102.3500055299681
 20
-136.3899566325694
 30
0.0
  0
VERTEX
  5
CB
330
C9
100
AcDbEntity
  8
_U+30EC_U+30A4_U+30E4_U+30FC 1
 62
   179
420
  2234388
370
     9
100
AcDbVertex
100
AcDb2dVertex
 10
102.3500055299681
 20
-120.8901358031108
 30
0.0
  0
SEQEND
  5
CC
330
C9
100
AcDbEntity
  8
_U+30EC_U+30A4_U+30E4_U+30FC 1
 62
   179
420
  2234388
370
     9
  0
POLYLINE
  5
CD
330
1F
100
AcDbEntity
  8
_U+30EC_U+30A4_U+30E4_U+30FC 1
 62
   179
420
  2234388
370
     9
100
AcDb2dPolyline
 66
     1
 10
0.0
 20
0.0
 30
0.0
  0
VERTEX
  5
CE
330
CD
100
AcDbEntity
  8
_U+30EC_U+30A4_U+30E4_U+30FC 1
 62
   179
420
  2234388
370
     9
100
AcDbVertex
100
AcDb2dVertex
 10
80.8901432140983
 20
-136.3899566325694
 30
0.0
  0
VERTEX
  5
CF
330
CD
100
AcDbEntity
  8
_U+30EC_U+30A4_U+30E4_U+30FC 1
 62
   179
420
  2234388
370
     9
100
AcDbVertex
100
AcDb2dVertex
 10
103.3500926410972
 20
-136.3899566325694
 30
0.0
  0
SEQEND
  5
D0
330
CD
100
AcDbEntity
  8
_U+30EC_U+30A4_U+30E4_U+30FC 1
 62
   179
420
  2234388
370
     9
  0
INSERT
  5
D2
330
1F
100
AcDbEntity
  8
_U+30EC_U+30A4_U+30E4_U+30FC 1
100
AcDbBlockReference
  2
block 6
 10
0.0
 20
0.0
 30
0.0
  0
ENDSEC
  0
SECTION
  2
OBJECTS
  0
DICTIONARY
  5
C
330
0
100
AcDbDictionary
281
     1
  3
ACAD_GROUP
350
D
  3
ACAD_LAYOUT
350
1A
  3
ACAD_MATERIAL
350
3B
  3
ACAD_MLEADERSTYLE
350
E4
  3
ACAD_MLINESTYLE
350
17
  3
ACAD_PLOTSETTINGS
350
19
  3
ACAD_PLOTSTYLENAME
350
E
  3
ACAD_TABLESTYLE
350
E3
  3
ACAD_VISUALSTYLE
350
2A
  0
SUN
  5
3F
330
29
100
AcDbSun
 90
        1
290
     0
 63
     7
421
 16777215
 40
1.0
291
     1
 91
  2455826
 92
 54000000
292
     0
 70
     2
 71
   256
280
     1
  0
DICTIONARY
  5
D
102
{ACAD_REACTORS
330
C
102
}
330
C
100
AcDbDictionary
281
     1
  0
DICTIONARY
  5
1A
102
{ACAD_REACTORS
330
C
102
}
330
C
100
AcDbDictionary
281
     1
  3
Layout1
350
1E
  3
Layout2
350
26
  3
Model
350
22
  0
DICTIONARY
  5
3B
102
{ACAD_REACTORS
330
C
102
}
330
C
100
AcDbDictionary
281
     1
  3
ByBlock
350
3D
  3
ByLayer
350
3C
  3
Global
350
3E
  0
DICTIONARY
  5
E4
102
{ACAD_REACTORS
330
C
102
}
330
C
100
AcDbDictionary
281
     1
  0
DICTIONARY
  5
17
102
{ACAD_REACTORS
330
C
102
}
330
C
100
AcDbDictionary
281
     1
  3
Standard
350
18
  0
DICTIONARY
  5
19
102
{ACAD_REACTORS
330
C
102
}
330
C
100
AcDbDictionary
281
     1
  0
ACDBDICTIONARYWDFLT
  5
E
102
{ACAD_REACTORS
330
C
102
}
330
C
100
AcDbDictionary
281
     1
  3
Normal
350
F
100
AcDbDictionaryWithDefault
340
F
  0
DICTIONARY
  5
E3
102
{ACAD_REACTORS
330
C
102
}
330
C
100
AcDbDictionary
281
     1
  0
DICTIONARY
  5
2A
102
{ACAD_REACTORS
330
C
102
}
330
C
100
AcDbDictionary
281
     1
  3
2dWireframe
350
2F
  3
3D Hidden
350
31
  3
3dWireframe
350
30
  3
Basic
350
32
  3
Brighten
350
36
  3
ColorChange
350
3A
  3
Conceptual
350
34
  3
Dim
350
35
  3
Facepattern
350
39
  3
Flat
350
2B
  3
FlatWithEdges
350
2C
  3
Gouraud
350
2D
  3
GouraudWithEdges
350
2E
  3
Linepattern
350
38
  3
Realistic
350
33
  3
Thicken
350
37
  0
LAYOUT
  5
1E
102
{ACAD_REACTORS
330
1A
102
}
330
1A
100
AcDbPlotSettings
  1

  2
none_device
  4

  6

 40
0.0
 41
0.0
 42
0.0
 43
0.0
 44
0.0
 45
0.0
 46
0.0
 47
0.0
 48
0.0
 49
0.0
140
0.0
141
0.0
142
1.0
143
1.0
 70
   688
 72
     0
 73
     0
 74
     5
  7

 75
    16
 76
     0
 77
     2
 78
   300
147
1.0
148
0.0
149
0.0
100
AcDbLayout
  1
Layout1
 70
     1
 71
     1
 10
0.0
 20
0.0
 11
12.0
 21
9.0
 12
0.0
 22
0.0
 32
0.0
 14
1.000000000000000E+20
 24
1.000000000000000E+20
 34
1.000000000000000E+20
 15
-1.000000000000000E+20
 25
-1.000000000000000E+20
 35
-1.000000000000000E+20
146
0.0
 13
0.0
 23
0.0
 33
0.0
 16
1.0
 26
0.0
 36
0.0
 17
0.0
 27
1.0
 37
0.0
 76
     0
330
1B
  0
LAYOUT
  5
26
102
{ACAD_REACTORS
330
1A
102
}
330
1A
100
AcDbPlotSettings
  1

  2
none_device
  4

  6

 40
0.0
 41
0.0
 42
0.0
 43
0.0
 44
0.0
 45
0.0
 46
0.0
 47
0.0
 48
0.0
 49
0.0
140
0.0
141
0.0
142
1.0
143
1.0
 70
   688
 72
     0
 73
     0
 74
     5
  7

 75
    16
 76
     0
 77
     2
 78
   300
147
1.0
148
0.0
149
0.0
100
AcDbLayout
  1
Layout2
 70
     1
 71
     2
 10
0.0
 20
0.0
 11
0.0
 21
0.0
 12
0.0
 22
0.0
 32
0.0
 14
0.0
 24
0.0
 34
0.0
 15
0.0
 25
0.0
 35
0.0
146
0.0
 13
0.0
 23
0.0
 33
0.0
 16
1.0
 26
0.0
 36
0.0
 17
0.0
 27
1.0
 37
0.0
 76
     0
330
23
  0
LAYOUT
  5
22
102
{ACAD_REACTORS
330
1A
102
}
330
1A
100
AcDbPlotSettings
  1

  2
none_device
  4

  6

 40
0.0
 41
0.0
 42
0.0
 43
0.0
 44
0.0
 45
0.0
 46
0.0
 47
0.0
 48
0.0
 49
0.0
140
0.0
141
0.0
142
1.0
143
1.0
 70
  1712
 72
     0
 73
     0
 74
     0
  7

 75
     0
 76
     0
 77
     2
 78
   300
147
1.0
148
0.0
149
0.0
100
AcDbLayout
  1
Model
 70
     1
 71
     0
 10
0.0
 20
0.0
 11
12.0
 21
9.0
 12
0.0
 22
0.0
 32
0.0
 14
1.000000000000000E+20
 24
1.000000000000000E+20
 34
1.000000000000000E+20
 15
-1.000000000000000E+20
 25
-1.000000000000000E+20
 35
-1.000000000000000E+20
146
0.0
 13
0.0
 23
0.0
 33
0.0
 16
1.0
 26
0.0
 36
0.0
 17
0.0
 27
1.0
 37
0.0
 76
     0
330
1F
331
29
  0
MATERIAL
  5
3D
102
{ACAD_REACTORS
330
3B
102
}
330
3B
100
AcDbMaterial
  1
ByBlock
 72
     1
 94
      127
  0
MATERIAL
  5
3C
102
{ACAD_REACTORS
330
3B
102
}
330
3B
100
AcDbMaterial
  1
ByLayer
 72
     1
 94
      127
  0
MATERIAL
  5
3E
102
{ACAD_REACTORS
330
3B
102
}
330
3B
100
AcDbMaterial
  1
Global
 72
     1
 94
      127
  0
MLINESTYLE
  5
18
102
{ACAD_REACTORS
330
17
102
}
330
17
100
AcDbMlineStyle
  2
Standard
 70
     0
  3

 62
   256
 51
90.0
 52
90.0
 71
     2
 49
0.5
 62
   256
  6
BYLAYER
 49
-0.5
 62
   256
  6
BYLAYER
  0
ACDBPLACEHOLDER
  5
F
102
{ACAD_REACTORS
330
E
102
}
330
E
  0
VISUALSTYLE
  5
2F
102
{ACAD_REACTORS
330
2A
102
}
330
2A
100
AcDbVisualStyle
  2
2dWireframe
 70
     4
177
     2
291
     0
 71
     0
176
     1
 72
     2
176
     1
 73
     0
176
     1
 90
        0
176
     1
 40
-0.6
176
     1
 41
-30.0
176
     1
 62
     5
 63
     7
421
 16777215
176
     1
 74
     1
176
     1
 91
        4
176
     1
 64
     7
176
     1
 65
   257
176
     1
 75
     1
176
     1
175
     1
176
     1
 42
1.0
176
     1
 92
        0
176
     1
 66
   257
176
     1
 43
1.0
176
     1
 76
     1
176
     1
 77
     6
176
     1
 78
     2
176
     1
 67
     7
176
     1
 79
     5
176
     1
170
     0
176
     1
171
     0
176
     1
290
     0
176
     1
 93
        1
176
     1
 44
0.0
176
     1
173
     0
176
     1
  0
VISUALSTYLE
  5
31
102
{ACAD_REACTORS
330
2A
102
}
330
2A
100
AcDbVisualStyle
  2
3D Hidden
 70
     6
177
     2
291
     0
 71
     1
176
     1
 72
     2
176
     1
 73
     2
176
     1
 90
        0
176
     1
 40
-0.6
176
     1
 41
-30.0
176
     1
 62
     5
 63
     7
421
 16777215
176
     1
 74
     2
176
     1
 91
        2
176
     1
 64
     7
176
     1
 65
   257
176
     1
 75
     2
176
     1
175
     1
176
     1
 42
40.0
176
     1
 92
        0
176
     1
 66
   257
176
     1
 43
1.0
176
     1
 76
     1
176
     1
 77
     6
176
     1
 78
     2
176
     1
 67
     7
176
     1
 79
     3
176
     1
170
     0
176
     1
171
     0
176
     1
290
     0
176
     1
 93
        1
176
     1
 44
0.0
176
     1
173
     0
176
     1
  0
VISUALSTYLE
  5
30
102
{ACAD_REACTORS
330
2A
102
}
330
2A
100
AcDbVisualStyle
  2
3dWireframe
 70
     5
177
     2
291
     0
 71
     0
176
     1
 72
     2
176
     1
 73
     0
176
     1
 90
        0
176
     1
 40
-0.6
176
     1
 41
-30.0
176
     1
 62
     5
 63
     7
421
 16777215
176
     1
 74
     1
176
     1
 91
        4
176
     1
 64
     7
176
     1
 65
   257
176
     1
 75
     1
176
     1
175
     1
176
     1
 42
1.0
176
     1
 92
        0
176
     1
 66
   257
176
     1
 43
1.0
176
     1
 76
     1
176
     1
 77
     6
176
     1
 78
     2
176
     1
 67
     7
176
     1
 79
     5
176
     1
170
     0
176
     1
171
     0
176
     1
290
     0
176
     1
 93
        1
176
     1
 44
0.0
176
     1
173
     0
176
     1
  0
VISUALSTYLE
  5
32
102
{ACAD_REACTORS
330
2A
102
}
330
2A
100
AcDbVisualStyle
  2
Basic
 70
     7
177
     2
291
     1
 71
     1
176
     1
 72
     0
176
     1
 73
     1
176
     1
 90
        0
176
     1
 40
-0.6
176
     1
 41
-30.0
176
     1
 62
     5
 63
     7
421
 16777215
176
     1
 74
     0
176
     1
 91
        4
176
     1
 64
     7
176
     1
 65
   257
176
     1
 75
     1
176
     1
175
     1
176
     1
 42
1.0
176
     1
 92
        8
176
     1
 66
     7
176
     1
 43
1.0
176
     1
 76
     1
176
     1
 77
     6
176
     1
 78
     2
176
     1
 67
     7
176
     1
 79
     5
176
     1
170
     0
176
     1
171
     0
176
     1
290
     0
176
     1
 93
        1
176
     1
 44
0.0
176
     1
173
     0
176
     1
  0
VISUALSTYLE
  5
36
102
{ACAD_REACTORS
330
2A
102
}
330
2A
100
AcDbVisualStyle
  2
Brighten
 70
    12
177
     2
291
     1
 71
     2
176
     1
 72
     2
176
     1
 73
     0
176
     1
 90
        0
176
     1
 40
-0.6
176
     1
 41
-30.0
176
     1
 62
     5
 63
     7
421
 16777215
176
     1
 74
     1
176
     1
 91
        4
176
     1
 64
     7
176
     1
 65
   257
176
     1
 75
     1
176
     1
175
     1
176
     1
 42
1.0
176
     1
 92
        8
176
     1
 66
     7
176
     1
 43
1.0
176
     1
 76
     1
176
     1
 77
     6
176
     1
 78
     2
176
     1
 67
     7
176
     1
 79
     5
176
     1
170
     0
176
     1
171
     0
176
     1
290
     0
176
     1
 93
        1
176
     1
 44
50.0
176
     1
173
     0
176
     1
  0
VISUALSTYLE
  5
3A
102
{ACAD_REACTORS
330
2A
102
}
330
2A
100
AcDbVisualStyle
  2
ColorChange
 70
    16
177
     2
291
     1
 71
     2
176
     1
 72
     2
176
     1
 73
     3
176
     1
 90
        0
176
     1
 40
-0.6
176
     1
 41
-30.0
176
     1
 62
     5
 63
     8
421
  8421504
176
     1
 74
     1
176
     1
 91
        4
176
     1
 64
     7
176
     1
 65
   257
176
     1
 75
     1
176
     1
175
     1
176
     1
 42
1.0
176
     1
 92
        8
176
     1
 66
     8
424
  8421504
176
     1
 43
1.0
176
     1
 76
     1
176
     1
 77
     6
176
     1
 78
     2
176
     1
 67
     7
176
     1
 79
     5
176
     1
170
     0
176
     1
171
     0
176
     1
290
     0
176
     1
 93
        1
176
     1
 44
0.0
176
     1
173
     0
176
     1
  0
VISUALSTYLE
  5
34
102
{ACAD_REACTORS
330
2A
102
}
330
2A
100
AcDbVisualStyle
  2
Conceptual
 70
     9
177
     2
291
     0
 71
     3
176
     1
 72
     2
176
     1
 73
     0
176
     1
 90
        0
176
     1
 40
-0.6
176
     1
 41
-30.0
176
     1
 62
     5
 63
     7
421
 16777215
176
     1
 74
     2
176
     1
 91
        2
176
     1
 64
     7
176
     1
 65
   257
176
     1
 75
     1
176
     1
175
     1
176
     1
 42
40.0
176
     1
 92
        8
176
     1
 66
     7
176
     1
 43
1.0
176
     1
 76
     1
176
     1
 77
     6
176
     1
 78
     2
176
     1
 67
     7
176
     1
 79
     3
176
     1
170
     0
176
     1
171
     0
176
     1
290
     0
176
     1
 93
        1
176
     1
 44
0.0
176
     1
173
     0
176
     1
  0
VISUALSTYLE
  5
35
102
{ACAD_REACTORS
330
2A
102
}
330
2A
100
AcDbVisualStyle
  2
Dim
 70
    11
177
     2
291
     1
 71
     2
176
     1
 72
     2
176
     1
 73
     0
176
     1
 90
        0
176
     1
 40
-0.6
176
     1
 41
-30.0
176
     1
 62
     5
 63
     7
421
 16777215
176
     1
 74
     1
176
     1
 91
        4
176
     1
 64
     7
176
     1
 65
   257
176
     1
 75
     1
176
     1
175
     1
176
     1
 42
1.0
176
     1
 92
        8
176
     1
 66
     7
176
     1
 43
1.0
176
     1
 76
     1
176
     1
 77
     6
176
     1
 78
     2
176
     1
 67
     7
176
     1
 79
     5
176
     1
170
     0
176
     1
171
     0
176
     1
290
     0
176
     1
 93
        1
176
     1
 44
-50.0
176
     1
173
     0
176
     1
  0
VISUALSTYLE
  5
39
102
{ACAD_REACTORS
330
2A
102
}
330
2A
100
AcDbVisualStyle
  2
Facepattern
 70
    15
177
     2
291
     1
 71
     2
176
     1
 72
     2
176
     1
 73
     0
176
     1
 90
        0
176
     1
 40
-0.6
176
     1
 41
-30.0
176
     1
 62
     5
 63
     7
421
 16777215
176
     1
 74
     1
176
     1
 91
        4
176
     1
 64
     7
176
     1
 65
   257
176
     1
 75
     1
176
     1
175
     1
176
     1
 42
1.0
176
     1
 92
        8
176
     1
 66
     7
176
     1
 43
1.0
176
     1
 76
     1
176
     1
 77
     6
176
     1
 78
     2
176
     1
 67
     7
176
     1
 79
     5
176
     1
170
     0
176
     1
171
     0
176
     1
290
     0
176
     1
 93
        1
176
     1
 44
0.0
176
     1
173
     0
176
     1
  0
VISUALSTYLE
  5
2B
102
{ACAD_REACTORS
330
2A
102
}
330
2A
100
AcDbVisualStyle
  2
Flat
 70
     0
177
     2
291
     1
 71
     2
176
     1
 72
     1
176
     1
 73
     1
176
     1
 90
        2
176
     1
 40
-0.6
176
     1
 41
30.0
176
     1
 62
     5
 63
     7
421
 16777215
176
     1
 74
     0
176
     1
 91
        4
176
     1
 64
     7
176
     1
 65
   257
176
     1
 75
     1
176
     1
175
     1
176
     1
 42
1.0
176
     1
 92
        8
176
     1
 66
     7
176
     1
 43
1.0
176
     1
 76
     1
176
     1
 77
     6
176
     1
 78
     2
176
     1
 67
     7
176
     1
 79
     5
176
     1
170
     0
176
     1
171
     0
176
     1
290
     0
176
     1
 93
       13
176
     1
 44
0.0
176
     1
173
     0
176
     1
  0
VISUALSTYLE
  5
2C
102
{ACAD_REACTORS
330
2A
102
}
330
2A
100
AcDbVisualStyle
  2
FlatWithEdges
 70
     1
177
     2
291
     1
 71
     2
176
     1
 72
     1
176
     1
 73
     1
176
     1
 90
        2
176
     1
 40
-0.6
176
     1
 41
30.0
176
     1
 62
     5
 63
     7
421
 16777215
176
     1
 74
     1
176
     1
 91
        4
176
     1
 64
     7
176
     1
 65
   257
176
     1
 75
     1
176
     1
175
     1
176
     1
 42
1.0
176
     1
 92
        0
176
     1
 66
   257
176
     1
 43
1.0
176
     1
 76
     1
176
     1
 77
     6
176
     1
 78
     2
176
     1
 67
     7
176
     1
 79
     5
176
     1
170
     0
176
     1
171
     0
176
     1
290
     0
176
     1
 93
       13
176
     1
 44
0.0
176
     1
173
     0
176
     1
  0
VISUALSTYLE
  5
2D
102
{ACAD_REACTORS
330
2A
102
}
330
2A
100
AcDbVisualStyle
  2
Gouraud
 70
     2
177
     2
291
     1
 71
     2
176
     1
 72
     2
176
     1
 73
     1
176
     1
 90
        2
176
     1
 40
-0.6
176
     1
 41
30.0
176
     1
 62
     5
 63
     7
421
 16777215
176
     1
 74
     0
176
     1
 91
        4
176
     1
 64
     7
176
     1
 65
   257
176
     1
 75
     1
176
     1
175
     1
176
     1
 42
1.0
176
     1
 92
        0
176
     1
 66
     7
176
     1
 43
1.0
176
     1
 76
     1
176
     1
 77
     6
176
     1
 78
     2
176
     1
 67
     7
176
     1
 79
     5
176
     1
170
     0
176
     1
171
     0
176
     1
290
     0
176
     1
 93
       13
176
     1
 44
0.0
176
     1
173
     0
176
     1
  0
VISUALSTYLE
  5
2E
102
{ACAD_REACTORS
330
2A
102
}
330
2A
100
AcDbVisualStyle
  2
GouraudWithEdges
 70
     3
177
     2
291
     1
 71
     2
176
     1
 72
     2
176
     1
 73
     1
176
     1
 90
        2
176
     1
 40
-0.6
176
     1
 41
30.0
176
     1
 62
     5
 63
     7
421
 16777215
176
     1
 74
     1
176
     1
 91
        4
176
     1
 64
     7
176
     1
 65
   257
176
     1
 75
     1
176
     1
175
     1
176
     1
 42
1.0
176
     1
 92
        0
176
     1
 66
   257
176
     1
 43
1.0
176
     1
 76
     1
176
     1
 77
     6
176
     1
 78
     2
176
     1
 67
     7
176
     1
 79
     5
176
     1
170
     0
176
     1
171
     0
176
     1
290
     0
176
     1
 93
       13
176
     1
 44
0.0
176
     1
173
     0
176
     1
  0
VISUALSTYLE
  5
38
102
{ACAD_REACTORS
330
2A
102
}
330
2A
100
AcDbVisualStyle
  2
Linepattern
 70
    14
177
     2
291
     1
 71
     2
176
     1
 72
     2
176
     1
 73
     0
176
     1
 90
        0
176
     1
 40
-0.6
176
     1
 41
-30.0
176
     1
 62
     5
 63
     7
421
 16777215
176
     1
 74
     1
176
     1
 91
        4
176
     1
 64
     7
176
     1
 65
   257
176
     1
 75
     7
176
     1
175
     7
176
     1
 42
1.0
176
     1
 92
        8
176
     1
 66
     7
176
     1
 43
1.0
176
     1
 76
     1
176
     1
 77
     6
176
     1
 78
     2
176
     1
 67
     7
176
     1
 79
     5
176
     1
170
     0
176
     1
171
     0
176
     1
290
     0
176
     1
 93
        1
176
     1
 44
0.0
176
     1
173
     0
176
     1
  0
VISUALSTYLE
  5
33
102
{ACAD_REACTORS
330
2A
102
}
330
2A
100
AcDbVisualStyle
  2
Realistic
 70
     8
177
     2
291
     0
 71
     2
176
     1
 72
     2
176
     1
 73
     0
176
     1
 90
        0
176
     1
 40
-0.6
176
     1
 41
-30.0
176
     1
 62
     5
 63
     7
421
 16777215
176
     1
 74
     1
176
     1
 91
        0
176
     1
 64
     7
176
     1
 65
   257
176
     1
 75
     1
176
     1
175
     1
176
     1
 42
1.0
176
     1
 92
        8
176
     1
 66
     8
424
  7895160
176
     1
 43
1.0
176
     1
 76
     1
176
     1
 77
     6
176
     1
 78
     2
176
     1
 67
     7
176
     1
 79
     5
176
     1
170
     0
176
     1
171
     0
176
     1
290
     0
176
     1
 93
       13
176
     1
 44
0.0
176
     1
173
     0
176
     1
  0
VISUALSTYLE
  5
37
102
{ACAD_REACTORS
330
2A
102
}
330
2A
100
AcDbVisualStyle
  2
Thicken
 70
    13
177
     2
291
     1
 71
     2
176
     1
 72
     2
176
     1
 73
     0
176
     1
 90
        0
176
     1
 40
-0.6
176
     1
 41
-30.0
176
     1
 62
     5
 63
     7
421
 16777215
176
     1
 74
     1
176
     1
 91
        4
176
     1
 64
     7
176
     1
 65
   257
176
     1
 75
     1
176
     1
175
     1
176
     1
 42
1.0
176
     1
 92
       12
176
     1
 66
     7
176
     1
 43
1.0
176
     1
 76
     1
176
     1
 77
     6
176
     1
 78
     2
176
     1
 67
     7
176
     1
 79
     5
176
     1
170
     0
176
     1
171
     0
176
     1
290
     0
176
     1
 93
        1
176
     1
 44
0.0
176
     1
173
     0
176
     1
  0
ENDSEC
  0
EOF
