  0
SECTION
  2
HEADER
  9
$ACADVER
  1
AC1024
  9
$ACADMAINTVER
 70
     6
  9
$DWGCODEPAGE
  3
UNDEFINED
  9
$INSBASE
 10
0.0
 20
0.0
 30
0.0
  9
$EXTMIN
 10
1.000000000000000E+20
 20
1.000000000000000E+20
 30
1.000000000000000E+20
  9
$EXTMAX
 10
-1.000000000000000E+20
 20
-1.000000000000000E+20
 30
-1.000000000000000E+20
  9
$LIMMIN
 10
0.0
 20
0.0
  9
$LIMMAX
 10
12.0
 20
9.0
  9
$ORTHOMODE
 70
     0
  9
$REGENMODE
 70
     1
  9
$FILLMODE
 70
     1
  9
$QTEXTMODE
 70
     0
  9
$MIRRTEXT
 70
     1
  9
$LTSCALE
 40
1.0
  9
$ATTMODE
 70
     1
  9
$TEXTSIZE
 40
0.2
  9
$TRACEWID
 40
0.05
  9
$TEXTSTYLE
  7
Standard
  9
$CLAYER
  8
0
  9
$CELTYPE
  6
ByLayer
  9
$CECOLOR
 62
   256
  9
$CELTSCALE
 40
1.0
  9
$DISPSILH
 70
     0
  9
$DIMSCALE
 40
1.0
  9
$DIMASZ
 40
0.18
  9
$DIMEXO
 40
0.0625
  9
$DIMDLI
 40
0.38
  9
$DIMRND
 40
0.0
  9
$DIMDLE
 40
0.0
  9
$DIMEXE
 40
0.18
  9
$DIMTP
 40
0.0
  9
$DIMTM
 40
0.0
  9
$DIMTXT
 40
0.18
  9
$DIMCEN
 40
0.09
  9
$DIMTSZ
 40
0.0
  9
$DIMTOL
 70
     0
  9
$DIMLIM
 70
     0
  9
$DIMTIH
 70
     1
  9
$DIMTOH
 70
     1
  9
$DIMSE1
 70
     0
  9
$DIMSE2
 70
     0
  9
$DIMTAD
 70
     0
  9
$DIMZIN
 70
     0
  9
$DIMBLK
  1

  9
$DIMASO
 70
     1
  9
$DIMSHO
 70
     1
  9
$DIMPOST
  1

  9
$DIMAPOST
  1

  9
$DIMALT
 70
     0
  9
$DIMALTD
 70
     2
  9
$DIMALTF
 40
25.4
  9
$DIMLFAC
 40
1.0
  9
$DIMTOFL
 70
     0
  9
$DIMTVP
 40
0.0
  9
$DIMTIX
 70
     0
  9
$DIMSOXD
 70
     0
  9
$DIMSAH
 70
     0
  9
$DIMBLK1
  1

  9
$DIMBLK2
  1

  9
$DIMSTYLE
  2
Standard
  9
$DIMCLRD
 70
     0
  9
$DIMCLRE
 70
     0
  9
$DIMCLRT
 70
     0
  9
$DIMTFAC
 40
1.0
  9
$DIMGAP
 40
0.09
  9
$DIMJUST
 70
     0
  9
$DIMSD1
 70
     0
  9
$DIMSD2
 70
     0
  9
$DIMTOLJ
 70
     1
  9
$DIMTZIN
 70
     0
  9
$DIMALTZ
 70
     0
  9
$DIMALTTZ
 70
     0
  9
$DIMUPT
 70
     0
  9
$DIMDEC
 70
     4
  9
$DIMTDEC
 70
     4
  9
$DIMALTU
 70
     2
  9
$DIMALTTD
 70
     2
  9
$DIMTXSTY
  7
Standard
  9
$DIMAUNIT
 70
     0
  9
$DIMADEC
 70
     0
  9
$DIMALTRND
 40
0.0
  9
$DIMAZIN
 70
     0
  9
$DIMDSEP
 70
    46
  9
$DIMATFIT
 70
     3
  9
$DIMFRAC
 70
     0
  9
$DIMLDRBLK
  1

  9
$DIMLUNIT
 70
     2
  9
$DIMLWD
 70
    -2
  9
$DIMLWE
 70
    -2
  9
$DIMTMOVE
 70
     0
  9
$DIMFXL
 40
1.0
  9
$DIMFXLON
 70
     0
  9
$DIMJOGANG
 40
0.7853981633974483
  9
$DIMTFILL
 70
     0
  9
$DIMTFILLCLR
 70
     0
  9
$DIMARCSYM
 70
     0
  9
$DIMLTYPE
  6

  9
$DIMLTEX1
  6

  9
$DIMLTEX2
  6

  9
$DIMTXTDIRECTION
 70
     0
  9
$LUNITS
 70
     2
  9
$LUPREC
 70
     4
  9
$SKETCHINC
 40
0.1
  9
$FILLETRAD
 40
0.5
  9
$AUNITS
 70
     0
  9
$AUPREC
 70
     0
  9
$MENU
  1
.
  9
$ELEVATION
 40
0.0
  9
$PELEVATION
 40
0.0
  9
$THICKNESS
 40
0.0
  9
$LIMCHECK
 70
     0
  9
$CHAMFERA
 40
0.5
  9
$CHAMFERB
 40
0.5
  9
$CHAMFERC
 40
1.0
  9
$CHAMFERD
 40
0.0
  9
$SKPOLY
 70
     0
  9
$TDCREATE
 40
2457917.615694445
  9
$TDUCREATE
 40
2457917.240694445
  9
$TDUPDATE
 40
2457917.615706019
  9
$TDUUPDATE
 40
2457917.240706019
  9
$TDINDWG
 40
0.0000000116
  9
$TDUSRTIMER
 40
0.0000000116
  9
$USRTIMER
 70
     1
  9
$ANGBASE
 50
0.0
  9
$ANGDIR
 70
     0
  9
$PDMODE
 70
     0
  9
$PDSIZE
 40
0.0
  9
$PLINEWID
 40
0.0
  9
$SPLFRAME
 70
     0
  9
$SPLINETYPE
 70
     6
  9
$SPLINESEGS
 70
     8
  9
$HANDSEED
  5
EE
  9
$SURFTAB1
 70
     6
  9
$SURFTAB2
 70
     6
  9
$SURFTYPE
 70
     6
  9
$SURFU
 70
     6
  9
$SURFV
 70
     6
  9
$UCSBASE
  2

  9
$UCSNAME
  2

  9
$UCSORG
 10
0.0
 20
0.0
 30
0.0
  9
$UCSXDIR
 10
1.0
 20
0.0
 30
0.0
  9
$UCSYDIR
 10
0.0
 20
1.0
 30
0.0
  9
$UCSORTHOREF
  2

  9
$UCSORTHOVIEW
 70
     0
  9
$UCSORGTOP
 10
0.0
 20
0.0
 30
0.0
  9
$UCSORGBOTTOM
 10
0.0
 20
0.0
 30
0.0
  9
$UCSORGLEFT
 10
0.0
 20
0.0
 30
0.0
  9
$UCSORGRIGHT
 10
0.0
 20
0.0
 30
0.0
  9
$UCSORGFRONT
 10
0.0
 20
0.0
 30
0.0
  9
$UCSORGBACK
 10
0.0
 20
0.0
 30
0.0
  9
$PUCSBASE
  2

  9
$PUCSNAME
  2

  9
$PUCSORG
 10
0.0
 20
0.0
 30
0.0
  9
$PUCSXDIR
 10
1.0
 20
0.0
 30
0.0
  9
$PUCSYDIR
 10
0.0
 20
1.0
 30
0.0
  9
$PUCSORTHOREF
  2

  9
$PUCSORTHOVIEW
 70
     0
  9
$PUCSORGTOP
 10
0.0
 20
0.0
 30
0.0
  9
$PUCSORGBOTTOM
 10
0.0
 20
0.0
 30
0.0
  9
$PUCSORGLEFT
 10
0.0
 20
0.0
 30
0.0
  9
$PUCSORGRIGHT
 10
0.0
 20
0.0
 30
0.0
  9
$PUCSORGFRONT
 10
0.0
 20
0.0
 30
0.0
  9
$PUCSORGBACK
 10
0.0
 20
0.0
 30
0.0
  9
$USERI1
 70
     0
  9
$USERI2
 70
     0
  9
$USERI3
 70
     0
  9
$USERI4
 70
     0
  9
$USERI5
 70
     0
  9
$USERR1
 40
0.0
  9
$USERR2
 40
0.0
  9
$USERR3
 40
0.0
  9
$USERR4
 40
0.0
  9
$USERR5
 40
0.0
  9
$WORLDVIEW
 70
     1
  9
$SHADEDGE
 70
     3
  9
$SHADEDIF
 70
    70
  9
$TILEMODE
 70
     1
  9
$MAXACTVP
 70
    64
  9
$PINSBASE
 10
0.0
 20
0.0
 30
0.0
  9
$PLIMCHECK
 70
     0
  9
$PEXTMIN
 10
1.000000000000000E+20
 20
1.000000000000000E+20
 30
1.000000000000000E+20
  9
$PEXTMAX
 10
-1.000000000000000E+20
 20
-1.000000000000000E+20
 30
-1.000000000000000E+20
  9
$PLIMMIN
 10
0.0
 20
0.0
  9
$PLIMMAX
 10
12.0
 20
9.0
  9
$UNITMODE
 70
     0
  9
$VISRETAIN
 70
     1
  9
$PLINEGEN
 70
     0
  9
$PSLTSCALE
 70
     1
  9
$TREEDEPTH
 70
  3020
  9
$CMLSTYLE
  2
Standard
  9
$CMLJUST
 70
     0
  9
$CMLSCALE
 40
1.0
  9
$PROXYGRAPHICS
 70
     1
  9
$MEASUREMENT
 70
     0
  9
$CELWEIGHT
370
    -1
  9
$ENDCAPS
280
     0
  9
$JOINSTYLE
280
     0
  9
$LWDISPLAY
290
     1
  9
$INSUNITS
 70
     1
  9
$HYPERLINKBASE
  1

  9
$STYLESHEET
  1

  9
$XEDIT
290
     1
  9
$CEPSNTYPE
380
     0
  9
$PSTYLEMODE
290
     1
  9
$FINGERPRINTGUID
  2
{456B2A2E-41CD-4814-8EC4-68E047711068}
  9
$VERSIONGUID
  2
{FAEB1C32-E019-11D5-929B-00C0DF256EC4}
  9
$EXTNAMES
290
     1
  9
$PSVPSCALE
 40
0.0
  9
$OLESTARTUP
290
     0
  9
$SORTENTS
280
   127
  9
$INDEXCTL
280
     0
  9
$HIDETEXT
280
     1
  9
$XCLIPFRAME
280
     2
  9
$HALOGAP
280
     0
  9
$OBSCOLOR
 70
   257
  9
$OBSLTYPE
280
     0
  9
$INTERSECTIONDISPLAY
280
     0
  9
$INTERSECTIONCOLOR
 70
   257
  9
$DIMASSOC
280
     2
  9
$PROJECTNAME
  1

  9
$CAMERADISPLAY
290
     0
  9
$LENSLENGTH
 40
50.0
  9
$CAMERAHEIGHT
 40
0.0
  9
$STEPSPERSEC
 40
2.0
  9
$STEPSIZE
 40
6.0
  9
$3DDWFPREC
 40
2.0
  9
$PSOLWIDTH
 40
0.25
  9
$PSOLHEIGHT
 40
4.0
  9
$LOFTANG1
 40
1.570796326794897
  9
$LOFTANG2
 40
1.570796326794897
  9
$LOFTMAG1
 40
0.0
  9
$LOFTMAG2
 40
0.0
  9
$LOFTPARAM
 70
     7
  9
$LOFTNORMALS
280
     1
  9
$LATITUDE
 40
37.795
  9
$LONGITUDE
 40
-122.394
  9
$NORTHDIRECTION
 40
0.0
  9
$TIMEZONE
 70
 -8000
  9
$LIGHTGLYPHDISPLAY
280
     1
  9
$TILEMODELIGHTSYNCH
280
     1
  9
$CMATERIAL
347
3C
  9
$SOLIDHIST
280
     1
  9
$SHOWHIST
280
     1
  9
$DWFFRAME
280
     2
  9
$DGNFRAME
280
     2
  9
$REALWORLDSCALE
290
     1
  9
$INTERFERECOLOR
 62
   256
  9
$CSHADOW
280
     0
  9
$SHADOWPLANELOCATION
 40
0.0
  0
ENDSEC
  0
SECTION
  2
CLASSES
  0
CLASS
  1
ACDBDICTIONARYWDFLT
  2
AcDbDictionaryWithDefault
  3
ObjectDBX Classes
 90
        0
 91
        4
280
     0
281
     0
  0
CLASS
  1
VISUALSTYLE
  2
AcDbVisualStyle
  3
ObjectDBX Classes
 90
     4095
 91
        4
280
     0
281
     0
  0
CLASS
  1
MATERIAL
  2
AcDbMaterial
  3
ObjectDBX Classes
 90
     1153
 91
        4
280
     0
281
     0
  0
CLASS
  1
SUN
  2
AcDbSun
  3
SCENEOE
 90
     1024
 91
        4
280
     0
281
     0
  0
ENDSEC
  0
SECTION
  2
TABLES
  0
TABLE
  2
VPORT
  5
8
330
0
100
AcDbSymbolTable
 70
     1
  0
VPORT
  5
29
330
8
100
AcDbSymbolTableRecord
100
AcDbViewportTableRecord
  2
*Active
 70
     0
 10
0.0
 20
0.0
 11
1.0
 21
1.0
 12
0.0
 22
0.0
 13
0.0
 23
0.0
 14
0.5
 24
0.5
 15
0.5
 25
0.5
 16
0.0
 26
0.0
 36
1.0
 17
91.00082462281999
 27
-128.4993055234307
 37
0.0
 40
256.9986110468615
 41
0.7081814508812795
 42
50.0
 43
0.0
 44
0.0
 50
0.0
 51
0.0
 71
     0
 72
   100
 73
     1
 74
     3
 75
     0
 76
     0
 77
     0
 78
     0
281
     0
 65
     1
110
0.0
120
0.0
130
0.0
111
1.0
121
0.0
131
0.0
112
0.0
122
1.0
132
0.0
 79
     0
146
0.0
 60
     3
 61
     5
292
     1
282
     1
141
0.0
142
0.0
 63
   250
361
3F
  0
ENDTAB
  0
TABLE
  2
LTYPE
  5
5
330
0
100
AcDbSymbolTable
 70
     1
  0
LTYPE
  5
14
330
5
100
AcDbSymbolTableRecord
100
AcDbLinetypeTableRecord
  2
ByBlock
 70
     0
  3

 72
    65
 73
     0
 40
0.0
  0
LTYPE
  5
15
330
5
100
AcDbSymbolTableRecord
100
AcDbLinetypeTableRecord
  2
ByLayer
 70
     0
  3

 72
    65
 73
     0
 40
0.0
  0
LTYPE
  5
16
330
5
100
AcDbSymbolTableRecord
100
AcDbLinetypeTableRecord
  2
Continuous
 70
     0
  3
Solid line
 72
    65
 73
     0
 40
0.0
  0
ENDTAB
  0
TABLE
  2
LAYER
  5
2
330
0
100
AcDbSymbolTable
 70
     2
  0
LAYER
  5
10
330
2
100
AcDbSymbolTableRecord
100
AcDbLayerTableRecord
  2
0
 70
     0
 62
     7
  6
Continuous
370
    -3
390
F
347
3E
  0
LAYER
  5
40
330
2
100
AcDbSymbolTableRecord
100
AcDbLayerTableRecord
  2
_U+30EC_U+30A4_U+30E4_U+30FC 1
 70
     0
 62
     7
  6
Continuous
370
    -3
390
F
347
3E
  0
ENDTAB
  0
TABLE
  2
STYLE
  5
3
330
0
100
AcDbSymbolTable
 70
     1
  0
STYLE
  5
11
330
3
100
AcDbSymbolTableRecord
100
AcDbTextStyleTableRecord
  2
Standard
 70
     0
 40
0.0
 41
1.0
 50
0.0
 71
     0
 42
0.2
  3
txt
  4

  0
ENDTAB
  0
TABLE
  2
VIEW
  5
6
330
0
100
AcDbSymbolTable
 70
     0
  0
ENDTAB
  0
TABLE
  2
UCS
  5
7
330
0
100
AcDbSymbolTable
 70
     0
  0
ENDTAB
  0
TABLE
  2
APPID
  5
9
330
0
100
AcDbSymbolTable
 70
     1
  0
APPID
  5
12
330
9
100
AcDbSymbolTableRecord
100
AcDbRegAppTableRecord
  2
ACAD
 70
     0
  0
ENDTAB
  0
TABLE
  2
DIMSTYLE
  5
A
330
0
100
AcDbSymbolTable
 70
     1
100
AcDbDimStyleTable
  0
DIMSTYLE
105
27
330
A
100
AcDbSymbolTableRecord
100
AcDbDimStyleTableRecord
  2
Standard
 70
     0
178
     0
340
11
  0
ENDTAB
  0
TABLE
  2
BLOCK_RECORD
  5
1
330
0
100
AcDbSymbolTable
 70
     7
  0
BLOCK_RECORD
  5
1F
330
1
100
AcDbSymbolTableRecord
100
AcDbBlockTableRecord
  2
*Model_Space
340
22
 70
     0
280
     1
281
     0
  0
BLOCK_RECORD
  5
1B
330
1
100
AcDbSymbolTableRecord
100
AcDbBlockTableRecord
  2
*Paper_Space
340
1E
 70
     0
280
     1
281
     0
  0
BLOCK_RECORD
  5
23
330
1
100
AcDbSymbolTableRecord
100
AcDbBlockTableRecord
  2
*Paper_Space0
340
26
 70
     0
280
     1
281
     0
  0
BLOCK_RECORD
  5
41
330
1
100
AcDbSymbolTableRecord
100
AcDbBlockTableRecord
  2
block 2
340
0
102
{BLKREFS
331
42
102
}
 70
     0
280
     1
281
     0
  0
BLOCK_RECORD
  5
96
330
1
100
AcDbSymbolTableRecord
100
AcDbBlockTableRecord
  2
block 3
340
0
102
{BLKREFS
331
97
102
}
 70
     0
280
     1
281
     0
  0
BLOCK_RECORD
  5
A4
330
1
100
AcDbSymbolTableRecord
100
AcDbBlockTableRecord
  2
block 4
340
0
102
{BLKREFS
331
A5
102
}
 70
     0
280
     1
281
     0
  0
BLOCK_RECORD
  5
B6
330
1
100
AcDbSymbolTableRecord
100
AcDbBlockTableRecord
  2
block 5
340
0
102
{BLKREFS
331
B7
102
}
 70
     0
280
     1
281
     0
  0
BLOCK_RECORD
  5
CB
330
1
100
AcDbSymbolTableRecord
100
AcDbBlockTableRecord
  2
block 6
340
0
102
{BLKREFS
331
CC
102
}
 70
     0
280
     1
281
     0
  0
BLOCK_RECORD
  5
DB
330
1
100
AcDbSymbolTableRecord
100
AcDbBlockTableRecord
  2
block 7
340
0
102
{BLKREFS
331
DC
102
}
 70
     0
280
     1
281
     0
  0
ENDTAB
  0
ENDSEC
  0
SECTION
  2
BLOCKS
  0
BLOCK
  5
20
330
1F
100
AcDbEntity
  8
0
100
AcDbBlockBegin
  2
*Model_Space
 70
     0
 10
0.0
 20
0.0
 30
0.0
  3
*Model_Space
  1

  0
ENDBLK
  5
21
330
1F
100
AcDbEntity
  8
0
100
AcDbBlockEnd
  0
BLOCK
  5
1C
330
1B
100
AcDbEntity
 67
     1
  8
0
100
AcDbBlockBegin
  2
*Paper_Space
 70
     0
 10
0.0
 20
0.0
 30
0.0
  3
*Paper_Space
  1

  0
ENDBLK
  5
1D
330
1B
100
AcDbEntity
 67
     1
  8
0
100
AcDbBlockEnd
  0
BLOCK
  5
24
330
23
100
AcDbEntity
  8
0
100
AcDbBlockBegin
  2
*Paper_Space0
 70
     0
 10
0.0
 20
0.0
 30
0.0
  3
*Paper_Space0
  1

  0
ENDBLK
  5
25
330
23
100
AcDbEntity
  8
0
100
AcDbBlockEnd
  0
BLOCK
  5
43
330
41
100
AcDbEntity
  8
0
100
AcDbBlockBegin
  2
block 2
 70
     0
 10
0.0
 20
0.0
 30
0.0
  3
block 2
  1

  0
POLYLINE
  5
45
330
41
100
AcDbEntity
  8
_U+30EC_U+30A4_U+30E4_U+30FC 1
370
     0
100
AcDb2dPolyline
 66
     1
 10
0.0
 20
0.0
 30
0.0
  0
VERTEX
  5
46
330
45
100
AcDbEntity
  8
_U+30EC_U+30A4_U+30E4_U+30FC 1
370
     0
100
AcDbVertex
100
AcDb2dVertex
 10
73.04256646986221
 20
-122.5737324693565
 30
0.0
  0
VERTEX
  5
47
330
45
100
AcDbEntity
  8
_U+30EC_U+30A4_U+30E4_U+30FC 1
370
     0
100
AcDbVertex
100
AcDb2dVertex
 10
73.04256646986221
 20
-136.2114863548362
 30
0.0
  0
VERTEX
  5
48
330
45
100
AcDbEntity
  8
_U+30EC_U+30A4_U+30E4_U+30FC 1
370
     0
100
AcDbVertex
100
AcDb2dVertex
 10
83.20489454393297
 20
-136.2114863548362
 30
0.0
  0
VERTEX
  5
49
330
45
100
AcDbEntity
  8
_U+30EC_U+30A4_U+30E4_U+30FC 1
370
     0
100
AcDbVertex
100
AcDb2dVertex
 10
83.20489454393297
 20
-133.2604296889072
 30
0.0
  0
VERTEX
  5
4A
330
45
100
AcDbEntity
  8
_U+30EC_U+30A4_U+30E4_U+30FC 1
370
     0
100
AcDbVertex
100
AcDb2dVertex
 10
82.08732985022219
 20
-133.2604296889072
 30
0.0
  0
VERTEX
  5
4B
330
45
100
AcDbEntity
  8
_U+30EC_U+30A4_U+30E4_U+30FC 1
370
     0
100
AcDbVertex
100
AcDb2dVertex
 10
82.08732985022219
 20
-135.2007074661999
 30
0.0
  0
VERTEX
  5
4C
330
45
100
AcDbEntity
  8
_U+30EC_U+30A4_U+30E4_U+30FC 1
370
     0
100
AcDbVertex
100
AcDb2dVertex
 10
74.0912689431076
 20
-135.2007074661999
 30
0.0
  0
VERTEX
  5
4D
330
45
100
AcDbEntity
  8
_U+30EC_U+30A4_U+30E4_U+30FC 1
370
     0
100
AcDbVertex
100
AcDb2dVertex
 10
74.0912689431076
 20
-123.562498024665
 30
0.0
  0
VERTEX
  5
4E
330
45
100
AcDbEntity
  8
_U+30EC_U+30A4_U+30E4_U+30FC 1
370
     0
100
AcDbVertex
100
AcDb2dVertex
 10
98.13871832960604
 20
-123.562498024665
 30
0.0
  0
VERTEX
  5
4F
330
45
100
AcDbEntity
  8
_U+30EC_U+30A4_U+30E4_U+30FC 1
370
     0
100
AcDbVertex
100
AcDb2dVertex
 10
98.13871832960604
 20
-122.6219571915667
 30
0.0
  0
VERTEX
  5
50
330
45
100
AcDbEntity
  8
_U+30EC_U+30A4_U+30E4_U+30FC 1
370
     0
100
AcDbVertex
100
AcDb2dVertex
 10
73.04256646986221
 20
-122.5737324693565
 30
0.0
  0
SEQEND
  5
52
330
45
100
AcDbEntity
  8
_U+30EC_U+30A4_U+30E4_U+30FC 1
370
     0
  0
HATCH
  5
51
330
41
100
AcDbEntity
  8
_U+30EC_U+30A4_U+30E4_U+30FC 1
 62
     9
420
 13224394
100
AcDbHatch
 10
0.0
 20
0.0
 30
0.0
210
0.0
220
0.0
230
1.0
  2
SOLID
 70
     1
 71
     0
 91
        1
 92
        1
 93
       10
 72
     1
 10
73.04256646986221
 20
-122.5737324693565
 11
73.04256646986221
 21
-136.2114863548362
 72
     1
 10
73.04256646986221
 20
-136.2114863548362
 11
83.20489454393297
 21
-136.2114863548362
 72
     1
 10
83.20489454393297
 20
-136.2114863548362
 11
83.20489454393297
 21
-133.2604296889072
 72
     1
 10
83.20489454393297
 20
-133.2604296889072
 11
82.08732985022219
 21
-133.2604296889072
 72
     1
 10
82.08732985022219
 20
-133.2604296889072
 11
82.08732985022219
 21
-135.2007074661999
 72
     1
 10
82.08732985022219
 20
-135.2007074661999
 11
74.0912689431076
 21
-135.2007074661999
 72
     1
 10
74.0912689431076
 20
-135.2007074661999
 11
74.0912689431076
 21
-123.562498024665
 72
     1
 10
74.0912689431076
 20
-123.562498024665
 11
98.13871832960604
 21
-123.562498024665
 72
     1
 10
98.13871832960604
 20
-123.562498024665
 11
98.13871832960604
 21
-122.6219571915667
 72
     1
 10
98.13871832960604
 20
-122.6219571915667
 11
73.04256646986221
 21
-122.5737324693565
 97
        0
 75
     2
 76
     1
 98
        0
  0
POLYLINE
  5
53
330
41
100
AcDbEntity
  8
_U+30EC_U+30A4_U+30E4_U+30FC 1
 62
   179
420
  2234388
370
    25
100
AcDb2dPolyline
 66
     1
 10
0.0
 20
0.0
 30
0.0
  0
VERTEX
  5
54
330
53
100
AcDbEntity
  8
_U+30EC_U+30A4_U+30E4_U+30FC 1
 62
   179
420
  2234388
370
    25
100
AcDbVertex
100
AcDb2dVertex
 10
73.09975174618107
 20
-122.5889019137973
 30
0.0
  0
VERTEX
  5
55
330
53
100
AcDbEntity
  8
_U+30EC_U+30A4_U+30E4_U+30FC 1
 62
   179
420
  2234388
370
    25
100
AcDbVertex
100
AcDb2dVertex
 10
98.09977166393298
 20
-122.5889019137973
 30
0.0
  0
SEQEND
  5
56
330
53
100
AcDbEntity
  8
_U+30EC_U+30A4_U+30E4_U+30FC 1
 62
   179
420
  2234388
370
    25
  0
POLYLINE
  5
57
330
41
100
AcDbEntity
  8
_U+30EC_U+30A4_U+30E4_U+30FC 1
 62
   179
420
  2234388
370
    25
100
AcDb2dPolyline
 66
     1
 10
0.0
 20
0.0
 30
0.0
  0
VERTEX
  5
58
330
57
100
AcDbEntity
  8
_U+30EC_U+30A4_U+30E4_U+30FC 1
 62
   179
420
  2234388
370
    25
100
AcDbVertex
100
AcDb2dVertex
 10
73.09975174618107
 20
-122.5889019137973
 30
0.0
  0
VERTEX
  5
59
330
57
100
AcDbEntity
  8
_U+30EC_U+30A4_U+30E4_U+30FC 1
 62
   179
420
  2234388
370
    25
100
AcDbVertex
100
AcDb2dVertex
 10
73.09975174618107
 20
-136.3217294103642
 30
0.0
  0
SEQEND
  5
5A
330
57
100
AcDbEntity
  8
_U+30EC_U+30A4_U+30E4_U+30FC 1
 62
   179
420
  2234388
370
    25
  0
POLYLINE
  5
5B
330
41
100
AcDbEntity
  8
_U+30EC_U+30A4_U+30E4_U+30FC 1
 62
   179
420
  2234388
370
    25
100
AcDb2dPolyline
 66
     1
 10
0.0
 20
0.0
 30
0.0
  0
VERTEX
  5
5C
330
5B
100
AcDbEntity
  8
_U+30EC_U+30A4_U+30E4_U+30FC 1
 62
   179
420
  2234388
370
    25
100
AcDbVertex
100
AcDb2dVertex
 10
98.09977166393298
 20
-122.5889019137973
 30
0.0
  0
VERTEX
  5
5D
330
5B
100
AcDbEntity
  8
_U+30EC_U+30A4_U+30E4_U+30FC 1
 62
   179
420
  2234388
370
    25
100
AcDbVertex
100
AcDb2dVertex
 10
98.09977166393298
 20
-123.5886741357696
 30
0.0
  0
SEQEND
  5
5E
330
5B
100
AcDbEntity
  8
_U+30EC_U+30A4_U+30E4_U+30FC 1
 62
   179
420
  2234388
370
    25
  0
POLYLINE
  5
5F
330
41
100
AcDbEntity
  8
_U+30EC_U+30A4_U+30E4_U+30FC 1
 62
   179
420
  2234388
370
    25
100
AcDb2dPolyline
 66
     1
 10
0.0
 20
0.0
 30
0.0
  0
VERTEX
  5
60
330
5F
100
AcDbEntity
  8
_U+30EC_U+30A4_U+30E4_U+30FC 1
 62
   179
420
  2234388
370
    25
100
AcDbVertex
100
AcDb2dVertex
 10
74.09952394289698
 20
-123.5886741357696
 30
0.0
  0
VERTEX
  5
61
330
5F
100
AcDbEntity
  8
_U+30EC_U+30A4_U+30E4_U+30FC 1
 62
   179
420
  2234388
370
    25
100
AcDbVertex
100
AcDb2dVertex
 10
92.89735790776874
 20
-123.587968580214
 30
0.0
  0
VERTEX
  5
62
330
5F
100
AcDbEntity
  8
_U+30EC_U+30A4_U+30E4_U+30FC 1
 62
   179
420
  2234388
370
    25
100
AcDbVertex
100
AcDb2dVertex
 10
93.09992290260087
 20
-123.3881552469308
 30
0.0
  0
VERTEX
  5
63
330
5F
100
AcDbEntity
  8
_U+30EC_U+30A4_U+30E4_U+30FC 1
 62
   179
420
  2234388
370
    25
100
AcDbVertex
100
AcDb2dVertex
 10
93.29215150880782
 20
-123.587968580214
 30
0.0
  0
VERTEX
  5
64
330
5F
100
AcDbEntity
  8
_U+30EC_U+30A4_U+30E4_U+30FC 1
 62
   179
420
  2234388
370
    25
100
AcDbVertex
100
AcDb2dVertex
 10
98.09977166393298
 20
-123.5886741357696
 30
0.0
  0
SEQEND
  5
65
330
5F
100
AcDbEntity
  8
_U+30EC_U+30A4_U+30E4_U+30FC 1
 62
   179
420
  2234388
370
    25
  0
POLYLINE
  5
66
330
41
100
AcDbEntity
  8
_U+30EC_U+30A4_U+30E4_U+30FC 1
 62
   179
420
  2234388
370
    25
100
AcDb2dPolyline
 66
     1
 10
0.0
 20
0.0
 30
0.0
  0
VERTEX
  5
67
330
66
100
AcDbEntity
  8
_U+30EC_U+30A4_U+30E4_U+30FC 1
 62
   179
420
  2234388
370
    25
100
AcDbVertex
100
AcDb2dVertex
 10
83.0994845466222
 20
-133.2335480222474
 30
0.0
  0
VERTEX
  5
68
330
66
100
AcDbEntity
  8
_U+30EC_U+30A4_U+30E4_U+30FC 1
 62
   179
420
  2234388
370
    25
100
AcDbVertex
100
AcDb2dVertex
 10
83.0994845466222
 20
-136.2335349659418
 30
0.0
  0
SEQEND
  5
69
330
66
100
AcDbEntity
  8
_U+30EC_U+30A4_U+30E4_U+30FC 1
 62
   179
420
  2234388
370
    25
  0
POLYLINE
  5
6A
330
41
100
AcDbEntity
  8
_U+30EC_U+30A4_U+30E4_U+30FC 1
 62
   179
420
  2234388
370
    25
100
AcDb2dPolyline
 66
     1
 10
0.0
 20
0.0
 30
0.0
  0
VERTEX
  5
6B
330
6A
100
AcDbEntity
  8
_U+30EC_U+30A4_U+30E4_U+30FC 1
 62
   179
420
  2234388
370
    25
100
AcDbVertex
100
AcDb2dVertex
 10
82.09971234990628
 20
-133.2335480222474
 30
0.0
  0
VERTEX
  5
6C
330
6A
100
AcDbEntity
  8
_U+30EC_U+30A4_U+30E4_U+30FC 1
 62
   179
420
  2234388
370
    25
100
AcDbVertex
100
AcDb2dVertex
 10
82.09971234990628
 20
-135.2330924661919
 30
0.0
  0
SEQEND
  5
6D
330
6A
100
AcDbEntity
  8
_U+30EC_U+30A4_U+30E4_U+30FC 1
 62
   179
420
  2234388
370
    25
  0
POLYLINE
  5
6E
330
41
100
AcDbEntity
  8
_U+30EC_U+30A4_U+30E4_U+30FC 1
 62
   179
420
  2234388
370
    25
100
AcDb2dPolyline
 66
     1
 10
0.0
 20
0.0
 30
0.0
  0
VERTEX
  5
6F
330
6E
100
AcDbEntity
  8
_U+30EC_U+30A4_U+30E4_U+30FC 1
 62
   179
420
  2234388
370
    25
100
AcDbVertex
100
AcDb2dVertex
 10
74.09952394289698
 20
-123.5886741357696
 30
0.0
  0
VERTEX
  5
70
330
6E
100
AcDbEntity
  8
_U+30EC_U+30A4_U+30E4_U+30FC 1
 62
   179
420
  2234388
370
    25
100
AcDbVertex
100
AcDb2dVertex
 10
74.09952394289698
 20
-135.2330924661919
 30
0.0
  0
SEQEND
  5
71
330
6E
100
AcDbEntity
  8
_U+30EC_U+30A4_U+30E4_U+30FC 1
 62
   179
420
  2234388
370
    25
  0
POLYLINE
  5
72
330
41
100
AcDbEntity
  8
_U+30EC_U+30A4_U+30E4_U+30FC 1
 62
   179
420
  2234388
370
    25
100
AcDb2dPolyline
 66
     1
 10
0.0
 20
0.0
 30
0.0
  0
VERTEX
  5
73
330
72
100
AcDbEntity
  8
_U+30EC_U+30A4_U+30E4_U+30FC 1
 62
   179
420
  2234388
370
    25
100
AcDbVertex
100
AcDb2dVertex
 10
82.09971234990628
 20
-133.2335480222474
 30
0.0
  0
VERTEX
  5
74
330
72
100
AcDbEntity
  8
_U+30EC_U+30A4_U+30E4_U+30FC 1
 62
   179
420
  2234388
370
    25
100
AcDbVertex
100
AcDb2dVertex
 10
83.0994845466222
 20
-133.2335480222474
 30
0.0
  0
SEQEND
  5
75
330
72
100
AcDbEntity
  8
_U+30EC_U+30A4_U+30E4_U+30FC 1
 62
   179
420
  2234388
370
    25
  0
POLYLINE
  5
76
330
41
100
AcDbEntity
  8
_U+30EC_U+30A4_U+30E4_U+30FC 1
 62
   179
420
  2234388
370
    25
100
AcDb2dPolyline
 66
     1
 10
0.0
 20
0.0
 30
0.0
  0
VERTEX
  5
77
330
76
100
AcDbEntity
  8
_U+30EC_U+30A4_U+30E4_U+30FC 1
 62
   179
420
  2234388
370
    25
100
AcDbVertex
100
AcDb2dVertex
 10
73.09975174618107
 20
-136.3217294103642
 30
0.0
  0
VERTEX
  5
78
330
76
100
AcDbEntity
  8
_U+30EC_U+30A4_U+30E4_U+30FC 1
 62
   179
420
  2234388
370
    25
100
AcDbVertex
100
AcDb2dVertex
 10
83.0994845466222
 20
-136.3217294103642
 30
0.0
  0
SEQEND
  5
79
330
76
100
AcDbEntity
  8
_U+30EC_U+30A4_U+30E4_U+30FC 1
 62
   179
420
  2234388
370
    25
  0
POLYLINE
  5
7A
330
41
100
AcDbEntity
  8
_U+30EC_U+30A4_U+30E4_U+30FC 1
 62
   179
420
  2234388
370
    25
100
AcDb2dPolyline
 66
     1
 10
0.0
 20
0.0
 30
0.0
  0
VERTEX
  5
7B
330
7A
100
AcDbEntity
  8
_U+30EC_U+30A4_U+30E4_U+30FC 1
 62
   179
420
  2234388
370
    25
100
AcDbVertex
100
AcDb2dVertex
 10
74.09952394289698
 20
-135.2330924661919
 30
0.0
  0
VERTEX
  5
7C
330
7A
100
AcDbEntity
  8
_U+30EC_U+30A4_U+30E4_U+30FC 1
 62
   179
420
  2234388
370
    25
100
AcDbVertex
100
AcDb2dVertex
 10
82.09971234990628
 20
-135.2330924661919
 30
0.0
  0
SEQEND
  5
7D
330
7A
100
AcDbEntity
  8
_U+30EC_U+30A4_U+30E4_U+30FC 1
 62
   179
420
  2234388
370
    25
  0
SPLINE
  5
7E
330
41
100
AcDbEntity
  8
_U+30EC_U+30A4_U+30E4_U+30FC 1
 62
   179
420
  2234388
370
     9
100
AcDbSpline
210
0.0
220
0.0
230
1.0
 70
    11
 71
     3
 72
    17
 73
    13
 74
     0
 42
0.0000000001
 43
0.0000000001
 12
1.0
 22
0.0
 32
0.0
 13
1.0
 23
0.0
 33
0.0
 40
0.0
 40
0.0
 40
0.0
 40
0.0
 40
1.0
 40
1.0
 40
1.0
 40
2.0
 40
2.0
 40
2.0
 40
3.0
 40
3.0
 40
3.0
 40
4.0
 40
4.0
 40
4.0
 40
4.0
 10
73.19965841029891
 20
-118.5884724703528
 30
0.0
 10
73.19965841029891
 20
-118.5333333037
 30
0.0
 10
73.15489091144103
 20
-118.4885305259333
 30
0.0
 10
73.09975174618107
 20
-118.4885305259333
 30
0.0
 10
73.044647858698
 20
-118.4885305259333
 30
0.0
 10
72.99984508206325
 20
-118.5333333037
 30
0.0
 10
72.99984508206325
 20
-118.5884724703528
 30
0.0
 10
72.99984508206325
 20
-118.643576359228
 30
0.0
 10
73.044647858698
 20
-118.6883791369947
 30
0.0
 10
73.09975174618107
 20
-118.6883791369947
 30
0.0
 10
73.15489091144103
 20
-118.6883791369947
 30
0.0
 10
73.19965841029891
 20
-118.643576359228
 30
0.0
 10
73.19965841029891
 20
-118.5884724703528
 30
0.0
  0
SPLINE
  5
7F
330
41
100
AcDbEntity
  8
_U+30EC_U+30A4_U+30E4_U+30FC 1
 62
   179
420
  2234388
370
     9
100
AcDbSpline
210
0.0
220
0.0
230
1.0
 70
    11
 71
     3
 72
    17
 73
    13
 74
     0
 42
0.0000000001
 43
0.0000000001
 12
1.0
 22
0.0
 32
0.0
 13
1.0
 23
0.0
 33
0.0
 40
0.0
 40
0.0
 40
0.0
 40
0.0
 40
1.0
 40
1.0
 40
1.0
 40
2.0
 40
2.0
 40
2.0
 40
3.0
 40
3.0
 40
3.0
 40
4.0
 40
4.0
 40
4.0
 40
4.0
 10
98.19967832805082
 20
-118.5884724703528
 30
0.0
 10
98.19967832805082
 20
-118.5333333037
 30
0.0
 10
98.15491082919294
 20
-118.4885305259333
 30
0.0
 10
98.09977166393298
 20
-118.4885305259333
 30
0.0
 10
98.04431499868113
 20
-118.4885305259333
 30
0.0
 10
97.99951222204638
 20
-118.5333333037
 30
0.0
 10
97.99951222204638
 20
-118.5884724703528
 30
0.0
 10
97.99951222204638
 20
-118.643576359228
 30
0.0
 10
98.04431499868113
 20
-118.6883791369947
 30
0.0
 10
98.09977166393298
 20
-118.6883791369947
 30
0.0
 10
98.15491082919294
 20
-118.6883791369947
 30
0.0
 10
98.19967832805082
 20
-118.643576359228
 30
0.0
 10
98.19967832805082
 20
-118.5884724703528
 30
0.0
  0
SPLINE
  5
80
330
41
100
AcDbEntity
  8
_U+30EC_U+30A4_U+30E4_U+30FC 1
 62
   179
420
  2234388
370
     9
100
AcDbSpline
210
0.0
220
0.0
230
1.0
 70
    11
 71
     3
 72
    17
 73
    13
 74
     0
 42
0.0000000001
 43
0.0000000001
 12
1.0
 22
0.0
 32
0.0
 13
1.0
 23
0.0
 33
0.0
 40
0.0
 40
0.0
 40
0.0
 40
0.0
 40
1.0
 40
1.0
 40
1.0
 40
2.0
 40
2.0
 40
2.0
 40
3.0
 40
3.0
 40
3.0
 40
4.0
 40
4.0
 40
4.0
 40
4.0
 10
102.1997901704439
 20
-122.5889019137973
 30
0.0
 10
102.1997901704439
 20
-122.5330924693669
 30
0.0
 10
102.1549873938092
 20
-122.4882896916002
 30
0.0
 10
102.0995333078082
 20
-122.4882896916002
 30
0.0
 10
102.0444268410742
 20
-122.4882896916002
 30
0.0
 10
101.9996240644395
 20
-122.5330924693669
 30
0.0
 10
101.9996240644395
 20
-122.5889019137973
 30
0.0
 10
101.9996240644395
 20
-122.6440058026722
 30
0.0
 10
102.0444268410742
 20
-122.688808580439
 30
0.0
 10
102.0995333078082
 20
-122.688808580439
 30
0.0
 10
102.1549873938092
 20
-122.688808580439
 30
0.0
 10
102.1997901704439
 20
-122.6440058026722
 30
0.0
 10
102.1997901704439
 20
-122.5889019137973
 30
0.0
  0
SPLINE
  5
81
330
41
100
AcDbEntity
  8
_U+30EC_U+30A4_U+30E4_U+30FC 1
 62
   179
420
  2234388
370
     9
100
AcDbSpline
210
0.0
220
0.0
230
1.0
 70
    11
 71
     3
 72
    17
 73
    13
 74
     0
 42
0.0000000001
 43
0.0000000001
 12
1.0
 22
0.0
 32
0.0
 13
1.0
 23
0.0
 33
0.0
 40
0.0
 40
0.0
 40
0.0
 40
0.0
 40
1.0
 40
1.0
 40
1.0
 40
2.0
 40
2.0
 40
2.0
 40
3.0
 40
3.0
 40
3.0
 40
4.0
 40
4.0
 40
4.0
 40
4.0
 10
102.1997901704439
 20
-123.5886741357696
 30
0.0
 10
102.1997901704439
 20
-123.5335349691168
 30
0.0
 10
102.1549873938092
 20
-123.4887674691279
 30
0.0
 10
102.0995333078082
 20
-123.4887674691279
 30
0.0
 10
102.0444268410742
 20
-123.4887674691279
 30
0.0
 10
101.9996240644395
 20
-123.5335349691168
 30
0.0
 10
101.9996240644395
 20
-123.5886741357696
 30
0.0
 10
101.9996240644395
 20
-123.6437780246448
 30
0.0
 10
102.0444268410742
 20
-123.6885808024112
 30
0.0
 10
102.0995333078082
 20
-123.6885808024112
 30
0.0
 10
102.1549873938092
 20
-123.6885808024112
 30
0.0
 10
102.1997901704439
 20
-123.6437780246448
 30
0.0
 10
102.1997901704439
 20
-123.5886741357696
 30
0.0
  0
SPLINE
  5
82
330
41
100
AcDbEntity
  8
_U+30EC_U+30A4_U+30E4_U+30FC 1
 62
   179
420
  2234388
370
     9
100
AcDbSpline
210
0.0
220
0.0
230
1.0
 70
    11
 71
     3
 72
    17
 73
    13
 74
     0
 42
0.0000000001
 43
0.0000000001
 12
1.0
 22
0.0
 32
0.0
 13
1.0
 23
0.0
 33
0.0
 40
0.0
 40
0.0
 40
0.0
 40
0.0
 40
1.0
 40
1.0
 40
1.0
 40
2.0
 40
2.0
 40
2.0
 40
3.0
 40
3.0
 40
3.0
 40
4.0
 40
4.0
 40
4.0
 40
4.0
 10
102.1997901704439
 20
-133.1453535778251
 30
0.0
 10
102.1997901704439
 20
-133.0902496889495
 30
0.0
 10
102.1549873938092
 20
-133.0454469111828
 30
0.0
 10
102.0995333078082
 20
-133.0454469111828
 30
0.0
 10
102.0444268410742
 20
-133.0454469111828
 30
0.0
 10
101.9996240644395
 20
-133.0902496889495
 30
0.0
 10
101.9996240644395
 20
-133.1453535778251
 30
0.0
 10
101.9996240644395
 20
-133.2004927444775
 30
0.0
 10
102.0444268410742
 20
-133.2452602444667
 30
0.0
 10
102.0995333078082
 20
-133.2452602444667
 30
0.0
 10
102.1549873938092
 20
-133.2452602444667
 30
0.0
 10
102.1997901704439
 20
-133.2004927444775
 30
0.0
 10
102.1997901704439
 20
-133.1453535778251
 30
0.0
  0
SPLINE
  5
83
330
41
100
AcDbEntity
  8
_U+30EC_U+30A4_U+30E4_U+30FC 1
 62
   179
420
  2234388
370
     9
100
AcDbSpline
210
0.0
220
0.0
230
1.0
 70
    11
 71
     3
 72
    17
 73
    13
 74
     0
 42
0.0000000001
 43
0.0000000001
 12
1.0
 22
0.0
 32
0.0
 13
1.0
 23
0.0
 33
0.0
 40
0.0
 40
0.0
 40
0.0
 40
0.0
 40
1.0
 40
1.0
 40
1.0
 40
2.0
 40
2.0
 40
2.0
 40
3.0
 40
3.0
 40
3.0
 40
4.0
 40
4.0
 40
4.0
 40
4.0
 10
102.1997901704439
 20
-136.1453405215194
 30
0.0
 10
102.1997901704439
 20
-136.0902366326438
 30
0.0
 10
102.1549873938092
 20
-136.0454338548778
 30
0.0
 10
102.0995333078082
 20
-136.0454338548778
 30
0.0
 10
102.0444268410742
 20
-136.0454338548778
 30
0.0
 10
101.9996240644395
 20
-136.0902366326438
 30
0.0
 10
101.9996240644395
 20
-136.1453405215194
 30
0.0
 10
101.9996240644395
 20
-136.2004796881718
 30
0.0
 10
102.0444268410742
 20
-136.245247188161
 30
0.0
 10
102.0995333078082
 20
-136.245247188161
 30
0.0
 10
102.1549873938092
 20
-136.245247188161
 30
0.0
 10
102.1997901704439
 20
-136.2004796881718
 30
0.0
 10
102.1997901704439
 20
-136.1453405215194
 30
0.0
  0
SPLINE
  5
84
330
41
100
AcDbEntity
  8
_U+30EC_U+30A4_U+30E4_U+30FC 1
 62
   179
420
  2234388
370
     9
100
AcDbSpline
210
0.0
220
0.0
230
1.0
 70
    11
 71
     3
 72
    17
 73
    13
 74
     0
 42
0.0000000001
 43
0.0000000001
 12
1.0
 22
0.0
 32
0.0
 13
1.0
 23
0.0
 33
0.0
 40
0.0
 40
0.0
 40
0.0
 40
0.0
 40
1.0
 40
1.0
 40
1.0
 40
2.0
 40
2.0
 40
2.0
 40
3.0
 40
3.0
 40
3.0
 40
4.0
 40
4.0
 40
4.0
 40
4.0
 10
83.19939121074003
 20
-141.2930032980103
 30
0.0
 10
83.19939121074003
 20
-141.2371938535799
 30
0.0
 10
83.15462371188214
 20
-141.1924263535907
 30
0.0
 10
83.0994845466222
 20
-141.1924263535907
 30
0.0
 10
83.04438065913912
 20
-141.1924263535907
 30
0.0
 10
82.99957788250435
 20
-141.2371938535799
 30
0.0
 10
82.99957788250435
 20
-141.2930032980103
 30
0.0
 10
82.99957788250435
 20
-141.3481424646627
 30
0.0
 10
83.04438065913912
 20
-141.3929099646519
 30
0.0
 10
83.0994845466222
 20
-141.3929099646519
 30
0.0
 10
83.15462371188214
 20
-141.3929099646519
 30
0.0
 10
83.19939121074003
 20
-141.3481424646627
 30
0.0
 10
83.19939121074003
 20
-141.2930032980103
 30
0.0
  0
SPLINE
  5
85
330
41
100
AcDbEntity
  8
_U+30EC_U+30A4_U+30E4_U+30FC 1
 62
   179
420
  2234388
370
     9
100
AcDbSpline
210
0.0
220
0.0
230
1.0
 70
    11
 71
     3
 72
    17
 73
    13
 74
     0
 42
0.0000000001
 43
0.0000000001
 12
1.0
 22
0.0
 32
0.0
 13
1.0
 23
0.0
 33
0.0
 40
0.0
 40
0.0
 40
0.0
 40
0.0
 40
1.0
 40
1.0
 40
1.0
 40
2.0
 40
2.0
 40
2.0
 40
3.0
 40
3.0
 40
3.0
 40
4.0
 40
4.0
 40
4.0
 40
4.0
 10
73.19965841029891
 20
-141.2930032980103
 30
0.0
 10
73.19965841029891
 20
-141.2371938535799
 30
0.0
 10
73.15489091144103
 20
-141.1924263535907
 30
0.0
 10
73.09975174618107
 20
-141.1924263535907
 30
0.0
 10
73.044647858698
 20
-141.1924263535907
 30
0.0
 10
72.99984508206325
 20
-141.2371938535799
 30
0.0
 10
72.99984508206325
 20
-141.2930032980103
 30
0.0
 10
72.99984508206325
 20
-141.3481424646627
 30
0.0
 10
73.044647858698
 20
-141.3929099646519
 30
0.0
 10
73.09975174618107
 20
-141.3929099646519
 30
0.0
 10
73.15489091144103
 20
-141.3929099646519
 30
0.0
 10
73.19965841029891
 20
-141.3481424646627
 30
0.0
 10
73.19965841029891
 20
-141.2930032980103
 30
0.0
  0
POLYLINE
  5
86
330
41
100
AcDbEntity
  8
_U+30EC_U+30A4_U+30E4_U+30FC 1
 62
   179
420
  2234388
370
     9
100
AcDb2dPolyline
 66
     1
 10
0.0
 20
0.0
 30
0.0
  0
VERTEX
  5
87
330
86
100
AcDbEntity
  8
_U+30EC_U+30A4_U+30E4_U+30FC 1
 62
   179
420
  2234388
370
     9
100
AcDbVertex
100
AcDb2dVertex
 10
102.0995333078082
 20
-122.5889019137973
 30
0.0
  0
VERTEX
  5
88
330
86
100
AcDbEntity
  8
_U+30EC_U+30A4_U+30E4_U+30FC 1
 62
   179
420
  2234388
370
     9
100
AcDbVertex
100
AcDb2dVertex
 10
102.0995333078082
 20
-118.8178838591844
 30
0.0
  0
SEQEND
  5
89
330
86
100
AcDbEntity
  8
_U+30EC_U+30A4_U+30E4_U+30FC 1
 62
   179
420
  2234388
370
     9
  0
POLYLINE
  5
8A
330
41
100
AcDbEntity
  8
_U+30EC_U+30A4_U+30E4_U+30FC 1
 62
   179
420
  2234388
370
     9
100
AcDb2dPolyline
 66
     1
 10
0.0
 20
0.0
 30
0.0
  0
VERTEX
  5
8B
330
8A
100
AcDbEntity
  8
_U+30EC_U+30A4_U+30E4_U+30FC 1
 62
   179
420
  2234388
370
     9
100
AcDbVertex
100
AcDb2dVertex
 10
102.0995333078082
 20
-122.5889019137973
 30
0.0
  0
VERTEX
  5
8C
330
8A
100
AcDbEntity
  8
_U+30EC_U+30A4_U+30E4_U+30FC 1
 62
   179
420
  2234388
370
     9
100
AcDbVertex
100
AcDb2dVertex
 10
102.0995333078082
 20
-123.5886741357696
 30
0.0
  0
SEQEND
  5
8D
330
8A
100
AcDbEntity
  8
_U+30EC_U+30A4_U+30E4_U+30FC 1
 62
   179
420
  2234388
370
     9
  0
POLYLINE
  5
8E
330
41
100
AcDbEntity
  8
_U+30EC_U+30A4_U+30E4_U+30FC 1
 62
   179
420
  2234388
370
     9
100
AcDb2dPolyline
 66
     1
 10
0.0
 20
0.0
 30
0.0
  0
VERTEX
  5
8F
330
8E
100
AcDbEntity
  8
_U+30EC_U+30A4_U+30E4_U+30FC 1
 62
   179
420
  2234388
370
     9
100
AcDbVertex
100
AcDb2dVertex
 10
100.6394893769172
 20
-122.5889019137973
 30
0.0
  0
VERTEX
  5
90
330
8E
100
AcDbEntity
  8
_U+30EC_U+30A4_U+30E4_U+30FC 1
 62
   179
420
  2234388
370
     9
100
AcDbVertex
100
AcDb2dVertex
 10
103.0996583075585
 20
-122.5889019137973
 30
0.0
  0
SEQEND
  5
91
330
8E
100
AcDbEntity
  8
_U+30EC_U+30A4_U+30E4_U+30FC 1
 62
   179
420
  2234388
370
     9
  0
POLYLINE
  5
92
330
41
100
AcDbEntity
  8
_U+30EC_U+30A4_U+30E4_U+30FC 1
 62
   179
420
  2234388
370
     9
100
AcDb2dPolyline
 66
     1
 10
0.0
 20
0.0
 30
0.0
  0
VERTEX
  5
93
330
92
100
AcDbEntity
  8
_U+30EC_U+30A4_U+30E4_U+30FC 1
 62
   179
420
  2234388
370
     9
100
AcDbVertex
100
AcDb2dVertex
 10
100.6394893769172
 20
-123.5886741357696
 30
0.0
  0
VERTEX
  5
94
330
92
100
AcDbEntity
  8
_U+30EC_U+30A4_U+30E4_U+30FC 1
 62
   179
420
  2234388
370
     9
100
AcDbVertex
100
AcDb2dVertex
 10
103.0996583075585
 20
-123.5886741357696
 30
0.0
  0
SEQEND
  5
95
330
92
100
AcDbEntity
  8
_U+30EC_U+30A4_U+30E4_U+30FC 1
 62
   179
420
  2234388
370
     9
  0
INSERT
  5
97
330
41
100
AcDbEntity
  8
_U+30EC_U+30A4_U+30E4_U+30FC 1
100
AcDbBlockReference
  2
block 3
 10
0.0
 20
0.0
 30
0.0
  0
POLYLINE
  5
9C
330
41
100
AcDbEntity
  8
_U+30EC_U+30A4_U+30E4_U+30FC 1
 62
   179
420
  2234388
370
     9
100
AcDb2dPolyline
 66
     1
 10
0.0
 20
0.0
 30
0.0
  0
VERTEX
  5
9D
330
9C
100
AcDbEntity
  8
_U+30EC_U+30A4_U+30E4_U+30FC 1
 62
   179
420
  2234388
370
     9
100
AcDbVertex
100
AcDb2dVertex
 10
102.0995333078082
 20
-133.1453535778251
 30
0.0
  0
VERTEX
  5
9E
330
9C
100
AcDbEntity
  8
_U+30EC_U+30A4_U+30E4_U+30FC 1
 62
   179
420
  2234388
370
     9
100
AcDbVertex
100
AcDb2dVertex
 10
102.0995333078082
 20
-136.1453405215194
 30
0.0
  0
SEQEND
  5
9F
330
9C
100
AcDbEntity
  8
_U+30EC_U+30A4_U+30E4_U+30FC 1
 62
   179
420
  2234388
370
     9
  0
POLYLINE
  5
A0
330
41
100
AcDbEntity
  8
_U+30EC_U+30A4_U+30E4_U+30FC 1
 62
   179
420
  2234388
370
     9
100
AcDb2dPolyline
 66
     1
 10
0.0
 20
0.0
 30
0.0
  0
VERTEX
  5
A1
330
A0
100
AcDbEntity
  8
_U+30EC_U+30A4_U+30E4_U+30FC 1
 62
   179
420
  2234388
370
     9
100
AcDbVertex
100
AcDb2dVertex
 10
85.63955503737515
 20
-136.1453405215194
 30
0.0
  0
VERTEX
  5
A2
330
A0
100
AcDbEntity
  8
_U+30EC_U+30A4_U+30E4_U+30FC 1
 62
   179
420
  2234388
370
     9
100
AcDbVertex
100
AcDb2dVertex
 10
103.0996583075585
 20
-136.1453405215194
 30
0.0
  0
SEQEND
  5
A3
330
A0
100
AcDbEntity
  8
_U+30EC_U+30A4_U+30E4_U+30FC 1
 62
   179
420
  2234388
370
     9
  0
INSERT
  5
A5
330
41
100
AcDbEntity
  8
_U+30EC_U+30A4_U+30E4_U+30FC 1
100
AcDbBlockReference
  2
block 4
 10
0.0
 20
0.0
 30
0.0
  0
POLYLINE
  5
AA
330
41
100
AcDbEntity
  8
_U+30EC_U+30A4_U+30E4_U+30FC 1
 62
   179
420
  2234388
370
     9
100
AcDb2dPolyline
 66
     1
 10
0.0
 20
0.0
 30
0.0
  0
VERTEX
  5
AB
330
AA
100
AcDbEntity
  8
_U+30EC_U+30A4_U+30E4_U+30FC 1
 62
   179
420
  2234388
370
     9
100
AcDbVertex
100
AcDb2dVertex
 10
73.09975174618107
 20
-141.2930032980103
 30
0.0
  0
VERTEX
  5
AC
330
AA
100
AcDbEntity
  8
_U+30EC_U+30A4_U+30E4_U+30FC 1
 62
   179
420
  2234388
370
     9
100
AcDbVertex
100
AcDb2dVertex
 10
83.0994845466222
 20
-141.2930032980103
 30
0.0
  0
SEQEND
  5
AD
330
AA
100
AcDbEntity
  8
_U+30EC_U+30A4_U+30E4_U+30FC 1
 62
   179
420
  2234388
370
     9
  0
POLYLINE
  5
AE
330
41
100
AcDbEntity
  8
_U+30EC_U+30A4_U+30E4_U+30FC 1
 62
   179
420
  2234388
370
     9
100
AcDb2dPolyline
 66
     1
 10
0.0
 20
0.0
 30
0.0
  0
VERTEX
  5
AF
330
AE
100
AcDbEntity
  8
_U+30EC_U+30A4_U+30E4_U+30FC 1
 62
   179
420
  2234388
370
     9
100
AcDbVertex
100
AcDb2dVertex
 10
73.09975174618107
 20
-139.8329971872641
 30
0.0
  0
VERTEX
  5
B0
330
AE
100
AcDbEntity
  8
_U+30EC_U+30A4_U+30E4_U+30FC 1
 62
   179
420
  2234388
370
     9
100
AcDbVertex
100
AcDb2dVertex
 10
73.09975174618107
 20
-142.2927755199822
 30
0.0
  0
SEQEND
  5
B1
330
AE
100
AcDbEntity
  8
_U+30EC_U+30A4_U+30E4_U+30FC 1
 62
   179
420
  2234388
370
     9
  0
POLYLINE
  5
B2
330
41
100
AcDbEntity
  8
_U+30EC_U+30A4_U+30E4_U+30FC 1
 62
   179
420
  2234388
370
     9
100
AcDb2dPolyline
 66
     1
 10
0.0
 20
0.0
 30
0.0
  0
VERTEX
  5
B3
330
B2
100
AcDbEntity
  8
_U+30EC_U+30A4_U+30E4_U+30FC 1
 62
   179
420
  2234388
370
     9
100
AcDbVertex
100
AcDb2dVertex
 10
83.0994845466222
 20
-139.8329971872641
 30
0.0
  0
VERTEX
  5
B4
330
B2
100
AcDbEntity
  8
_U+30EC_U+30A4_U+30E4_U+30FC 1
 62
   179
420
  2234388
370
     9
100
AcDbVertex
100
AcDb2dVertex
 10
83.0994845466222
 20
-142.2927755199822
 30
0.0
  0
SEQEND
  5
B5
330
B2
100
AcDbEntity
  8
_U+30EC_U+30A4_U+30E4_U+30FC 1
 62
   179
420
  2234388
370
     9
  0
INSERT
  5
B7
330
41
100
AcDbEntity
  8
_U+30EC_U+30A4_U+30E4_U+30FC 1
100
AcDbBlockReference
  2
block 5
 10
0.0
 20
0.0
 30
0.0
  0
POLYLINE
  5
BF
330
41
100
AcDbEntity
  8
_U+30EC_U+30A4_U+30E4_U+30FC 1
 62
   179
420
  2234388
370
     9
100
AcDb2dPolyline
 66
     1
 10
0.0
 20
0.0
 30
0.0
  0
VERTEX
  5
C0
330
BF
100
AcDbEntity
  8
_U+30EC_U+30A4_U+30E4_U+30FC 1
 62
   179
420
  2234388
370
     9
100
AcDbVertex
100
AcDb2dVertex
 10
73.09975174618107
 20
-118.5884724703528
 30
0.0
  0
VERTEX
  5
C1
330
BF
100
AcDbEntity
  8
_U+30EC_U+30A4_U+30E4_U+30FC 1
 62
   179
420
  2234388
370
     9
100
AcDbVertex
100
AcDb2dVertex
 10
98.09977166393298
 20
-118.5884724703528
 30
0.0
  0
SEQEND
  5
C2
330
BF
100
AcDbEntity
  8
_U+30EC_U+30A4_U+30E4_U+30FC 1
 62
   179
420
  2234388
370
     9
  0
POLYLINE
  5
C3
330
41
100
AcDbEntity
  8
_U+30EC_U+30A4_U+30E4_U+30FC 1
 62
   179
420
  2234388
370
     9
100
AcDb2dPolyline
 66
     1
 10
0.0
 20
0.0
 30
0.0
  0
VERTEX
  5
C4
330
C3
100
AcDbEntity
  8
_U+30EC_U+30A4_U+30E4_U+30FC 1
 62
   179
420
  2234388
370
     9
100
AcDbVertex
100
AcDb2dVertex
 10
73.09975174618107
 20
-120.0484785810989
 30
0.0
  0
VERTEX
  5
C5
330
C3
100
AcDbEntity
  8
_U+30EC_U+30A4_U+30E4_U+30FC 1
 62
   179
420
  2234388
370
     9
100
AcDbVertex
100
AcDb2dVertex
 10
73.09975174618107
 20
-117.5887002483805
 30
0.0
  0
SEQEND
  5
C6
330
C3
100
AcDbEntity
  8
_U+30EC_U+30A4_U+30E4_U+30FC 1
 62
   179
420
  2234388
370
     9
  0
POLYLINE
  5
C7
330
41
100
AcDbEntity
  8
_U+30EC_U+30A4_U+30E4_U+30FC 1
 62
   179
420
  2234388
370
     9
100
AcDb2dPolyline
 66
     1
 10
0.0
 20
0.0
 30
0.0
  0
VERTEX
  5
C8
330
C7
100
AcDbEntity
  8
_U+30EC_U+30A4_U+30E4_U+30FC 1
 62
   179
420
  2234388
370
     9
100
AcDbVertex
100
AcDb2dVertex
 10
98.09977166393298
 20
-120.0484785810989
 30
0.0
  0
VERTEX
  5
C9
330
C7
100
AcDbEntity
  8
_U+30EC_U+30A4_U+30E4_U+30FC 1
 62
   179
420
  2234388
370
     9
100
AcDbVertex
100
AcDb2dVertex
 10
98.09977166393298
 20
-117.5887002483805
 30
0.0
  0
SEQEND
  5
CA
330
C7
100
AcDbEntity
  8
_U+30EC_U+30A4_U+30E4_U+30FC 1
 62
   179
420
  2234388
370
     9
  0
INSERT
  5
CC
330
41
100
AcDbEntity
  8
_U+30EC_U+30A4_U+30E4_U+30FC 1
100
AcDbBlockReference
  2
block 6
 10
0.0
 20
0.0
 30
0.0
  0
POLYLINE
  5
D3
330
41
100
AcDbEntity
  8
_U+30EC_U+30A4_U+30E4_U+30FC 1
 62
   179
420
  2234388
370
     9
100
AcDb2dPolyline
 66
     1
 10
0.0
 20
0.0
 30
0.0
  0
VERTEX
  5
D4
330
D3
100
AcDbEntity
  8
_U+30EC_U+30A4_U+30E4_U+30FC 1
 62
   179
420
  2234388
370
     9
100
AcDbVertex
100
AcDb2dVertex
 10
102.0995333078082
 20
-133.0874980222837
 30
0.0
  0
VERTEX
  5
D5
330
D3
100
AcDbEntity
  8
_U+30EC_U+30A4_U+30E4_U+30FC 1
 62
   179
420
  2234388
370
     9
100
AcDbVertex
100
AcDb2dVertex
 10
102.0995333078082
 20
-123.5886741357696
 30
0.0
  0
SEQEND
  5
D6
330
D3
100
AcDbEntity
  8
_U+30EC_U+30A4_U+30E4_U+30FC 1
 62
   179
420
  2234388
370
     9
  0
POLYLINE
  5
D7
330
41
100
AcDbEntity
  8
_U+30EC_U+30A4_U+30E4_U+30FC 1
 62
   179
420
  2234388
370
     9
100
AcDb2dPolyline
 66
     1
 10
0.0
 20
0.0
 30
0.0
  0
VERTEX
  5
D8
330
D7
100
AcDbEntity
  8
_U+30EC_U+30A4_U+30E4_U+30FC 1
 62
   179
420
  2234388
370
     9
100
AcDbVertex
100
AcDb2dVertex
 10
85.63955503737515
 20
-133.1453535778251
 30
0.0
  0
VERTEX
  5
D9
330
D7
100
AcDbEntity
  8
_U+30EC_U+30A4_U+30E4_U+30FC 1
 62
   179
420
  2234388
370
     9
100
AcDbVertex
100
AcDb2dVertex
 10
103.0996583075585
 20
-133.1453535778251
 30
0.0
  0
SEQEND
  5
DA
330
D7
100
AcDbEntity
  8
_U+30EC_U+30A4_U+30E4_U+30FC 1
 62
   179
420
  2234388
370
     9
  0
INSERT
  5
DC
330
41
100
AcDbEntity
  8
_U+30EC_U+30A4_U+30E4_U+30FC 1
100
AcDbBlockReference
  2
block 7
 10
0.0
 20
0.0
 30
0.0
  0
ENDBLK
  5
44
330
41
100
AcDbEntity
  8
0
100
AcDbBlockEnd
  0
BLOCK
  5
98
330
96
100
AcDbEntity
  8
0
100
AcDbBlockBegin
  2
block 3
 70
     0
 10
0.0
 20
0.0
 30
0.0
  3
block 3
  1

  0
SPLINE
  5
9A
330
96
100
AcDbEntity
  8
_U+30EC_U+30A4_U+30E4_U+30FC 1
370
     0
100
AcDbSpline
210
0.0
220
0.0
230
1.0
 70
    11
 71
     3
 72
    26
 73
    22
 74
     0
 42
0.0000000001
 43
0.0000000001
 12
1.0
 22
0.0
 32
0.0
 13
1.0
 23
0.0
 33
0.0
 40
0.0
 40
0.0
 40
0.0
 40
0.0
 40
1.0
 40
1.0
 40
1.0
 40
2.0
 40
2.0
 40
2.0
 40
3.0
 40
3.0
 40
3.0
 40
4.0
 40
4.0
 40
4.0
 40
5.0
 40
5.0
 40
5.0
 40
6.0
 40
6.0
 40
6.0
 40
7.0
 40
7.0
 40
7.0
 40
7.0
 10
106.392472304131
 20
-123.1656086931669
 30
0.0
 10
106.392472304131
 20
-123.1656086931669
 30
0.0
 10
105.2883192011085
 20
-123.1656086931669
 30
0.0
 10
105.2883192011085
 20
-123.1656086931669
 30
0.0
 10
105.2883192011085
 20
-123.1656086931669
 30
0.0
 10
105.2883192011085
 20
-123.4956488406539
 30
0.0
 10
105.2883192011085
 20
-123.4956488406539
 30
0.0
 10
105.2883192011085
 20
-123.4956488406539
 30
0.0
 10
105.1401800952427
 20
-123.4956488406539
 30
0.0
 10
105.1401800952427
 20
-123.4956488406539
 30
0.0
 10
105.1253661846562
 20
-123.1635416358758
 30
0.0
 10
104.9624131682039
 20
-123.1170328468249
 30
0.0
 10
104.8480359980936
 20
-123.0874050256518
 30
0.0
 10
104.8480359980936
 20
-123.0874050256518
 30
0.0
 10
104.8480359980936
 20
-122.9413329770772
 30
0.0
 10
104.8480359980936
 20
-122.9413329770772
 30
0.0
 10
104.8480359980936
 20
-122.9413329770772
 30
0.0
 10
106.392472304131
 20
-122.9413329770772
 30
0.0
 10
106.392472304131
 20
-122.9413329770772
 30
0.0
 10
106.392472304131
 20
-122.9413329770772
 30
0.0
 10
106.392472304131
 20
-123.1656086931669
 30
0.0
 10
106.392472304131
 20
-123.1656086931669
 30
0.0
  0
HATCH
  5
9B
330
96
100
AcDbEntity
  8
_U+30EC_U+30A4_U+30E4_U+30FC 1
 62
   179
420
  2234388
100
AcDbHatch
 10
0.0
 20
0.0
 30
0.0
210
0.0
220
0.0
230
1.0
  2
SOLID
 70
     1
 71
     0
 91
        1
 92
        1
 93
        1
 72
     4
 94
        3
 73
     0
 74
     1
 95
       26
 96
       22
 40
0.0
 40
0.0
 40
0.0
 40
0.0
 40
1.0
 40
1.0
 40
1.0
 40
2.0
 40
2.0
 40
2.0
 40
3.0
 40
3.0
 40
3.0
 40
4.0
 40
4.0
 40
4.0
 40
5.0
 40
5.0
 40
5.0
 40
6.0
 40
6.0
 40
6.0
 40
7.0
 40
7.0
 40
7.0
 40
7.0
 10
106.392472304131
 20
-123.1656086931669
 10
106.392472304131
 20
-123.1656086931669
 10
105.2883192011085
 20
-123.1656086931669
 10
105.2883192011085
 20
-123.1656086931669
 10
105.2883192011085
 20
-123.1656086931669
 10
105.2883192011085
 20
-123.4956488406539
 10
105.2883192011085
 20
-123.4956488406539
 10
105.2883192011085
 20
-123.4956488406539
 10
105.1401800952427
 20
-123.4956488406539
 10
105.1401800952427
 20
-123.4956488406539
 10
105.1253661846562
 20
-123.1635416358758
 10
104.9624131682039
 20
-123.1170328468249
 10
104.8480359980936
 20
-123.0874050256518
 10
104.8480359980936
 20
-123.0874050256518
 10
104.8480359980936
 20
-122.9413329770772
 10
104.8480359980936
 20
-122.9413329770772
 10
104.8480359980936
 20
-122.9413329770772
 10
106.392472304131
 20
-122.9413329770772
 10
106.392472304131
 20
-122.9413329770772
 10
106.392472304131
 20
-122.9413329770772
 10
106.392472304131
 20
-123.1656086931669
 10
106.392472304131
 20
-123.1656086931669
 97
        0
 97
        0
 75
     2
 76
     1
 98
        0
  0
ENDBLK
  5
99
330
96
100
AcDbEntity
  8
0
100
AcDbBlockEnd
  0
BLOCK
  5
A6
330
A4
100
AcDbEntity
  8
0
100
AcDbBlockBegin
  2
block 4
 70
     0
 10
0.0
 20
0.0
 30
0.0
  3
block 4
  1

  0
SPLINE
  5
A8
330
A4
100
AcDbEntity
  8
_U+30EC_U+30A4_U+30E4_U+30FC 1
370
     0
100
AcDbSpline
210
0.0
220
0.0
230
1.0
 70
    11
 71
     3
 72
    62
 73
    58
 74
     0
 42
0.0000000001
 43
0.0000000001
 12
1.0
 22
0.0
 32
0.0
 13
1.0
 23
0.0
 33
0.0
 40
0.0
 40
0.0
 40
0.0
 40
0.0
 40
1.0
 40
1.0
 40
1.0
 40
2.0
 40
2.0
 40
2.0
 40
3.0
 40
3.0
 40
3.0
 40
4.0
 40
4.0
 40
4.0
 40
5.0
 40
5.0
 40
5.0
 40
6.0
 40
6.0
 40
6.0
 40
7.0
 40
7.0
 40
7.0
 40
8.0
 40
8.0
 40
8.0
 40
9.0
 40
9.0
 40
9.0
 40
10.0
 40
10.0
 40
10.0
 40
11.0
 40
11.0
 40
11.0
 40
12.0
 40
12.0
 40
12.0
 40
13.0
 40
13.0
 40
13.0
 40
14.0
 40
14.0
 40
14.0
 40
15.0
 40
15.0
 40
15.0
 40
16.0
 40
16.0
 40
16.0
 40
17.0
 40
17.0
 40
17.0
 40
18.0
 40
18.0
 40
18.0
 40
19.0
 40
19.0
 40
19.0
 40
19.0
 10
101.5042263201101
 20
-134.6553466460237
 30
0.0
 10
101.5042263201101
 20
-134.7507757909651
 30
0.0
 10
101.48321123765
 20
-134.9685058256329
 30
0.0
 10
101.2971760814465
 20
-135.0935627917474
 30
0.0
 10
101.1848659686274
 20
-135.1676323446803
 30
0.0
 10
101.0856472186522
 20
-135.1717664592626
 30
0.0
 10
101.0008978697151
 20
-135.1759005738449
 30
0.0
 10
101.0008978697151
 20
-135.1759005738449
 30
0.0
 10
101.0008978697151
 20
-134.9557589723375
 30
0.0
 10
101.0008978697151
 20
-134.9557589723375
 30
0.0
 10
101.0749674226479
 20
-134.9536919150463
 30
0.0
 10
101.3095784251935
 20
-134.9433566285905
 30
0.0
 10
101.3095784251935
 20
-134.6598252701545
 30
0.0
 10
101.3095784251935
 20
-134.522365960293
 30
0.0
 10
101.2399874963914
 20
-134.3697482302965
 30
0.0
 10
101.0115776657193
 20
-134.3697482302965
 30
0.0
 10
100.8951334383179
 20
-134.3697482302965
 30
0.0
 10
100.8465575919759
 20
-134.4079887901827
 30
0.0
 10
100.8148627135116
 20
-134.439683668647
 30
0.0
 10
100.7407931605787
 20
-134.5137532215799
 30
0.0
 10
100.7280463072833
 20
-134.6301974489813
 30
0.0
 10
100.7280463072833
 20
-134.6849744671968
 30
0.0
 10
100.7280463072833
 20
-134.7042670019142
 30
0.0
 10
100.7301133645744
 20
-134.7400959949608
 30
0.0
 10
100.7342474791567
 20
-134.7676567588428
 30
0.0
 10
100.7342474791567
 20
-134.7676567588428
 30
0.0
 10
100.5395995842401
 20
-134.7676567588428
 30
0.0
 10
100.5395995842401
 20
-134.7676567588428
 30
0.0
 10
100.5461452656621
 20
-134.7294161989565
 30
0.0
 10
100.5482123229532
 20
-134.6873860340365
 30
0.0
 10
100.5482123229532
 20
-134.6808403526145
 30
0.0
 10
100.5482123229532
 20
-134.6153835383948
 30
0.0
 10
100.5268527309447
 20
-134.4166015288959
 30
0.0
 10
100.290174671108
 20
-134.4166015288959
 30
0.0
 10
100.1124077440691
 20
-134.4166015288959
 30
0.0
 10
100.0572862163051
 20
-134.5475151573353
 30
0.0
 10
100.0572862163051
 20
-134.6577582128633
 30
0.0
 10
100.0572862163051
 20
-134.921997036582
 30
0.0
 10
100.290174671108
 20
-134.9306097752951
 30
0.0
 10
100.3618326572012
 20
-134.9347438898774
 30
0.0
 10
100.3618326572012
 20
-134.9347438898774
 30
0.0
 10
100.3618326572012
 20
-135.1380045235072
 30
0.0
 10
100.3618326572012
 20
-135.1380045235072
 30
0.0
 10
100.2371202006352
 20
-135.1293917847941
 30
0.0
 10
99.86057126409736
 20
-135.101831020912
 30
0.0
 10
99.86057126409736
 20
-134.6450113595679
 30
0.0
 10
99.86057126409736
 20
-134.4207356434782
 30
0.0
 10
99.98769528750309
 20
-134.1795789595107
 30
0.0
 10
100.283628989686
 20
-134.1795789595107
 30
0.0
 10
100.4700086554381
 20
-134.1795789595107
 30
0.0
 10
100.5523464375355
 20
-134.2746635949036
 30
0.0
 10
100.613669137173
 20
-134.3742268544273
 30
0.0
 10
100.641229901055
 20
-134.3129041547898
 30
0.0
 10
100.7215006258613
 20
-134.1310031131686
 30
0.0
 10
100.9988308124239
 20
-134.1310031131686
 30
0.0
 10
101.3371391890754
 20
-134.1310031131686
 30
0.0
 10
101.5042263201101
 20
-134.3783609690096
 30
0.0
 10
101.5042263201101
 20
-134.6553466460237
 30
0.0
  0
HATCH
  5
A9
330
A4
100
AcDbEntity
  8
_U+30EC_U+30A4_U+30E4_U+30FC 1
 62
   179
420
  2234388
100
AcDbHatch
 10
0.0
 20
0.0
 30
0.0
210
0.0
220
0.0
230
1.0
  2
SOLID
 70
     1
 71
     0
 91
        1
 92
        1
 93
        1
 72
     4
 94
        3
 73
     0
 74
     1
 95
       62
 96
       58
 40
0.0
 40
0.0
 40
0.0
 40
0.0
 40
1.0
 40
1.0
 40
1.0
 40
2.0
 40
2.0
 40
2.0
 40
3.0
 40
3.0
 40
3.0
 40
4.0
 40
4.0
 40
4.0
 40
5.0
 40
5.0
 40
5.0
 40
6.0
 40
6.0
 40
6.0
 40
7.0
 40
7.0
 40
7.0
 40
8.0
 40
8.0
 40
8.0
 40
9.0
 40
9.0
 40
9.0
 40
10.0
 40
10.0
 40
10.0
 40
11.0
 40
11.0
 40
11.0
 40
12.0
 40
12.0
 40
12.0
 40
13.0
 40
13.0
 40
13.0
 40
14.0
 40
14.0
 40
14.0
 40
15.0
 40
15.0
 40
15.0
 40
16.0
 40
16.0
 40
16.0
 40
17.0
 40
17.0
 40
17.0
 40
18.0
 40
18.0
 40
18.0
 40
19.0
 40
19.0
 40
19.0
 40
19.0
 10
101.5042263201101
 20
-134.6553466460237
 10
101.5042263201101
 20
-134.7507757909651
 10
101.48321123765
 20
-134.9685058256329
 10
101.2971760814465
 20
-135.0935627917474
 10
101.1848659686274
 20
-135.1676323446803
 10
101.0856472186522
 20
-135.1717664592626
 10
101.0008978697151
 20
-135.1759005738449
 10
101.0008978697151
 20
-135.1759005738449
 10
101.0008978697151
 20
-134.9557589723375
 10
101.0008978697151
 20
-134.9557589723375
 10
101.0749674226479
 20
-134.9536919150463
 10
101.3095784251935
 20
-134.9433566285905
 10
101.3095784251935
 20
-134.6598252701545
 10
101.3095784251935
 20
-134.522365960293
 10
101.2399874963914
 20
-134.3697482302965
 10
101.0115776657193
 20
-134.3697482302965
 10
100.8951334383179
 20
-134.3697482302965
 10
100.8465575919759
 20
-134.4079887901827
 10
100.8148627135116
 20
-134.439683668647
 10
100.7407931605787
 20
-134.5137532215799
 10
100.7280463072833
 20
-134.6301974489813
 10
100.7280463072833
 20
-134.6849744671968
 10
100.7280463072833
 20
-134.7042670019142
 10
100.7301133645744
 20
-134.7400959949608
 10
100.7342474791567
 20
-134.7676567588428
 10
100.7342474791567
 20
-134.7676567588428
 10
100.5395995842401
 20
-134.7676567588428
 10
100.5395995842401
 20
-134.7676567588428
 10
100.5461452656621
 20
-134.7294161989565
 10
100.5482123229532
 20
-134.6873860340365
 10
100.5482123229532
 20
-134.6808403526145
 10
100.5482123229532
 20
-134.6153835383948
 10
100.5268527309447
 20
-134.4166015288959
 10
100.290174671108
 20
-134.4166015288959
 10
100.1124077440691
 20
-134.4166015288959
 10
100.0572862163051
 20
-134.5475151573353
 10
100.0572862163051
 20
-134.6577582128633
 10
100.0572862163051
 20
-134.921997036582
 10
100.290174671108
 20
-134.9306097752951
 10
100.3618326572012
 20
-134.9347438898774
 10
100.3618326572012
 20
-134.9347438898774
 10
100.3618326572012
 20
-135.1380045235072
 10
100.3618326572012
 20
-135.1380045235072
 10
100.2371202006352
 20
-135.1293917847941
 10
99.86057126409736
 20
-135.101831020912
 10
99.86057126409736
 20
-134.6450113595679
 10
99.86057126409736
 20
-134.4207356434782
 10
99.98769528750309
 20
-134.1795789595107
 10
100.283628989686
 20
-134.1795789595107
 10
100.4700086554381
 20
-134.1795789595107
 10
100.5523464375355
 20
-134.2746635949036
 10
100.613669137173
 20
-134.3742268544273
 10
100.641229901055
 20
-134.3129041547898
 10
100.7215006258613
 20
-134.1310031131686
 10
100.9988308124239
 20
-134.1310031131686
 10
101.3371391890754
 20
-134.1310031131686
 10
101.5042263201101
 20
-134.3783609690096
 10
101.5042263201101
 20
-134.6553466460237
 97
        0
 97
        0
 75
     2
 76
     1
 98
        0
  0
ENDBLK
  5
A7
330
A4
100
AcDbEntity
  8
0
100
AcDbBlockEnd
  0
BLOCK
  5
B8
330
B6
100
AcDbEntity
  8
0
100
AcDbBlockBegin
  2
block 5
 70
     0
 10
0.0
 20
0.0
 30
0.0
  3
block 5
  1

  0
SPLINE
  5
BA
330
B6
100
AcDbEntity
  8
_U+30EC_U+30A4_U+30E4_U+30FC 1
370
     0
100
AcDbSpline
210
0.0
220
0.0
230
1.0
 70
    11
 71
     3
 72
    26
 73
    22
 74
     0
 42
0.0000000001
 43
0.0000000001
 12
1.0
 22
0.0
 32
0.0
 13
1.0
 23
0.0
 33
0.0
 40
0.0
 40
0.0
 40
0.0
 40
0.0
 40
1.0
 40
1.0
 40
1.0
 40
2.0
 40
2.0
 40
2.0
 40
3.0
 40
3.0
 40
3.0
 40
4.0
 40
4.0
 40
4.0
 40
5.0
 40
5.0
 40
5.0
 40
6.0
 40
6.0
 40
6.0
 40
7.0
 40
7.0
 40
7.0
 40
7.0
 10
77.46228296674555
 20
-140.6474012235187
 30
0.0
 10
77.46228296674555
 20
-140.6474012235187
 30
0.0
 10
77.46228296674555
 20
-139.5432481204961
 30
0.0
 10
77.46228296674555
 20
-139.5432481204961
 30
0.0
 10
77.46228296674555
 20
-139.5432481204961
 30
0.0
 10
77.13224281925861
 20
-139.5432481204961
 30
0.0
 10
77.13224281925861
 20
-139.5432481204961
 30
0.0
 10
77.13224281925861
 20
-139.5432481204961
 30
0.0
 10
77.13224281925861
 20
-139.3951090146304
 30
0.0
 10
77.13224281925861
 20
-139.3951090146304
 30
0.0
 10
77.46435002403669
 20
-139.3802951040438
 30
0.0
 10
77.51085881308757
 20
-139.2173420875915
 30
0.0
 10
77.54048663426072
 20
-139.1029649174812
 30
0.0
 10
77.54048663426072
 20
-139.1029649174812
 30
0.0
 10
77.68655868283531
 20
-139.1029649174812
 30
0.0
 10
77.68655868283531
 20
-139.1029649174812
 30
0.0
 10
77.68655868283531
 20
-139.1029649174812
 30
0.0
 10
77.68655868283531
 20
-140.6474012235187
 30
0.0
 10
77.68655868283531
 20
-140.6474012235187
 30
0.0
 10
77.68655868283531
 20
-140.6474012235187
 30
0.0
 10
77.46228296674555
 20
-140.6474012235187
 30
0.0
 10
77.46228296674555
 20
-140.6474012235187
 30
0.0
  0
HATCH
  5
BB
330
B6
100
AcDbEntity
  8
_U+30EC_U+30A4_U+30E4_U+30FC 1
 62
   179
420
  2234388
100
AcDbHatch
 10
0.0
 20
0.0
 30
0.0
210
0.0
220
0.0
230
1.0
  2
SOLID
 70
     1
 71
     0
 91
        1
 92
        1
 93
        1
 72
     4
 94
        3
 73
     0
 74
     1
 95
       26
 96
       22
 40
0.0
 40
0.0
 40
0.0
 40
0.0
 40
1.0
 40
1.0
 40
1.0
 40
2.0
 40
2.0
 40
2.0
 40
3.0
 40
3.0
 40
3.0
 40
4.0
 40
4.0
 40
4.0
 40
5.0
 40
5.0
 40
5.0
 40
6.0
 40
6.0
 40
6.0
 40
7.0
 40
7.0
 40
7.0
 40
7.0
 10
77.46228296674555
 20
-140.6474012235187
 10
77.46228296674555
 20
-140.6474012235187
 10
77.46228296674555
 20
-139.5432481204961
 10
77.46228296674555
 20
-139.5432481204961
 10
77.46228296674555
 20
-139.5432481204961
 10
77.13224281925861
 20
-139.5432481204961
 10
77.13224281925861
 20
-139.5432481204961
 10
77.13224281925861
 20
-139.5432481204961
 10
77.13224281925861
 20
-139.3951090146304
 10
77.13224281925861
 20
-139.3951090146304
 10
77.46435002403669
 20
-139.3802951040438
 10
77.51085881308757
 20
-139.2173420875915
 10
77.54048663426072
 20
-139.1029649174812
 10
77.54048663426072
 20
-139.1029649174812
 10
77.68655868283531
 20
-139.1029649174812
 10
77.68655868283531
 20
-139.1029649174812
 10
77.68655868283531
 20
-139.1029649174812
 10
77.68655868283531
 20
-140.6474012235187
 10
77.68655868283531
 20
-140.6474012235187
 10
77.68655868283531
 20
-140.6474012235187
 10
77.46228296674555
 20
-140.6474012235187
 10
77.46228296674555
 20
-140.6474012235187
 97
        0
 97
        0
 75
     2
 76
     1
 98
        0
  0
SPLINE
  5
BC
330
B6
100
AcDbEntity
  8
_U+30EC_U+30A4_U+30E4_U+30FC 1
370
     0
100
AcDbSpline
210
0.0
220
0.0
230
1.0
 70
    11
 71
     3
 72
    29
 73
    25
 74
     0
 42
0.0000000001
 43
0.0000000001
 12
1.0
 22
0.0
 32
0.0
 13
1.0
 23
0.0
 33
0.0
 40
0.0
 40
0.0
 40
0.0
 40
0.0
 40
1.0
 40
1.0
 40
1.0
 40
2.0
 40
2.0
 40
2.0
 40
3.0
 40
3.0
 40
3.0
 40
4.0
 40
4.0
 40
4.0
 40
5.0
 40
5.0
 40
5.0
 40
6.0
 40
6.0
 40
6.0
 40
7.0
 40
7.0
 40
7.0
 40
8.0
 40
8.0
 40
8.0
 40
8.0
 10
79.08543970462101
 20
-140.4696342964798
 30
0.0
 10
78.97760821593269
 20
-140.679096101983
 30
0.0
 10
78.80414765825036
 20
-140.6980441271519
 30
0.0
 10
78.68770343084891
 20
-140.6980441271519
 30
0.0
 10
78.526989726462
 20
-140.6980441271519
 30
0.0
 10
78.38522404724398
 20
-140.651535338101
 30
0.0
 10
78.28996715707682
 20
-140.4696342964798
 30
0.0
 10
78.18644203774505
 20
-140.2749864015632
 30
0.0
 10
78.16732175780193
 20
-140.0383083417265
 30
0.0
 10
78.16732175780193
 20
-139.8753553252742
 30
0.0
 10
78.16732175780193
 20
-139.7313503339908
 30
0.0
 10
78.18420272567965
 20
-139.479513854019
 30
0.0
 10
78.28996715707682
 20
-139.2807318445201
 30
0.0
 10
78.3979709005394
 20
-139.0778157204389
 30
0.0
 10
78.5586846049263
 20
-139.0543890711392
 30
0.0
 10
78.68770343084891
 20
-139.0543890711392
 30
0.0
 10
78.84635007794466
 20
-139.0543890711392
 30
0.0
 10
78.99018281445385
 20
-139.0988308028989
 30
0.0
 10
79.08543970462101
 20
-139.2807318445201
 30
0.0
 10
79.18483070937046
 20
-139.4733126821456
 30
0.0
 10
79.2080851038959
 20
-139.7017225128176
 30
0.0
 10
79.2080851038959
 20
-139.8753553252742
 30
0.0
 10
79.2080851038959
 20
-140.0465765708911
 30
0.0
 10
79.18707002143587
 20
-140.2770534588544
 30
0.0
 10
79.08543970462101
 20
-140.4696342964798
 30
0.0
  0
SPLINE
  5
BD
330
B6
100
AcDbEntity
  8
_U+30EC_U+30A4_U+30E4_U+30FC 1
370
     0
100
AcDbSpline
210
0.0
220
0.0
230
1.0
 70
    11
 71
     3
 72
    17
 73
    13
 74
     0
 42
0.0000000001
 43
0.0000000001
 12
1.0
 22
0.0
 32
0.0
 13
1.0
 23
0.0
 33
0.0
 40
0.0
 40
0.0
 40
0.0
 40
0.0
 40
1.0
 40
1.0
 40
1.0
 40
2.0
 40
2.0
 40
2.0
 40
3.0
 40
3.0
 40
3.0
 40
4.0
 40
4.0
 40
4.0
 40
4.0
 10
78.68770343084891
 20
-139.2469699087646
 30
0.0
 10
78.43810626294255
 20
-139.2469699087646
 30
0.0
 10
78.3915974738917
 20
-139.5305012672007
 30
0.0
 10
78.3915974738917
 20
-139.8753553252742
 30
0.0
 10
78.3915974738917
 20
-140.1947156767569
 30
0.0
 10
78.42759872171254
 20
-140.5033962322353
 30
0.0
 10
78.68770343084891
 20
-140.5033962322353
 30
0.0
 10
78.93523354146411
 20
-140.5033962322353
 30
0.0
 10
78.9839816425804
 20
-140.2222764406389
 30
0.0
 10
78.9839816425804
 20
-139.8753553252742
 30
0.0
 10
78.9839816425804
 20
-139.555650464243
 30
0.0
 10
78.94574108269413
 20
-139.2469699087646
 30
0.0
 10
78.68770343084891
 20
-139.2469699087646
 30
0.0
  0
HATCH
  5
BE
330
B6
100
AcDbEntity
  8
_U+30EC_U+30A4_U+30E4_U+30FC 1
 62
   179
420
  2234388
100
AcDbHatch
 10
0.0
 20
0.0
 30
0.0
210
0.0
220
0.0
230
1.0
  2
SOLID
 70
     1
 71
     0
 91
        2
 92
        1
 93
        1
 72
     4
 94
        3
 73
     0
 74
     1
 95
       29
 96
       25
 40
0.0
 40
0.0
 40
0.0
 40
0.0
 40
1.0
 40
1.0
 40
1.0
 40
2.0
 40
2.0
 40
2.0
 40
3.0
 40
3.0
 40
3.0
 40
4.0
 40
4.0
 40
4.0
 40
5.0
 40
5.0
 40
5.0
 40
6.0
 40
6.0
 40
6.0
 40
7.0
 40
7.0
 40
7.0
 40
8.0
 40
8.0
 40
8.0
 40
8.0
 10
79.08543970462101
 20
-140.4696342964798
 10
78.97760821593269
 20
-140.679096101983
 10
78.80414765825036
 20
-140.6980441271519
 10
78.68770343084891
 20
-140.6980441271519
 10
78.526989726462
 20
-140.6980441271519
 10
78.38522404724398
 20
-140.651535338101
 10
78.28996715707682
 20
-140.4696342964798
 10
78.18644203774505
 20
-140.2749864015632
 10
78.16732175780193
 20
-140.0383083417265
 10
78.16732175780193
 20
-139.8753553252742
 10
78.16732175780193
 20
-139.7313503339908
 10
78.18420272567965
 20
-139.479513854019
 10
78.28996715707682
 20
-139.2807318445201
 10
78.3979709005394
 20
-139.0778157204389
 10
78.5586846049263
 20
-139.0543890711392
 10
78.68770343084891
 20
-139.0543890711392
 10
78.84635007794466
 20
-139.0543890711392
 10
78.99018281445385
 20
-139.0988308028989
 10
79.08543970462101
 20
-139.2807318445201
 10
79.18483070937046
 20
-139.4733126821456
 10
79.2080851038959
 20
-139.7017225128176
 10
79.2080851038959
 20
-139.8753553252742
 10
79.2080851038959
 20
-140.0465765708911
 10
79.18707002143587
 20
-140.2770534588544
 10
79.08543970462101
 20
-140.4696342964798
 97
        0
 97
        0
 92
        1
 93
        1
 72
     4
 94
        3
 73
     0
 74
     1
 95
       17
 96
       13
 40
0.0
 40
0.0
 40
0.0
 40
0.0
 40
1.0
 40
1.0
 40
1.0
 40
2.0
 40
2.0
 40
2.0
 40
3.0
 40
3.0
 40
3.0
 40
4.0
 40
4.0
 40
4.0
 40
4.0
 10
78.68770343084891
 20
-139.2469699087646
 10
78.43810626294255
 20
-139.2469699087646
 10
78.3915974738917
 20
-139.5305012672007
 10
78.3915974738917
 20
-139.8753553252742
 10
78.3915974738917
 20
-140.1947156767569
 10
78.42759872171254
 20
-140.5033962322353
 10
78.68770343084891
 20
-140.5033962322353
 10
78.93523354146411
 20
-140.5033962322353
 10
78.9839816425804
 20
-140.2222764406389
 10
78.9839816425804
 20
-139.8753553252742
 10
78.9839816425804
 20
-139.555650464243
 10
78.94574108269413
 20
-139.2469699087646
 10
78.68770343084891
 20
-139.2469699087646
 97
        0
 97
        0
 75
     2
 76
     1
 98
        0
  0
ENDBLK
  5
B9
330
B6
100
AcDbEntity
  8
0
100
AcDbBlockEnd
  0
BLOCK
  5
CD
330
CB
100
AcDbEntity
  8
0
100
AcDbBlockBegin
  2
block 6
 70
     0
 10
0.0
 20
0.0
 30
0.0
  3
block 6
  1

  0
SPLINE
  5
CF
330
CB
100
AcDbEntity
  8
_U+30EC_U+30A4_U+30E4_U+30FC 1
370
     0
100
AcDbSpline
210
0.0
220
0.0
230
1.0
 70
    11
 71
     3
 72
    44
 73
    40
 74
     0
 42
0.0000000001
 43
0.0000000001
 12
1.0
 22
0.0
 32
0.0
 13
1.0
 23
0.0
 33
0.0
 40
0.0
 40
0.0
 40
0.0
 40
0.0
 40
1.0
 40
1.0
 40
1.0
 40
2.0
 40
2.0
 40
2.0
 40
3.0
 40
3.0
 40
3.0
 40
4.0
 40
4.0
 40
4.0
 40
5.0
 40
5.0
 40
5.0
 40
6.0
 40
6.0
 40
6.0
 40
7.0
 40
7.0
 40
7.0
 40
8.0
 40
8.0
 40
8.0
 40
9.0
 40
9.0
 40
9.0
 40
10.0
 40
10.0
 40
10.0
 40
11.0
 40
11.0
 40
11.0
 40
12.0
 40
12.0
 40
12.0
 40
13.0
 40
13.0
 40
13.0
 40
13.0
 10
85.10402151735246
 20
-117.3614840743923
 30
0.0
 10
84.88611922791041
 20
-117.520130721488
 30
0.0
 10
84.7929293950344
 20
-117.5942002744209
 30
0.0
 10
84.74435354869239
 20
-117.7380330109301
 30
0.0
 10
84.74435354869239
 20
-117.7380330109301
 30
0.0
 10
85.52277287358459
 20
-117.7380330109301
 30
0.0
 10
85.52277287358459
 20
-117.7380330109301
 30
0.0
 10
85.52277287358459
 20
-117.7380330109301
 30
0.0
 10
85.52277287358459
 20
-117.9431884470767
 30
0.0
 10
85.52277287358459
 20
-117.9431884470767
 30
0.0
 10
85.52277287358459
 20
-117.9431884470767
 30
0.0
 10
84.49475638078604
 20
-117.9431884470767
 30
0.0
 10
84.49475638078604
 20
-117.9431884470767
 30
0.0
 10
84.52645125925034
 20
-117.5855875357078
 30
0.0
 10
84.59190807347008
 20
-117.5073838681926
 30
0.0
 10
84.97706974872101
 20
-117.20903859917
 30
0.0
 10
85.23304034327508
 20
-117.0102565896711
 30
0.0
 10
85.29849715749482
 20
-116.9425604633859
 30
0.0
 10
85.29849715749482
 20
-116.8051011535244
 30
0.0
 10
85.29849715749482
 20
-116.6865898688318
 30
0.0
 10
85.22666691662737
 20
-116.5555039856181
 30
0.0
 10
85.0299519644196
 20
-116.5555039856181
 30
0.0
 10
84.76967500050897
 20
-116.5555039856181
 30
0.0
 10
84.76123451657011
 20
-116.7859808735813
 30
0.0
 10
84.75692814721354
 20
-116.9024251009827
 30
0.0
 10
84.75692814721354
 20
-116.9024251009827
 30
0.0
 10
84.53282468589805
 20
-116.9024251009827
 30
0.0
 10
84.53282468589805
 20
-116.9024251009827
 30
0.0
 10
84.5412651698369
 20
-116.7754733323513
 30
0.0
 10
84.55177271106692
 20
-116.6633354743064
 30
0.0
 10
84.6322156906475
 20
-116.5448241896138
 30
0.0
 10
84.74211423662697
 20
-116.3841104852269
 30
0.0
 10
84.92832164760473
 20
-116.3501762946972
 30
0.0
 10
85.04476587500618
 20
-116.3501762946972
 30
0.0
 10
85.32192380679453
 20
-116.3501762946972
 30
0.0
 10
85.5291463002323
 20
-116.5343166483838
 30
0.0
 10
85.5291463002323
 20
-116.8071682108156
 30
0.0
 10
85.5291463002323
 20
-117.0355780414876
 30
0.0
 10
85.41287432760512
 20
-117.1351413010114
 30
0.0
 10
85.10402151735246
 20
-117.3614840743923
 30
0.0
  0
HATCH
  5
D0
330
CB
100
AcDbEntity
  8
_U+30EC_U+30A4_U+30E4_U+30FC 1
 62
   179
420
  2234388
100
AcDbHatch
 10
0.0
 20
0.0
 30
0.0
210
0.0
220
0.0
230
1.0
  2
SOLID
 70
     1
 71
     0
 91
        1
 92
        1
 93
        1
 72
     4
 94
        3
 73
     0
 74
     1
 95
       44
 96
       40
 40
0.0
 40
0.0
 40
0.0
 40
0.0
 40
1.0
 40
1.0
 40
1.0
 40
2.0
 40
2.0
 40
2.0
 40
3.0
 40
3.0
 40
3.0
 40
4.0
 40
4.0
 40
4.0
 40
5.0
 40
5.0
 40
5.0
 40
6.0
 40
6.0
 40
6.0
 40
7.0
 40
7.0
 40
7.0
 40
8.0
 40
8.0
 40
8.0
 40
9.0
 40
9.0
 40
9.0
 40
10.0
 40
10.0
 40
10.0
 40
11.0
 40
11.0
 40
11.0
 40
12.0
 40
12.0
 40
12.0
 40
13.0
 40
13.0
 40
13.0
 40
13.0
 10
85.10402151735246
 20
-117.3614840743923
 10
84.88611922791041
 20
-117.520130721488
 10
84.7929293950344
 20
-117.5942002744209
 10
84.74435354869239
 20
-117.7380330109301
 10
84.74435354869239
 20
-117.7380330109301
 10
85.52277287358459
 20
-117.7380330109301
 10
85.52277287358459
 20
-117.7380330109301
 10
85.52277287358459
 20
-117.7380330109301
 10
85.52277287358459
 20
-117.9431884470767
 10
85.52277287358459
 20
-117.9431884470767
 10
85.52277287358459
 20
-117.9431884470767
 10
84.49475638078604
 20
-117.9431884470767
 10
84.49475638078604
 20
-117.9431884470767
 10
84.52645125925034
 20
-117.5855875357078
 10
84.59190807347008
 20
-117.5073838681926
 10
84.97706974872101
 20
-117.20903859917
 10
85.23304034327508
 20
-117.0102565896711
 10
85.29849715749482
 20
-116.9425604633859
 10
85.29849715749482
 20
-116.8051011535244
 10
85.29849715749482
 20
-116.6865898688318
 10
85.22666691662737
 20
-116.5555039856181
 10
85.0299519644196
 20
-116.5555039856181
 10
84.76967500050897
 20
-116.5555039856181
 10
84.76123451657011
 20
-116.7859808735813
 10
84.75692814721354
 20
-116.9024251009827
 10
84.75692814721354
 20
-116.9024251009827
 10
84.53282468589805
 20
-116.9024251009827
 10
84.53282468589805
 20
-116.9024251009827
 10
84.5412651698369
 20
-116.7754733323513
 10
84.55177271106692
 20
-116.6633354743064
 10
84.6322156906475
 20
-116.5448241896138
 10
84.74211423662697
 20
-116.3841104852269
 10
84.92832164760473
 20
-116.3501762946972
 10
85.04476587500618
 20
-116.3501762946972
 10
85.32192380679453
 20
-116.3501762946972
 10
85.5291463002323
 20
-116.5343166483838
 10
85.5291463002323
 20
-116.8071682108156
 10
85.5291463002323
 20
-117.0355780414876
 10
85.41287432760512
 20
-117.1351413010114
 10
85.10402151735246
 20
-117.3614840743923
 97
        0
 97
        0
 75
     2
 76
     1
 98
        0
  0
SPLINE
  5
D1
330
CB
100
AcDbEntity
  8
_U+30EC_U+30A4_U+30E4_U+30FC 1
370
     0
100
AcDbSpline
210
0.0
220
0.0
230
1.0
 70
    11
 71
     3
 72
    53
 73
    49
 74
     0
 42
0.0000000001
 43
0.0000000001
 12
1.0
 22
0.0
 32
0.0
 13
1.0
 23
0.0
 33
0.0
 40
0.0
 40
0.0
 40
0.0
 40
0.0
 40
1.0
 40
1.0
 40
1.0
 40
2.0
 40
2.0
 40
2.0
 40
3.0
 40
3.0
 40
3.0
 40
4.0
 40
4.0
 40
4.0
 40
5.0
 40
5.0
 40
5.0
 40
6.0
 40
6.0
 40
6.0
 40
7.0
 40
7.0
 40
7.0
 40
8.0
 40
8.0
 40
8.0
 40
9.0
 40
9.0
 40
9.0
 40
10.0
 40
10.0
 40
10.0
 40
11.0
 40
11.0
 40
11.0
 40
12.0
 40
12.0
 40
12.0
 40
13.0
 40
13.0
 40
13.0
 40
14.0
 40
14.0
 40
14.0
 40
15.0
 40
15.0
 40
15.0
 40
16.0
 40
16.0
 40
16.0
 40
16.0
 10
86.16872827706894
 20
-117.9940036054841
 30
0.0
 10
86.09052460955377
 20
-117.9940036054841
 30
0.0
 10
85.98889429273889
 20
-117.9769503828322
 30
0.0
 10
85.88726397592401
 20
-117.9135606259036
 30
0.0
 10
85.71397567301595
 20
-117.8034898251498
 30
0.0
 10
85.6926160810074
 20
-117.6724039419361
 30
0.0
 10
85.67366805583853
 20
-117.5645724532477
 30
0.0
 10
85.67366805583853
 20
-117.5645724532477
 30
0.0
 10
85.89587671463714
 20
-117.5645724532477
 30
0.0
 10
85.89587671463714
 20
-117.5645724532477
 30
0.0
 10
85.95065373285262
 20
-117.7633544627467
 30
0.0
 10
86.07777775625834
 20
-117.7929822839198
 30
0.0
 10
86.17079533436008
 20
-117.7929822839198
 30
0.0
 10
86.3103217015127
 20
-117.7929822839198
 30
0.0
 10
86.46259492196074
 20
-117.6935912791704
 30
0.0
 10
86.46259492196074
 20
-117.4608750791417
 30
0.0
 10
86.46259492196074
 20
-117.2049044845877
 30
0.0
 10
86.2827609376307
 20
-117.1351413010114
 30
0.0
 10
86.16218259564695
 20
-117.1351413010114
 30
0.0
 10
86.13048771718266
 20
-117.1351413010114
 30
0.0
 10
85.98889429273889
 20
-117.1351413010114
 30
0.0
 10
85.90001082921944
 20
-117.264160126934
 30
0.0
 10
85.90001082921944
 20
-117.264160126934
 30
0.0
 10
85.72431095947171
 20
-117.2450398469908
 30
0.0
 10
85.72431095947171
 20
-117.2450398469908
 30
0.0
 10
85.72431095947171
 20
-117.2450398469908
 30
0.0
 10
85.84488930145545
 20
-116.3989243958135
 30
0.0
 10
85.84488930145545
 20
-116.3989243958135
 30
0.0
 10
85.84488930145545
 20
-116.3989243958135
 30
0.0
 10
86.6234808811219
 20
-116.3989243958135
 30
0.0
 10
86.6234808811219
 20
-116.3989243958135
 30
0.0
 10
86.6234808811219
 20
-116.3989243958135
 30
0.0
 10
86.6234808811219
 20
-116.5935722907301
 30
0.0
 10
86.6234808811219
 20
-116.5935722907301
 30
0.0
 10
86.6234808811219
 20
-116.5935722907301
 30
0.0
 10
86.00784231790776
 20
-116.5935722907301
 30
0.0
 10
86.00784231790776
 20
-116.5935722907301
 30
0.0
 10
86.00784231790776
 20
-116.5935722907301
 30
0.0
 10
85.94238550368802
 20
-117.0166300163188
 30
0.0
 10
85.94238550368802
 20
-117.0166300163188
 30
0.0
 10
86.00370820332546
 20
-116.9826958257891
 30
0.0
 10
86.08604598542294
 20
-116.9425604633859
 30
0.0
 10
86.20455727011553
 20
-116.9425604633859
 30
0.0
 10
86.45846080737844
 20
-116.9425604633859
 30
0.0
 10
86.69548337676363
 20
-117.1287678743636
 30
0.0
 10
86.69548337676363
 20
-117.4417547991986
 30
0.0
 10
86.69548337676363
 20
-117.7592203481644
 30
0.0
 10
86.47120766067387
 20
-117.9940036054841
 30
0.0
 10
86.16872827706894
 20
-117.9940036054841
 30
0.0
  0
HATCH
  5
D2
330
CB
100
AcDbEntity
  8
_U+30EC_U+30A4_U+30E4_U+30FC 1
 62
   179
420
  2234388
100
AcDbHatch
 10
0.0
 20
0.0
 30
0.0
210
0.0
220
0.0
230
1.0
  2
SOLID
 70
     1
 71
     0
 91
        1
 92
        1
 93
        1
 72
     4
 94
        3
 73
     0
 74
     1
 95
       53
 96
       49
 40
0.0
 40
0.0
 40
0.0
 40
0.0
 40
1.0
 40
1.0
 40
1.0
 40
2.0
 40
2.0
 40
2.0
 40
3.0
 40
3.0
 40
3.0
 40
4.0
 40
4.0
 40
4.0
 40
5.0
 40
5.0
 40
5.0
 40
6.0
 40
6.0
 40
6.0
 40
7.0
 40
7.0
 40
7.0
 40
8.0
 40
8.0
 40
8.0
 40
9.0
 40
9.0
 40
9.0
 40
10.0
 40
10.0
 40
10.0
 40
11.0
 40
11.0
 40
11.0
 40
12.0
 40
12.0
 40
12.0
 40
13.0
 40
13.0
 40
13.0
 40
14.0
 40
14.0
 40
14.0
 40
15.0
 40
15.0
 40
15.0
 40
16.0
 40
16.0
 40
16.0
 40
16.0
 10
86.16872827706894
 20
-117.9940036054841
 10
86.09052460955377
 20
-117.9940036054841
 10
85.98889429273889
 20
-117.9769503828322
 10
85.88726397592401
 20
-117.9135606259036
 10
85.71397567301595
 20
-117.8034898251498
 10
85.6926160810074
 20
-117.6724039419361
 10
85.67366805583853
 20
-117.5645724532477
 10
85.67366805583853
 20
-117.5645724532477
 10
85.89587671463714
 20
-117.5645724532477
 10
85.89587671463714
 20
-117.5645724532477
 10
85.95065373285262
 20
-117.7633544627467
 10
86.07777775625834
 20
-117.7929822839198
 10
86.17079533436008
 20
-117.7929822839198
 10
86.3103217015127
 20
-117.7929822839198
 10
86.46259492196074
 20
-117.6935912791704
 10
86.46259492196074
 20
-117.4608750791417
 10
86.46259492196074
 20
-117.2049044845877
 10
86.2827609376307
 20
-117.1351413010114
 10
86.16218259564695
 20
-117.1351413010114
 10
86.13048771718266
 20
-117.1351413010114
 10
85.98889429273889
 20
-117.1351413010114
 10
85.90001082921944
 20
-117.264160126934
 10
85.90001082921944
 20
-117.264160126934
 10
85.72431095947171
 20
-117.2450398469908
 10
85.72431095947171
 20
-117.2450398469908
 10
85.72431095947171
 20
-117.2450398469908
 10
85.84488930145545
 20
-116.3989243958135
 10
85.84488930145545
 20
-116.3989243958135
 10
85.84488930145545
 20
-116.3989243958135
 10
86.6234808811219
 20
-116.3989243958135
 10
86.6234808811219
 20
-116.3989243958135
 10
86.6234808811219
 20
-116.3989243958135
 10
86.6234808811219
 20
-116.5935722907301
 10
86.6234808811219
 20
-116.5935722907301
 10
86.6234808811219
 20
-116.5935722907301
 10
86.00784231790776
 20
-116.5935722907301
 10
86.00784231790776
 20
-116.5935722907301
 10
86.00784231790776
 20
-116.5935722907301
 10
85.94238550368802
 20
-117.0166300163188
 10
85.94238550368802
 20
-117.0166300163188
 10
86.00370820332546
 20
-116.9826958257891
 10
86.08604598542294
 20
-116.9425604633859
 10
86.20455727011553
 20
-116.9425604633859
 10
86.45846080737844
 20
-116.9425604633859
 10
86.69548337676363
 20
-117.1287678743636
 10
86.69548337676363
 20
-117.4417547991986
 10
86.69548337676363
 20
-117.7592203481644
 10
86.47120766067387
 20
-117.9940036054841
 10
86.16872827706894
 20
-117.9940036054841
 97
        0
 97
        0
 75
     2
 76
     1
 98
        0
  0
ENDBLK
  5
CE
330
CB
100
AcDbEntity
  8
0
100
AcDbBlockEnd
  0
BLOCK
  5
DD
330
DB
100
AcDbEntity
  8
0
100
AcDbBlockBegin
  2
block 7
 70
     0
 10
0.0
 20
0.0
 30
0.0
  3
block 7
  1

  0
SPLINE
  5
DF
330
DB
100
AcDbEntity
  8
_U+30EC_U+30A4_U+30E4_U+30FC 1
370
     0
100
AcDbSpline
210
0.0
220
0.0
230
1.0
 70
    11
 71
     3
 72
    32
 73
    28
 74
     0
 42
0.0000000001
 43
0.0000000001
 12
1.0
 22
0.0
 32
0.0
 13
1.0
 23
0.0
 33
0.0
 40
0.0
 40
0.0
 40
0.0
 40
0.0
 40
1.0
 40
1.0
 40
1.0
 40
2.0
 40
2.0
 40
2.0
 40
3.0
 40
3.0
 40
3.0
 40
4.0
 40
4.0
 40
4.0
 40
5.0
 40
5.0
 40
5.0
 40
6.0
 40
6.0
 40
6.0
 40
7.0
 40
7.0
 40
7.0
 40
8.0
 40
8.0
 40
8.0
 40
9.0
 40
9.0
 40
9.0
 40
9.0
 10
101.5038818105615
 20
-129.4928710613768
 30
0.0
 10
101.5038818105615
 20
-129.6661593642849
 30
0.0
 10
101.4342908817595
 20
-129.9117946723832
 30
0.0
 10
101.1021836769814
 20
-129.9496907227209
 30
0.0
 10
101.1021836769814
 20
-129.9496907227209
 30
0.0
 10
101.1021836769814
 20
-129.7360948026354
 30
0.0
 10
101.1021836769814
 20
-129.7360948026354
 30
0.0
 10
101.1614393193277
 20
-129.7254150066312
 30
0.0
 10
101.3092339156449
 20
-129.6937201281669
 30
0.0
 10
101.3092339156449
 20
-129.4908040040856
 30
0.0
 10
101.3092339156449
 20
-129.1986599069365
 30
0.0
 10
100.979193768158
 20
-129.1607638565987
 30
0.0
 10
100.7742105867856
 20
-129.1480170033033
 30
0.0
 10
100.8544813115919
 20
-129.2389675241139
 30
0.0
 10
100.9116698966471
 20
-129.3064913956248
 30
0.0
 10
100.9116698966471
 20
-129.488392437246
 30
0.0
 10
100.9116698966471
 20
-129.668226421576
 30
0.0
 10
100.8059054652499
 20
-129.9710503147295
 30
0.0
 10
100.399728707539
 20
-129.9710503147295
 30
0.0
 10
100.0803683560563
 20
-129.9710503147295
 30
0.0
 10
99.86022675454883
 20
-129.771923795682
 30
0.0
 10
99.86022675454883
 20
-129.4546305014905
 30
0.0
 10
99.86022675454883
 20
-128.9406222550912
 30
0.0
 10
100.4145426181255
 20
-128.929942459087
 30
0.0
 10
100.628138538211
 20
-128.929942459087
 30
0.0
 10
100.8586154261742
 20
-128.929942459087
 30
0.0
 10
101.5038818105615
 20
-128.9492349938044
 30
0.0
 10
101.5038818105615
 20
-129.4928710613768
 30
0.0
  0
SPLINE
  5
E0
330
DB
100
AcDbEntity
  8
_U+30EC_U+30A4_U+30E4_U+30FC 1
370
     0
100
AcDbSpline
210
0.0
220
0.0
230
1.0
 70
    11
 71
     3
 72
    17
 73
    13
 74
     0
 42
0.0000000001
 43
0.0000000001
 12
1.0
 22
0.0
 32
0.0
 13
1.0
 23
0.0
 33
0.0
 40
0.0
 40
0.0
 40
0.0
 40
0.0
 40
1.0
 40
1.0
 40
1.0
 40
2.0
 40
2.0
 40
2.0
 40
3.0
 40
3.0
 40
3.0
 40
4.0
 40
4.0
 40
4.0
 40
4.0
 10
100.0528075921743
 20
-129.4525634441994
 30
0.0
 10
100.0528075921743
 20
-129.571074728892
 30
0.0
 10
100.1099961772294
 20
-129.7467745986397
 30
0.0
 10
100.3955945929567
 20
-129.7467745986397
 30
0.0
 10
100.6219373663376
 20
-129.7467745986397
 30
0.0
 10
100.7170220017305
 20
-129.6069037219386
 30
0.0
 10
100.7170220017305
 20
-129.4715114693682
 30
0.0
 10
100.7170220017305
 20
-129.2093397029407
 30
0.0
 10
100.5075601962273
 20
-129.1710991430544
 30
0.0
 10
100.3911159688258
 20
-129.1710991430544
 30
0.0
 10
100.2157606086266
 20
-129.1710991430544
 30
0.0
 10
100.0528075921743
 20
-129.2665282879959
 30
0.0
 10
100.0528075921743
 20
-129.4525634441994
 30
0.0
  0
HATCH
  5
E1
330
DB
100
AcDbEntity
  8
_U+30EC_U+30A4_U+30E4_U+30FC 1
 62
   179
420
  2234388
100
AcDbHatch
 10
0.0
 20
0.0
 30
0.0
210
0.0
220
0.0
230
1.0
  2
SOLID
 70
     1
 71
     0
 91
        2
 92
        1
 93
        1
 72
     4
 94
        3
 73
     0
 74
     1
 95
       32
 96
       28
 40
0.0
 40
0.0
 40
0.0
 40
0.0
 40
1.0
 40
1.0
 40
1.0
 40
2.0
 40
2.0
 40
2.0
 40
3.0
 40
3.0
 40
3.0
 40
4.0
 40
4.0
 40
4.0
 40
5.0
 40
5.0
 40
5.0
 40
6.0
 40
6.0
 40
6.0
 40
7.0
 40
7.0
 40
7.0
 40
8.0
 40
8.0
 40
8.0
 40
9.0
 40
9.0
 40
9.0
 40
9.0
 10
101.5038818105615
 20
-129.4928710613768
 10
101.5038818105615
 20
-129.6661593642849
 10
101.4342908817595
 20
-129.9117946723832
 10
101.1021836769814
 20
-129.9496907227209
 10
101.1021836769814
 20
-129.9496907227209
 10
101.1021836769814
 20
-129.7360948026354
 10
101.1021836769814
 20
-129.7360948026354
 10
101.1614393193277
 20
-129.7254150066312
 10
101.3092339156449
 20
-129.6937201281669
 10
101.3092339156449
 20
-129.4908040040856
 10
101.3092339156449
 20
-129.1986599069365
 10
100.979193768158
 20
-129.1607638565987
 10
100.7742105867856
 20
-129.1480170033033
 10
100.8544813115919
 20
-129.2389675241139
 10
100.9116698966471
 20
-129.3064913956248
 10
100.9116698966471
 20
-129.488392437246
 10
100.9116698966471
 20
-129.668226421576
 10
100.8059054652499
 20
-129.9710503147295
 10
100.399728707539
 20
-129.9710503147295
 10
100.0803683560563
 20
-129.9710503147295
 10
99.86022675454883
 20
-129.771923795682
 10
99.86022675454883
 20
-129.4546305014905
 10
99.86022675454883
 20
-128.9406222550912
 10
100.4145426181255
 20
-128.929942459087
 10
100.628138538211
 20
-128.929942459087
 10
100.8586154261742
 20
-128.929942459087
 10
101.5038818105615
 20
-128.9492349938044
 10
101.5038818105615
 20
-129.4928710613768
 97
        0
 97
        0
 92
        1
 93
        1
 72
     4
 94
        3
 73
     0
 74
     1
 95
       17
 96
       13
 40
0.0
 40
0.0
 40
0.0
 40
0.0
 40
1.0
 40
1.0
 40
1.0
 40
2.0
 40
2.0
 40
2.0
 40
3.0
 40
3.0
 40
3.0
 40
4.0
 40
4.0
 40
4.0
 40
4.0
 10
100.0528075921743
 20
-129.4525634441994
 10
100.0528075921743
 20
-129.571074728892
 10
100.1099961772294
 20
-129.7467745986397
 10
100.3955945929567
 20
-129.7467745986397
 10
100.6219373663376
 20
-129.7467745986397
 10
100.7170220017305
 20
-129.6069037219386
 10
100.7170220017305
 20
-129.4715114693682
 10
100.7170220017305
 20
-129.2093397029407
 10
100.5075601962273
 20
-129.1710991430544
 10
100.3911159688258
 20
-129.1710991430544
 10
100.2157606086266
 20
-129.1710991430544
 10
100.0528075921743
 20
-129.2665282879959
 10
100.0528075921743
 20
-129.4525634441994
 97
        0
 97
        0
 75
     2
 76
     1
 98
        0
  0
POLYLINE
  5
E2
330
DB
100
AcDbEntity
  8
_U+30EC_U+30A4_U+30E4_U+30FC 1
370
     0
100
AcDb2dPolyline
 66
     1
 10
0.0
 20
0.0
 30
0.0
  0
VERTEX
  5
E3
330
E2
100
AcDbEntity
  8
_U+30EC_U+30A4_U+30E4_U+30FC 1
370
     0
100
AcDbVertex
100
AcDb2dVertex
 10
101.4532389069284
 20
-128.7135904626133
 30
0.0
  0
VERTEX
  5
E4
330
E2
100
AcDbEntity
  8
_U+30EC_U+30A4_U+30E4_U+30FC 1
370
     0
100
AcDbVertex
100
AcDb2dVertex
 10
101.2014024269566
 20
-128.7135904626133
 30
0.0
  0
VERTEX
  5
E5
330
E2
100
AcDbEntity
  8
_U+30EC_U+30A4_U+30E4_U+30FC 1
370
     0
100
AcDbVertex
100
AcDb2dVertex
 10
101.2014024269566
 20
-128.4617539826415
 30
0.0
  0
VERTEX
  5
E6
330
E2
100
AcDbEntity
  8
_U+30EC_U+30A4_U+30E4_U+30FC 1
370
     0
100
AcDbVertex
100
AcDb2dVertex
 10
101.4532389069284
 20
-128.4617539826415
 30
0.0
  0
VERTEX
  5
E7
330
E2
100
AcDbEntity
  8
_U+30EC_U+30A4_U+30E4_U+30FC 1
370
     0
100
AcDbVertex
100
AcDb2dVertex
 10
101.4532389069284
 20
-128.7135904626133
 30
0.0
  0
SEQEND
  5
E8
330
E2
100
AcDbEntity
  8
_U+30EC_U+30A4_U+30E4_U+30FC 1
370
     0
  0
HATCH
  5
E9
330
DB
100
AcDbEntity
  8
_U+30EC_U+30A4_U+30E4_U+30FC 1
 62
   179
420
  2234388
100
AcDbHatch
 10
0.0
 20
0.0
 30
0.0
210
0.0
220
0.0
230
1.0
  2
SOLID
 70
     1
 71
     0
 91
        1
 92
        1
 93
        4
 72
     1
 10
101.4532389069284
 20
-128.7135904626133
 11
101.2014024269566
 21
-128.7135904626133
 72
     1
 10
101.2014024269566
 20
-128.7135904626133
 11
101.2014024269566
 21
-128.4617539826415
 72
     1
 10
101.2014024269566
 20
-128.4617539826415
 11
101.4532389069284
 21
-128.4617539826415
 72
     1
 10
101.4532389069284
 20
-128.4617539826415
 11
101.4532389069284
 21
-128.7135904626133
 97
        0
 75
     2
 76
     1
 98
        0
  0
SPLINE
  5
EA
330
DB
100
AcDbEntity
  8
_U+30EC_U+30A4_U+30E4_U+30FC 1
370
     0
100
AcDbSpline
210
0.0
220
0.0
230
1.0
 70
    11
 71
     3
 72
    53
 73
    49
 74
     0
 42
0.0000000001
 43
0.0000000001
 12
1.0
 22
0.0
 32
0.0
 13
1.0
 23
0.0
 33
0.0
 40
0.0
 40
0.0
 40
0.0
 40
0.0
 40
1.0
 40
1.0
 40
1.0
 40
2.0
 40
2.0
 40
2.0
 40
3.0
 40
3.0
 40
3.0
 40
4.0
 40
4.0
 40
4.0
 40
5.0
 40
5.0
 40
5.0
 40
6.0
 40
6.0
 40
6.0
 40
7.0
 40
7.0
 40
7.0
 40
8.0
 40
8.0
 40
8.0
 40
9.0
 40
9.0
 40
9.0
 40
10.0
 40
10.0
 40
10.0
 40
11.0
 40
11.0
 40
11.0
 40
12.0
 40
12.0
 40
12.0
 40
13.0
 40
13.0
 40
13.0
 40
14.0
 40
14.0
 40
14.0
 40
15.0
 40
15.0
 40
15.0
 40
16.0
 40
16.0
 40
16.0
 40
16.0
 10
101.5038818105615
 20
-127.7444851026125
 30
0.0
 10
101.5038818105615
 20
-127.8226887701277
 30
0.0
 10
101.4870008426838
 20
-127.9243190869425
 30
0.0
 10
101.4236110857552
 20
-128.0259494037574
 30
0.0
 10
101.3137125397758
 20
-128.1992377066655
 30
0.0
 10
101.1824544017877
 20
-128.220597298674
 30
0.0
 10
101.0746229130994
 20
-128.2395453238429
 30
0.0
 10
101.0746229130994
 20
-128.2395453238429
 30
0.0
 10
101.0746229130994
 20
-128.0173366650443
 30
0.0
 10
101.0746229130994
 20
-128.0173366650443
 30
0.0
 10
101.2734049225983
 20
-127.9625596468288
 30
0.0
 10
101.3030327437715
 20
-127.8354356234231
 30
0.0
 10
101.3030327437715
 20
-127.7424180453213
 30
0.0
 10
101.3030327437715
 20
-127.6028916781687
 30
0.0
 10
101.2034694842477
 20
-127.4506184577207
 30
0.0
 10
100.9709255389934
 20
-127.4506184577207
 30
0.0
 10
100.7149549444393
 20
-127.4506184577207
 30
0.0
 10
100.6450195060887
 20
-127.6304524420507
 30
0.0
 10
100.6450195060887
 20
-127.7510307840345
 30
0.0
 10
100.6450195060887
 20
-127.7827256624988
 30
0.0
 10
100.6450195060887
 20
-127.9243190869425
 30
0.0
 10
100.7742105867856
 20
-128.013202550462
 30
0.0
 10
100.7742105867856
 20
-128.013202550462
 30
0.0
 10
100.7552625616167
 20
-128.1889024202097
 30
0.0
 10
100.7552625616167
 20
-128.1889024202097
 30
0.0
 10
100.7552625616167
 20
-128.1889024202097
 30
0.0
 10
99.90880260089087
 20
-128.068324078226
 30
0.0
 10
99.90880260089087
 20
-128.068324078226
 30
0.0
 10
99.90880260089087
 20
-128.068324078226
 30
0.0
 10
99.90880260089087
 20
-127.2897324985595
 30
0.0
 10
99.90880260089087
 20
-127.2897324985595
 30
0.0
 10
99.90880260089087
 20
-127.2897324985595
 30
0.0
 10
100.1034504958075
 20
-127.2897324985595
 30
0.0
 10
100.1034504958075
 20
-127.2897324985595
 30
0.0
 10
100.1034504958075
 20
-127.2897324985595
 30
0.0
 10
100.1034504958075
 20
-127.9053710617737
 30
0.0
 10
100.1034504958075
 20
-127.9053710617737
 30
0.0
 10
100.1034504958075
 20
-127.9053710617737
 30
0.0
 10
100.5265082213962
 20
-127.9708278759934
 30
0.0
 10
100.5265082213962
 20
-127.9708278759934
 30
0.0
 10
100.4927462856407
 20
-127.909505176356
 30
0.0
 10
100.4524386684633
 20
-127.8271673942585
 30
0.0
 10
100.4524386684633
 20
-127.7086561095659
 30
0.0
 10
100.4524386684633
 20
-127.454752572303
 30
0.0
 10
100.6388183342153
 20
-127.2177300029178
 30
0.0
 10
100.9519775138245
 20
-127.2177300029178
 30
0.0
 10
101.269270808016
 20
-127.2177300029178
 30
0.0
 10
101.5038818105615
 20
-127.4420057190076
 30
0.0
 10
101.5038818105615
 20
-127.7444851026125
 30
0.0
  0
HATCH
  5
EB
330
DB
100
AcDbEntity
  8
_U+30EC_U+30A4_U+30E4_U+30FC 1
 62
   179
420
  2234388
100
AcDbHatch
 10
0.0
 20
0.0
 30
0.0
210
0.0
220
0.0
230
1.0
  2
SOLID
 70
     1
 71
     0
 91
        1
 92
        1
 93
        1
 72
     4
 94
        3
 73
     0
 74
     1
 95
       53
 96
       49
 40
0.0
 40
0.0
 40
0.0
 40
0.0
 40
1.0
 40
1.0
 40
1.0
 40
2.0
 40
2.0
 40
2.0
 40
3.0
 40
3.0
 40
3.0
 40
4.0
 40
4.0
 40
4.0
 40
5.0
 40
5.0
 40
5.0
 40
6.0
 40
6.0
 40
6.0
 40
7.0
 40
7.0
 40
7.0
 40
8.0
 40
8.0
 40
8.0
 40
9.0
 40
9.0
 40
9.0
 40
10.0
 40
10.0
 40
10.0
 40
11.0
 40
11.0
 40
11.0
 40
12.0
 40
12.0
 40
12.0
 40
13.0
 40
13.0
 40
13.0
 40
14.0
 40
14.0
 40
14.0
 40
15.0
 40
15.0
 40
15.0
 40
16.0
 40
16.0
 40
16.0
 40
16.0
 10
101.5038818105615
 20
-127.7444851026125
 10
101.5038818105615
 20
-127.8226887701277
 10
101.4870008426838
 20
-127.9243190869425
 10
101.4236110857552
 20
-128.0259494037574
 10
101.3137125397758
 20
-128.1992377066655
 10
101.1824544017877
 20
-128.220597298674
 10
101.0746229130994
 20
-128.2395453238429
 10
101.0746229130994
 20
-128.2395453238429
 10
101.0746229130994
 20
-128.0173366650443
 10
101.0746229130994
 20
-128.0173366650443
 10
101.2734049225983
 20
-127.9625596468288
 10
101.3030327437715
 20
-127.8354356234231
 10
101.3030327437715
 20
-127.7424180453213
 10
101.3030327437715
 20
-127.6028916781687
 10
101.2034694842477
 20
-127.4506184577207
 10
100.9709255389934
 20
-127.4506184577207
 10
100.7149549444393
 20
-127.4506184577207
 10
100.6450195060887
 20
-127.6304524420507
 10
100.6450195060887
 20
-127.7510307840345
 10
100.6450195060887
 20
-127.7827256624988
 10
100.6450195060887
 20
-127.9243190869425
 10
100.7742105867856
 20
-128.013202550462
 10
100.7742105867856
 20
-128.013202550462
 10
100.7552625616167
 20
-128.1889024202097
 10
100.7552625616167
 20
-128.1889024202097
 10
100.7552625616167
 20
-128.1889024202097
 10
99.90880260089087
 20
-128.068324078226
 10
99.90880260089087
 20
-128.068324078226
 10
99.90880260089087
 20
-128.068324078226
 10
99.90880260089087
 20
-127.2897324985595
 10
99.90880260089087
 20
-127.2897324985595
 10
99.90880260089087
 20
-127.2897324985595
 10
100.1034504958075
 20
-127.2897324985595
 10
100.1034504958075
 20
-127.2897324985595
 10
100.1034504958075
 20
-127.2897324985595
 10
100.1034504958075
 20
-127.9053710617737
 10
100.1034504958075
 20
-127.9053710617737
 10
100.1034504958075
 20
-127.9053710617737
 10
100.5265082213962
 20
-127.9708278759934
 10
100.5265082213962
 20
-127.9708278759934
 10
100.4927462856407
 20
-127.909505176356
 10
100.4524386684633
 20
-127.8271673942585
 10
100.4524386684633
 20
-127.7086561095659
 10
100.4524386684633
 20
-127.454752572303
 10
100.6388183342153
 20
-127.2177300029178
 10
100.9519775138245
 20
-127.2177300029178
 10
101.269270808016
 20
-127.2177300029178
 10
101.5038818105615
 20
-127.4420057190076
 10
101.5038818105615
 20
-127.7444851026125
 97
        0
 97
        0
 75
     2
 76
     1
 98
        0
  0
ENDBLK
  5
DE
330
DB
100
AcDbEntity
  8
0
100
AcDbBlockEnd
  0
ENDSEC
  0
SECTION
  2
ENTITIES
  0
INSERT
  5
42
330
1F
100
AcDbEntity
  8
_U+30EC_U+30A4_U+30E4_U+30FC 1
100
AcDbBlockReference
  2
block 2
 10
0.0
 20
0.0
 30
0.0
  0
ENDSEC
  0
SECTION
  2
OBJECTS
  0
DICTIONARY
  5
C
330
0
100
AcDbDictionary
281
     1
  3
ACAD_GROUP
350
D
  3
ACAD_LAYOUT
350
1A
  3
ACAD_MATERIAL
350
3B
  3
ACAD_MLEADERSTYLE
350
ED
  3
ACAD_MLINESTYLE
350
17
  3
ACAD_PLOTSETTINGS
350
19
  3
ACAD_PLOTSTYLENAME
350
E
  3
ACAD_TABLESTYLE
350
EC
  3
ACAD_VISUALSTYLE
350
2A
  0
SUN
  5
3F
330
29
100
AcDbSun
 90
        1
290
     0
 63
     7
421
 16777215
 40
1.0
291
     1
 91
  2455826
 92
 54000000
292
     0
 70
     2
 71
   256
280
     1
  0
DICTIONARY
  5
D
102
{ACAD_REACTORS
330
C
102
}
330
C
100
AcDbDictionary
281
     1
  0
DICTIONARY
  5
1A
102
{ACAD_REACTORS
330
C
102
}
330
C
100
AcDbDictionary
281
     1
  3
Layout1
350
1E
  3
Layout2
350
26
  3
Model
350
22
  0
DICTIONARY
  5
3B
102
{ACAD_REACTORS
330
C
102
}
330
C
100
AcDbDictionary
281
     1
  3
ByBlock
350
3D
  3
ByLayer
350
3C
  3
Global
350
3E
  0
DICTIONARY
  5
ED
102
{ACAD_REACTORS
330
C
102
}
330
C
100
AcDbDictionary
281
     1
  0
DICTIONARY
  5
17
102
{ACAD_REACTORS
330
C
102
}
330
C
100
AcDbDictionary
281
     1
  3
Standard
350
18
  0
DICTIONARY
  5
19
102
{ACAD_REACTORS
330
C
102
}
330
C
100
AcDbDictionary
281
     1
  0
ACDBDICTIONARYWDFLT
  5
E
102
{ACAD_REACTORS
330
C
102
}
330
C
100
AcDbDictionary
281
     1
  3
Normal
350
F
100
AcDbDictionaryWithDefault
340
F
  0
DICTIONARY
  5
EC
102
{ACAD_REACTORS
330
C
102
}
330
C
100
AcDbDictionary
281
     1
  0
DICTIONARY
  5
2A
102
{ACAD_REACTORS
330
C
102
}
330
C
100
AcDbDictionary
281
     1
  3
2dWireframe
350
2F
  3
3D Hidden
350
31
  3
3dWireframe
350
30
  3
Basic
350
32
  3
Brighten
350
36
  3
ColorChange
350
3A
  3
Conceptual
350
34
  3
Dim
350
35
  3
Facepattern
350
39
  3
Flat
350
2B
  3
FlatWithEdges
350
2C
  3
Gouraud
350
2D
  3
GouraudWithEdges
350
2E
  3
Linepattern
350
38
  3
Realistic
350
33
  3
Thicken
350
37
  0
LAYOUT
  5
1E
102
{ACAD_REACTORS
330
1A
102
}
330
1A
100
AcDbPlotSettings
  1

  2
none_device
  4

  6

 40
0.0
 41
0.0
 42
0.0
 43
0.0
 44
0.0
 45
0.0
 46
0.0
 47
0.0
 48
0.0
 49
0.0
140
0.0
141
0.0
142
1.0
143
1.0
 70
   688
 72
     0
 73
     0
 74
     5
  7

 75
    16
 76
     0
 77
     2
 78
   300
147
1.0
148
0.0
149
0.0
100
AcDbLayout
  1
Layout1
 70
     1
 71
     1
 10
0.0
 20
0.0
 11
12.0
 21
9.0
 12
0.0
 22
0.0
 32
0.0
 14
1.000000000000000E+20
 24
1.000000000000000E+20
 34
1.000000000000000E+20
 15
-1.000000000000000E+20
 25
-1.000000000000000E+20
 35
-1.000000000000000E+20
146
0.0
 13
0.0
 23
0.0
 33
0.0
 16
1.0
 26
0.0
 36
0.0
 17
0.0
 27
1.0
 37
0.0
 76
     0
330
1B
  0
LAYOUT
  5
26
102
{ACAD_REACTORS
330
1A
102
}
330
1A
100
AcDbPlotSettings
  1

  2
none_device
  4

  6

 40
0.0
 41
0.0
 42
0.0
 43
0.0
 44
0.0
 45
0.0
 46
0.0
 47
0.0
 48
0.0
 49
0.0
140
0.0
141
0.0
142
1.0
143
1.0
 70
   688
 72
     0
 73
     0
 74
     5
  7

 75
    16
 76
     0
 77
     2
 78
   300
147
1.0
148
0.0
149
0.0
100
AcDbLayout
  1
Layout2
 70
     1
 71
     2
 10
0.0
 20
0.0
 11
0.0
 21
0.0
 12
0.0
 22
0.0
 32
0.0
 14
0.0
 24
0.0
 34
0.0
 15
0.0
 25
0.0
 35
0.0
146
0.0
 13
0.0
 23
0.0
 33
0.0
 16
1.0
 26
0.0
 36
0.0
 17
0.0
 27
1.0
 37
0.0
 76
     0
330
23
  0
LAYOUT
  5
22
102
{ACAD_REACTORS
330
1A
102
}
330
1A
100
AcDbPlotSettings
  1

  2
none_device
  4

  6

 40
0.0
 41
0.0
 42
0.0
 43
0.0
 44
0.0
 45
0.0
 46
0.0
 47
0.0
 48
0.0
 49
0.0
140
0.0
141
0.0
142
1.0
143
1.0
 70
  1712
 72
     0
 73
     0
 74
     0
  7

 75
     0
 76
     0
 77
     2
 78
   300
147
1.0
148
0.0
149
0.0
100
AcDbLayout
  1
Model
 70
     1
 71
     0
 10
0.0
 20
0.0
 11
12.0
 21
9.0
 12
0.0
 22
0.0
 32
0.0
 14
1.000000000000000E+20
 24
1.000000000000000E+20
 34
1.000000000000000E+20
 15
-1.000000000000000E+20
 25
-1.000000000000000E+20
 35
-1.000000000000000E+20
146
0.0
 13
0.0
 23
0.0
 33
0.0
 16
1.0
 26
0.0
 36
0.0
 17
0.0
 27
1.0
 37
0.0
 76
     0
330
1F
331
29
  0
MATERIAL
  5
3D
102
{ACAD_REACTORS
330
3B
102
}
330
3B
100
AcDbMaterial
  1
ByBlock
 72
     1
 94
      127
  0
MATERIAL
  5
3C
102
{ACAD_REACTORS
330
3B
102
}
330
3B
100
AcDbMaterial
  1
ByLayer
 72
     1
 94
      127
  0
MATERIAL
  5
3E
102
{ACAD_REACTORS
330
3B
102
}
330
3B
100
AcDbMaterial
  1
Global
 72
     1
 94
      127
  0
MLINESTYLE
  5
18
102
{ACAD_REACTORS
330
17
102
}
330
17
100
AcDbMlineStyle
  2
Standard
 70
     0
  3

 62
   256
 51
90.0
 52
90.0
 71
     2
 49
0.5
 62
   256
  6
BYLAYER
 49
-0.5
 62
   256
  6
BYLAYER
  0
ACDBPLACEHOLDER
  5
F
102
{ACAD_REACTORS
330
E
102
}
330
E
  0
VISUALSTYLE
  5
2F
102
{ACAD_REACTORS
330
2A
102
}
330
2A
100
AcDbVisualStyle
  2
2dWireframe
 70
     4
177
     2
291
     0
 71
     0
176
     1
 72
     2
176
     1
 73
     0
176
     1
 90
        0
176
     1
 40
-0.6
176
     1
 41
-30.0
176
     1
 62
     5
 63
     7
421
 16777215
176
     1
 74
     1
176
     1
 91
        4
176
     1
 64
     7
176
     1
 65
   257
176
     1
 75
     1
176
     1
175
     1
176
     1
 42
1.0
176
     1
 92
        0
176
     1
 66
   257
176
     1
 43
1.0
176
     1
 76
     1
176
     1
 77
     6
176
     1
 78
     2
176
     1
 67
     7
176
     1
 79
     5
176
     1
170
     0
176
     1
171
     0
176
     1
290
     0
176
     1
 93
        1
176
     1
 44
0.0
176
     1
173
     0
176
     1
  0
VISUALSTYLE
  5
31
102
{ACAD_REACTORS
330
2A
102
}
330
2A
100
AcDbVisualStyle
  2
3D Hidden
 70
     6
177
     2
291
     0
 71
     1
176
     1
 72
     2
176
     1
 73
     2
176
     1
 90
        0
176
     1
 40
-0.6
176
     1
 41
-30.0
176
     1
 62
     5
 63
     7
421
 16777215
176
     1
 74
     2
176
     1
 91
        2
176
     1
 64
     7
176
     1
 65
   257
176
     1
 75
     2
176
     1
175
     1
176
     1
 42
40.0
176
     1
 92
        0
176
     1
 66
   257
176
     1
 43
1.0
176
     1
 76
     1
176
     1
 77
     6
176
     1
 78
     2
176
     1
 67
     7
176
     1
 79
     3
176
     1
170
     0
176
     1
171
     0
176
     1
290
     0
176
     1
 93
        1
176
     1
 44
0.0
176
     1
173
     0
176
     1
  0
VISUALSTYLE
  5
30
102
{ACAD_REACTORS
330
2A
102
}
330
2A
100
AcDbVisualStyle
  2
3dWireframe
 70
     5
177
     2
291
     0
 71
     0
176
     1
 72
     2
176
     1
 73
     0
176
     1
 90
        0
176
     1
 40
-0.6
176
     1
 41
-30.0
176
     1
 62
     5
 63
     7
421
 16777215
176
     1
 74
     1
176
     1
 91
        4
176
     1
 64
     7
176
     1
 65
   257
176
     1
 75
     1
176
     1
175
     1
176
     1
 42
1.0
176
     1
 92
        0
176
     1
 66
   257
176
     1
 43
1.0
176
     1
 76
     1
176
     1
 77
     6
176
     1
 78
     2
176
     1
 67
     7
176
     1
 79
     5
176
     1
170
     0
176
     1
171
     0
176
     1
290
     0
176
     1
 93
        1
176
     1
 44
0.0
176
     1
173
     0
176
     1
  0
VISUALSTYLE
  5
32
102
{ACAD_REACTORS
330
2A
102
}
330
2A
100
AcDbVisualStyle
  2
Basic
 70
     7
177
     2
291
     1
 71
     1
176
     1
 72
     0
176
     1
 73
     1
176
     1
 90
        0
176
     1
 40
-0.6
176
     1
 41
-30.0
176
     1
 62
     5
 63
     7
421
 16777215
176
     1
 74
     0
176
     1
 91
        4
176
     1
 64
     7
176
     1
 65
   257
176
     1
 75
     1
176
     1
175
     1
176
     1
 42
1.0
176
     1
 92
        8
176
     1
 66
     7
176
     1
 43
1.0
176
     1
 76
     1
176
     1
 77
     6
176
     1
 78
     2
176
     1
 67
     7
176
     1
 79
     5
176
     1
170
     0
176
     1
171
     0
176
     1
290
     0
176
     1
 93
        1
176
     1
 44
0.0
176
     1
173
     0
176
     1
  0
VISUALSTYLE
  5
36
102
{ACAD_REACTORS
330
2A
102
}
330
2A
100
AcDbVisualStyle
  2
Brighten
 70
    12
177
     2
291
     1
 71
     2
176
     1
 72
     2
176
     1
 73
     0
176
     1
 90
        0
176
     1
 40
-0.6
176
     1
 41
-30.0
176
     1
 62
     5
 63
     7
421
 16777215
176
     1
 74
     1
176
     1
 91
        4
176
     1
 64
     7
176
     1
 65
   257
176
     1
 75
     1
176
     1
175
     1
176
     1
 42
1.0
176
     1
 92
        8
176
     1
 66
     7
176
     1
 43
1.0
176
     1
 76
     1
176
     1
 77
     6
176
     1
 78
     2
176
     1
 67
     7
176
     1
 79
     5
176
     1
170
     0
176
     1
171
     0
176
     1
290
     0
176
     1
 93
        1
176
     1
 44
50.0
176
     1
173
     0
176
     1
  0
VISUALSTYLE
  5
3A
102
{ACAD_REACTORS
330
2A
102
}
330
2A
100
AcDbVisualStyle
  2
ColorChange
 70
    16
177
     2
291
     1
 71
     2
176
     1
 72
     2
176
     1
 73
     3
176
     1
 90
        0
176
     1
 40
-0.6
176
     1
 41
-30.0
176
     1
 62
     5
 63
     8
421
  8421504
176
     1
 74
     1
176
     1
 91
        4
176
     1
 64
     7
176
     1
 65
   257
176
     1
 75
     1
176
     1
175
     1
176
     1
 42
1.0
176
     1
 92
        8
176
     1
 66
     8
424
  8421504
176
     1
 43
1.0
176
     1
 76
     1
176
     1
 77
     6
176
     1
 78
     2
176
     1
 67
     7
176
     1
 79
     5
176
     1
170
     0
176
     1
171
     0
176
     1
290
     0
176
     1
 93
        1
176
     1
 44
0.0
176
     1
173
     0
176
     1
  0
VISUALSTYLE
  5
34
102
{ACAD_REACTORS
330
2A
102
}
330
2A
100
AcDbVisualStyle
  2
Conceptual
 70
     9
177
     2
291
     0
 71
     3
176
     1
 72
     2
176
     1
 73
     0
176
     1
 90
        0
176
     1
 40
-0.6
176
     1
 41
-30.0
176
     1
 62
     5
 63
     7
421
 16777215
176
     1
 74
     2
176
     1
 91
        2
176
     1
 64
     7
176
     1
 65
   257
176
     1
 75
     1
176
     1
175
     1
176
     1
 42
40.0
176
     1
 92
        8
176
     1
 66
     7
176
     1
 43
1.0
176
     1
 76
     1
176
     1
 77
     6
176
     1
 78
     2
176
     1
 67
     7
176
     1
 79
     3
176
     1
170
     0
176
     1
171
     0
176
     1
290
     0
176
     1
 93
        1
176
     1
 44
0.0
176
     1
173
     0
176
     1
  0
VISUALSTYLE
  5
35
102
{ACAD_REACTORS
330
2A
102
}
330
2A
100
AcDbVisualStyle
  2
Dim
 70
    11
177
     2
291
     1
 71
     2
176
     1
 72
     2
176
     1
 73
     0
176
     1
 90
        0
176
     1
 40
-0.6
176
     1
 41
-30.0
176
     1
 62
     5
 63
     7
421
 16777215
176
     1
 74
     1
176
     1
 91
        4
176
     1
 64
     7
176
     1
 65
   257
176
     1
 75
     1
176
     1
175
     1
176
     1
 42
1.0
176
     1
 92
        8
176
     1
 66
     7
176
     1
 43
1.0
176
     1
 76
     1
176
     1
 77
     6
176
     1
 78
     2
176
     1
 67
     7
176
     1
 79
     5
176
     1
170
     0
176
     1
171
     0
176
     1
290
     0
176
     1
 93
        1
176
     1
 44
-50.0
176
     1
173
     0
176
     1
  0
VISUALSTYLE
  5
39
102
{ACAD_REACTORS
330
2A
102
}
330
2A
100
AcDbVisualStyle
  2
Facepattern
 70
    15
177
     2
291
     1
 71
     2
176
     1
 72
     2
176
     1
 73
     0
176
     1
 90
        0
176
     1
 40
-0.6
176
     1
 41
-30.0
176
     1
 62
     5
 63
     7
421
 16777215
176
     1
 74
     1
176
     1
 91
        4
176
     1
 64
     7
176
     1
 65
   257
176
     1
 75
     1
176
     1
175
     1
176
     1
 42
1.0
176
     1
 92
        8
176
     1
 66
     7
176
     1
 43
1.0
176
     1
 76
     1
176
     1
 77
     6
176
     1
 78
     2
176
     1
 67
     7
176
     1
 79
     5
176
     1
170
     0
176
     1
171
     0
176
     1
290
     0
176
     1
 93
        1
176
     1
 44
0.0
176
     1
173
     0
176
     1
  0
VISUALSTYLE
  5
2B
102
{ACAD_REACTORS
330
2A
102
}
330
2A
100
AcDbVisualStyle
  2
Flat
 70
     0
177
     2
291
     1
 71
     2
176
     1
 72
     1
176
     1
 73
     1
176
     1
 90
        2
176
     1
 40
-0.6
176
     1
 41
30.0
176
     1
 62
     5
 63
     7
421
 16777215
176
     1
 74
     0
176
     1
 91
        4
176
     1
 64
     7
176
     1
 65
   257
176
     1
 75
     1
176
     1
175
     1
176
     1
 42
1.0
176
     1
 92
        8
176
     1
 66
     7
176
     1
 43
1.0
176
     1
 76
     1
176
     1
 77
     6
176
     1
 78
     2
176
     1
 67
     7
176
     1
 79
     5
176
     1
170
     0
176
     1
171
     0
176
     1
290
     0
176
     1
 93
       13
176
     1
 44
0.0
176
     1
173
     0
176
     1
  0
VISUALSTYLE
  5
2C
102
{ACAD_REACTORS
330
2A
102
}
330
2A
100
AcDbVisualStyle
  2
FlatWithEdges
 70
     1
177
     2
291
     1
 71
     2
176
     1
 72
     1
176
     1
 73
     1
176
     1
 90
        2
176
     1
 40
-0.6
176
     1
 41
30.0
176
     1
 62
     5
 63
     7
421
 16777215
176
     1
 74
     1
176
     1
 91
        4
176
     1
 64
     7
176
     1
 65
   257
176
     1
 75
     1
176
     1
175
     1
176
     1
 42
1.0
176
     1
 92
        0
176
     1
 66
   257
176
     1
 43
1.0
176
     1
 76
     1
176
     1
 77
     6
176
     1
 78
     2
176
     1
 67
     7
176
     1
 79
     5
176
     1
170
     0
176
     1
171
     0
176
     1
290
     0
176
     1
 93
       13
176
     1
 44
0.0
176
     1
173
     0
176
     1
  0
VISUALSTYLE
  5
2D
102
{ACAD_REACTORS
330
2A
102
}
330
2A
100
AcDbVisualStyle
  2
Gouraud
 70
     2
177
     2
291
     1
 71
     2
176
     1
 72
     2
176
     1
 73
     1
176
     1
 90
        2
176
     1
 40
-0.6
176
     1
 41
30.0
176
     1
 62
     5
 63
     7
421
 16777215
176
     1
 74
     0
176
     1
 91
        4
176
     1
 64
     7
176
     1
 65
   257
176
     1
 75
     1
176
     1
175
     1
176
     1
 42
1.0
176
     1
 92
        0
176
     1
 66
     7
176
     1
 43
1.0
176
     1
 76
     1
176
     1
 77
     6
176
     1
 78
     2
176
     1
 67
     7
176
     1
 79
     5
176
     1
170
     0
176
     1
171
     0
176
     1
290
     0
176
     1
 93
       13
176
     1
 44
0.0
176
     1
173
     0
176
     1
  0
VISUALSTYLE
  5
2E
102
{ACAD_REACTORS
330
2A
102
}
330
2A
100
AcDbVisualStyle
  2
GouraudWithEdges
 70
     3
177
     2
291
     1
 71
     2
176
     1
 72
     2
176
     1
 73
     1
176
     1
 90
        2
176
     1
 40
-0.6
176
     1
 41
30.0
176
     1
 62
     5
 63
     7
421
 16777215
176
     1
 74
     1
176
     1
 91
        4
176
     1
 64
     7
176
     1
 65
   257
176
     1
 75
     1
176
     1
175
     1
176
     1
 42
1.0
176
     1
 92
        0
176
     1
 66
   257
176
     1
 43
1.0
176
     1
 76
     1
176
     1
 77
     6
176
     1
 78
     2
176
     1
 67
     7
176
     1
 79
     5
176
     1
170
     0
176
     1
171
     0
176
     1
290
     0
176
     1
 93
       13
176
     1
 44
0.0
176
     1
173
     0
176
     1
  0
VISUALSTYLE
  5
38
102
{ACAD_REACTORS
330
2A
102
}
330
2A
100
AcDbVisualStyle
  2
Linepattern
 70
    14
177
     2
291
     1
 71
     2
176
     1
 72
     2
176
     1
 73
     0
176
     1
 90
        0
176
     1
 40
-0.6
176
     1
 41
-30.0
176
     1
 62
     5
 63
     7
421
 16777215
176
     1
 74
     1
176
     1
 91
        4
176
     1
 64
     7
176
     1
 65
   257
176
     1
 75
     7
176
     1
175
     7
176
     1
 42
1.0
176
     1
 92
        8
176
     1
 66
     7
176
     1
 43
1.0
176
     1
 76
     1
176
     1
 77
     6
176
     1
 78
     2
176
     1
 67
     7
176
     1
 79
     5
176
     1
170
     0
176
     1
171
     0
176
     1
290
     0
176
     1
 93
        1
176
     1
 44
0.0
176
     1
173
     0
176
     1
  0
VISUALSTYLE
  5
33
102
{ACAD_REACTORS
330
2A
102
}
330
2A
100
AcDbVisualStyle
  2
Realistic
 70
     8
177
     2
291
     0
 71
     2
176
     1
 72
     2
176
     1
 73
     0
176
     1
 90
        0
176
     1
 40
-0.6
176
     1
 41
-30.0
176
     1
 62
     5
 63
     7
421
 16777215
176
     1
 74
     1
176
     1
 91
        0
176
     1
 64
     7
176
     1
 65
   257
176
     1
 75
     1
176
     1
175
     1
176
     1
 42
1.0
176
     1
 92
        8
176
     1
 66
     8
424
  7895160
176
     1
 43
1.0
176
     1
 76
     1
176
     1
 77
     6
176
     1
 78
     2
176
     1
 67
     7
176
     1
 79
     5
176
     1
170
     0
176
     1
171
     0
176
     1
290
     0
176
     1
 93
       13
176
     1
 44
0.0
176
     1
173
     0
176
     1
  0
VISUALSTYLE
  5
37
102
{ACAD_REACTORS
330
2A
102
}
330
2A
100
AcDbVisualStyle
  2
Thicken
 70
    13
177
     2
291
     1
 71
     2
176
     1
 72
     2
176
     1
 73
     0
176
     1
 90
        0
176
     1
 40
-0.6
176
     1
 41
-30.0
176
     1
 62
     5
 63
     7
421
 16777215
176
     1
 74
     1
176
     1
 91
        4
176
     1
 64
     7
176
     1
 65
   257
176
     1
 75
     1
176
     1
175
     1
176
     1
 42
1.0
176
     1
 92
       12
176
     1
 66
     7
176
     1
 43
1.0
176
     1
 76
     1
176
     1
 77
     6
176
     1
 78
     2
176
     1
 67
     7
176
     1
 79
     5
176
     1
170
     0
176
     1
171
     0
176
     1
290
     0
176
     1
 93
        1
176
     1
 44
0.0
176
     1
173
     0
176
     1
  0
ENDSEC
  0
EOF
