  0
SECTION
  2
HEADER
  9
$ACADVER
  1
AC1024
  9
$ACADMAINTVER
 70
     6
  9
$DWGCODEPAGE
  3
UNDEFINED
  9
$INSBASE
 10
0.0
 20
0.0
 30
0.0
  9
$EXTMIN
 10
1.000000000000000E+20
 20
1.000000000000000E+20
 30
1.000000000000000E+20
  9
$EXTMAX
 10
-1.000000000000000E+20
 20
-1.000000000000000E+20
 30
-1.000000000000000E+20
  9
$LIMMIN
 10
0.0
 20
0.0
  9
$LIMMAX
 10
12.0
 20
9.0
  9
$ORTHOMODE
 70
     0
  9
$REGENMODE
 70
     1
  9
$FILLMODE
 70
     1
  9
$QTEXTMODE
 70
     0
  9
$MIRRTEXT
 70
     1
  9
$LTSCALE
 40
1.0
  9
$ATTMODE
 70
     1
  9
$TEXTSIZE
 40
0.2
  9
$TRACEWID
 40
0.05
  9
$TEXTSTYLE
  7
Standard
  9
$CLAYER
  8
0
  9
$CELTYPE
  6
ByLayer
  9
$CECOLOR
 62
   256
  9
$CELTSCALE
 40
1.0
  9
$DISPSILH
 70
     0
  9
$DIMSCALE
 40
1.0
  9
$DIMASZ
 40
0.18
  9
$DIMEXO
 40
0.0625
  9
$DIMDLI
 40
0.38
  9
$DIMRND
 40
0.0
  9
$DIMDLE
 40
0.0
  9
$DIMEXE
 40
0.18
  9
$DIMTP
 40
0.0
  9
$DIMTM
 40
0.0
  9
$DIMTXT
 40
0.18
  9
$DIMCEN
 40
0.09
  9
$DIMTSZ
 40
0.0
  9
$DIMTOL
 70
     0
  9
$DIMLIM
 70
     0
  9
$DIMTIH
 70
     1
  9
$DIMTOH
 70
     1
  9
$DIMSE1
 70
     0
  9
$DIMSE2
 70
     0
  9
$DIMTAD
 70
     0
  9
$DIMZIN
 70
     0
  9
$DIMBLK
  1

  9
$DIMASO
 70
     1
  9
$DIMSHO
 70
     1
  9
$DIMPOST
  1

  9
$DIMAPOST
  1

  9
$DIMALT
 70
     0
  9
$DIMALTD
 70
     2
  9
$DIMALTF
 40
25.4
  9
$DIMLFAC
 40
1.0
  9
$DIMTOFL
 70
     0
  9
$DIMTVP
 40
0.0
  9
$DIMTIX
 70
     0
  9
$DIMSOXD
 70
     0
  9
$DIMSAH
 70
     0
  9
$DIMBLK1
  1

  9
$DIMBLK2
  1

  9
$DIMSTYLE
  2
Standard
  9
$DIMCLRD
 70
     0
  9
$DIMCLRE
 70
     0
  9
$DIMCLRT
 70
     0
  9
$DIMTFAC
 40
1.0
  9
$DIMGAP
 40
0.09
  9
$DIMJUST
 70
     0
  9
$DIMSD1
 70
     0
  9
$DIMSD2
 70
     0
  9
$DIMTOLJ
 70
     1
  9
$DIMTZIN
 70
     0
  9
$DIMALTZ
 70
     0
  9
$DIMALTTZ
 70
     0
  9
$DIMUPT
 70
     0
  9
$DIMDEC
 70
     4
  9
$DIMTDEC
 70
     4
  9
$DIMALTU
 70
     2
  9
$DIMALTTD
 70
     2
  9
$DIMTXSTY
  7
Standard
  9
$DIMAUNIT
 70
     0
  9
$DIMADEC
 70
     0
  9
$DIMALTRND
 40
0.0
  9
$DIMAZIN
 70
     0
  9
$DIMDSEP
 70
    46
  9
$DIMATFIT
 70
     3
  9
$DIMFRAC
 70
     0
  9
$DIMLDRBLK
  1

  9
$DIMLUNIT
 70
     2
  9
$DIMLWD
 70
    -2
  9
$DIMLWE
 70
    -2
  9
$DIMTMOVE
 70
     0
  9
$DIMFXL
 40
1.0
  9
$DIMFXLON
 70
     0
  9
$DIMJOGANG
 40
0.7853981633974483
  9
$DIMTFILL
 70
     0
  9
$DIMTFILLCLR
 70
     0
  9
$DIMARCSYM
 70
     0
  9
$DIMLTYPE
  6

  9
$DIMLTEX1
  6

  9
$DIMLTEX2
  6

  9
$DIMTXTDIRECTION
 70
     0
  9
$LUNITS
 70
     2
  9
$LUPREC
 70
     4
  9
$SKETCHINC
 40
0.1
  9
$FILLETRAD
 40
0.5
  9
$AUNITS
 70
     0
  9
$AUPREC
 70
     0
  9
$MENU
  1
.
  9
$ELEVATION
 40
0.0
  9
$PELEVATION
 40
0.0
  9
$THICKNESS
 40
0.0
  9
$LIMCHECK
 70
     0
  9
$CHAMFERA
 40
0.5
  9
$CHAMFERB
 40
0.5
  9
$CHAMFERC
 40
1.0
  9
$CHAMFERD
 40
0.0
  9
$SKPOLY
 70
     0
  9
$TDCREATE
 40
2457917.61443287
  9
$TDUCREATE
 40
2457917.23943287
  9
$TDUPDATE
 40
2457917.61443287
  9
$TDUUPDATE
 40
2457917.23943287
  9
$TDINDWG
 40
0.0000000116
  9
$TDUSRTIMER
 40
0.0000000116
  9
$USRTIMER
 70
     1
  9
$ANGBASE
 50
0.0
  9
$ANGDIR
 70
     0
  9
$PDMODE
 70
     0
  9
$PDSIZE
 40
0.0
  9
$PLINEWID
 40
0.0
  9
$SPLFRAME
 70
     0
  9
$SPLINETYPE
 70
     6
  9
$SPLINESEGS
 70
     8
  9
$HANDSEED
  5
10C
  9
$SURFTAB1
 70
     6
  9
$SURFTAB2
 70
     6
  9
$SURFTYPE
 70
     6
  9
$SURFU
 70
     6
  9
$SURFV
 70
     6
  9
$UCSBASE
  2

  9
$UCSNAME
  2

  9
$UCSORG
 10
0.0
 20
0.0
 30
0.0
  9
$UCSXDIR
 10
1.0
 20
0.0
 30
0.0
  9
$UCSYDIR
 10
0.0
 20
1.0
 30
0.0
  9
$UCSORTHOREF
  2

  9
$UCSORTHOVIEW
 70
     0
  9
$UCSORGTOP
 10
0.0
 20
0.0
 30
0.0
  9
$UCSORGBOTTOM
 10
0.0
 20
0.0
 30
0.0
  9
$UCSORGLEFT
 10
0.0
 20
0.0
 30
0.0
  9
$UCSORGRIGHT
 10
0.0
 20
0.0
 30
0.0
  9
$UCSORGFRONT
 10
0.0
 20
0.0
 30
0.0
  9
$UCSORGBACK
 10
0.0
 20
0.0
 30
0.0
  9
$PUCSBASE
  2

  9
$PUCSNAME
  2

  9
$PUCSORG
 10
0.0
 20
0.0
 30
0.0
  9
$PUCSXDIR
 10
1.0
 20
0.0
 30
0.0
  9
$PUCSYDIR
 10
0.0
 20
1.0
 30
0.0
  9
$PUCSORTHOREF
  2

  9
$PUCSORTHOVIEW
 70
     0
  9
$PUCSORGTOP
 10
0.0
 20
0.0
 30
0.0
  9
$PUCSORGBOTTOM
 10
0.0
 20
0.0
 30
0.0
  9
$PUCSORGLEFT
 10
0.0
 20
0.0
 30
0.0
  9
$PUCSORGRIGHT
 10
0.0
 20
0.0
 30
0.0
  9
$PUCSORGFRONT
 10
0.0
 20
0.0
 30
0.0
  9
$PUCSORGBACK
 10
0.0
 20
0.0
 30
0.0
  9
$USERI1
 70
     0
  9
$USERI2
 70
     0
  9
$USERI3
 70
     0
  9
$USERI4
 70
     0
  9
$USERI5
 70
     0
  9
$USERR1
 40
0.0
  9
$USERR2
 40
0.0
  9
$USERR3
 40
0.0
  9
$USERR4
 40
0.0
  9
$USERR5
 40
0.0
  9
$WORLDVIEW
 70
     1
  9
$SHADEDGE
 70
     3
  9
$SHADEDIF
 70
    70
  9
$TILEMODE
 70
     1
  9
$MAXACTVP
 70
    64
  9
$PINSBASE
 10
0.0
 20
0.0
 30
0.0
  9
$PLIMCHECK
 70
     0
  9
$PEXTMIN
 10
1.000000000000000E+20
 20
1.000000000000000E+20
 30
1.000000000000000E+20
  9
$PEXTMAX
 10
-1.000000000000000E+20
 20
-1.000000000000000E+20
 30
-1.000000000000000E+20
  9
$PLIMMIN
 10
0.0
 20
0.0
  9
$PLIMMAX
 10
12.0
 20
9.0
  9
$UNITMODE
 70
     0
  9
$VISRETAIN
 70
     1
  9
$PLINEGEN
 70
     0
  9
$PSLTSCALE
 70
     1
  9
$TREEDEPTH
 70
  3020
  9
$CMLSTYLE
  2
Standard
  9
$CMLJUST
 70
     0
  9
$CMLSCALE
 40
1.0
  9
$PROXYGRAPHICS
 70
     1
  9
$MEASUREMENT
 70
     0
  9
$CELWEIGHT
370
    -1
  9
$ENDCAPS
280
     0
  9
$JOINSTYLE
280
     0
  9
$LWDISPLAY
290
     1
  9
$INSUNITS
 70
     1
  9
$HYPERLINKBASE
  1

  9
$STYLESHEET
  1

  9
$XEDIT
290
     1
  9
$CEPSNTYPE
380
     0
  9
$PSTYLEMODE
290
     1
  9
$FINGERPRINTGUID
  2
{63B3F9BD-0BE1-6A8B-A7E7-F2731BE70637}
  9
$VERSIONGUID
  2
{FAEB1C32-E019-11D5-929B-00C0DF256EC4}
  9
$EXTNAMES
290
     1
  9
$PSVPSCALE
 40
0.0
  9
$OLESTARTUP
290
     0
  9
$SORTENTS
280
   127
  9
$INDEXCTL
280
     0
  9
$HIDETEXT
280
     1
  9
$XCLIPFRAME
280
     2
  9
$HALOGAP
280
     0
  9
$OBSCOLOR
 70
   257
  9
$OBSLTYPE
280
     0
  9
$INTERSECTIONDISPLAY
280
     0
  9
$INTERSECTIONCOLOR
 70
   257
  9
$DIMASSOC
280
     2
  9
$PROJECTNAME
  1

  9
$CAMERADISPLAY
290
     0
  9
$LENSLENGTH
 40
50.0
  9
$CAMERAHEIGHT
 40
0.0
  9
$STEPSPERSEC
 40
2.0
  9
$STEPSIZE
 40
6.0
  9
$3DDWFPREC
 40
2.0
  9
$PSOLWIDTH
 40
0.25
  9
$PSOLHEIGHT
 40
4.0
  9
$LOFTANG1
 40
1.570796326794897
  9
$LOFTANG2
 40
1.570796326794897
  9
$LOFTMAG1
 40
0.0
  9
$LOFTMAG2
 40
0.0
  9
$LOFTPARAM
 70
     7
  9
$LOFTNORMALS
280
     1
  9
$LATITUDE
 40
37.795
  9
$LONGITUDE
 40
-122.394
  9
$NORTHDIRECTION
 40
0.0
  9
$TIMEZONE
 70
 -8000
  9
$LIGHTGLYPHDISPLAY
280
     1
  9
$TILEMODELIGHTSYNCH
280
     1
  9
$CMATERIAL
347
3C
  9
$SOLIDHIST
280
     1
  9
$SHOWHIST
280
     1
  9
$DWFFRAME
280
     2
  9
$DGNFRAME
280
     2
  9
$REALWORLDSCALE
290
     1
  9
$INTERFERECOLOR
 62
   256
  9
$CSHADOW
280
     0
  9
$SHADOWPLANELOCATION
 40
0.0
  0
ENDSEC
  0
SECTION
  2
CLASSES
  0
CLASS
  1
ACDBDICTIONARYWDFLT
  2
AcDbDictionaryWithDefault
  3
ObjectDBX Classes
 90
        0
 91
        4
280
     0
281
     0
  0
CLASS
  1
VISUALSTYLE
  2
AcDbVisualStyle
  3
ObjectDBX Classes
 90
     4095
 91
        4
280
     0
281
     0
  0
CLASS
  1
MATERIAL
  2
AcDbMaterial
  3
ObjectDBX Classes
 90
     1153
 91
        4
280
     0
281
     0
  0
CLASS
  1
SUN
  2
AcDbSun
  3
SCENEOE
 90
     1024
 91
        4
280
     0
281
     0
  0
ENDSEC
  0
SECTION
  2
TABLES
  0
TABLE
  2
VPORT
  5
8
330
0
100
AcDbSymbolTable
 70
     1
  0
VPORT
  5
29
330
8
100
AcDbSymbolTableRecord
100
AcDbViewportTableRecord
  2
*Active
 70
     0
 10
0.0
 20
0.0
 11
1.0
 21
1.0
 12
0.0
 22
0.0
 13
0.0
 23
0.0
 14
0.5
 24
0.5
 15
0.5
 25
0.5
 16
0.0
 26
0.0
 36
1.0
 17
91.00082462281999
 27
-128.4993055234307
 37
0.0
 40
256.9986110468615
 41
0.7081814508812795
 42
50.0
 43
0.0
 44
0.0
 50
0.0
 51
0.0
 71
     0
 72
   100
 73
     1
 74
     3
 75
     0
 76
     0
 77
     0
 78
     0
281
     0
 65
     1
110
0.0
120
0.0
130
0.0
111
1.0
121
0.0
131
0.0
112
0.0
122
1.0
132
0.0
 79
     0
146
0.0
 60
     3
 61
     5
292
     1
282
     1
141
0.0
142
0.0
 63
   250
361
3F
  0
ENDTAB
  0
TABLE
  2
LTYPE
  5
5
330
0
100
AcDbSymbolTable
 70
     1
  0
LTYPE
  5
14
330
5
100
AcDbSymbolTableRecord
100
AcDbLinetypeTableRecord
  2
ByBlock
 70
     0
  3

 72
    65
 73
     0
 40
0.0
  0
LTYPE
  5
15
330
5
100
AcDbSymbolTableRecord
100
AcDbLinetypeTableRecord
  2
ByLayer
 70
     0
  3

 72
    65
 73
     0
 40
0.0
  0
LTYPE
  5
16
330
5
100
AcDbSymbolTableRecord
100
AcDbLinetypeTableRecord
  2
Continuous
 70
     0
  3
Solid line
 72
    65
 73
     0
 40
0.0
  0
ENDTAB
  0
TABLE
  2
LAYER
  5
2
330
0
100
AcDbSymbolTable
 70
     2
  0
LAYER
  5
10
330
2
100
AcDbSymbolTableRecord
100
AcDbLayerTableRecord
  2
0
 70
     0
 62
     7
  6
Continuous
370
    -3
390
F
347
3E
  0
LAYER
  5
40
330
2
100
AcDbSymbolTableRecord
100
AcDbLayerTableRecord
  2
_U+30EC_U+30A4_U+30E4_U+30FC 1
 70
     0
 62
     7
  6
Continuous
370
    -3
390
F
347
3E
  0
ENDTAB
  0
TABLE
  2
STYLE
  5
3
330
0
100
AcDbSymbolTable
 70
     1
  0
STYLE
  5
11
330
3
100
AcDbSymbolTableRecord
100
AcDbTextStyleTableRecord
  2
Standard
 70
     0
 40
0.0
 41
1.0
 50
0.0
 71
     0
 42
0.2
  3
txt
  4

  0
ENDTAB
  0
TABLE
  2
VIEW
  5
6
330
0
100
AcDbSymbolTable
 70
     0
  0
ENDTAB
  0
TABLE
  2
UCS
  5
7
330
0
100
AcDbSymbolTable
 70
     0
  0
ENDTAB
  0
TABLE
  2
APPID
  5
9
330
0
100
AcDbSymbolTable
 70
     1
  0
APPID
  5
12
330
9
100
AcDbSymbolTableRecord
100
AcDbRegAppTableRecord
  2
ACAD
 70
     0
  0
ENDTAB
  0
TABLE
  2
DIMSTYLE
  5
A
330
0
100
AcDbSymbolTable
 70
     1
100
AcDbDimStyleTable
  0
DIMSTYLE
105
27
330
A
100
AcDbSymbolTableRecord
100
AcDbDimStyleTableRecord
  2
Standard
 70
     0
178
     0
340
11
  0
ENDTAB
  0
TABLE
  2
BLOCK_RECORD
  5
1
330
0
100
AcDbSymbolTable
 70
     7
  0
BLOCK_RECORD
  5
1F
330
1
100
AcDbSymbolTableRecord
100
AcDbBlockTableRecord
  2
*Model_Space
340
22
 70
     0
280
     1
281
     0
  0
BLOCK_RECORD
  5
1B
330
1
100
AcDbSymbolTableRecord
100
AcDbBlockTableRecord
  2
*Paper_Space
340
1E
 70
     0
280
     1
281
     0
  0
BLOCK_RECORD
  5
23
330
1
100
AcDbSymbolTableRecord
100
AcDbBlockTableRecord
  2
*Paper_Space0
340
26
 70
     0
280
     1
281
     0
  0
BLOCK_RECORD
  5
92
330
1
100
AcDbSymbolTableRecord
100
AcDbBlockTableRecord
  2
block 2
340
0
102
{BLKREFS
331
93
102
}
 70
     0
280
     1
281
     0
  0
BLOCK_RECORD
  5
AD
330
1
100
AcDbSymbolTableRecord
100
AcDbBlockTableRecord
  2
block 3
340
0
102
{BLKREFS
331
AE
102
}
 70
     0
280
     1
281
     0
  0
BLOCK_RECORD
  5
BF
330
1
100
AcDbSymbolTableRecord
100
AcDbBlockTableRecord
  2
block 4
340
0
102
{BLKREFS
331
C0
102
}
 70
     0
280
     1
281
     0
  0
BLOCK_RECORD
  5
D0
330
1
100
AcDbSymbolTableRecord
100
AcDbBlockTableRecord
  2
block 5
340
0
102
{BLKREFS
331
D1
102
}
 70
     0
280
     1
281
     0
  0
BLOCK_RECORD
  5
E4
330
1
100
AcDbSymbolTableRecord
100
AcDbBlockTableRecord
  2
block 6
340
0
102
{BLKREFS
331
E5
102
}
 70
     0
280
     1
281
     0
  0
BLOCK_RECORD
  5
F8
330
1
100
AcDbSymbolTableRecord
100
AcDbBlockTableRecord
  2
block 7
340
0
102
{BLKREFS
331
F9
102
}
 70
     0
280
     1
281
     0
  0
ENDTAB
  0
ENDSEC
  0
SECTION
  2
BLOCKS
  0
BLOCK
  5
20
330
1F
100
AcDbEntity
  8
0
100
AcDbBlockBegin
  2
*Model_Space
 70
     0
 10
0.0
 20
0.0
 30
0.0
  3
*Model_Space
  1

  0
ENDBLK
  5
21
330
1F
100
AcDbEntity
  8
0
100
AcDbBlockEnd
  0
BLOCK
  5
1C
330
1B
100
AcDbEntity
 67
     1
  8
0
100
AcDbBlockBegin
  2
*Paper_Space
 70
     0
 10
0.0
 20
0.0
 30
0.0
  3
*Paper_Space
  1

  0
ENDBLK
  5
1D
330
1B
100
AcDbEntity
 67
     1
  8
0
100
AcDbBlockEnd
  0
BLOCK
  5
24
330
23
100
AcDbEntity
  8
0
100
AcDbBlockBegin
  2
*Paper_Space0
 70
     0
 10
0.0
 20
0.0
 30
0.0
  3
*Paper_Space0
  1

  0
ENDBLK
  5
25
330
23
100
AcDbEntity
  8
0
100
AcDbBlockEnd
  0
BLOCK
  5
94
330
92
100
AcDbEntity
  8
0
100
AcDbBlockBegin
  2
block 2
 70
     0
 10
0.0
 20
0.0
 30
0.0
  3
block 2
  1

  0
SPLINE
  5
96
330
92
100
AcDbEntity
  8
_U+30EC_U+30A4_U+30E4_U+30FC 1
370
     0
100
AcDbSpline
210
0.0
220
0.0
230
1.0
 70
    11
 71
     3
 72
    29
 73
    25
 74
     0
 42
0.0000000001
 43
0.0000000001
 12
1.0
 22
0.0
 32
0.0
 13
1.0
 23
0.0
 33
0.0
 40
0.0
 40
0.0
 40
0.0
 40
0.0
 40
1.0
 40
1.0
 40
1.0
 40
2.0
 40
2.0
 40
2.0
 40
3.0
 40
3.0
 40
3.0
 40
4.0
 40
4.0
 40
4.0
 40
5.0
 40
5.0
 40
5.0
 40
6.0
 40
6.0
 40
6.0
 40
7.0
 40
7.0
 40
7.0
 40
8.0
 40
8.0
 40
8.0
 40
8.0
 10
106.7662651642807
 20
-120.0130018146148
 30
0.0
 10
106.9757269697838
 20
-120.1211778128517
 30
0.0
 10
106.9946749949527
 20
-120.2944661157597
 30
0.0
 10
106.9946749949527
 20
-120.4109103431612
 30
0.0
 10
106.9946749949527
 20
-120.5717963023223
 30
0.0
 10
106.9481662059019
 20
-120.7133897267661
 30
0.0
 10
106.7662651642807
 20
-120.808474362159
 30
0.0
 10
106.571617269364
 20
-120.912171736265
 30
0.0
 10
106.3345946999789
 20
-120.9311197614339
 30
0.0
 10
106.1719861930751
 20
-120.9311197614339
 30
0.0
 10
106.0279812017916
 20
-120.9311197614339
 30
0.0
 10
105.7761447218199
 20
-120.9142387935562
 30
0.0
 10
105.5773627123209
 20
-120.808474362159
 30
0.0
 10
105.3744465882397
 20
-120.7006428734707
 30
0.0
 10
105.35101993894
 20
-120.5397569143095
 30
0.0
 10
105.35101993894
 20
-120.4109103431612
 30
0.0
 10
105.35101993894
 20
-120.2520914412911
 30
0.0
 10
105.3954616706997
 20
-120.1084309595562
 30
0.0
 10
105.5773627123209
 20
-120.0130018146148
 30
0.0
 10
105.7699435499464
 20
-119.9137830646396
 30
0.0
 10
105.9983533806185
 20
-119.8903564153399
 30
0.0
 10
106.1719861930751
 20
-119.8903564153399
 30
0.0
 10
106.343207438692
 20
-119.8903564153399
 30
0.0
 10
106.5736843266552
 20
-119.9117160073485
 30
0.0
 10
106.7662651642807
 20
-120.0130018146148
 30
0.0
  0
SPLINE
  5
97
330
92
100
AcDbEntity
  8
_U+30EC_U+30A4_U+30E4_U+30FC 1
370
     0
100
AcDbSpline
210
0.0
220
0.0
230
1.0
 70
    11
 71
     3
 72
    17
 73
    13
 74
     0
 42
0.0000000001
 43
0.0000000001
 12
1.0
 22
0.0
 32
0.0
 13
1.0
 23
0.0
 33
0.0
 40
0.0
 40
0.0
 40
0.0
 40
0.0
 40
1.0
 40
1.0
 40
1.0
 40
2.0
 40
2.0
 40
2.0
 40
3.0
 40
3.0
 40
3.0
 40
4.0
 40
4.0
 40
4.0
 40
4.0
 10
105.5436007765655
 20
-120.4109103431612
 30
0.0
 10
105.5436007765655
 20
-120.6603352562933
 30
0.0
 10
105.8271321350015
 20
-120.7071885548927
 30
0.0
 10
106.1719861930751
 20
-120.7071885548927
 30
0.0
 10
106.4913465445577
 20
-120.7071885548927
 30
0.0
 10
106.8000271000361
 20
-120.6710150522975
 30
0.0
 10
106.8000271000361
 20
-120.4109103431612
 30
0.0
 10
106.8000271000361
 20
-120.1632079777717
 30
0.0
 10
106.5189073084397
 20
-120.1146321314297
 30
0.0
 10
106.1719861930751
 20
-120.1146321314297
 30
0.0
 10
105.8522813320439
 20
-120.1146321314297
 30
0.0
 10
105.5436007765655
 20
-120.1528726913159
 30
0.0
 10
105.5436007765655
 20
-120.4109103431612
 30
0.0
  0
HATCH
  5
98
330
92
100
AcDbEntity
  8
_U+30EC_U+30A4_U+30E4_U+30FC 1
 62
   179
420
  2234388
100
AcDbHatch
 10
0.0
 20
0.0
 30
0.0
210
0.0
220
0.0
230
1.0
  2
SOLID
 70
     1
 71
     0
 91
        2
 92
        1
 93
        1
 72
     4
 94
        3
 73
     0
 74
     1
 95
       29
 96
       25
 40
0.0
 40
0.0
 40
0.0
 40
0.0
 40
1.0
 40
1.0
 40
1.0
 40
2.0
 40
2.0
 40
2.0
 40
3.0
 40
3.0
 40
3.0
 40
4.0
 40
4.0
 40
4.0
 40
5.0
 40
5.0
 40
5.0
 40
6.0
 40
6.0
 40
6.0
 40
7.0
 40
7.0
 40
7.0
 40
8.0
 40
8.0
 40
8.0
 40
8.0
 10
106.7662651642807
 20
-120.0130018146148
 10
106.9757269697838
 20
-120.1211778128517
 10
106.9946749949527
 20
-120.2944661157597
 10
106.9946749949527
 20
-120.4109103431612
 10
106.9946749949527
 20
-120.5717963023223
 10
106.9481662059019
 20
-120.7133897267661
 10
106.7662651642807
 20
-120.808474362159
 10
106.571617269364
 20
-120.912171736265
 10
106.3345946999789
 20
-120.9311197614339
 10
106.1719861930751
 20
-120.9311197614339
 10
106.0279812017916
 20
-120.9311197614339
 10
105.7761447218199
 20
-120.9142387935562
 10
105.5773627123209
 20
-120.808474362159
 10
105.3744465882397
 20
-120.7006428734707
 10
105.35101993894
 20
-120.5397569143095
 10
105.35101993894
 20
-120.4109103431612
 10
105.35101993894
 20
-120.2520914412911
 10
105.3954616706997
 20
-120.1084309595562
 10
105.5773627123209
 20
-120.0130018146148
 10
105.7699435499464
 20
-119.9137830646396
 10
105.9983533806185
 20
-119.8903564153399
 10
106.1719861930751
 20
-119.8903564153399
 10
106.343207438692
 20
-119.8903564153399
 10
106.5736843266552
 20
-119.9117160073485
 10
106.7662651642807
 20
-120.0130018146148
 97
        0
 97
        0
 92
        1
 93
        1
 72
     4
 94
        3
 73
     0
 74
     1
 95
       17
 96
       13
 40
0.0
 40
0.0
 40
0.0
 40
0.0
 40
1.0
 40
1.0
 40
1.0
 40
2.0
 40
2.0
 40
2.0
 40
3.0
 40
3.0
 40
3.0
 40
4.0
 40
4.0
 40
4.0
 40
4.0
 10
105.5436007765655
 20
-120.4109103431612
 10
105.5436007765655
 20
-120.6603352562933
 10
105.8271321350015
 20
-120.7071885548927
 10
106.1719861930751
 20
-120.7071885548927
 10
106.4913465445577
 20
-120.7071885548927
 10
106.8000271000361
 20
-120.6710150522975
 10
106.8000271000361
 20
-120.4109103431612
 10
106.8000271000361
 20
-120.1632079777717
 10
106.5189073084397
 20
-120.1146321314297
 10
106.1719861930751
 20
-120.1146321314297
 10
105.8522813320439
 20
-120.1146321314297
 10
105.5436007765655
 20
-120.1528726913159
 10
105.5436007765655
 20
-120.4109103431612
 97
        0
 97
        0
 75
     2
 76
     1
 98
        0
  0
POLYLINE
  5
99
330
92
100
AcDbEntity
  8
_U+30EC_U+30A4_U+30E4_U+30FC 1
370
     0
100
AcDb2dPolyline
 66
     1
 10
0.0
 20
0.0
 30
0.0
  0
VERTEX
  5
9A
330
99
100
AcDbEntity
  8
_U+30EC_U+30A4_U+30E4_U+30FC 1
370
     0
100
AcDbVertex
100
AcDb2dVertex
 10
106.9440320913196
 20
-119.7925157035588
 30
0.0
  0
VERTEX
  5
9B
330
99
100
AcDbEntity
  8
_U+30EC_U+30A4_U+30E4_U+30FC 1
370
     0
100
AcDbVertex
100
AcDb2dVertex
 10
106.6921956113478
 20
-119.7925157035588
 30
0.0
  0
VERTEX
  5
9C
330
99
100
AcDbEntity
  8
_U+30EC_U+30A4_U+30E4_U+30FC 1
370
     0
100
AcDbVertex
100
AcDb2dVertex
 10
106.6921956113478
 20
-119.5406792235871
 30
0.0
  0
VERTEX
  5
9D
330
99
100
AcDbEntity
  8
_U+30EC_U+30A4_U+30E4_U+30FC 1
370
     0
100
AcDbVertex
100
AcDb2dVertex
 10
106.9440320913196
 20
-119.5406792235871
 30
0.0
  0
VERTEX
  5
9E
330
99
100
AcDbEntity
  8
_U+30EC_U+30A4_U+30E4_U+30FC 1
370
     0
100
AcDbVertex
100
AcDb2dVertex
 10
106.9440320913196
 20
-119.7925157035588
 30
0.0
  0
SEQEND
  5
9F
330
99
100
AcDbEntity
  8
_U+30EC_U+30A4_U+30E4_U+30FC 1
370
     0
  0
HATCH
  5
A0
330
92
100
AcDbEntity
  8
_U+30EC_U+30A4_U+30E4_U+30FC 1
 62
   179
420
  2234388
100
AcDbHatch
 10
0.0
 20
0.0
 30
0.0
210
0.0
220
0.0
230
1.0
  2
SOLID
 70
     1
 71
     0
 91
        1
 92
        1
 93
        4
 72
     1
 10
106.9440320913196
 20
-119.7925157035588
 11
106.6921956113478
 21
-119.7925157035588
 72
     1
 10
106.6921956113478
 20
-119.7925157035588
 11
106.6921956113478
 21
-119.5406792235871
 72
     1
 10
106.6921956113478
 20
-119.5406792235871
 11
106.9440320913196
 21
-119.5406792235871
 72
     1
 10
106.9440320913196
 20
-119.5406792235871
 11
106.9440320913196
 21
-119.7925157035588
 97
        0
 75
     2
 76
     1
 98
        0
  0
SPLINE
  5
A1
330
92
100
AcDbEntity
  8
_U+30EC_U+30A4_U+30E4_U+30FC 1
370
     0
100
AcDbSpline
210
0.0
220
0.0
230
1.0
 70
    11
 71
     3
 72
    29
 73
    25
 74
     0
 42
0.0000000001
 43
0.0000000001
 12
1.0
 22
0.0
 32
0.0
 13
1.0
 23
0.0
 33
0.0
 40
0.0
 40
0.0
 40
0.0
 40
0.0
 40
1.0
 40
1.0
 40
1.0
 40
2.0
 40
2.0
 40
2.0
 40
3.0
 40
3.0
 40
3.0
 40
4.0
 40
4.0
 40
4.0
 40
5.0
 40
5.0
 40
5.0
 40
6.0
 40
6.0
 40
6.0
 40
7.0
 40
7.0
 40
7.0
 40
8.0
 40
8.0
 40
8.0
 40
8.0
 10
106.9946749949527
 20
-118.6470214547133
 30
0.0
 10
106.9946749949527
 20
-118.9136718452716
 30
0.0
 10
106.8572156850913
 20
-119.167230872986
 30
0.0
 10
106.5082275124355
 20
-119.167230872986
 30
0.0
 10
106.2522569178814
 20
-119.167230872986
 30
0.0
 10
106.1571722824885
 20
-119.0256374485422
 30
0.0
 10
106.095849582851
 20
-118.919873017145
 30
0.0
 10
106.0365939405047
 20
-119.0445854737111
 30
0.0
 10
105.9222167703945
 20
-119.1207220839351
 30
0.0
 10
105.7613308112333
 20
-119.1207220839351
 30
0.0
 10
105.4864121915103
 20
-119.1207220839351
 30
0.0
 10
105.35101993894
 20
-118.9219400744362
 30
0.0
 10
105.35101993894
 20
-118.6470214547133
 30
0.0
 10
105.35101993894
 20
-118.3634900962772
 30
0.0
 10
105.4950249302235
 20
-118.1729763159429
 30
0.0
 10
105.7613308112333
 20
-118.1729763159429
 30
0.0
 10
105.9222167703945
 20
-118.1729763159429
 30
0.0
 10
106.0365939405047
 20
-118.2515244930066
 30
0.0
 10
106.095849582851
 20
-118.3762369495726
 30
0.0
 10
106.1464924864842
 20
-118.2873534860532
 30
0.0
 10
106.2415771218771
 20
-118.1285345841831
 30
0.0
 10
106.5040933978532
 20
-118.1285345841831
 30
0.0
 10
106.8785752770998
 20
-118.1285345841831
 30
0.0
 10
106.9946749949527
 20
-118.4079318280369
 30
0.0
 10
106.9946749949527
 20
-118.6470214547133
 30
0.0
  0
SPLINE
  5
A2
330
92
100
AcDbEntity
  8
_U+30EC_U+30A4_U+30E4_U+30FC 1
370
     0
100
AcDbSpline
210
0.0
220
0.0
230
1.0
 70
    11
 71
     3
 72
    17
 73
    13
 74
     0
 42
0.0000000001
 43
0.0000000001
 12
1.0
 22
0.0
 32
0.0
 13
1.0
 23
0.0
 33
0.0
 40
0.0
 40
0.0
 40
0.0
 40
0.0
 40
1.0
 40
1.0
 40
1.0
 40
2.0
 40
2.0
 40
2.0
 40
3.0
 40
3.0
 40
3.0
 40
4.0
 40
4.0
 40
4.0
 40
4.0
 10
105.5436007765655
 20
-118.6470214547133
 30
0.0
 10
105.5436007765655
 20
-118.8120415284567
 30
0.0
 10
105.6386854119584
 20
-118.8964463678453
 30
0.0
 10
105.7740776645287
 20
-118.8964463678453
 30
0.0
 10
105.8967230638036
 20
-118.8964463678453
 30
0.0
 10
106.0152343484962
 20
-118.8247883817521
 30
0.0
 10
106.0152343484962
 20
-118.6470214547133
 30
0.0
 10
106.0152343484962
 20
-118.4692545276744
 30
0.0
 10
105.8967230638036
 20
-118.3972520320326
 30
0.0
 10
105.7740776645287
 20
-118.3972520320326
 30
0.0
 10
105.6386854119584
 20
-118.3972520320326
 30
0.0
 10
105.5436007765655
 20
-118.4840684382609
 30
0.0
 10
105.5436007765655
 20
-118.6470214547133
 30
0.0
  0
SPLINE
  5
A3
330
92
100
AcDbEntity
  8
_U+30EC_U+30A4_U+30E4_U+30FC 1
370
     0
100
AcDbSpline
210
0.0
220
0.0
230
1.0
 70
    11
 71
     3
 72
    17
 73
    13
 74
     0
 42
0.0000000001
 43
0.0000000001
 12
1.0
 22
0.0
 32
0.0
 13
1.0
 23
0.0
 33
0.0
 40
0.0
 40
0.0
 40
0.0
 40
0.0
 40
1.0
 40
1.0
 40
1.0
 40
2.0
 40
2.0
 40
2.0
 40
3.0
 40
3.0
 40
3.0
 40
4.0
 40
4.0
 40
4.0
 40
4.0
 10
106.2036810715394
 20
-118.6470214547133
 30
0.0
 10
106.2036810715394
 20
-118.7906819364482
 30
0.0
 10
106.2904974777677
 20
-118.9432996664447
 30
0.0
 10
106.4934136018489
 20
-118.9432996664447
 30
0.0
 10
106.6987412927698
 20
-118.9432996664447
 30
0.0
 10
106.8000271000361
 20
-118.816175643039
 30
0.0
 10
106.8000271000361
 20
-118.6470214547133
 30
0.0
 10
106.8000271000361
 20
-118.4609862985098
 30
0.0
 10
106.6773817007612
 20
-118.3507432429818
 30
0.0
 10
106.4996147737223
 20
-118.3507432429818
 30
0.0
 10
106.2777506244722
 20
-118.3507432429818
 30
0.0
 10
106.2036810715394
 20
-118.5136962594341
 30
0.0
 10
106.2036810715394
 20
-118.6470214547133
 30
0.0
  0
HATCH
  5
A4
330
92
100
AcDbEntity
  8
_U+30EC_U+30A4_U+30E4_U+30FC 1
 62
   179
420
  2234388
100
AcDbHatch
 10
0.0
 20
0.0
 30
0.0
210
0.0
220
0.0
230
1.0
  2
SOLID
 70
     1
 71
     0
 91
        3
 92
        1
 93
        1
 72
     4
 94
        3
 73
     0
 74
     1
 95
       29
 96
       25
 40
0.0
 40
0.0
 40
0.0
 40
0.0
 40
1.0
 40
1.0
 40
1.0
 40
2.0
 40
2.0
 40
2.0
 40
3.0
 40
3.0
 40
3.0
 40
4.0
 40
4.0
 40
4.0
 40
5.0
 40
5.0
 40
5.0
 40
6.0
 40
6.0
 40
6.0
 40
7.0
 40
7.0
 40
7.0
 40
8.0
 40
8.0
 40
8.0
 40
8.0
 10
106.9946749949527
 20
-118.6470214547133
 10
106.9946749949527
 20
-118.9136718452716
 10
106.8572156850913
 20
-119.167230872986
 10
106.5082275124355
 20
-119.167230872986
 10
106.2522569178814
 20
-119.167230872986
 10
106.1571722824885
 20
-119.0256374485422
 10
106.095849582851
 20
-118.919873017145
 10
106.0365939405047
 20
-119.0445854737111
 10
105.9222167703945
 20
-119.1207220839351
 10
105.7613308112333
 20
-119.1207220839351
 10
105.4864121915103
 20
-119.1207220839351
 10
105.35101993894
 20
-118.9219400744362
 10
105.35101993894
 20
-118.6470214547133
 10
105.35101993894
 20
-118.3634900962772
 10
105.4950249302235
 20
-118.1729763159429
 10
105.7613308112333
 20
-118.1729763159429
 10
105.9222167703945
 20
-118.1729763159429
 10
106.0365939405047
 20
-118.2515244930066
 10
106.095849582851
 20
-118.3762369495726
 10
106.1464924864842
 20
-118.2873534860532
 10
106.2415771218771
 20
-118.1285345841831
 10
106.5040933978532
 20
-118.1285345841831
 10
106.8785752770998
 20
-118.1285345841831
 10
106.9946749949527
 20
-118.4079318280369
 10
106.9946749949527
 20
-118.6470214547133
 97
        0
 97
        0
 92
        1
 93
        1
 72
     4
 94
        3
 73
     0
 74
     1
 95
       17
 96
       13
 40
0.0
 40
0.0
 40
0.0
 40
0.0
 40
1.0
 40
1.0
 40
1.0
 40
2.0
 40
2.0
 40
2.0
 40
3.0
 40
3.0
 40
3.0
 40
4.0
 40
4.0
 40
4.0
 40
4.0
 10
105.5436007765655
 20
-118.6470214547133
 10
105.5436007765655
 20
-118.8120415284567
 10
105.6386854119584
 20
-118.8964463678453
 10
105.7740776645287
 20
-118.8964463678453
 10
105.8967230638036
 20
-118.8964463678453
 10
106.0152343484962
 20
-118.8247883817521
 10
106.0152343484962
 20
-118.6470214547133
 10
106.0152343484962
 20
-118.4692545276744
 10
105.8967230638036
 20
-118.3972520320326
 10
105.7740776645287
 20
-118.3972520320326
 10
105.6386854119584
 20
-118.3972520320326
 10
105.5436007765655
 20
-118.4840684382609
 10
105.5436007765655
 20
-118.6470214547133
 97
        0
 97
        0
 92
        1
 93
        1
 72
     4
 94
        3
 73
     0
 74
     1
 95
       17
 96
       13
 40
0.0
 40
0.0
 40
0.0
 40
0.0
 40
1.0
 40
1.0
 40
1.0
 40
2.0
 40
2.0
 40
2.0
 40
3.0
 40
3.0
 40
3.0
 40
4.0
 40
4.0
 40
4.0
 40
4.0
 10
106.2036810715394
 20
-118.6470214547133
 10
106.2036810715394
 20
-118.7906819364482
 10
106.2904974777677
 20
-118.9432996664447
 10
106.4934136018489
 20
-118.9432996664447
 10
106.6987412927698
 20
-118.9432996664447
 10
106.8000271000361
 20
-118.816175643039
 10
106.8000271000361
 20
-118.6470214547133
 10
106.8000271000361
 20
-118.4609862985098
 10
106.6773817007612
 20
-118.3507432429818
 10
106.4996147737223
 20
-118.3507432429818
 10
106.2777506244722
 20
-118.3507432429818
 10
106.2036810715394
 20
-118.5136962594341
 10
106.2036810715394
 20
-118.6470214547133
 97
        0
 97
        0
 75
     2
 76
     1
 98
        0
  0
ENDBLK
  5
95
330
92
100
AcDbEntity
  8
0
100
AcDbBlockEnd
  0
BLOCK
  5
AF
330
AD
100
AcDbEntity
  8
0
100
AcDbBlockBegin
  2
block 3
 70
     0
 10
0.0
 20
0.0
 30
0.0
  3
block 3
  1

  0
SPLINE
  5
B1
330
AD
100
AcDbEntity
  8
_U+30EC_U+30A4_U+30E4_U+30FC 1
370
     0
100
AcDbSpline
210
0.0
220
0.0
230
1.0
 70
    11
 71
     3
 72
    62
 73
    58
 74
     0
 42
0.0000000001
 43
0.0000000001
 12
1.0
 22
0.0
 32
0.0
 13
1.0
 23
0.0
 33
0.0
 40
0.0
 40
0.0
 40
0.0
 40
0.0
 40
1.0
 40
1.0
 40
1.0
 40
2.0
 40
2.0
 40
2.0
 40
3.0
 40
3.0
 40
3.0
 40
4.0
 40
4.0
 40
4.0
 40
5.0
 40
5.0
 40
5.0
 40
6.0
 40
6.0
 40
6.0
 40
7.0
 40
7.0
 40
7.0
 40
8.0
 40
8.0
 40
8.0
 40
9.0
 40
9.0
 40
9.0
 40
10.0
 40
10.0
 40
10.0
 40
11.0
 40
11.0
 40
11.0
 40
12.0
 40
12.0
 40
12.0
 40
13.0
 40
13.0
 40
13.0
 40
14.0
 40
14.0
 40
14.0
 40
15.0
 40
15.0
 40
15.0
 40
16.0
 40
16.0
 40
16.0
 40
17.0
 40
17.0
 40
17.0
 40
18.0
 40
18.0
 40
18.0
 40
19.0
 40
19.0
 40
19.0
 40
19.0
 10
106.9946749949527
 20
-136.2800536768675
 30
0.0
 10
106.9946749949527
 20
-136.3754828218089
 30
0.0
 10
106.9736599124927
 20
-136.5932128564767
 30
0.0
 10
106.7876247562892
 20
-136.7182698225913
 30
0.0
 10
106.6753146434701
 20
-136.7923393755241
 30
0.0
 10
106.5760958934949
 20
-136.7964734901065
 30
0.0
 10
106.4913465445577
 20
-136.8006076046887
 30
0.0
 10
106.4913465445577
 20
-136.8006076046887
 30
0.0
 10
106.4913465445577
 20
-136.5804660031813
 30
0.0
 10
106.4913465445577
 20
-136.5804660031813
 30
0.0
 10
106.5654160974906
 20
-136.5783989458901
 30
0.0
 10
106.8000271000361
 20
-136.5680636594344
 30
0.0
 10
106.8000271000361
 20
-136.2845323009983
 30
0.0
 10
106.8000271000361
 20
-136.1470729911368
 30
0.0
 10
106.7304361712341
 20
-135.9944552611403
 30
0.0
 10
106.502026340562
 20
-135.9944552611403
 30
0.0
 10
106.3855821131606
 20
-135.9944552611403
 30
0.0
 10
106.3370062668185
 20
-136.0326958210266
 30
0.0
 10
106.3053113883542
 20
-136.0643906994908
 30
0.0
 10
106.2312418354214
 20
-136.1384602524237
 30
0.0
 10
106.2184949821259
 20
-136.2549044798252
 30
0.0
 10
106.2184949821259
 20
-136.3096814980406
 30
0.0
 10
106.2184949821259
 20
-136.3289740327581
 30
0.0
 10
106.2205620394171
 20
-136.3648030258046
 30
0.0
 10
106.2246961539994
 20
-136.3923637896866
 30
0.0
 10
106.2246961539994
 20
-136.3923637896866
 30
0.0
 10
106.0300482590828
 20
-136.3923637896866
 30
0.0
 10
106.0300482590828
 20
-136.3923637896866
 30
0.0
 10
106.0365939405047
 20
-136.3541232298004
 30
0.0
 10
106.0386609977959
 20
-136.3120930648803
 30
0.0
 10
106.0386609977959
 20
-136.3055473834583
 30
0.0
 10
106.0386609977959
 20
-136.2400905692386
 30
0.0
 10
106.0173014057874
 20
-136.0413085597397
 30
0.0
 10
105.7806233459507
 20
-136.0413085597397
 30
0.0
 10
105.6028564189118
 20
-136.0413085597397
 30
0.0
 10
105.5477348911478
 20
-136.1722221881792
 30
0.0
 10
105.5477348911478
 20
-136.2824652437072
 30
0.0
 10
105.5477348911478
 20
-136.5467040674258
 30
0.0
 10
105.7806233459507
 20
-136.555316806139
 30
0.0
 10
105.8522813320439
 20
-136.5594509207212
 30
0.0
 10
105.8522813320439
 20
-136.5594509207212
 30
0.0
 10
105.8522813320439
 20
-136.762711554351
 30
0.0
 10
105.8522813320439
 20
-136.762711554351
 30
0.0
 10
105.7275688754778
 20
-136.7540988156379
 30
0.0
 10
105.35101993894
 20
-136.7265380517559
 30
0.0
 10
105.35101993894
 20
-136.2697183904118
 30
0.0
 10
105.35101993894
 20
-136.045442674322
 30
0.0
 10
105.4781439623457
 20
-135.8042859903545
 30
0.0
 10
105.7740776645287
 20
-135.8042859903545
 30
0.0
 10
105.9604573302807
 20
-135.8042859903545
 30
0.0
 10
106.0427951123782
 20
-135.8993706257474
 30
0.0
 10
106.1041178120156
 20
-135.9989338852711
 30
0.0
 10
106.1316785758976
 20
-135.9376111856337
 30
0.0
 10
106.211949300704
 20
-135.7557101440125
 30
0.0
 10
106.4892794872666
 20
-135.7557101440125
 30
0.0
 10
106.8275878639181
 20
-135.7557101440125
 30
0.0
 10
106.9946749949527
 20
-136.0030679998534
 30
0.0
 10
106.9946749949527
 20
-136.2800536768675
 30
0.0
  0
HATCH
  5
B2
330
AD
100
AcDbEntity
  8
_U+30EC_U+30A4_U+30E4_U+30FC 1
 62
   179
420
  2234388
100
AcDbHatch
 10
0.0
 20
0.0
 30
0.0
210
0.0
220
0.0
230
1.0
  2
SOLID
 70
     1
 71
     0
 91
        1
 92
        1
 93
        1
 72
     4
 94
        3
 73
     0
 74
     1
 95
       62
 96
       58
 40
0.0
 40
0.0
 40
0.0
 40
0.0
 40
1.0
 40
1.0
 40
1.0
 40
2.0
 40
2.0
 40
2.0
 40
3.0
 40
3.0
 40
3.0
 40
4.0
 40
4.0
 40
4.0
 40
5.0
 40
5.0
 40
5.0
 40
6.0
 40
6.0
 40
6.0
 40
7.0
 40
7.0
 40
7.0
 40
8.0
 40
8.0
 40
8.0
 40
9.0
 40
9.0
 40
9.0
 40
10.0
 40
10.0
 40
10.0
 40
11.0
 40
11.0
 40
11.0
 40
12.0
 40
12.0
 40
12.0
 40
13.0
 40
13.0
 40
13.0
 40
14.0
 40
14.0
 40
14.0
 40
15.0
 40
15.0
 40
15.0
 40
16.0
 40
16.0
 40
16.0
 40
17.0
 40
17.0
 40
17.0
 40
18.0
 40
18.0
 40
18.0
 40
19.0
 40
19.0
 40
19.0
 40
19.0
 10
106.9946749949527
 20
-136.2800536768675
 10
106.9946749949527
 20
-136.3754828218089
 10
106.9736599124927
 20
-136.5932128564767
 10
106.7876247562892
 20
-136.7182698225913
 10
106.6753146434701
 20
-136.7923393755241
 10
106.5760958934949
 20
-136.7964734901065
 10
106.4913465445577
 20
-136.8006076046887
 10
106.4913465445577
 20
-136.8006076046887
 10
106.4913465445577
 20
-136.5804660031813
 10
106.4913465445577
 20
-136.5804660031813
 10
106.5654160974906
 20
-136.5783989458901
 10
106.8000271000361
 20
-136.5680636594344
 10
106.8000271000361
 20
-136.2845323009983
 10
106.8000271000361
 20
-136.1470729911368
 10
106.7304361712341
 20
-135.9944552611403
 10
106.502026340562
 20
-135.9944552611403
 10
106.3855821131606
 20
-135.9944552611403
 10
106.3370062668185
 20
-136.0326958210266
 10
106.3053113883542
 20
-136.0643906994908
 10
106.2312418354214
 20
-136.1384602524237
 10
106.2184949821259
 20
-136.2549044798252
 10
106.2184949821259
 20
-136.3096814980406
 10
106.2184949821259
 20
-136.3289740327581
 10
106.2205620394171
 20
-136.3648030258046
 10
106.2246961539994
 20
-136.3923637896866
 10
106.2246961539994
 20
-136.3923637896866
 10
106.0300482590828
 20
-136.3923637896866
 10
106.0300482590828
 20
-136.3923637896866
 10
106.0365939405047
 20
-136.3541232298004
 10
106.0386609977959
 20
-136.3120930648803
 10
106.0386609977959
 20
-136.3055473834583
 10
106.0386609977959
 20
-136.2400905692386
 10
106.0173014057874
 20
-136.0413085597397
 10
105.7806233459507
 20
-136.0413085597397
 10
105.6028564189118
 20
-136.0413085597397
 10
105.5477348911478
 20
-136.1722221881792
 10
105.5477348911478
 20
-136.2824652437072
 10
105.5477348911478
 20
-136.5467040674258
 10
105.7806233459507
 20
-136.555316806139
 10
105.8522813320439
 20
-136.5594509207212
 10
105.8522813320439
 20
-136.5594509207212
 10
105.8522813320439
 20
-136.762711554351
 10
105.8522813320439
 20
-136.762711554351
 10
105.7275688754778
 20
-136.7540988156379
 10
105.35101993894
 20
-136.7265380517559
 10
105.35101993894
 20
-136.2697183904118
 10
105.35101993894
 20
-136.045442674322
 10
105.4781439623457
 20
-135.8042859903545
 10
105.7740776645287
 20
-135.8042859903545
 10
105.9604573302807
 20
-135.8042859903545
 10
106.0427951123782
 20
-135.8993706257474
 10
106.1041178120156
 20
-135.9989338852711
 10
106.1316785758976
 20
-135.9376111856337
 10
106.211949300704
 20
-135.7557101440125
 10
106.4892794872666
 20
-135.7557101440125
 10
106.8275878639181
 20
-135.7557101440125
 10
106.9946749949527
 20
-136.0030679998534
 10
106.9946749949527
 20
-136.2800536768675
 97
        0
 97
        0
 75
     2
 76
     1
 98
        0
  0
ENDBLK
  5
B0
330
AD
100
AcDbEntity
  8
0
100
AcDbBlockEnd
  0
BLOCK
  5
C1
330
BF
100
AcDbEntity
  8
0
100
AcDbBlockBegin
  2
block 4
 70
     0
 10
0.0
 20
0.0
 30
0.0
  3
block 4
  1

  0
SPLINE
  5
C3
330
BF
100
AcDbEntity
  8
_U+30EC_U+30A4_U+30E4_U+30FC 1
370
     0
100
AcDbSpline
210
0.0
220
0.0
230
1.0
 70
    11
 71
     3
 72
    26
 73
    22
 74
     0
 42
0.0000000001
 43
0.0000000001
 12
1.0
 22
0.0
 32
0.0
 13
1.0
 23
0.0
 33
0.0
 40
0.0
 40
0.0
 40
0.0
 40
0.0
 40
1.0
 40
1.0
 40
1.0
 40
2.0
 40
2.0
 40
2.0
 40
3.0
 40
3.0
 40
3.0
 40
4.0
 40
4.0
 40
4.0
 40
5.0
 40
5.0
 40
5.0
 40
6.0
 40
6.0
 40
6.0
 40
7.0
 40
7.0
 40
7.0
 40
7.0
 10
89.07070445906913
 20
-141.1834580810236
 30
0.0
 10
89.07070445906913
 20
-141.1834580810236
 30
0.0
 10
89.07070445906913
 20
-140.0789604684525
 30
0.0
 10
89.07070445906913
 20
-140.0789604684525
 30
0.0
 10
89.07070445906913
 20
-140.0789604684525
 30
0.0
 10
88.7406643115822
 20
-140.0789604684525
 30
0.0
 10
88.7406643115822
 20
-140.0789604684525
 30
0.0
 10
88.7406643115822
 20
-140.0789604684525
 30
0.0
 10
88.7406643115822
 20
-139.9311658721353
 30
0.0
 10
88.7406643115822
 20
-139.9311658721353
 30
0.0
 10
89.07277151636028
 20
-139.9163519615487
 30
0.0
 10
89.11928030541115
 20
-139.7533989450964
 30
0.0
 10
89.1489081265843
 20
-139.6393662845346
 30
0.0
 10
89.1489081265843
 20
-139.6393662845346
 30
0.0
 10
89.2949801751589
 20
-139.6393662845346
 30
0.0
 10
89.2949801751589
 20
-139.6393662845346
 30
0.0
 10
89.2949801751589
 20
-139.6393662845346
 30
0.0
 10
89.2949801751589
 20
-141.1834580810236
 30
0.0
 10
89.2949801751589
 20
-141.1834580810236
 30
0.0
 10
89.2949801751589
 20
-141.1834580810236
 30
0.0
 10
89.07070445906913
 20
-141.1834580810236
 30
0.0
 10
89.07070445906913
 20
-141.1834580810236
 30
0.0
  0
HATCH
  5
C4
330
BF
100
AcDbEntity
  8
_U+30EC_U+30A4_U+30E4_U+30FC 1
 62
   179
420
  2234388
100
AcDbHatch
 10
0.0
 20
0.0
 30
0.0
210
0.0
220
0.0
230
1.0
  2
SOLID
 70
     1
 71
     0
 91
        1
 92
        1
 93
        1
 72
     4
 94
        3
 73
     0
 74
     1
 95
       26
 96
       22
 40
0.0
 40
0.0
 40
0.0
 40
0.0
 40
1.0
 40
1.0
 40
1.0
 40
2.0
 40
2.0
 40
2.0
 40
3.0
 40
3.0
 40
3.0
 40
4.0
 40
4.0
 40
4.0
 40
5.0
 40
5.0
 40
5.0
 40
6.0
 40
6.0
 40
6.0
 40
7.0
 40
7.0
 40
7.0
 40
7.0
 10
89.07070445906913
 20
-141.1834580810236
 10
89.07070445906913
 20
-141.1834580810236
 10
89.07070445906913
 20
-140.0789604684525
 10
89.07070445906913
 20
-140.0789604684525
 10
89.07070445906913
 20
-140.0789604684525
 10
88.7406643115822
 20
-140.0789604684525
 10
88.7406643115822
 20
-140.0789604684525
 10
88.7406643115822
 20
-140.0789604684525
 10
88.7406643115822
 20
-139.9311658721353
 10
88.7406643115822
 20
-139.9311658721353
 10
89.07277151636028
 20
-139.9163519615487
 10
89.11928030541115
 20
-139.7533989450964
 10
89.1489081265843
 20
-139.6393662845346
 10
89.1489081265843
 20
-139.6393662845346
 10
89.2949801751589
 20
-139.6393662845346
 10
89.2949801751589
 20
-139.6393662845346
 10
89.2949801751589
 20
-139.6393662845346
 10
89.2949801751589
 20
-141.1834580810236
 10
89.2949801751589
 20
-141.1834580810236
 10
89.2949801751589
 20
-141.1834580810236
 10
89.07070445906913
 20
-141.1834580810236
 10
89.07070445906913
 20
-141.1834580810236
 97
        0
 97
        0
 75
     2
 76
     1
 98
        0
  0
SPLINE
  5
C5
330
BF
100
AcDbEntity
  8
_U+30EC_U+30A4_U+30E4_U+30FC 1
370
     0
100
AcDbSpline
210
0.0
220
0.0
230
1.0
 70
    11
 71
     3
 72
    29
 73
    25
 74
     0
 42
0.0000000001
 43
0.0000000001
 12
1.0
 22
0.0
 32
0.0
 13
1.0
 23
0.0
 33
0.0
 40
0.0
 40
0.0
 40
0.0
 40
0.0
 40
1.0
 40
1.0
 40
1.0
 40
2.0
 40
2.0
 40
2.0
 40
3.0
 40
3.0
 40
3.0
 40
4.0
 40
4.0
 40
4.0
 40
5.0
 40
5.0
 40
5.0
 40
6.0
 40
6.0
 40
6.0
 40
7.0
 40
7.0
 40
7.0
 40
8.0
 40
8.0
 40
8.0
 40
8.0
 10
90.575349912252
 20
-141.0056911539847
 30
0.0
 10
90.46751842356367
 20
-141.2151529594879
 30
0.0
 10
90.29405786588136
 20
-141.2344454942053
 30
0.0
 10
90.17761363847991
 20
-141.2344454942053
 30
0.0
 10
90.016899934093
 20
-141.2344454942053
 30
0.0
 10
89.87513425487496
 20
-141.1875921956059
 30
0.0
 10
89.77987736470781
 20
-141.0056911539847
 30
0.0
 10
89.67635224537605
 20
-140.8110432590681
 30
0.0
 10
89.65723196543291
 20
-140.5743651992314
 30
0.0
 10
89.65723196543291
 20
-140.4110676732306
 30
0.0
 10
89.65723196543291
 20
-140.2674071914957
 30
0.0
 10
89.67411293331064
 20
-140.0155707115239
 30
0.0
 10
89.77987736470781
 20
-139.816788702025
 30
0.0
 10
89.88788110817039
 20
-139.6138725779438
 30
0.0
 10
90.0485948125573
 20
-139.5904459286441
 30
0.0
 10
90.17761363847991
 20
-139.5904459286441
 30
0.0
 10
90.33626028557566
 20
-139.5904459286441
 30
0.0
 10
90.48009302208484
 20
-139.6348876604038
 30
0.0
 10
90.575349912252
 20
-139.816788702025
 30
0.0
 10
90.67474091700146
 20
-140.0093695396504
 30
0.0
 10
90.6979953115269
 20
-140.2377793703225
 30
0.0
 10
90.6979953115269
 20
-140.4110676732306
 30
0.0
 10
90.6979953115269
 20
-140.582633428396
 30
0.0
 10
90.67698022906687
 20
-140.8134548259077
 30
0.0
 10
90.575349912252
 20
-141.0056911539847
 30
0.0
  0
SPLINE
  5
C6
330
BF
100
AcDbEntity
  8
_U+30EC_U+30A4_U+30E4_U+30FC 1
370
     0
100
AcDbSpline
210
0.0
220
0.0
230
1.0
 70
    11
 71
     3
 72
    17
 73
    13
 74
     0
 42
0.0000000001
 43
0.0000000001
 12
1.0
 22
0.0
 32
0.0
 13
1.0
 23
0.0
 33
0.0
 40
0.0
 40
0.0
 40
0.0
 40
0.0
 40
1.0
 40
1.0
 40
1.0
 40
2.0
 40
2.0
 40
2.0
 40
3.0
 40
3.0
 40
3.0
 40
4.0
 40
4.0
 40
4.0
 40
4.0
 10
90.17761363847991
 20
-139.7830267662695
 30
0.0
 10
89.92801647057355
 20
-139.7830267662695
 30
0.0
 10
89.88150768152268
 20
-140.0665581247056
 30
0.0
 10
89.88150768152268
 20
-140.4110676732306
 30
0.0
 10
89.88150768152268
 20
-140.7307725342617
 30
0.0
 10
89.91750892934354
 20
-141.0394530897401
 30
0.0
 10
90.17761363847991
 20
-141.0394530897401
 30
0.0
 10
90.42514374909511
 20
-141.0394530897401
 30
0.0
 10
90.47389185021139
 20
-140.7583332981438
 30
0.0
 10
90.47389185021139
 20
-140.4110676732306
 30
0.0
 10
90.47389185021139
 20
-140.0920518312964
 30
0.0
 10
90.43565129032513
 20
-139.7830267662695
 30
0.0
 10
90.17761363847991
 20
-139.7830267662695
 30
0.0
  0
HATCH
  5
C7
330
BF
100
AcDbEntity
  8
_U+30EC_U+30A4_U+30E4_U+30FC 1
 62
   179
420
  2234388
100
AcDbHatch
 10
0.0
 20
0.0
 30
0.0
210
0.0
220
0.0
230
1.0
  2
SOLID
 70
     1
 71
     0
 91
        2
 92
        1
 93
        1
 72
     4
 94
        3
 73
     0
 74
     1
 95
       29
 96
       25
 40
0.0
 40
0.0
 40
0.0
 40
0.0
 40
1.0
 40
1.0
 40
1.0
 40
2.0
 40
2.0
 40
2.0
 40
3.0
 40
3.0
 40
3.0
 40
4.0
 40
4.0
 40
4.0
 40
5.0
 40
5.0
 40
5.0
 40
6.0
 40
6.0
 40
6.0
 40
7.0
 40
7.0
 40
7.0
 40
8.0
 40
8.0
 40
8.0
 40
8.0
 10
90.575349912252
 20
-141.0056911539847
 10
90.46751842356367
 20
-141.2151529594879
 10
90.29405786588136
 20
-141.2344454942053
 10
90.17761363847991
 20
-141.2344454942053
 10
90.016899934093
 20
-141.2344454942053
 10
89.87513425487496
 20
-141.1875921956059
 10
89.77987736470781
 20
-141.0056911539847
 10
89.67635224537605
 20
-140.8110432590681
 10
89.65723196543291
 20
-140.5743651992314
 10
89.65723196543291
 20
-140.4110676732306
 10
89.65723196543291
 20
-140.2674071914957
 10
89.67411293331064
 20
-140.0155707115239
 10
89.77987736470781
 20
-139.816788702025
 10
89.88788110817039
 20
-139.6138725779438
 10
90.0485948125573
 20
-139.5904459286441
 10
90.17761363847991
 20
-139.5904459286441
 10
90.33626028557566
 20
-139.5904459286441
 10
90.48009302208484
 20
-139.6348876604038
 10
90.575349912252
 20
-139.816788702025
 10
90.67474091700146
 20
-140.0093695396504
 10
90.6979953115269
 20
-140.2377793703225
 10
90.6979953115269
 20
-140.4110676732306
 10
90.6979953115269
 20
-140.582633428396
 10
90.67698022906687
 20
-140.8134548259077
 10
90.575349912252
 20
-141.0056911539847
 97
        0
 97
        0
 92
        1
 93
        1
 72
     4
 94
        3
 73
     0
 74
     1
 95
       17
 96
       13
 40
0.0
 40
0.0
 40
0.0
 40
0.0
 40
1.0
 40
1.0
 40
1.0
 40
2.0
 40
2.0
 40
2.0
 40
3.0
 40
3.0
 40
3.0
 40
4.0
 40
4.0
 40
4.0
 40
4.0
 10
90.17761363847991
 20
-139.7830267662695
 10
89.92801647057355
 20
-139.7830267662695
 10
89.88150768152268
 20
-140.0665581247056
 10
89.88150768152268
 20
-140.4110676732306
 10
89.88150768152268
 20
-140.7307725342617
 10
89.91750892934354
 20
-141.0394530897401
 10
90.17761363847991
 20
-141.0394530897401
 10
90.42514374909511
 20
-141.0394530897401
 10
90.47389185021139
 20
-140.7583332981438
 10
90.47389185021139
 20
-140.4110676732306
 10
90.47389185021139
 20
-140.0920518312964
 10
90.43565129032513
 20
-139.7830267662695
 10
90.17761363847991
 20
-139.7830267662695
 97
        0
 97
        0
 75
     2
 76
     1
 98
        0
  0
ENDBLK
  5
C2
330
BF
100
AcDbEntity
  8
0
100
AcDbBlockEnd
  0
BLOCK
  5
D2
330
D0
100
AcDbEntity
  8
0
100
AcDbBlockBegin
  2
block 5
 70
     0
 10
0.0
 20
0.0
 30
0.0
  3
block 5
  1

  0
SPLINE
  5
D4
330
D0
100
AcDbEntity
  8
_U+30EC_U+30A4_U+30E4_U+30FC 1
370
     0
100
AcDbSpline
210
0.0
220
0.0
230
1.0
 70
    11
 71
     3
 72
    26
 73
    22
 74
     0
 42
0.0000000001
 43
0.0000000001
 12
1.0
 22
0.0
 32
0.0
 13
1.0
 23
0.0
 33
0.0
 40
0.0
 40
0.0
 40
0.0
 40
0.0
 40
1.0
 40
1.0
 40
1.0
 40
2.0
 40
2.0
 40
2.0
 40
3.0
 40
3.0
 40
3.0
 40
4.0
 40
4.0
 40
4.0
 40
5.0
 40
5.0
 40
5.0
 40
6.0
 40
6.0
 40
6.0
 40
7.0
 40
7.0
 40
7.0
 40
7.0
 10
78.0705145746664
 20
-141.1834580810236
 30
0.0
 10
78.0705145746664
 20
-141.1834580810236
 30
0.0
 10
78.0705145746664
 20
-140.0789604684525
 30
0.0
 10
78.0705145746664
 20
-140.0789604684525
 30
0.0
 10
78.0705145746664
 20
-140.0789604684525
 30
0.0
 10
77.74047442717946
 20
-140.0789604684525
 30
0.0
 10
77.74047442717946
 20
-140.0789604684525
 30
0.0
 10
77.74047442717946
 20
-140.0789604684525
 30
0.0
 10
77.74047442717946
 20
-139.9311658721353
 30
0.0
 10
77.74047442717946
 20
-139.9311658721353
 30
0.0
 10
78.07258163195755
 20
-139.9163519615487
 30
0.0
 10
78.11909042100842
 20
-139.7533989450964
 30
0.0
 10
78.14871824218157
 20
-139.6393662845346
 30
0.0
 10
78.14871824218157
 20
-139.6393662845346
 30
0.0
 10
78.29479029075617
 20
-139.6393662845346
 30
0.0
 10
78.29479029075617
 20
-139.6393662845346
 30
0.0
 10
78.29479029075617
 20
-139.6393662845346
 30
0.0
 10
78.29479029075617
 20
-141.1834580810236
 30
0.0
 10
78.29479029075617
 20
-141.1834580810236
 30
0.0
 10
78.29479029075617
 20
-141.1834580810236
 30
0.0
 10
78.0705145746664
 20
-141.1834580810236
 30
0.0
 10
78.0705145746664
 20
-141.1834580810236
 30
0.0
  0
HATCH
  5
D5
330
D0
100
AcDbEntity
  8
_U+30EC_U+30A4_U+30E4_U+30FC 1
 62
   179
420
  2234388
100
AcDbHatch
 10
0.0
 20
0.0
 30
0.0
210
0.0
220
0.0
230
1.0
  2
SOLID
 70
     1
 71
     0
 91
        1
 92
        1
 93
        1
 72
     4
 94
        3
 73
     0
 74
     1
 95
       26
 96
       22
 40
0.0
 40
0.0
 40
0.0
 40
0.0
 40
1.0
 40
1.0
 40
1.0
 40
2.0
 40
2.0
 40
2.0
 40
3.0
 40
3.0
 40
3.0
 40
4.0
 40
4.0
 40
4.0
 40
5.0
 40
5.0
 40
5.0
 40
6.0
 40
6.0
 40
6.0
 40
7.0
 40
7.0
 40
7.0
 40
7.0
 10
78.0705145746664
 20
-141.1834580810236
 10
78.0705145746664
 20
-141.1834580810236
 10
78.0705145746664
 20
-140.0789604684525
 10
78.0705145746664
 20
-140.0789604684525
 10
78.0705145746664
 20
-140.0789604684525
 10
77.74047442717946
 20
-140.0789604684525
 10
77.74047442717946
 20
-140.0789604684525
 10
77.74047442717946
 20
-140.0789604684525
 10
77.74047442717946
 20
-139.9311658721353
 10
77.74047442717946
 20
-139.9311658721353
 10
78.07258163195755
 20
-139.9163519615487
 10
78.11909042100842
 20
-139.7533989450964
 10
78.14871824218157
 20
-139.6393662845346
 10
78.14871824218157
 20
-139.6393662845346
 10
78.29479029075617
 20
-139.6393662845346
 10
78.29479029075617
 20
-139.6393662845346
 10
78.29479029075617
 20
-139.6393662845346
 10
78.29479029075617
 20
-141.1834580810236
 10
78.29479029075617
 20
-141.1834580810236
 10
78.29479029075617
 20
-141.1834580810236
 10
78.0705145746664
 20
-141.1834580810236
 10
78.0705145746664
 20
-141.1834580810236
 97
        0
 97
        0
 75
     2
 76
     1
 98
        0
  0
SPLINE
  5
D6
330
D0
100
AcDbEntity
  8
_U+30EC_U+30A4_U+30E4_U+30FC 1
370
     0
100
AcDbSpline
210
0.0
220
0.0
230
1.0
 70
    11
 71
     3
 72
    44
 73
    40
 74
     0
 42
0.0000000001
 43
0.0000000001
 12
1.0
 22
0.0
 32
0.0
 13
1.0
 23
0.0
 33
0.0
 40
0.0
 40
0.0
 40
0.0
 40
0.0
 40
1.0
 40
1.0
 40
1.0
 40
2.0
 40
2.0
 40
2.0
 40
3.0
 40
3.0
 40
3.0
 40
4.0
 40
4.0
 40
4.0
 40
5.0
 40
5.0
 40
5.0
 40
6.0
 40
6.0
 40
6.0
 40
7.0
 40
7.0
 40
7.0
 40
8.0
 40
8.0
 40
8.0
 40
9.0
 40
9.0
 40
9.0
 40
10.0
 40
10.0
 40
10.0
 40
11.0
 40
11.0
 40
11.0
 40
12.0
 40
12.0
 40
12.0
 40
13.0
 40
13.0
 40
13.0
 40
13.0
 10
79.27061358695319
 20
-140.6019259631134
 30
0.0
 10
79.05271129751114
 20
-140.7604003554349
 30
0.0
 10
78.95952146463512
 20
-140.8344699083678
 30
0.0
 10
78.9109456182931
 20
-140.9781303901027
 30
0.0
 10
78.9109456182931
 20
-140.9781303901027
 30
0.0
 10
79.6893649431853
 20
-140.9781303901027
 30
0.0
 10
79.6893649431853
 20
-140.9781303901027
 30
0.0
 10
79.6893649431853
 20
-140.9781303901027
 30
0.0
 10
79.6893649431853
 20
-141.1834580810236
 30
0.0
 10
79.6893649431853
 20
-141.1834580810236
 30
0.0
 10
79.6893649431853
 20
-141.1834580810236
 30
0.0
 10
78.66134845038675
 20
-141.1834580810236
 30
0.0
 10
78.66134845038675
 20
-141.1834580810236
 30
0.0
 10
78.69304332885105
 20
-140.8258571696547
 30
0.0
 10
78.75850014307079
 20
-140.7476535021395
 30
0.0
 10
79.14366181832173
 20
-140.4493082331169
 30
0.0
 10
79.39963241287579
 20
-140.2505262236179
 30
0.0
 10
79.46508922709553
 20
-140.183002352107
 30
0.0
 10
79.46508922709553
 20
-140.045198532697
 30
0.0
 10
79.46508922709553
 20
-139.9266872480044
 30
0.0
 10
79.39325898622808
 20
-139.795773619565
 30
0.0
 10
79.1965440340203
 20
-139.795773619565
 30
0.0
 10
78.9362670701097
 20
-139.795773619565
 30
0.0
 10
78.92782658617082
 20
-140.0262505075282
 30
0.0
 10
78.92352021681427
 20
-140.1426947349296
 30
0.0
 10
78.92352021681427
 20
-140.1426947349296
 30
0.0
 10
78.69941675549876
 20
-140.1426947349296
 30
0.0
 10
78.69941675549876
 20
-140.1426947349296
 30
0.0
 10
78.70785723943763
 20
-140.0155707115239
 30
0.0
 10
78.71836478066763
 20
-139.9036051082533
 30
0.0
 10
78.79880776024822
 20
-139.7850938235607
 30
0.0
 10
78.90870630622769
 20
-139.6242078643995
 30
0.0
 10
79.09491371720544
 20
-139.5904459286441
 30
0.0
 10
79.21135794460689
 20
-139.5904459286441
 30
0.0
 10
79.48851587639524
 20
-139.5904459286441
 30
0.0
 10
79.69573836983301
 20
-139.7744140275564
 30
0.0
 10
79.69573836983301
 20
-140.0472655899882
 30
0.0
 10
79.69573836983301
 20
-140.2760199302088
 30
0.0
 10
79.57946639720583
 20
-140.375238680184
 30
0.0
 10
79.27061358695319
 20
-140.6019259631134
 30
0.0
  0
HATCH
  5
D7
330
D0
100
AcDbEntity
  8
_U+30EC_U+30A4_U+30E4_U+30FC 1
 62
   179
420
  2234388
100
AcDbHatch
 10
0.0
 20
0.0
 30
0.0
210
0.0
220
0.0
230
1.0
  2
SOLID
 70
     1
 71
     0
 91
        1
 92
        1
 93
        1
 72
     4
 94
        3
 73
     0
 74
     1
 95
       44
 96
       40
 40
0.0
 40
0.0
 40
0.0
 40
0.0
 40
1.0
 40
1.0
 40
1.0
 40
2.0
 40
2.0
 40
2.0
 40
3.0
 40
3.0
 40
3.0
 40
4.0
 40
4.0
 40
4.0
 40
5.0
 40
5.0
 40
5.0
 40
6.0
 40
6.0
 40
6.0
 40
7.0
 40
7.0
 40
7.0
 40
8.0
 40
8.0
 40
8.0
 40
9.0
 40
9.0
 40
9.0
 40
10.0
 40
10.0
 40
10.0
 40
11.0
 40
11.0
 40
11.0
 40
12.0
 40
12.0
 40
12.0
 40
13.0
 40
13.0
 40
13.0
 40
13.0
 10
79.27061358695319
 20
-140.6019259631134
 10
79.05271129751114
 20
-140.7604003554349
 10
78.95952146463512
 20
-140.8344699083678
 10
78.9109456182931
 20
-140.9781303901027
 10
78.9109456182931
 20
-140.9781303901027
 10
79.6893649431853
 20
-140.9781303901027
 10
79.6893649431853
 20
-140.9781303901027
 10
79.6893649431853
 20
-140.9781303901027
 10
79.6893649431853
 20
-141.1834580810236
 10
79.6893649431853
 20
-141.1834580810236
 10
79.6893649431853
 20
-141.1834580810236
 10
78.66134845038675
 20
-141.1834580810236
 10
78.66134845038675
 20
-141.1834580810236
 10
78.69304332885105
 20
-140.8258571696547
 10
78.75850014307079
 20
-140.7476535021395
 10
79.14366181832173
 20
-140.4493082331169
 10
79.39963241287579
 20
-140.2505262236179
 10
79.46508922709553
 20
-140.183002352107
 10
79.46508922709553
 20
-140.045198532697
 10
79.46508922709553
 20
-139.9266872480044
 10
79.39325898622808
 20
-139.795773619565
 10
79.1965440340203
 20
-139.795773619565
 10
78.9362670701097
 20
-139.795773619565
 10
78.92782658617082
 20
-140.0262505075282
 10
78.92352021681427
 20
-140.1426947349296
 10
78.92352021681427
 20
-140.1426947349296
 10
78.69941675549876
 20
-140.1426947349296
 10
78.69941675549876
 20
-140.1426947349296
 10
78.70785723943763
 20
-140.0155707115239
 10
78.71836478066763
 20
-139.9036051082533
 10
78.79880776024822
 20
-139.7850938235607
 10
78.90870630622769
 20
-139.6242078643995
 10
79.09491371720544
 20
-139.5904459286441
 10
79.21135794460689
 20
-139.5904459286441
 10
79.48851587639524
 20
-139.5904459286441
 10
79.69573836983301
 20
-139.7744140275564
 10
79.69573836983301
 20
-140.0472655899882
 10
79.69573836983301
 20
-140.2760199302088
 10
79.57946639720583
 20
-140.375238680184
 10
79.27061358695319
 20
-140.6019259631134
 97
        0
 97
        0
 75
     2
 76
     1
 98
        0
  0
ENDBLK
  5
D3
330
D0
100
AcDbEntity
  8
0
100
AcDbBlockEnd
  0
BLOCK
  5
E6
330
E4
100
AcDbEntity
  8
0
100
AcDbBlockBegin
  2
block 6
 70
     0
 10
0.0
 20
0.0
 30
0.0
  3
block 6
  1

  0
SPLINE
  5
E8
330
E4
100
AcDbEntity
  8
_U+30EC_U+30A4_U+30E4_U+30FC 1
370
     0
100
AcDbSpline
210
0.0
220
0.0
230
1.0
 70
    11
 71
     3
 72
    62
 73
    58
 74
     0
 42
0.0000000001
 43
0.0000000001
 12
1.0
 22
0.0
 32
0.0
 13
1.0
 23
0.0
 33
0.0
 40
0.0
 40
0.0
 40
0.0
 40
0.0
 40
1.0
 40
1.0
 40
1.0
 40
2.0
 40
2.0
 40
2.0
 40
3.0
 40
3.0
 40
3.0
 40
4.0
 40
4.0
 40
4.0
 40
5.0
 40
5.0
 40
5.0
 40
6.0
 40
6.0
 40
6.0
 40
7.0
 40
7.0
 40
7.0
 40
8.0
 40
8.0
 40
8.0
 40
9.0
 40
9.0
 40
9.0
 40
10.0
 40
10.0
 40
10.0
 40
11.0
 40
11.0
 40
11.0
 40
12.0
 40
12.0
 40
12.0
 40
13.0
 40
13.0
 40
13.0
 40
14.0
 40
14.0
 40
14.0
 40
15.0
 40
15.0
 40
15.0
 40
16.0
 40
16.0
 40
16.0
 40
17.0
 40
17.0
 40
17.0
 40
18.0
 40
18.0
 40
18.0
 40
19.0
 40
19.0
 40
19.0
 40
19.0
 10
87.61101750196877
 20
-116.9346367437698
 30
0.0
 10
87.51576061180162
 20
-116.9346367437698
 30
0.0
 10
87.29785832235957
 20
-116.9134494065355
 30
0.0
 10
87.17314586579353
 20
-116.7272419955578
 30
0.0
 10
87.09907631286065
 20
-116.6151041375129
 30
0.0
 10
87.09476994350409
 20
-116.5157131327634
 30
0.0
 10
87.09063582892179
 20
-116.4311360386006
 30
0.0
 10
87.09063582892179
 20
-116.4311360386006
 30
0.0
 10
87.31060517565498
 20
-116.4311360386006
 30
0.0
 10
87.31060517565498
 20
-116.4311360386006
 30
0.0
 10
87.31267223294614
 20
-116.5052055915334
 30
0.0
 10
87.32335202895041
 20
-116.7399888488532
 30
0.0
 10
87.60671113261222
 20
-116.7399888488532
 30
0.0
 10
87.74434269724794
 20
-116.7399888488532
 30
0.0
 10
87.89661591769598
 20
-116.6702256652769
 30
0.0
 10
87.89661591769598
 20
-116.4416435798306
 30
0.0
 10
87.89661591769598
 20
-116.3253716072034
 30
0.0
 10
87.85854761258398
 20
-116.2766235060871
 30
0.0
 10
87.82685273411968
 20
-116.2449286276228
 30
0.0
 10
87.75278318118681
 20
-116.1708590746899
 30
0.0
 10
87.63633895378537
 20
-116.1582844761688
 30
0.0
 10
87.58138968079562
 20
-116.1582844761688
 30
0.0
 10
87.56244165562676
 20
-116.1582844761688
 30
0.0
 10
87.5264404078059
 20
-116.1603515334599
 30
0.0
 10
87.4988796439239
 20
-116.1644856480422
 30
0.0
 10
87.4988796439239
 20
-116.1644856480422
 30
0.0
 10
87.4988796439239
 20
-115.9698377531256
 30
0.0
 10
87.4988796439239
 20
-115.9698377531256
 30
0.0
 10
87.5369479490359
 20
-115.9762111797733
 30
0.0
 10
87.57932262350448
 20
-115.9784504918387
 30
0.0
 10
87.5856960501522
 20
-115.9784504918387
 30
0.0
 10
87.65115286437194
 20
-115.9784504918387
 30
0.0
 10
87.85010712864512
 20
-115.9572631546044
 30
0.0
 10
87.85010712864512
 20
-115.7202405852192
 30
0.0
 10
87.85010712864512
 20
-115.5426459129546
 30
0.0
 10
87.7188489906571
 20
-115.4875243851906
 30
0.0
 10
87.60895044467763
 20
-115.4875243851906
 30
0.0
 10
87.3445393661847
 20
-115.4875243851906
 30
0.0
 10
87.33592662747158
 20
-115.7202405852192
 30
0.0
 10
87.33179251288928
 20
-115.792243080861
 30
0.0
 10
87.33179251288928
 20
-115.792243080861
 30
0.0
 10
87.1287041340338
 20
-115.792243080861
 30
0.0
 10
87.1287041340338
 20
-115.792243080861
 30
0.0
 10
87.13714461797267
 20
-115.6673583695207
 30
0.0
 10
87.16470538185466
 20
-115.2908094329829
 30
0.0
 10
87.62152504319879
 20
-115.2908094329829
 30
0.0
 10
87.84580075928855
 20
-115.2908094329829
 30
0.0
 10
88.08695744325604
 20
-115.4177612016143
 30
0.0
 10
88.08695744325604
 20
-115.7138671585715
 30
0.0
 10
88.08695744325604
 20
-115.9000745695493
 30
0.0
 10
87.99187280786315
 20
-115.982584606421
 30
0.0
 10
87.89230954833943
 20
-116.0439073060585
 30
0.0
 10
87.95380450275114
 20
-116.0714680699405
 30
0.0
 10
88.13570554437233
 20
-116.1519110495211
 30
0.0
 10
88.13570554437233
 20
-116.4290689813094
 30
0.0
 10
88.13570554437233
 20
-116.7675496127352
 30
0.0
 10
87.88817543375713
 20
-116.9346367437698
 30
0.0
 10
87.61101750196877
 20
-116.9346367437698
 30
0.0
  0
HATCH
  5
E9
330
E4
100
AcDbEntity
  8
_U+30EC_U+30A4_U+30E4_U+30FC 1
 62
   179
420
  2234388
100
AcDbHatch
 10
0.0
 20
0.0
 30
0.0
210
0.0
220
0.0
230
1.0
  2
SOLID
 70
     1
 71
     0
 91
        1
 92
        1
 93
        1
 72
     4
 94
        3
 73
     0
 74
     1
 95
       62
 96
       58
 40
0.0
 40
0.0
 40
0.0
 40
0.0
 40
1.0
 40
1.0
 40
1.0
 40
2.0
 40
2.0
 40
2.0
 40
3.0
 40
3.0
 40
3.0
 40
4.0
 40
4.0
 40
4.0
 40
5.0
 40
5.0
 40
5.0
 40
6.0
 40
6.0
 40
6.0
 40
7.0
 40
7.0
 40
7.0
 40
8.0
 40
8.0
 40
8.0
 40
9.0
 40
9.0
 40
9.0
 40
10.0
 40
10.0
 40
10.0
 40
11.0
 40
11.0
 40
11.0
 40
12.0
 40
12.0
 40
12.0
 40
13.0
 40
13.0
 40
13.0
 40
14.0
 40
14.0
 40
14.0
 40
15.0
 40
15.0
 40
15.0
 40
16.0
 40
16.0
 40
16.0
 40
17.0
 40
17.0
 40
17.0
 40
18.0
 40
18.0
 40
18.0
 40
19.0
 40
19.0
 40
19.0
 40
19.0
 10
87.61101750196877
 20
-116.9346367437698
 10
87.51576061180162
 20
-116.9346367437698
 10
87.29785832235957
 20
-116.9134494065355
 10
87.17314586579353
 20
-116.7272419955578
 10
87.09907631286065
 20
-116.6151041375129
 10
87.09476994350409
 20
-116.5157131327634
 10
87.09063582892179
 20
-116.4311360386006
 10
87.09063582892179
 20
-116.4311360386006
 10
87.31060517565498
 20
-116.4311360386006
 10
87.31060517565498
 20
-116.4311360386006
 10
87.31267223294614
 20
-116.5052055915334
 10
87.32335202895041
 20
-116.7399888488532
 10
87.60671113261222
 20
-116.7399888488532
 10
87.74434269724794
 20
-116.7399888488532
 10
87.89661591769598
 20
-116.6702256652769
 10
87.89661591769598
 20
-116.4416435798306
 10
87.89661591769598
 20
-116.3253716072034
 10
87.85854761258398
 20
-116.2766235060871
 10
87.82685273411968
 20
-116.2449286276228
 10
87.75278318118681
 20
-116.1708590746899
 10
87.63633895378537
 20
-116.1582844761688
 10
87.58138968079562
 20
-116.1582844761688
 10
87.56244165562676
 20
-116.1582844761688
 10
87.5264404078059
 20
-116.1603515334599
 10
87.4988796439239
 20
-116.1644856480422
 10
87.4988796439239
 20
-116.1644856480422
 10
87.4988796439239
 20
-115.9698377531256
 10
87.4988796439239
 20
-115.9698377531256
 10
87.5369479490359
 20
-115.9762111797733
 10
87.57932262350448
 20
-115.9784504918387
 10
87.5856960501522
 20
-115.9784504918387
 10
87.65115286437194
 20
-115.9784504918387
 10
87.85010712864512
 20
-115.9572631546044
 10
87.85010712864512
 20
-115.7202405852192
 10
87.85010712864512
 20
-115.5426459129546
 10
87.7188489906571
 20
-115.4875243851906
 10
87.60895044467763
 20
-115.4875243851906
 10
87.3445393661847
 20
-115.4875243851906
 10
87.33592662747158
 20
-115.7202405852192
 10
87.33179251288928
 20
-115.792243080861
 10
87.33179251288928
 20
-115.792243080861
 10
87.1287041340338
 20
-115.792243080861
 10
87.1287041340338
 20
-115.792243080861
 10
87.13714461797267
 20
-115.6673583695207
 10
87.16470538185466
 20
-115.2908094329829
 10
87.62152504319879
 20
-115.2908094329829
 10
87.84580075928855
 20
-115.2908094329829
 10
88.08695744325604
 20
-115.4177612016143
 10
88.08695744325604
 20
-115.7138671585715
 10
88.08695744325604
 20
-115.9000745695493
 10
87.99187280786315
 20
-115.982584606421
 10
87.89230954833943
 20
-116.0439073060585
 10
87.95380450275114
 20
-116.0714680699405
 10
88.13570554437233
 20
-116.1519110495211
 10
88.13570554437233
 20
-116.4290689813094
 10
88.13570554437233
 20
-116.7675496127352
 10
87.88817543375713
 20
-116.9346367437698
 10
87.61101750196877
 20
-116.9346367437698
 97
        0
 97
        0
 75
     2
 76
     1
 98
        0
  0
SPLINE
  5
EA
330
E4
100
AcDbEntity
  8
_U+30EC_U+30A4_U+30E4_U+30FC 1
370
     0
100
AcDbSpline
210
0.0
220
0.0
230
1.0
 70
    11
 71
     3
 72
    26
 73
    22
 74
     0
 42
0.0000000001
 43
0.0000000001
 12
1.0
 22
0.0
 32
0.0
 13
1.0
 23
0.0
 33
0.0
 40
0.0
 40
0.0
 40
0.0
 40
0.0
 40
1.0
 40
1.0
 40
1.0
 40
2.0
 40
2.0
 40
2.0
 40
3.0
 40
3.0
 40
3.0
 40
4.0
 40
4.0
 40
4.0
 40
5.0
 40
5.0
 40
5.0
 40
6.0
 40
6.0
 40
6.0
 40
7.0
 40
7.0
 40
7.0
 40
7.0
 10
88.62921547263437
 20
-116.8838215853624
 30
0.0
 10
88.62921547263437
 20
-116.8838215853624
 30
0.0
 10
88.62921547263437
 20
-115.7794962275655
 30
0.0
 10
88.62921547263437
 20
-115.7794962275655
 30
0.0
 10
88.62921547263437
 20
-115.7794962275655
 30
0.0
 10
88.29917532514743
 20
-115.7794962275655
 30
0.0
 10
88.29917532514743
 20
-115.7794962275655
 30
0.0
 10
88.29917532514743
 20
-115.7794962275655
 30
0.0
 10
88.29917532514743
 20
-115.6315293764741
 30
0.0
 10
88.29917532514743
 20
-115.6315293764741
 30
0.0
 10
88.63128252992551
 20
-115.6167154658875
 30
0.0
 10
88.67779131897639
 20
-115.4537624494352
 30
0.0
 10
88.70741914014954
 20
-115.3395575340991
 30
0.0
 10
88.70741914014954
 20
-115.3395575340991
 30
0.0
 10
88.85349118872413
 20
-115.3395575340991
 30
0.0
 10
88.85349118872413
 20
-115.3395575340991
 30
0.0
 10
88.85349118872413
 20
-115.3395575340991
 30
0.0
 10
88.85349118872413
 20
-116.8838215853624
 30
0.0
 10
88.85349118872413
 20
-116.8838215853624
 30
0.0
 10
88.85349118872413
 20
-116.8838215853624
 30
0.0
 10
88.62921547263437
 20
-116.8838215853624
 30
0.0
 10
88.62921547263437
 20
-116.8838215853624
 30
0.0
  0
HATCH
  5
EB
330
E4
100
AcDbEntity
  8
_U+30EC_U+30A4_U+30E4_U+30FC 1
 62
   179
420
  2234388
100
AcDbHatch
 10
0.0
 20
0.0
 30
0.0
210
0.0
220
0.0
230
1.0
  2
SOLID
 70
     1
 71
     0
 91
        1
 92
        1
 93
        1
 72
     4
 94
        3
 73
     0
 74
     1
 95
       26
 96
       22
 40
0.0
 40
0.0
 40
0.0
 40
0.0
 40
1.0
 40
1.0
 40
1.0
 40
2.0
 40
2.0
 40
2.0
 40
3.0
 40
3.0
 40
3.0
 40
4.0
 40
4.0
 40
4.0
 40
5.0
 40
5.0
 40
5.0
 40
6.0
 40
6.0
 40
6.0
 40
7.0
 40
7.0
 40
7.0
 40
7.0
 10
88.62921547263437
 20
-116.8838215853624
 10
88.62921547263437
 20
-116.8838215853624
 10
88.62921547263437
 20
-115.7794962275655
 10
88.62921547263437
 20
-115.7794962275655
 10
88.62921547263437
 20
-115.7794962275655
 10
88.29917532514743
 20
-115.7794962275655
 10
88.29917532514743
 20
-115.7794962275655
 10
88.29917532514743
 20
-115.7794962275655
 10
88.29917532514743
 20
-115.6315293764741
 10
88.29917532514743
 20
-115.6315293764741
 10
88.63128252992551
 20
-115.6167154658875
 10
88.67779131897639
 20
-115.4537624494352
 10
88.70741914014954
 20
-115.3395575340991
 10
88.70741914014954
 20
-115.3395575340991
 10
88.85349118872413
 20
-115.3395575340991
 10
88.85349118872413
 20
-115.3395575340991
 10
88.85349118872413
 20
-115.3395575340991
 10
88.85349118872413
 20
-116.8838215853624
 10
88.85349118872413
 20
-116.8838215853624
 10
88.85349118872413
 20
-116.8838215853624
 10
88.62921547263437
 20
-116.8838215853624
 10
88.62921547263437
 20
-116.8838215853624
 97
        0
 97
        0
 75
     2
 76
     1
 98
        0
  0
ENDBLK
  5
E7
330
E4
100
AcDbEntity
  8
0
100
AcDbBlockEnd
  0
BLOCK
  5
FA
330
F8
100
AcDbEntity
  8
0
100
AcDbBlockBegin
  2
block 7
 70
     0
 10
0.0
 20
0.0
 30
0.0
  3
block 7
  1

  0
SPLINE
  5
FC
330
F8
100
AcDbEntity
  8
_U+30EC_U+30A4_U+30E4_U+30FC 1
370
     0
100
AcDbSpline
210
0.0
220
0.0
230
1.0
 70
    11
 71
     3
 72
    26
 73
    22
 74
     0
 42
0.0000000001
 43
0.0000000001
 12
1.0
 22
0.0
 32
0.0
 13
1.0
 23
0.0
 33
0.0
 40
0.0
 40
0.0
 40
0.0
 40
0.0
 40
1.0
 40
1.0
 40
1.0
 40
2.0
 40
2.0
 40
2.0
 40
3.0
 40
3.0
 40
3.0
 40
4.0
 40
4.0
 40
4.0
 40
5.0
 40
5.0
 40
5.0
 40
6.0
 40
6.0
 40
6.0
 40
7.0
 40
7.0
 40
7.0
 40
7.0
 10
106.943687581771
 20
-129.9076605578009
 30
0.0
 10
106.943687581771
 20
-129.9076605578009
 30
0.0
 10
105.8391899691999
 20
-129.9076605578009
 30
0.0
 10
105.8391899691999
 20
-129.9076605578009
 30
0.0
 10
105.8391899691999
 20
-129.9076605578009
 30
0.0
 10
105.8391899691999
 20
-130.1739664388107
 30
0.0
 10
105.8391899691999
 20
-130.1739664388107
 30
0.0
 10
105.8391899691999
 20
-130.1739664388107
 30
0.0
 10
105.6913953728827
 20
-130.1739664388107
 30
0.0
 10
105.6913953728827
 20
-130.1739664388107
 30
0.0
 10
105.6765814622961
 20
-129.9059380100582
 30
0.0
 10
105.5136284458438
 20
-129.868386469269
 30
0.0
 10
105.3992512757335
 20
-129.8446153104208
 30
0.0
 10
105.3992512757335
 20
-129.8446153104208
 30
0.0
 10
105.3992512757335
 20
-129.7267930448253
 30
0.0
 10
105.3992512757335
 20
-129.7267930448253
 30
0.0
 10
105.3992512757335
 20
-129.7267930448253
 30
0.0
 10
106.943687581771
 20
-129.7267930448253
 30
0.0
 10
106.943687581771
 20
-129.7267930448253
 30
0.0
 10
106.943687581771
 20
-129.7267930448253
 30
0.0
 10
106.943687581771
 20
-129.9076605578009
 30
0.0
 10
106.943687581771
 20
-129.9076605578009
 30
0.0
  0
HATCH
  5
FD
330
F8
100
AcDbEntity
  8
_U+30EC_U+30A4_U+30E4_U+30FC 1
 62
   179
420
  2234388
100
AcDbHatch
 10
0.0
 20
0.0
 30
0.0
210
0.0
220
0.0
230
1.0
  2
SOLID
 70
     1
 71
     0
 91
        1
 92
        1
 93
        1
 72
     4
 94
        3
 73
     0
 74
     1
 95
       26
 96
       22
 40
0.0
 40
0.0
 40
0.0
 40
0.0
 40
1.0
 40
1.0
 40
1.0
 40
2.0
 40
2.0
 40
2.0
 40
3.0
 40
3.0
 40
3.0
 40
4.0
 40
4.0
 40
4.0
 40
5.0
 40
5.0
 40
5.0
 40
6.0
 40
6.0
 40
6.0
 40
7.0
 40
7.0
 40
7.0
 40
7.0
 10
106.943687581771
 20
-129.9076605578009
 10
106.943687581771
 20
-129.9076605578009
 10
105.8391899691999
 20
-129.9076605578009
 10
105.8391899691999
 20
-129.9076605578009
 10
105.8391899691999
 20
-129.9076605578009
 10
105.8391899691999
 20
-130.1739664388107
 10
105.8391899691999
 20
-130.1739664388107
 10
105.8391899691999
 20
-130.1739664388107
 10
105.6913953728827
 20
-130.1739664388107
 10
105.6913953728827
 20
-130.1739664388107
 10
105.6765814622961
 20
-129.9059380100582
 10
105.5136284458438
 20
-129.868386469269
 10
105.3992512757335
 20
-129.8446153104208
 10
105.3992512757335
 20
-129.8446153104208
 10
105.3992512757335
 20
-129.7267930448253
 10
105.3992512757335
 20
-129.7267930448253
 10
105.3992512757335
 20
-129.7267930448253
 10
106.943687581771
 20
-129.7267930448253
 10
106.943687581771
 20
-129.7267930448253
 10
106.943687581771
 20
-129.7267930448253
 10
106.943687581771
 20
-129.9076605578009
 10
106.943687581771
 20
-129.9076605578009
 97
        0
 97
        0
 75
     2
 76
     1
 98
        0
  0
SPLINE
  5
FE
330
F8
100
AcDbEntity
  8
_U+30EC_U+30A4_U+30E4_U+30FC 1
370
     0
100
AcDbSpline
210
0.0
220
0.0
230
1.0
 70
    11
 71
     3
 72
    44
 73
    40
 74
     0
 42
0.0000000001
 43
0.0000000001
 12
1.0
 22
0.0
 32
0.0
 13
1.0
 23
0.0
 33
0.0
 40
0.0
 40
0.0
 40
0.0
 40
0.0
 40
1.0
 40
1.0
 40
1.0
 40
2.0
 40
2.0
 40
2.0
 40
3.0
 40
3.0
 40
3.0
 40
4.0
 40
4.0
 40
4.0
 40
5.0
 40
5.0
 40
5.0
 40
6.0
 40
6.0
 40
6.0
 40
7.0
 40
7.0
 40
7.0
 40
8.0
 40
8.0
 40
8.0
 40
9.0
 40
9.0
 40
9.0
 40
10.0
 40
10.0
 40
10.0
 40
11.0
 40
11.0
 40
11.0
 40
12.0
 40
12.0
 40
12.0
 40
13.0
 40
13.0
 40
13.0
 40
13.0
 10
106.3618109543123
 20
-128.7351223093961
 30
0.0
 10
106.5206298561824
 20
-128.9109944339181
 30
0.0
 10
106.5946994091152
 20
-128.985753005948
 30
0.0
 10
106.7383598908501
 20
-129.0250270944799
 30
0.0
 10
106.7383598908501
 20
-129.0250270944799
 30
0.0
 10
106.7383598908501
 20
-128.3973306970673
 30
0.0
 10
106.7383598908501
 20
-128.3973306970673
 30
0.0
 10
106.7383598908501
 20
-128.3973306970673
 30
0.0
 10
106.943687581771
 20
-128.3973306970673
 30
0.0
 10
106.943687581771
 20
-128.3973306970673
 30
0.0
 10
106.943687581771
 20
-128.3973306970673
 30
0.0
 10
106.943687581771
 20
-129.226565180367
 30
0.0
 10
106.943687581771
 20
-129.226565180367
 30
0.0
 10
106.5860866704021
 20
-129.2010714737761
 30
0.0
 10
106.5078830028869
 20
-129.1480170033033
 30
0.0
 10
106.2095377338643
 20
-128.8376139000823
 30
0.0
 10
106.0107557243654
 20
-128.6310804257415
 30
0.0
 10
105.942887343306
 20
-128.578198210043
 30
0.0
 10
105.8054280334445
 20
-128.578198210043
 30
0.0
 10
105.6869167487519
 20
-128.578198210043
 30
0.0
 10
105.5560031203124
 20
-128.6362480689694
 30
0.0
 10
105.5560031203124
 20
-128.7948947160652
 30
0.0
 10
105.5560031203124
 20
-129.0047010311169
 30
0.0
 10
105.7864800082756
 20
-129.0115912220874
 30
0.0
 10
105.902924235677
 20
-129.0150363175726
 30
0.0
 10
105.902924235677
 20
-129.0150363175726
 30
0.0
 10
105.902924235677
 20
-129.1959038305482
 30
0.0
 10
105.902924235677
 20
-129.1959038305482
 30
0.0
 10
105.7758002122713
 20
-129.1890136395778
 30
0.0
 10
105.6638346090007
 20
-129.1804009008646
 30
0.0
 10
105.5453233243081
 20
-129.1156331057419
 30
0.0
 10
105.384437365147
 20
-129.0267496422225
 30
0.0
 10
105.3506754293915
 20
-128.8765434790656
 30
0.0
 10
105.3506754293915
 20
-128.7828368818668
 30
0.0
 10
105.3506754293915
 20
-128.5594224396484
 30
0.0
 10
105.5346435283038
 20
-128.3921630538395
 30
0.0
 10
105.8074950907356
 20
-128.3921630538395
 30
0.0
 10
106.0359049214077
 20
-128.3921630538395
 30
0.0
 10
106.1354681809314
 20
-128.4860419058125
 30
0.0
 10
106.3618109543123
 20
-128.7351223093961
 30
0.0
  0
HATCH
  5
FF
330
F8
100
AcDbEntity
  8
_U+30EC_U+30A4_U+30E4_U+30FC 1
 62
   179
420
  2234388
100
AcDbHatch
 10
0.0
 20
0.0
 30
0.0
210
0.0
220
0.0
230
1.0
  2
SOLID
 70
     1
 71
     0
 91
        1
 92
        1
 93
        1
 72
     4
 94
        3
 73
     0
 74
     1
 95
       44
 96
       40
 40
0.0
 40
0.0
 40
0.0
 40
0.0
 40
1.0
 40
1.0
 40
1.0
 40
2.0
 40
2.0
 40
2.0
 40
3.0
 40
3.0
 40
3.0
 40
4.0
 40
4.0
 40
4.0
 40
5.0
 40
5.0
 40
5.0
 40
6.0
 40
6.0
 40
6.0
 40
7.0
 40
7.0
 40
7.0
 40
8.0
 40
8.0
 40
8.0
 40
9.0
 40
9.0
 40
9.0
 40
10.0
 40
10.0
 40
10.0
 40
11.0
 40
11.0
 40
11.0
 40
12.0
 40
12.0
 40
12.0
 40
13.0
 40
13.0
 40
13.0
 40
13.0
 10
106.3618109543123
 20
-128.7351223093961
 10
106.5206298561824
 20
-128.9109944339181
 10
106.5946994091152
 20
-128.985753005948
 10
106.7383598908501
 20
-129.0250270944799
 10
106.7383598908501
 20
-129.0250270944799
 10
106.7383598908501
 20
-128.3973306970673
 10
106.7383598908501
 20
-128.3973306970673
 10
106.7383598908501
 20
-128.3973306970673
 10
106.943687581771
 20
-128.3973306970673
 10
106.943687581771
 20
-128.3973306970673
 10
106.943687581771
 20
-128.3973306970673
 10
106.943687581771
 20
-129.226565180367
 10
106.943687581771
 20
-129.226565180367
 10
106.5860866704021
 20
-129.2010714737761
 10
106.5078830028869
 20
-129.1480170033033
 10
106.2095377338643
 20
-128.8376139000823
 10
106.0107557243654
 20
-128.6310804257415
 10
105.942887343306
 20
-128.578198210043
 10
105.8054280334445
 20
-128.578198210043
 10
105.6869167487519
 20
-128.578198210043
 10
105.5560031203124
 20
-128.6362480689694
 10
105.5560031203124
 20
-128.7948947160652
 10
105.5560031203124
 20
-129.0047010311169
 10
105.7864800082756
 20
-129.0115912220874
 10
105.902924235677
 20
-129.0150363175726
 10
105.902924235677
 20
-129.0150363175726
 10
105.902924235677
 20
-129.1959038305482
 10
105.902924235677
 20
-129.1959038305482
 10
105.7758002122713
 20
-129.1890136395778
 10
105.6638346090007
 20
-129.1804009008646
 10
105.5453233243081
 20
-129.1156331057419
 10
105.384437365147
 20
-129.0267496422225
 10
105.3506754293915
 20
-128.8765434790656
 10
105.3506754293915
 20
-128.7828368818668
 10
105.3506754293915
 20
-128.5594224396484
 10
105.5346435283038
 20
-128.3921630538395
 10
105.8074950907356
 20
-128.3921630538395
 10
106.0359049214077
 20
-128.3921630538395
 10
106.1354681809314
 20
-128.4860419058125
 10
106.3618109543123
 20
-128.7351223093961
 97
        0
 97
        0
 75
     2
 76
     1
 98
        0
  0
POLYLINE
  5
100
330
F8
100
AcDbEntity
  8
_U+30EC_U+30A4_U+30E4_U+30FC 1
370
     0
100
AcDb2dPolyline
 66
     1
 10
0.0
 20
0.0
 30
0.0
  0
VERTEX
  5
101
330
100
100
AcDbEntity
  8
_U+30EC_U+30A4_U+30E4_U+30FC 1
370
     0
100
AcDbVertex
100
AcDb2dVertex
 10
106.943687581771
 20
-128.1069091476608
 30
0.0
  0
VERTEX
  5
102
330
100
100
AcDbEntity
  8
_U+30EC_U+30A4_U+30E4_U+30FC 1
370
     0
100
AcDbVertex
100
AcDb2dVertex
 10
106.6918511017993
 20
-128.1069091476608
 30
0.0
  0
VERTEX
  5
103
330
100
100
AcDbEntity
  8
_U+30EC_U+30A4_U+30E4_U+30FC 1
370
     0
100
AcDbVertex
100
AcDb2dVertex
 10
106.6918511017993
 20
-127.9038207688053
 30
0.0
  0
VERTEX
  5
104
330
100
100
AcDbEntity
  8
_U+30EC_U+30A4_U+30E4_U+30FC 1
370
     0
100
AcDbVertex
100
AcDb2dVertex
 10
106.943687581771
 20
-127.9038207688053
 30
0.0
  0
VERTEX
  5
105
330
100
100
AcDbEntity
  8
_U+30EC_U+30A4_U+30E4_U+30FC 1
370
     0
100
AcDbVertex
100
AcDb2dVertex
 10
106.943687581771
 20
-128.1069091476608
 30
0.0
  0
SEQEND
  5
106
330
100
100
AcDbEntity
  8
_U+30EC_U+30A4_U+30E4_U+30FC 1
370
     0
  0
HATCH
  5
107
330
F8
100
AcDbEntity
  8
_U+30EC_U+30A4_U+30E4_U+30FC 1
 62
   179
420
  2234388
100
AcDbHatch
 10
0.0
 20
0.0
 30
0.0
210
0.0
220
0.0
230
1.0
  2
SOLID
 70
     1
 71
     0
 91
        1
 92
        1
 93
        4
 72
     1
 10
106.943687581771
 20
-128.1069091476608
 11
106.6918511017993
 21
-128.1069091476608
 72
     1
 10
106.6918511017993
 20
-128.1069091476608
 11
106.6918511017993
 21
-127.9038207688053
 72
     1
 10
106.6918511017993
 20
-127.9038207688053
 11
106.943687581771
 21
-127.9038207688053
 72
     1
 10
106.943687581771
 20
-127.9038207688053
 11
106.943687581771
 21
-128.1069091476608
 97
        0
 75
     2
 76
     1
 98
        0
  0
SPLINE
  5
108
330
F8
100
AcDbEntity
  8
_U+30EC_U+30A4_U+30E4_U+30FC 1
370
     0
100
AcDbSpline
210
0.0
220
0.0
230
1.0
 70
    11
 71
     3
 72
    53
 73
    49
 74
     0
 42
0.0000000001
 43
0.0000000001
 12
1.0
 22
0.0
 32
0.0
 13
1.0
 23
0.0
 33
0.0
 40
0.0
 40
0.0
 40
0.0
 40
0.0
 40
1.0
 40
1.0
 40
1.0
 40
2.0
 40
2.0
 40
2.0
 40
3.0
 40
3.0
 40
3.0
 40
4.0
 40
4.0
 40
4.0
 40
5.0
 40
5.0
 40
5.0
 40
6.0
 40
6.0
 40
6.0
 40
7.0
 40
7.0
 40
7.0
 40
8.0
 40
8.0
 40
8.0
 40
9.0
 40
9.0
 40
9.0
 40
10.0
 40
10.0
 40
10.0
 40
11.0
 40
11.0
 40
11.0
 40
12.0
 40
12.0
 40
12.0
 40
13.0
 40
13.0
 40
13.0
 40
14.0
 40
14.0
 40
14.0
 40
15.0
 40
15.0
 40
15.0
 40
16.0
 40
16.0
 40
16.0
 40
16.0
 10
106.9943304854042
 20
-127.4144449551256
 30
0.0
 10
106.9943304854042
 20
-127.4776624572799
 30
0.0
 10
106.9774495175265
 20
-127.5594834750546
 30
0.0
 10
106.9140597605979
 20
-127.6414767476035
 30
0.0
 10
106.8038167050699
 20
-127.7813476243047
 30
0.0
 10
106.6729030766304
 20
-127.7984008469567
 30
0.0
 10
106.5650715879421
 20
-127.813731521866
 30
0.0
 10
106.5650715879421
 20
-127.813731521866
 30
0.0
 10
106.5650715879421
 20
-127.634586556633
 30
0.0
 10
106.5650715879421
 20
-127.634586556633
 30
0.0
 10
106.763853597441
 20
-127.5903170796476
 30
0.0
 10
106.7934814186141
 20
-127.4878254889614
 30
0.0
 10
106.7934814186141
 20
-127.4127224073829
 30
0.0
 10
106.7934814186141
 20
-127.3000677850153
 30
0.0
 10
106.6939181590904
 20
-127.1772501309661
 30
0.0
 10
106.4613742138361
 20
-127.1772501309661
 30
0.0
 10
106.205403619282
 20
-127.1772501309661
 30
0.0
 10
106.1354681809314
 20
-127.3222886508951
 30
0.0
 10
106.1354681809314
 20
-127.4196125983534
 30
0.0
 10
106.1354681809314
 20
-127.4452785597185
 30
0.0
 10
106.1354681809314
 20
-127.5594834750546
 30
0.0
 10
106.2646592616283
 20
-127.6311414611478
 30
0.0
 10
106.2646592616283
 20
-127.6311414611478
 30
0.0
 10
106.2453667269109
 20
-127.7729071403658
 30
0.0
 10
106.2453667269109
 20
-127.7729071403658
 30
0.0
 10
106.2453667269109
 20
-127.7729071403658
 30
0.0
 10
105.3992512757335
 20
-127.6755831929075
 30
0.0
 10
105.3992512757335
 20
-127.6755831929075
 30
0.0
 10
105.3992512757335
 20
-127.6755831929075
 30
0.0
 10
105.3992512757335
 20
-127.0475422859464
 30
0.0
 10
105.3992512757335
 20
-127.0475422859464
 30
0.0
 10
105.3992512757335
 20
-127.0475422859464
 30
0.0
 10
105.5938991706501
 20
-127.0475422859464
 30
0.0
 10
105.5938991706501
 20
-127.0475422859464
 30
0.0
 10
105.5938991706501
 20
-127.0475422859464
 30
0.0
 10
105.5938991706501
 20
-127.5441528001452
 30
0.0
 10
105.5938991706501
 20
-127.5441528001452
 30
0.0
 10
105.5938991706501
 20
-127.5441528001452
 30
0.0
 10
106.0169568962388
 20
-127.5970350158438
 30
0.0
 10
106.0169568962388
 20
-127.5970350158438
 30
0.0
 10
105.9831949604834
 20
-127.5475978956305
 30
0.0
 10
105.942887343306
 20
-127.4811075527652
 30
0.0
 10
105.942887343306
 20
-127.3855061530495
 30
0.0
 10
105.942887343306
 20
-127.1806952264514
 30
0.0
 10
106.129267009058
 20
-126.9896646817943
 30
0.0
 10
106.4420816791187
 20
-126.9896646817943
 30
0.0
 10
106.7597194828587
 20
-126.9896646817943
 30
0.0
 10
106.9943304854042
 20
-127.1705321947699
 30
0.0
 10
106.9943304854042
 20
-127.4144449551256
 30
0.0
  0
HATCH
  5
109
330
F8
100
AcDbEntity
  8
_U+30EC_U+30A4_U+30E4_U+30FC 1
 62
   179
420
  2234388
100
AcDbHatch
 10
0.0
 20
0.0
 30
0.0
210
0.0
220
0.0
230
1.0
  2
SOLID
 70
     1
 71
     0
 91
        1
 92
        1
 93
        1
 72
     4
 94
        3
 73
     0
 74
     1
 95
       53
 96
       49
 40
0.0
 40
0.0
 40
0.0
 40
0.0
 40
1.0
 40
1.0
 40
1.0
 40
2.0
 40
2.0
 40
2.0
 40
3.0
 40
3.0
 40
3.0
 40
4.0
 40
4.0
 40
4.0
 40
5.0
 40
5.0
 40
5.0
 40
6.0
 40
6.0
 40
6.0
 40
7.0
 40
7.0
 40
7.0
 40
8.0
 40
8.0
 40
8.0
 40
9.0
 40
9.0
 40
9.0
 40
10.0
 40
10.0
 40
10.0
 40
11.0
 40
11.0
 40
11.0
 40
12.0
 40
12.0
 40
12.0
 40
13.0
 40
13.0
 40
13.0
 40
14.0
 40
14.0
 40
14.0
 40
15.0
 40
15.0
 40
15.0
 40
16.0
 40
16.0
 40
16.0
 40
16.0
 10
106.9943304854042
 20
-127.4144449551256
 10
106.9943304854042
 20
-127.4776624572799
 10
106.9774495175265
 20
-127.5594834750546
 10
106.9140597605979
 20
-127.6414767476035
 10
106.8038167050699
 20
-127.7813476243047
 10
106.6729030766304
 20
-127.7984008469567
 10
106.5650715879421
 20
-127.813731521866
 10
106.5650715879421
 20
-127.813731521866
 10
106.5650715879421
 20
-127.634586556633
 10
106.5650715879421
 20
-127.634586556633
 10
106.763853597441
 20
-127.5903170796476
 10
106.7934814186141
 20
-127.4878254889614
 10
106.7934814186141
 20
-127.4127224073829
 10
106.7934814186141
 20
-127.3000677850153
 10
106.6939181590904
 20
-127.1772501309661
 10
106.4613742138361
 20
-127.1772501309661
 10
106.205403619282
 20
-127.1772501309661
 10
106.1354681809314
 20
-127.3222886508951
 10
106.1354681809314
 20
-127.4196125983534
 10
106.1354681809314
 20
-127.4452785597185
 10
106.1354681809314
 20
-127.5594834750546
 10
106.2646592616283
 20
-127.6311414611478
 10
106.2646592616283
 20
-127.6311414611478
 10
106.2453667269109
 20
-127.7729071403658
 10
106.2453667269109
 20
-127.7729071403658
 10
106.2453667269109
 20
-127.7729071403658
 10
105.3992512757335
 20
-127.6755831929075
 10
105.3992512757335
 20
-127.6755831929075
 10
105.3992512757335
 20
-127.6755831929075
 10
105.3992512757335
 20
-127.0475422859464
 10
105.3992512757335
 20
-127.0475422859464
 10
105.3992512757335
 20
-127.0475422859464
 10
105.5938991706501
 20
-127.0475422859464
 10
105.5938991706501
 20
-127.0475422859464
 10
105.5938991706501
 20
-127.0475422859464
 10
105.5938991706501
 20
-127.5441528001452
 10
105.5938991706501
 20
-127.5441528001452
 10
105.5938991706501
 20
-127.5441528001452
 10
106.0169568962388
 20
-127.5970350158438
 10
106.0169568962388
 20
-127.5970350158438
 10
105.9831949604834
 20
-127.5475978956305
 10
105.942887343306
 20
-127.4811075527652
 10
105.942887343306
 20
-127.3855061530495
 10
105.942887343306
 20
-127.1806952264514
 10
106.129267009058
 20
-126.9896646817943
 10
106.4420816791187
 20
-126.9896646817943
 10
106.7597194828587
 20
-126.9896646817943
 10
106.9943304854042
 20
-127.1705321947699
 10
106.9943304854042
 20
-127.4144449551256
 97
        0
 97
        0
 75
     2
 76
     1
 98
        0
  0
ENDBLK
  5
FB
330
F8
100
AcDbEntity
  8
0
100
AcDbBlockEnd
  0
ENDSEC
  0
SECTION
  2
ENTITIES
  0
POLYLINE
  5
41
330
1F
100
AcDbEntity
  8
_U+30EC_U+30A4_U+30E4_U+30FC 1
 62
   179
420
  2234388
370
    25
100
AcDb2dPolyline
 66
     1
 10
0.0
 20
0.0
 30
0.0
  0
VERTEX
  5
42
330
41
100
AcDbEntity
  8
_U+30EC_U+30A4_U+30E4_U+30FC 1
 62
   179
420
  2234388
370
    25
100
AcDbVertex
100
AcDb2dVertex
 10
72.59161064803372
 20
-121.5288399696179
 30
0.0
  0
VERTEX
  5
43
330
41
100
AcDbEntity
  8
_U+30EC_U+30A4_U+30E4_U+30FC 1
 62
   179
420
  2234388
370
    25
100
AcDbVertex
100
AcDb2dVertex
 10
103.5957318014971
 20
-121.5288399696179
 30
0.0
  0
SEQEND
  5
44
330
41
100
AcDbEntity
  8
_U+30EC_U+30A4_U+30E4_U+30FC 1
 62
   179
420
  2234388
370
    25
  0
POLYLINE
  5
45
330
1F
100
AcDbEntity
  8
_U+30EC_U+30A4_U+30E4_U+30FC 1
 62
   179
420
  2234388
370
    25
100
AcDb2dPolyline
 66
     1
 10
0.0
 20
0.0
 30
0.0
  0
VERTEX
  5
46
330
45
100
AcDbEntity
  8
_U+30EC_U+30A4_U+30E4_U+30FC 1
 62
   179
420
  2234388
370
    25
100
AcDbVertex
100
AcDb2dVertex
 10
103.5957318014971
 20
-121.5288399696179
 30
0.0
  0
VERTEX
  5
47
330
45
100
AcDbEntity
  8
_U+30EC_U+30A4_U+30E4_U+30FC 1
 62
   179
420
  2234388
370
    25
100
AcDbVertex
100
AcDb2dVertex
 10
103.5957318014971
 20
-122.3287988583066
 30
0.0
  0
SEQEND
  5
48
330
45
100
AcDbEntity
  8
_U+30EC_U+30A4_U+30E4_U+30FC 1
 62
   179
420
  2234388
370
    25
  0
POLYLINE
  5
49
330
1F
100
AcDbEntity
  8
_U+30EC_U+30A4_U+30E4_U+30FC 1
 62
   179
420
  2234388
370
    25
100
AcDb2dPolyline
 66
     1
 10
0.0
 20
0.0
 30
0.0
  0
VERTEX
  5
4A
330
49
100
AcDbEntity
  8
_U+30EC_U+30A4_U+30E4_U+30FC 1
 62
   179
420
  2234388
370
    25
100
AcDbVertex
100
AcDb2dVertex
 10
72.59161064803372
 20
-122.3287988583066
 30
0.0
  0
VERTEX
  5
4B
330
49
100
AcDbEntity
  8
_U+30EC_U+30A4_U+30E4_U+30FC 1
 62
   179
420
  2234388
370
    25
100
AcDbVertex
100
AcDb2dVertex
 10
84.59364164551815
 20
-122.3287988583066
 30
0.0
  0
SEQEND
  5
4C
330
49
100
AcDbEntity
  8
_U+30EC_U+30A4_U+30E4_U+30FC 1
 62
   179
420
  2234388
370
    25
  0
POLYLINE
  5
4D
330
1F
100
AcDbEntity
  8
_U+30EC_U+30A4_U+30E4_U+30FC 1
 62
   179
420
  2234388
370
    25
100
AcDb2dPolyline
 66
     1
 10
0.0
 20
0.0
 30
0.0
  0
VERTEX
  5
4E
330
4D
100
AcDbEntity
  8
_U+30EC_U+30A4_U+30E4_U+30FC 1
 62
   179
420
  2234388
370
    25
100
AcDbVertex
100
AcDb2dVertex
 10
72.59161064803372
 20
-121.5288399696179
 30
0.0
  0
VERTEX
  5
4F
330
4D
100
AcDbEntity
  8
_U+30EC_U+30A4_U+30E4_U+30FC 1
 62
   179
420
  2234388
370
    25
100
AcDbVertex
100
AcDb2dVertex
 10
72.59161064803372
 20
-122.3287988583066
 30
0.0
  0
SEQEND
  5
50
330
4D
100
AcDbEntity
  8
_U+30EC_U+30A4_U+30E4_U+30FC 1
 62
   179
420
  2234388
370
    25
  0
POLYLINE
  5
51
330
1F
100
AcDbEntity
  8
_U+30EC_U+30A4_U+30E4_U+30FC 1
 62
   179
420
  2234388
370
    25
100
AcDb2dPolyline
 66
     1
 10
0.0
 20
0.0
 30
0.0
  0
VERTEX
  5
52
330
51
100
AcDbEntity
  8
_U+30EC_U+30A4_U+30E4_U+30FC 1
 62
   179
420
  2234388
370
    25
100
AcDbVertex
100
AcDb2dVertex
 10
84.59364164551815
 20
-122.3287988583066
 30
0.0
  0
VERTEX
  5
53
330
51
100
AcDbEntity
  8
_U+30EC_U+30A4_U+30E4_U+30FC 1
 62
   179
420
  2234388
370
    25
100
AcDbVertex
100
AcDb2dVertex
 10
84.59364164551815
 20
-137.8289724655426
 30
0.0
  0
SEQEND
  5
54
330
51
100
AcDbEntity
  8
_U+30EC_U+30A4_U+30E4_U+30FC 1
 62
   179
420
  2234388
370
    25
  0
POLYLINE
  5
55
330
1F
100
AcDbEntity
  8
_U+30EC_U+30A4_U+30E4_U+30FC 1
 62
   179
420
  2234388
370
    25
100
AcDb2dPolyline
 66
     1
 10
0.0
 20
0.0
 30
0.0
  0
VERTEX
  5
56
330
55
100
AcDbEntity
  8
_U+30EC_U+30A4_U+30E4_U+30FC 1
 62
   179
420
  2234388
370
    25
100
AcDbVertex
100
AcDb2dVertex
 10
94.59510092001125
 20
-134.8289855218483
 30
0.0
  0
VERTEX
  5
57
330
55
100
AcDbEntity
  8
_U+30EC_U+30A4_U+30E4_U+30FC 1
 62
   179
420
  2234388
370
    25
100
AcDbVertex
100
AcDb2dVertex
 10
94.59510092001125
 20
-137.8289724655426
 30
0.0
  0
SEQEND
  5
58
330
55
100
AcDbEntity
  8
_U+30EC_U+30A4_U+30E4_U+30FC 1
 62
   179
420
  2234388
370
    25
  0
POLYLINE
  5
59
330
1F
100
AcDbEntity
  8
_U+30EC_U+30A4_U+30E4_U+30FC 1
 62
   179
420
  2234388
370
    25
100
AcDb2dPolyline
 66
     1
 10
0.0
 20
0.0
 30
0.0
  0
VERTEX
  5
5A
330
59
100
AcDbEntity
  8
_U+30EC_U+30A4_U+30E4_U+30FC 1
 62
   179
420
  2234388
370
    25
100
AcDbVertex
100
AcDb2dVertex
 10
90.59463629984938
 20
-134.8289855218483
 30
0.0
  0
VERTEX
  5
5B
330
59
100
AcDbEntity
  8
_U+30EC_U+30A4_U+30E4_U+30FC 1
 62
   179
420
  2234388
370
    25
100
AcDbVertex
100
AcDb2dVertex
 10
94.59510092001125
 20
-134.8289855218483
 30
0.0
  0
SEQEND
  5
5C
330
59
100
AcDbEntity
  8
_U+30EC_U+30A4_U+30E4_U+30FC 1
 62
   179
420
  2234388
370
    25
  0
POLYLINE
  5
5D
330
1F
100
AcDbEntity
  8
_U+30EC_U+30A4_U+30E4_U+30FC 1
 62
   179
420
  2234388
370
    25
100
AcDb2dPolyline
 66
     1
 10
0.0
 20
0.0
 30
0.0
  0
VERTEX
  5
5E
330
5D
100
AcDbEntity
  8
_U+30EC_U+30A4_U+30E4_U+30FC 1
 62
   179
420
  2234388
370
    25
100
AcDbVertex
100
AcDb2dVertex
 10
84.59364164551815
 20
-137.8289724655426
 30
0.0
  0
VERTEX
  5
5F
330
5D
100
AcDbEntity
  8
_U+30EC_U+30A4_U+30E4_U+30FC 1
 62
   179
420
  2234388
370
    25
100
AcDbVertex
100
AcDb2dVertex
 10
94.59510092001125
 20
-137.8289724655426
 30
0.0
  0
SEQEND
  5
60
330
5D
100
AcDbEntity
  8
_U+30EC_U+30A4_U+30E4_U+30FC 1
 62
   179
420
  2234388
370
    25
  0
POLYLINE
  5
61
330
1F
100
AcDbEntity
  8
_U+30EC_U+30A4_U+30E4_U+30FC 1
 62
   179
420
  2234388
370
    25
100
AcDb2dPolyline
 66
     1
 10
0.0
 20
0.0
 30
0.0
  0
VERTEX
  5
62
330
61
100
AcDbEntity
  8
_U+30EC_U+30A4_U+30E4_U+30FC 1
 62
   179
420
  2234388
370
    25
100
AcDbVertex
100
AcDb2dVertex
 10
85.39356309920649
 20
-122.3287988583066
 30
0.0
  0
VERTEX
  5
63
330
61
100
AcDbEntity
  8
_U+30EC_U+30A4_U+30E4_U+30FC 1
 62
   179
420
  2234388
370
    25
100
AcDbVertex
100
AcDb2dVertex
 10
85.39356309920649
 20
-137.029013576854
 30
0.0
  0
SEQEND
  5
64
330
61
100
AcDbEntity
  8
_U+30EC_U+30A4_U+30E4_U+30FC 1
 62
   179
420
  2234388
370
    25
  0
POLYLINE
  5
65
330
1F
100
AcDbEntity
  8
_U+30EC_U+30A4_U+30E4_U+30FC 1
 62
   179
420
  2234388
370
    25
100
AcDb2dPolyline
 66
     1
 10
0.0
 20
0.0
 30
0.0
  0
VERTEX
  5
66
330
65
100
AcDbEntity
  8
_U+30EC_U+30A4_U+30E4_U+30FC 1
 62
   179
420
  2234388
370
    25
100
AcDbVertex
100
AcDb2dVertex
 10
85.39356309920649
 20
-137.029013576854
 30
0.0
  0
VERTEX
  5
67
330
65
100
AcDbEntity
  8
_U+30EC_U+30A4_U+30E4_U+30FC 1
 62
   179
420
  2234388
370
    25
100
AcDbVertex
100
AcDb2dVertex
 10
93.79479164321798
 20
-137.029013576854
 30
0.0
  0
SEQEND
  5
68
330
65
100
AcDbEntity
  8
_U+30EC_U+30A4_U+30E4_U+30FC 1
 62
   179
420
  2234388
370
    25
  0
POLYLINE
  5
69
330
1F
100
AcDbEntity
  8
_U+30EC_U+30A4_U+30E4_U+30FC 1
 62
   179
420
  2234388
370
    25
100
AcDb2dPolyline
 66
     1
 10
0.0
 20
0.0
 30
0.0
  0
VERTEX
  5
6A
330
69
100
AcDbEntity
  8
_U+30EC_U+30A4_U+30E4_U+30FC 1
 62
   179
420
  2234388
370
    25
100
AcDbVertex
100
AcDb2dVertex
 10
85.39356309920649
 20
-122.3287988583066
 30
0.0
  0
VERTEX
  5
6B
330
69
100
AcDbEntity
  8
_U+30EC_U+30A4_U+30E4_U+30FC 1
 62
   179
420
  2234388
370
    25
100
AcDbVertex
100
AcDb2dVertex
 10
103.5957318014971
 20
-122.3287988583066
 30
0.0
  0
SEQEND
  5
6C
330
69
100
AcDbEntity
  8
_U+30EC_U+30A4_U+30E4_U+30FC 1
 62
   179
420
  2234388
370
    25
  0
POLYLINE
  5
6D
330
1F
100
AcDbEntity
  8
_U+30EC_U+30A4_U+30E4_U+30FC 1
 62
   179
420
  2234388
370
    25
100
AcDb2dPolyline
 66
     1
 10
0.0
 20
0.0
 30
0.0
  0
VERTEX
  5
6E
330
6D
100
AcDbEntity
  8
_U+30EC_U+30A4_U+30E4_U+30FC 1
 62
   179
420
  2234388
370
    25
100
AcDbVertex
100
AcDb2dVertex
 10
93.79479164321798
 20
-135.6289444105369
 30
0.0
  0
VERTEX
  5
6F
330
6D
100
AcDbEntity
  8
_U+30EC_U+30A4_U+30E4_U+30FC 1
 62
   179
420
  2234388
370
    25
100
AcDbVertex
100
AcDb2dVertex
 10
93.79479164321798
 20
-137.029013576854
 30
0.0
  0
SEQEND
  5
70
330
6D
100
AcDbEntity
  8
_U+30EC_U+30A4_U+30E4_U+30FC 1
 62
   179
420
  2234388
370
    25
  0
POLYLINE
  5
71
330
1F
100
AcDbEntity
  8
_U+30EC_U+30A4_U+30E4_U+30FC 1
 62
   179
420
  2234388
370
    25
100
AcDb2dPolyline
 66
     1
 10
0.0
 20
0.0
 30
0.0
  0
VERTEX
  5
72
330
71
100
AcDbEntity
  8
_U+30EC_U+30A4_U+30E4_U+30FC 1
 62
   179
420
  2234388
370
    25
100
AcDbVertex
100
AcDb2dVertex
 10
90.59463629984938
 20
-135.6289444105369
 30
0.0
  0
VERTEX
  5
73
330
71
100
AcDbEntity
  8
_U+30EC_U+30A4_U+30E4_U+30FC 1
 62
   179
420
  2234388
370
    25
100
AcDbVertex
100
AcDb2dVertex
 10
93.79479164321798
 20
-135.6289444105369
 30
0.0
  0
SEQEND
  5
74
330
71
100
AcDbEntity
  8
_U+30EC_U+30A4_U+30E4_U+30FC 1
 62
   179
420
  2234388
370
    25
  0
POLYLINE
  5
75
330
1F
100
AcDbEntity
  8
_U+30EC_U+30A4_U+30E4_U+30FC 1
 62
   179
420
  2234388
370
    25
100
AcDb2dPolyline
 66
     1
 10
0.0
 20
0.0
 30
0.0
  0
VERTEX
  5
76
330
75
100
AcDbEntity
  8
_U+30EC_U+30A4_U+30E4_U+30FC 1
 62
   179
420
  2234388
370
    25
100
AcDbVertex
100
AcDb2dVertex
 10
90.59463629984938
 20
-134.8289855218483
 30
0.0
  0
VERTEX
  5
77
330
75
100
AcDbEntity
  8
_U+30EC_U+30A4_U+30E4_U+30FC 1
 62
   179
420
  2234388
370
    25
100
AcDbVertex
100
AcDb2dVertex
 10
90.59463629984938
 20
-135.6289444105369
 30
0.0
  0
SEQEND
  5
78
330
75
100
AcDbEntity
  8
_U+30EC_U+30A4_U+30E4_U+30FC 1
 62
   179
420
  2234388
370
    25
  0
SPLINE
  5
79
330
1F
100
AcDbEntity
  8
_U+30EC_U+30A4_U+30E4_U+30FC 1
 62
   179
420
  2234388
370
     9
100
AcDbSpline
210
0.0
220
0.0
230
1.0
 70
    11
 71
     3
 72
    17
 73
    13
 74
     0
 42
0.0000000001
 43
0.0000000001
 12
1.0
 22
0.0
 32
0.0
 13
1.0
 23
0.0
 33
0.0
 40
0.0
 40
0.0
 40
0.0
 40
0.0
 40
1.0
 40
1.0
 40
1.0
 40
2.0
 40
2.0
 40
2.0
 40
3.0
 40
3.0
 40
3.0
 40
4.0
 40
4.0
 40
4.0
 40
4.0
 10
107.6953975302393
 20
-121.5288399696179
 30
0.0
 10
107.6953975302393
 20
-121.4737360807427
 30
0.0
 10
107.6506300313814
 20
-121.428933302976
 30
0.0
 10
107.5954908661215
 20
-121.428933302976
 30
0.0
 10
107.5403869786384
 20
-121.428933302976
 30
0.0
 10
107.4955842020036
 20
-121.4737360807427
 30
0.0
 10
107.4955842020036
 20
-121.5288399696179
 30
0.0
 10
107.4955842020036
 20
-121.5839791362707
 30
0.0
 10
107.5403869786384
 20
-121.6287466362596
 30
0.0
 10
107.5954908661215
 20
-121.6287466362596
 30
0.0
 10
107.6506300313814
 20
-121.6287466362596
 30
0.0
 10
107.6953975302393
 20
-121.5839791362707
 30
0.0
 10
107.6953975302393
 20
-121.5288399696179
 30
0.0
  0
SPLINE
  5
7A
330
1F
100
AcDbEntity
  8
_U+30EC_U+30A4_U+30E4_U+30FC 1
 62
   179
420
  2234388
370
     9
100
AcDbSpline
210
0.0
220
0.0
230
1.0
 70
    11
 71
     3
 72
    17
 73
    13
 74
     0
 42
0.0000000001
 43
0.0000000001
 12
1.0
 22
0.0
 32
0.0
 13
1.0
 23
0.0
 33
0.0
 40
0.0
 40
0.0
 40
0.0
 40
0.0
 40
1.0
 40
1.0
 40
1.0
 40
2.0
 40
2.0
 40
2.0
 40
3.0
 40
3.0
 40
3.0
 40
4.0
 40
4.0
 40
4.0
 40
4.0
 10
103.695638465615
 20
-117.5287280261733
 30
0.0
 10
103.695638465615
 20
-117.4736241372984
 30
0.0
 10
103.6508709667571
 20
-117.4288213595317
 30
0.0
 10
103.5957318014971
 20
-117.4288213595317
 30
0.0
 10
103.5406305296705
 20
-117.4288213595317
 30
0.0
 10
103.4958277519037
 20
-117.4736241372984
 30
0.0
 10
103.4958277519037
 20
-117.5287280261733
 30
0.0
 10
103.4958277519037
 20
-117.5838671928264
 30
0.0
 10
103.5406305296705
 20
-117.6286346928149
 30
0.0
 10
103.5957318014971
 20
-117.6286346928149
 30
0.0
 10
103.6508709667571
 20
-117.6286346928149
 30
0.0
 10
103.695638465615
 20
-117.5838671928264
 30
0.0
 10
103.695638465615
 20
-117.5287280261733
 30
0.0
  0
SPLINE
  5
7B
330
1F
100
AcDbEntity
  8
_U+30EC_U+30A4_U+30E4_U+30FC 1
 62
   179
420
  2234388
370
     9
100
AcDbSpline
210
0.0
220
0.0
230
1.0
 70
    11
 71
     3
 72
    17
 73
    13
 74
     0
 42
0.0000000001
 43
0.0000000001
 12
1.0
 22
0.0
 32
0.0
 13
1.0
 23
0.0
 33
0.0
 40
0.0
 40
0.0
 40
0.0
 40
0.0
 40
1.0
 40
1.0
 40
1.0
 40
2.0
 40
2.0
 40
2.0
 40
3.0
 40
3.0
 40
3.0
 40
4.0
 40
4.0
 40
4.0
 40
4.0
 10
72.69151731215156
 20
-117.5287280261733
 30
0.0
 10
72.69151731215156
 20
-117.4736241372984
 30
0.0
 10
72.6467145355168
 20
-117.4288213595317
 30
0.0
 10
72.59161064803372
 20
-117.4288213595317
 30
0.0
 10
72.53647148277378
 20
-117.4288213595317
 30
0.0
 10
72.49170398391588
 20
-117.4736241372984
 30
0.0
 10
72.49170398391588
 20
-117.5287280261733
 30
0.0
 10
72.49170398391588
 20
-117.5838671928264
 30
0.0
 10
72.53647148277378
 20
-117.6286346928149
 30
0.0
 10
72.59161064803372
 20
-117.6286346928149
 30
0.0
 10
72.6467145355168
 20
-117.6286346928149
 30
0.0
 10
72.69151731215156
 20
-117.5838671928264
 30
0.0
 10
72.69151731215156
 20
-117.5287280261733
 30
0.0
  0
SPLINE
  5
7C
330
1F
100
AcDbEntity
  8
_U+30EC_U+30A4_U+30E4_U+30FC 1
 62
   179
420
  2234388
370
     9
100
AcDbSpline
210
0.0
220
0.0
230
1.0
 70
    11
 71
     3
 72
    17
 73
    13
 74
     0
 42
0.0000000001
 43
0.0000000001
 12
1.0
 22
0.0
 32
0.0
 13
1.0
 23
0.0
 33
0.0
 40
0.0
 40
0.0
 40
0.0
 40
0.0
 40
1.0
 40
1.0
 40
1.0
 40
2.0
 40
2.0
 40
2.0
 40
3.0
 40
3.0
 40
3.0
 40
4.0
 40
4.0
 40
4.0
 40
4.0
 10
107.6953975302393
 20
-122.3287988583066
 30
0.0
 10
107.6953975302393
 20
-122.2736596916538
 30
0.0
 10
107.6506300313814
 20
-122.2288921916649
 30
0.0
 10
107.5954908661215
 20
-122.2288921916649
 30
0.0
 10
107.5403869786384
 20
-122.2288921916649
 30
0.0
 10
107.4955842020036
 20
-122.2736596916538
 30
0.0
 10
107.4955842020036
 20
-122.3287988583066
 30
0.0
 10
107.4955842020036
 20
-122.3839027471818
 30
0.0
 10
107.5403869786384
 20
-122.4287055249485
 30
0.0
 10
107.5954908661215
 20
-122.4287055249485
 30
0.0
 10
107.6506300313814
 20
-122.4287055249485
 30
0.0
 10
107.6953975302393
 20
-122.3839027471818
 30
0.0
 10
107.6953975302393
 20
-122.3287988583066
 30
0.0
  0
SPLINE
  5
7D
330
1F
100
AcDbEntity
  8
_U+30EC_U+30A4_U+30E4_U+30FC 1
 62
   179
420
  2234388
370
     9
100
AcDbSpline
210
0.0
220
0.0
230
1.0
 70
    11
 71
     3
 72
    17
 73
    13
 74
     0
 42
0.0000000001
 43
0.0000000001
 12
1.0
 22
0.0
 32
0.0
 13
1.0
 23
0.0
 33
0.0
 40
0.0
 40
0.0
 40
0.0
 40
0.0
 40
1.0
 40
1.0
 40
1.0
 40
2.0
 40
2.0
 40
2.0
 40
3.0
 40
3.0
 40
3.0
 40
4.0
 40
4.0
 40
4.0
 40
4.0
 10
107.6953975302393
 20
-134.8289855218483
 30
0.0
 10
107.6953975302393
 20
-134.7738463551952
 30
0.0
 10
107.6506300313814
 20
-134.7290788552066
 30
0.0
 10
107.5954908661215
 20
-134.7290788552066
 30
0.0
 10
107.5403869786384
 20
-134.7290788552066
 30
0.0
 10
107.4955842020036
 20
-134.7738463551952
 30
0.0
 10
107.4955842020036
 20
-134.8289855218483
 30
0.0
 10
107.4955842020036
 20
-134.8840894107232
 30
0.0
 10
107.5403869786384
 20
-134.9288921884899
 30
0.0
 10
107.5954908661215
 20
-134.9288921884899
 30
0.0
 10
107.6506300313814
 20
-134.9288921884899
 30
0.0
 10
107.6953975302393
 20
-134.8840894107232
 30
0.0
 10
107.6953975302393
 20
-134.8289855218483
 30
0.0
  0
SPLINE
  5
7E
330
1F
100
AcDbEntity
  8
_U+30EC_U+30A4_U+30E4_U+30FC 1
 62
   179
420
  2234388
370
     9
100
AcDbSpline
210
0.0
220
0.0
230
1.0
 70
    11
 71
     3
 72
    17
 73
    13
 74
     0
 42
0.0000000001
 43
0.0000000001
 12
1.0
 22
0.0
 32
0.0
 13
1.0
 23
0.0
 33
0.0
 40
0.0
 40
0.0
 40
0.0
 40
0.0
 40
1.0
 40
1.0
 40
1.0
 40
2.0
 40
2.0
 40
2.0
 40
3.0
 40
3.0
 40
3.0
 40
4.0
 40
4.0
 40
4.0
 40
4.0
 10
107.6953975302393
 20
-137.8289724655426
 30
0.0
 10
107.6953975302393
 20
-137.7738332988902
 30
0.0
 10
107.6506300313814
 20
-137.729065798901
 30
0.0
 10
107.5954908661215
 20
-137.729065798901
 30
0.0
 10
107.5403869786384
 20
-137.729065798901
 30
0.0
 10
107.4955842020036
 20
-137.7738332988902
 30
0.0
 10
107.4955842020036
 20
-137.8289724655426
 30
0.0
 10
107.4955842020036
 20
-137.8840763544182
 30
0.0
 10
107.5403869786384
 20
-137.9288791321842
 30
0.0
 10
107.5954908661215
 20
-137.9288791321842
 30
0.0
 10
107.6506300313814
 20
-137.9288791321842
 30
0.0
 10
107.6953975302393
 20
-137.8840763544182
 30
0.0
 10
107.6953975302393
 20
-137.8289724655426
 30
0.0
  0
SPLINE
  5
7F
330
1F
100
AcDbEntity
  8
_U+30EC_U+30A4_U+30E4_U+30FC 1
 62
   179
420
  2234388
370
     9
100
AcDbSpline
210
0.0
220
0.0
230
1.0
 70
    11
 71
     3
 72
    17
 73
    13
 74
     0
 42
0.0000000001
 43
0.0000000001
 12
1.0
 22
0.0
 32
0.0
 13
1.0
 23
0.0
 33
0.0
 40
0.0
 40
0.0
 40
0.0
 40
0.0
 40
1.0
 40
1.0
 40
1.0
 40
2.0
 40
2.0
 40
2.0
 40
3.0
 40
3.0
 40
3.0
 40
4.0
 40
4.0
 40
4.0
 40
4.0
 10
94.69567786188976
 20
-141.8287316312095
 30
0.0
 10
94.69567786188976
 20
-141.7735924645564
 30
0.0
 10
94.65091036303188
 20
-141.7288249645679
 30
0.0
 10
94.59510092001125
 20
-141.7288249645679
 30
0.0
 10
94.5399617547513
 20
-141.7288249645679
 30
0.0
 10
94.49519425589342
 20
-141.7735924645564
 30
0.0
 10
94.49519425589342
 20
-141.8287316312095
 30
0.0
 10
94.49519425589342
 20
-141.8838355200844
 30
0.0
 10
94.5399617547513
 20
-141.9286382978511
 30
0.0
 10
94.59510092001125
 20
-141.9286382978511
 30
0.0
 10
94.65091036303188
 20
-141.9286382978511
 30
0.0
 10
94.69567786188976
 20
-141.8838355200844
 30
0.0
 10
94.69567786188976
 20
-141.8287316312095
 30
0.0
  0
SPLINE
  5
80
330
1F
100
AcDbEntity
  8
_U+30EC_U+30A4_U+30E4_U+30FC 1
 62
   179
420
  2234388
370
     9
100
AcDbSpline
210
0.0
220
0.0
230
1.0
 70
    11
 71
     3
 72
    17
 73
    13
 74
     0
 42
0.0000000001
 43
0.0000000001
 12
1.0
 22
0.0
 32
0.0
 13
1.0
 23
0.0
 33
0.0
 40
0.0
 40
0.0
 40
0.0
 40
0.0
 40
1.0
 40
1.0
 40
1.0
 40
2.0
 40
2.0
 40
2.0
 40
3.0
 40
3.0
 40
3.0
 40
4.0
 40
4.0
 40
4.0
 40
4.0
 10
84.69354617262096
 20
-141.8287316312095
 30
0.0
 10
84.69354617262096
 20
-141.7735924645564
 30
0.0
 10
84.6487433959862
 20
-141.7288249645679
 30
0.0
 10
84.59364164551815
 20
-141.7288249645679
 30
0.0
 10
84.53850034324317
 20
-141.7288249645679
 30
0.0
 10
84.49373284438529
 20
-141.7735924645564
 30
0.0
 10
84.49373284438529
 20
-141.8287316312095
 30
0.0
 10
84.49373284438529
 20
-141.8838355200844
 30
0.0
 10
84.53850034324317
 20
-141.9286382978511
 30
0.0
 10
84.59364164551815
 20
-141.9286382978511
 30
0.0
 10
84.6487433959862
 20
-141.9286382978511
 30
0.0
 10
84.69354617262096
 20
-141.8838355200844
 30
0.0
 10
84.69354617262096
 20
-141.8287316312095
 30
0.0
  0
SPLINE
  5
81
330
1F
100
AcDbEntity
  8
_U+30EC_U+30A4_U+30E4_U+30FC 1
 62
   179
420
  2234388
370
     9
100
AcDbSpline
210
0.0
220
0.0
230
1.0
 70
    11
 71
     3
 72
    17
 73
    13
 74
     0
 42
0.0000000001
 43
0.0000000001
 12
1.0
 22
0.0
 32
0.0
 13
1.0
 23
0.0
 33
0.0
 40
0.0
 40
0.0
 40
0.0
 40
0.0
 40
1.0
 40
1.0
 40
1.0
 40
2.0
 40
2.0
 40
2.0
 40
3.0
 40
3.0
 40
3.0
 40
4.0
 40
4.0
 40
4.0
 40
4.0
 10
72.69151731215156
 20
-141.8287316312095
 30
0.0
 10
72.69151731215156
 20
-141.7735924645564
 30
0.0
 10
72.6467145355168
 20
-141.7288249645679
 30
0.0
 10
72.59161064803372
 20
-141.7288249645679
 30
0.0
 10
72.53647148277378
 20
-141.7288249645679
 30
0.0
 10
72.49170398391588
 20
-141.7735924645564
 30
0.0
 10
72.49170398391588
 20
-141.8287316312095
 30
0.0
 10
72.49170398391588
 20
-141.8838355200844
 30
0.0
 10
72.53647148277378
 20
-141.9286382978511
 30
0.0
 10
72.59161064803372
 20
-141.9286382978511
 30
0.0
 10
72.6467145355168
 20
-141.9286382978511
 30
0.0
 10
72.69151731215156
 20
-141.8838355200844
 30
0.0
 10
72.69151731215156
 20
-141.8287316312095
 30
0.0
  0
POLYLINE
  5
82
330
1F
100
AcDbEntity
  8
_U+30EC_U+30A4_U+30E4_U+30FC 1
 62
   179
420
  2234388
370
     9
100
AcDb2dPolyline
 66
     1
 10
0.0
 20
0.0
 30
0.0
  0
VERTEX
  5
83
330
82
100
AcDbEntity
  8
_U+30EC_U+30A4_U+30E4_U+30FC 1
 62
   179
420
  2234388
370
     9
100
AcDbVertex
100
AcDb2dVertex
 10
107.5954908661215
 20
-121.5288399696179
 30
0.0
  0
VERTEX
  5
84
330
82
100
AcDbEntity
  8
_U+30EC_U+30A4_U+30E4_U+30FC 1
 62
   179
420
  2234388
370
     9
100
AcDbVertex
100
AcDb2dVertex
 10
107.5954908661215
 20
-116.270934137599
 30
0.0
  0
SEQEND
  5
85
330
82
100
AcDbEntity
  8
_U+30EC_U+30A4_U+30E4_U+30FC 1
 62
   179
420
  2234388
370
     9
  0
POLYLINE
  5
86
330
1F
100
AcDbEntity
  8
_U+30EC_U+30A4_U+30E4_U+30FC 1
 62
   179
420
  2234388
370
     9
100
AcDb2dPolyline
 66
     1
 10
0.0
 20
0.0
 30
0.0
  0
VERTEX
  5
87
330
86
100
AcDbEntity
  8
_U+30EC_U+30A4_U+30E4_U+30FC 1
 62
   179
420
  2234388
370
     9
100
AcDbVertex
100
AcDb2dVertex
 10
107.5954908661215
 20
-121.5288399696179
 30
0.0
  0
VERTEX
  5
88
330
86
100
AcDbEntity
  8
_U+30EC_U+30A4_U+30E4_U+30FC 1
 62
   179
420
  2234388
370
     9
100
AcDbVertex
100
AcDb2dVertex
 10
107.5954908661215
 20
-122.3287988583066
 30
0.0
  0
SEQEND
  5
89
330
86
100
AcDbEntity
  8
_U+30EC_U+30A4_U+30E4_U+30FC 1
 62
   179
420
  2234388
370
     9
  0
POLYLINE
  5
8A
330
1F
100
AcDbEntity
  8
_U+30EC_U+30A4_U+30E4_U+30FC 1
 62
   179
420
  2234388
370
     9
100
AcDb2dPolyline
 66
     1
 10
0.0
 20
0.0
 30
0.0
  0
VERTEX
  5
8B
330
8A
100
AcDbEntity
  8
_U+30EC_U+30A4_U+30E4_U+30FC 1
 62
   179
420
  2234388
370
     9
100
AcDbVertex
100
AcDb2dVertex
 10
106.1354495144813
 20
-121.5288399696179
 30
0.0
  0
VERTEX
  5
8C
330
8A
100
AcDbEntity
  8
_U+30EC_U+30A4_U+30E4_U+30FC 1
 62
   179
420
  2234388
370
     9
100
AcDbVertex
100
AcDb2dVertex
 10
108.5952630628374
 20
-121.5288399696179
 30
0.0
  0
SEQEND
  5
8D
330
8A
100
AcDbEntity
  8
_U+30EC_U+30A4_U+30E4_U+30FC 1
 62
   179
420
  2234388
370
     9
  0
POLYLINE
  5
8E
330
1F
100
AcDbEntity
  8
_U+30EC_U+30A4_U+30E4_U+30FC 1
 62
   179
420
  2234388
370
     9
100
AcDb2dPolyline
 66
     1
 10
0.0
 20
0.0
 30
0.0
  0
VERTEX
  5
8F
330
8E
100
AcDbEntity
  8
_U+30EC_U+30A4_U+30E4_U+30FC 1
 62
   179
420
  2234388
370
     9
100
AcDbVertex
100
AcDb2dVertex
 10
106.1354495144813
 20
-122.3287988583066
 30
0.0
  0
VERTEX
  5
90
330
8E
100
AcDbEntity
  8
_U+30EC_U+30A4_U+30E4_U+30FC 1
 62
   179
420
  2234388
370
     9
100
AcDbVertex
100
AcDb2dVertex
 10
108.5952630628374
 20
-122.3287988583066
 30
0.0
  0
SEQEND
  5
91
330
8E
100
AcDbEntity
  8
_U+30EC_U+30A4_U+30E4_U+30FC 1
 62
   179
420
  2234388
370
     9
  0
INSERT
  5
93
330
1F
100
AcDbEntity
  8
_U+30EC_U+30A4_U+30E4_U+30FC 1
100
AcDbBlockReference
  2
block 2
 10
0.0
 20
0.0
 30
0.0
  0
POLYLINE
  5
A5
330
1F
100
AcDbEntity
  8
_U+30EC_U+30A4_U+30E4_U+30FC 1
 62
   179
420
  2234388
370
     9
100
AcDb2dPolyline
 66
     1
 10
0.0
 20
0.0
 30
0.0
  0
VERTEX
  5
A6
330
A5
100
AcDbEntity
  8
_U+30EC_U+30A4_U+30E4_U+30FC 1
 62
   179
420
  2234388
370
     9
100
AcDbVertex
100
AcDb2dVertex
 10
107.5954908661215
 20
-134.8289855218483
 30
0.0
  0
VERTEX
  5
A7
330
A5
100
AcDbEntity
  8
_U+30EC_U+30A4_U+30E4_U+30FC 1
 62
   179
420
  2234388
370
     9
100
AcDbVertex
100
AcDb2dVertex
 10
107.5954908661215
 20
-137.8289724655426
 30
0.0
  0
SEQEND
  5
A8
330
A5
100
AcDbEntity
  8
_U+30EC_U+30A4_U+30E4_U+30FC 1
 62
   179
420
  2234388
370
     9
  0
POLYLINE
  5
A9
330
1F
100
AcDbEntity
  8
_U+30EC_U+30A4_U+30E4_U+30FC 1
 62
   179
420
  2234388
370
     9
100
AcDb2dPolyline
 66
     1
 10
0.0
 20
0.0
 30
0.0
  0
VERTEX
  5
AA
330
A9
100
AcDbEntity
  8
_U+30EC_U+30A4_U+30E4_U+30FC 1
 62
   179
420
  2234388
370
     9
100
AcDbVertex
100
AcDb2dVertex
 10
99.1357035819486
 20
-137.8289724655426
 30
0.0
  0
VERTEX
  5
AB
330
A9
100
AcDbEntity
  8
_U+30EC_U+30A4_U+30E4_U+30FC 1
 62
   179
420
  2234388
370
     9
100
AcDbVertex
100
AcDb2dVertex
 10
108.5952630628374
 20
-137.8289724655426
 30
0.0
  0
SEQEND
  5
AC
330
A9
100
AcDbEntity
  8
_U+30EC_U+30A4_U+30E4_U+30FC 1
 62
   179
420
  2234388
370
     9
  0
INSERT
  5
AE
330
1F
100
AcDbEntity
  8
_U+30EC_U+30A4_U+30E4_U+30FC 1
100
AcDbBlockReference
  2
block 3
 10
0.0
 20
0.0
 30
0.0
  0
POLYLINE
  5
B3
330
1F
100
AcDbEntity
  8
_U+30EC_U+30A4_U+30E4_U+30FC 1
 62
   179
420
  2234388
370
     9
100
AcDb2dPolyline
 66
     1
 10
0.0
 20
0.0
 30
0.0
  0
VERTEX
  5
B4
330
B3
100
AcDbEntity
  8
_U+30EC_U+30A4_U+30E4_U+30FC 1
 62
   179
420
  2234388
370
     9
100
AcDbVertex
100
AcDb2dVertex
 10
84.59364164551815
 20
-141.8287316312095
 30
0.0
  0
VERTEX
  5
B5
330
B3
100
AcDbEntity
  8
_U+30EC_U+30A4_U+30E4_U+30FC 1
 62
   179
420
  2234388
370
     9
100
AcDbVertex
100
AcDb2dVertex
 10
94.59510092001125
 20
-141.8287316312095
 30
0.0
  0
SEQEND
  5
B6
330
B3
100
AcDbEntity
  8
_U+30EC_U+30A4_U+30E4_U+30FC 1
 62
   179
420
  2234388
370
     9
  0
POLYLINE
  5
B7
330
1F
100
AcDbEntity
  8
_U+30EC_U+30A4_U+30E4_U+30FC 1
 62
   179
420
  2234388
370
     9
100
AcDb2dPolyline
 66
     1
 10
0.0
 20
0.0
 30
0.0
  0
VERTEX
  5
B8
330
B7
100
AcDbEntity
  8
_U+30EC_U+30A4_U+30E4_U+30FC 1
 62
   179
420
  2234388
370
     9
100
AcDbVertex
100
AcDb2dVertex
 10
84.59364164551815
 20
-140.3686902426858
 30
0.0
  0
VERTEX
  5
B9
330
B7
100
AcDbEntity
  8
_U+30EC_U+30A4_U+30E4_U+30FC 1
 62
   179
420
  2234388
370
     9
100
AcDbVertex
100
AcDb2dVertex
 10
84.59364164551815
 20
-142.828503853182
 30
0.0
  0
SEQEND
  5
BA
330
B7
100
AcDbEntity
  8
_U+30EC_U+30A4_U+30E4_U+30FC 1
 62
   179
420
  2234388
370
     9
  0
POLYLINE
  5
BB
330
1F
100
AcDbEntity
  8
_U+30EC_U+30A4_U+30E4_U+30FC 1
 62
   179
420
  2234388
370
     9
100
AcDb2dPolyline
 66
     1
 10
0.0
 20
0.0
 30
0.0
  0
VERTEX
  5
BC
330
BB
100
AcDbEntity
  8
_U+30EC_U+30A4_U+30E4_U+30FC 1
 62
   179
420
  2234388
370
     9
100
AcDbVertex
100
AcDb2dVertex
 10
94.59510092001125
 20
-140.3686902426858
 30
0.0
  0
VERTEX
  5
BD
330
BB
100
AcDbEntity
  8
_U+30EC_U+30A4_U+30E4_U+30FC 1
 62
   179
420
  2234388
370
     9
100
AcDbVertex
100
AcDb2dVertex
 10
94.59510092001125
 20
-142.828503853182
 30
0.0
  0
SEQEND
  5
BE
330
BB
100
AcDbEntity
  8
_U+30EC_U+30A4_U+30E4_U+30FC 1
 62
   179
420
  2234388
370
     9
  0
INSERT
  5
C0
330
1F
100
AcDbEntity
  8
_U+30EC_U+30A4_U+30E4_U+30FC 1
100
AcDbBlockReference
  2
block 4
 10
0.0
 20
0.0
 30
0.0
  0
POLYLINE
  5
C8
330
1F
100
AcDbEntity
  8
_U+30EC_U+30A4_U+30E4_U+30FC 1
 62
   179
420
  2234388
370
     9
100
AcDb2dPolyline
 66
     1
 10
0.0
 20
0.0
 30
0.0
  0
VERTEX
  5
C9
330
C8
100
AcDbEntity
  8
_U+30EC_U+30A4_U+30E4_U+30FC 1
 62
   179
420
  2234388
370
     9
100
AcDbVertex
100
AcDb2dVertex
 10
84.59364164551815
 20
-141.8287316312095
 30
0.0
  0
VERTEX
  5
CA
330
C8
100
AcDbEntity
  8
_U+30EC_U+30A4_U+30E4_U+30FC 1
 62
   179
420
  2234388
370
     9
100
AcDbVertex
100
AcDb2dVertex
 10
72.59161064803372
 20
-141.8287316312095
 30
0.0
  0
SEQEND
  5
CB
330
C8
100
AcDbEntity
  8
_U+30EC_U+30A4_U+30E4_U+30FC 1
 62
   179
420
  2234388
370
     9
  0
POLYLINE
  5
CC
330
1F
100
AcDbEntity
  8
_U+30EC_U+30A4_U+30E4_U+30FC 1
 62
   179
420
  2234388
370
     9
100
AcDb2dPolyline
 66
     1
 10
0.0
 20
0.0
 30
0.0
  0
VERTEX
  5
CD
330
CC
100
AcDbEntity
  8
_U+30EC_U+30A4_U+30E4_U+30FC 1
 62
   179
420
  2234388
370
     9
100
AcDbVertex
100
AcDb2dVertex
 10
72.59161064803372
 20
-127.3689702459356
 30
0.0
  0
VERTEX
  5
CE
330
CC
100
AcDbEntity
  8
_U+30EC_U+30A4_U+30E4_U+30FC 1
 62
   179
420
  2234388
370
     9
100
AcDbVertex
100
AcDb2dVertex
 10
72.59161064803372
 20
-142.828503853182
 30
0.0
  0
SEQEND
  5
CF
330
CC
100
AcDbEntity
  8
_U+30EC_U+30A4_U+30E4_U+30FC 1
 62
   179
420
  2234388
370
     9
  0
INSERT
  5
D1
330
1F
100
AcDbEntity
  8
_U+30EC_U+30A4_U+30E4_U+30FC 1
100
AcDbBlockReference
  2
block 5
 10
0.0
 20
0.0
 30
0.0
  0
POLYLINE
  5
D8
330
1F
100
AcDbEntity
  8
_U+30EC_U+30A4_U+30E4_U+30FC 1
 62
   179
420
  2234388
370
     9
100
AcDb2dPolyline
 66
     1
 10
0.0
 20
0.0
 30
0.0
  0
VERTEX
  5
D9
330
D8
100
AcDbEntity
  8
_U+30EC_U+30A4_U+30E4_U+30FC 1
 62
   179
420
  2234388
370
     9
100
AcDbVertex
100
AcDb2dVertex
 10
72.59161064803372
 20
-117.5287280261733
 30
0.0
  0
VERTEX
  5
DA
330
D8
100
AcDbEntity
  8
_U+30EC_U+30A4_U+30E4_U+30FC 1
 62
   179
420
  2234388
370
     9
100
AcDbVertex
100
AcDb2dVertex
 10
103.5957318014971
 20
-117.5287280261733
 30
0.0
  0
SEQEND
  5
DB
330
D8
100
AcDbEntity
  8
_U+30EC_U+30A4_U+30E4_U+30FC 1
 62
   179
420
  2234388
370
     9
  0
POLYLINE
  5
DC
330
1F
100
AcDbEntity
  8
_U+30EC_U+30A4_U+30E4_U+30FC 1
 62
   179
420
  2234388
370
     9
100
AcDb2dPolyline
 66
     1
 10
0.0
 20
0.0
 30
0.0
  0
VERTEX
  5
DD
330
DC
100
AcDbEntity
  8
_U+30EC_U+30A4_U+30E4_U+30FC 1
 62
   179
420
  2234388
370
     9
100
AcDbVertex
100
AcDb2dVertex
 10
72.59161064803372
 20
-118.9887694146973
 30
0.0
  0
VERTEX
  5
DE
330
DC
100
AcDbEntity
  8
_U+30EC_U+30A4_U+30E4_U+30FC 1
 62
   179
420
  2234388
370
     9
100
AcDbVertex
100
AcDb2dVertex
 10
72.59161064803372
 20
-116.5289910819789
 30
0.0
  0
SEQEND
  5
DF
330
DC
100
AcDbEntity
  8
_U+30EC_U+30A4_U+30E4_U+30FC 1
 62
   179
420
  2234388
370
     9
  0
POLYLINE
  5
E0
330
1F
100
AcDbEntity
  8
_U+30EC_U+30A4_U+30E4_U+30FC 1
 62
   179
420
  2234388
370
     9
100
AcDb2dPolyline
 66
     1
 10
0.0
 20
0.0
 30
0.0
  0
VERTEX
  5
E1
330
E0
100
AcDbEntity
  8
_U+30EC_U+30A4_U+30E4_U+30FC 1
 62
   179
420
  2234388
370
     9
100
AcDbVertex
100
AcDb2dVertex
 10
103.5957318014971
 20
-118.9887694146973
 30
0.0
  0
VERTEX
  5
E2
330
E0
100
AcDbEntity
  8
_U+30EC_U+30A4_U+30E4_U+30FC 1
 62
   179
420
  2234388
370
     9
100
AcDbVertex
100
AcDb2dVertex
 10
103.5957318014971
 20
-116.5289910819789
 30
0.0
  0
SEQEND
  5
E3
330
E0
100
AcDbEntity
  8
_U+30EC_U+30A4_U+30E4_U+30FC 1
 62
   179
420
  2234388
370
     9
  0
INSERT
  5
E5
330
1F
100
AcDbEntity
  8
_U+30EC_U+30A4_U+30E4_U+30FC 1
100
AcDbBlockReference
  2
block 6
 10
0.0
 20
0.0
 30
0.0
  0
POLYLINE
  5
EC
330
1F
100
AcDbEntity
  8
_U+30EC_U+30A4_U+30E4_U+30FC 1
 62
   179
420
  2234388
370
     9
100
AcDb2dPolyline
 66
     1
 10
0.0
 20
0.0
 30
0.0
  0
VERTEX
  5
ED
330
EC
100
AcDbEntity
  8
_U+30EC_U+30A4_U+30E4_U+30FC 1
 62
   179
420
  2234388
370
     9
100
AcDbVertex
100
AcDb2dVertex
 10
107.5954908661215
 20
-122.3287988583066
 30
0.0
  0
VERTEX
  5
EE
330
EC
100
AcDbEntity
  8
_U+30EC_U+30A4_U+30E4_U+30FC 1
 62
   179
420
  2234388
370
     9
100
AcDbVertex
100
AcDb2dVertex
 10
107.5954908661215
 20
-134.8289855218483
 30
0.0
  0
SEQEND
  5
EF
330
EC
100
AcDbEntity
  8
_U+30EC_U+30A4_U+30E4_U+30FC 1
 62
   179
420
  2234388
370
     9
  0
POLYLINE
  5
F0
330
1F
100
AcDbEntity
  8
_U+30EC_U+30A4_U+30E4_U+30FC 1
 62
   179
420
  2234388
370
     9
100
AcDb2dPolyline
 66
     1
 10
0.0
 20
0.0
 30
0.0
  0
VERTEX
  5
F1
330
F0
100
AcDbEntity
  8
_U+30EC_U+30A4_U+30E4_U+30FC 1
 62
   179
420
  2234388
370
     9
100
AcDbVertex
100
AcDb2dVertex
 10
106.1354495144813
 20
-122.3287988583066
 30
0.0
  0
VERTEX
  5
F2
330
F0
100
AcDbEntity
  8
_U+30EC_U+30A4_U+30E4_U+30FC 1
 62
   179
420
  2234388
370
     9
100
AcDbVertex
100
AcDb2dVertex
 10
108.5952630628374
 20
-122.3287988583066
 30
0.0
  0
SEQEND
  5
F3
330
F0
100
AcDbEntity
  8
_U+30EC_U+30A4_U+30E4_U+30FC 1
 62
   179
420
  2234388
370
     9
  0
POLYLINE
  5
F4
330
1F
100
AcDbEntity
  8
_U+30EC_U+30A4_U+30E4_U+30FC 1
 62
   179
420
  2234388
370
     9
100
AcDb2dPolyline
 66
     1
 10
0.0
 20
0.0
 30
0.0
  0
VERTEX
  5
F5
330
F4
100
AcDbEntity
  8
_U+30EC_U+30A4_U+30E4_U+30FC 1
 62
   179
420
  2234388
370
     9
100
AcDbVertex
100
AcDb2dVertex
 10
99.1357035819486
 20
-134.8289855218483
 30
0.0
  0
VERTEX
  5
F6
330
F4
100
AcDbEntity
  8
_U+30EC_U+30A4_U+30E4_U+30FC 1
 62
   179
420
  2234388
370
     9
100
AcDbVertex
100
AcDb2dVertex
 10
108.5952630628374
 20
-134.8289855218483
 30
0.0
  0
SEQEND
  5
F7
330
F4
100
AcDbEntity
  8
_U+30EC_U+30A4_U+30E4_U+30FC 1
 62
   179
420
  2234388
370
     9
  0
INSERT
  5
F9
330
1F
100
AcDbEntity
  8
_U+30EC_U+30A4_U+30E4_U+30FC 1
100
AcDbBlockReference
  2
block 7
 10
0.0
 20
0.0
 30
0.0
  0
ENDSEC
  0
SECTION
  2
OBJECTS
  0
DICTIONARY
  5
C
330
0
100
AcDbDictionary
281
     1
  3
ACAD_GROUP
350
D
  3
ACAD_LAYOUT
350
1A
  3
ACAD_MATERIAL
350
3B
  3
ACAD_MLEADERSTYLE
350
10B
  3
ACAD_MLINESTYLE
350
17
  3
ACAD_PLOTSETTINGS
350
19
  3
ACAD_PLOTSTYLENAME
350
E
  3
ACAD_TABLESTYLE
350
10A
  3
ACAD_VISUALSTYLE
350
2A
  0
SUN
  5
3F
330
29
100
AcDbSun
 90
        1
290
     0
 63
     7
421
 16777215
 40
1.0
291
     1
 91
  2455826
 92
 54000000
292
     0
 70
     2
 71
   256
280
     1
  0
DICTIONARY
  5
D
102
{ACAD_REACTORS
330
C
102
}
330
C
100
AcDbDictionary
281
     1
  0
DICTIONARY
  5
1A
102
{ACAD_REACTORS
330
C
102
}
330
C
100
AcDbDictionary
281
     1
  3
Layout1
350
1E
  3
Layout2
350
26
  3
Model
350
22
  0
DICTIONARY
  5
3B
102
{ACAD_REACTORS
330
C
102
}
330
C
100
AcDbDictionary
281
     1
  3
ByBlock
350
3D
  3
ByLayer
350
3C
  3
Global
350
3E
  0
DICTIONARY
  5
10B
102
{ACAD_REACTORS
330
C
102
}
330
C
100
AcDbDictionary
281
     1
  0
DICTIONARY
  5
17
102
{ACAD_REACTORS
330
C
102
}
330
C
100
AcDbDictionary
281
     1
  3
Standard
350
18
  0
DICTIONARY
  5
19
102
{ACAD_REACTORS
330
C
102
}
330
C
100
AcDbDictionary
281
     1
  0
ACDBDICTIONARYWDFLT
  5
E
102
{ACAD_REACTORS
330
C
102
}
330
C
100
AcDbDictionary
281
     1
  3
Normal
350
F
100
AcDbDictionaryWithDefault
340
F
  0
DICTIONARY
  5
10A
102
{ACAD_REACTORS
330
C
102
}
330
C
100
AcDbDictionary
281
     1
  0
DICTIONARY
  5
2A
102
{ACAD_REACTORS
330
C
102
}
330
C
100
AcDbDictionary
281
     1
  3
2dWireframe
350
2F
  3
3D Hidden
350
31
  3
3dWireframe
350
30
  3
Basic
350
32
  3
Brighten
350
36
  3
ColorChange
350
3A
  3
Conceptual
350
34
  3
Dim
350
35
  3
Facepattern
350
39
  3
Flat
350
2B
  3
FlatWithEdges
350
2C
  3
Gouraud
350
2D
  3
GouraudWithEdges
350
2E
  3
Linepattern
350
38
  3
Realistic
350
33
  3
Thicken
350
37
  0
LAYOUT
  5
1E
102
{ACAD_REACTORS
330
1A
102
}
330
1A
100
AcDbPlotSettings
  1

  2
none_device
  4

  6

 40
0.0
 41
0.0
 42
0.0
 43
0.0
 44
0.0
 45
0.0
 46
0.0
 47
0.0
 48
0.0
 49
0.0
140
0.0
141
0.0
142
1.0
143
1.0
 70
   688
 72
     0
 73
     0
 74
     5
  7

 75
    16
 76
     0
 77
     2
 78
   300
147
1.0
148
0.0
149
0.0
100
AcDbLayout
  1
Layout1
 70
     1
 71
     1
 10
0.0
 20
0.0
 11
12.0
 21
9.0
 12
0.0
 22
0.0
 32
0.0
 14
1.000000000000000E+20
 24
1.000000000000000E+20
 34
1.000000000000000E+20
 15
-1.000000000000000E+20
 25
-1.000000000000000E+20
 35
-1.000000000000000E+20
146
0.0
 13
0.0
 23
0.0
 33
0.0
 16
1.0
 26
0.0
 36
0.0
 17
0.0
 27
1.0
 37
0.0
 76
     0
330
1B
  0
LAYOUT
  5
26
102
{ACAD_REACTORS
330
1A
102
}
330
1A
100
AcDbPlotSettings
  1

  2
none_device
  4

  6

 40
0.0
 41
0.0
 42
0.0
 43
0.0
 44
0.0
 45
0.0
 46
0.0
 47
0.0
 48
0.0
 49
0.0
140
0.0
141
0.0
142
1.0
143
1.0
 70
   688
 72
     0
 73
     0
 74
     5
  7

 75
    16
 76
     0
 77
     2
 78
   300
147
1.0
148
0.0
149
0.0
100
AcDbLayout
  1
Layout2
 70
     1
 71
     2
 10
0.0
 20
0.0
 11
0.0
 21
0.0
 12
0.0
 22
0.0
 32
0.0
 14
0.0
 24
0.0
 34
0.0
 15
0.0
 25
0.0
 35
0.0
146
0.0
 13
0.0
 23
0.0
 33
0.0
 16
1.0
 26
0.0
 36
0.0
 17
0.0
 27
1.0
 37
0.0
 76
     0
330
23
  0
LAYOUT
  5
22
102
{ACAD_REACTORS
330
1A
102
}
330
1A
100
AcDbPlotSettings
  1

  2
none_device
  4

  6

 40
0.0
 41
0.0
 42
0.0
 43
0.0
 44
0.0
 45
0.0
 46
0.0
 47
0.0
 48
0.0
 49
0.0
140
0.0
141
0.0
142
1.0
143
1.0
 70
  1712
 72
     0
 73
     0
 74
     0
  7

 75
     0
 76
     0
 77
     2
 78
   300
147
1.0
148
0.0
149
0.0
100
AcDbLayout
  1
Model
 70
     1
 71
     0
 10
0.0
 20
0.0
 11
12.0
 21
9.0
 12
0.0
 22
0.0
 32
0.0
 14
1.000000000000000E+20
 24
1.000000000000000E+20
 34
1.000000000000000E+20
 15
-1.000000000000000E+20
 25
-1.000000000000000E+20
 35
-1.000000000000000E+20
146
0.0
 13
0.0
 23
0.0
 33
0.0
 16
1.0
 26
0.0
 36
0.0
 17
0.0
 27
1.0
 37
0.0
 76
     0
330
1F
331
29
  0
MATERIAL
  5
3D
102
{ACAD_REACTORS
330
3B
102
}
330
3B
100
AcDbMaterial
  1
ByBlock
 72
     1
 94
      127
  0
MATERIAL
  5
3C
102
{ACAD_REACTORS
330
3B
102
}
330
3B
100
AcDbMaterial
  1
ByLayer
 72
     1
 94
      127
  0
MATERIAL
  5
3E
102
{ACAD_REACTORS
330
3B
102
}
330
3B
100
AcDbMaterial
  1
Global
 72
     1
 94
      127
  0
MLINESTYLE
  5
18
102
{ACAD_REACTORS
330
17
102
}
330
17
100
AcDbMlineStyle
  2
Standard
 70
     0
  3

 62
   256
 51
90.0
 52
90.0
 71
     2
 49
0.5
 62
   256
  6
BYLAYER
 49
-0.5
 62
   256
  6
BYLAYER
  0
ACDBPLACEHOLDER
  5
F
102
{ACAD_REACTORS
330
E
102
}
330
E
  0
VISUALSTYLE
  5
2F
102
{ACAD_REACTORS
330
2A
102
}
330
2A
100
AcDbVisualStyle
  2
2dWireframe
 70
     4
177
     2
291
     0
 71
     0
176
     1
 72
     2
176
     1
 73
     0
176
     1
 90
        0
176
     1
 40
-0.6
176
     1
 41
-30.0
176
     1
 62
     5
 63
     7
421
 16777215
176
     1
 74
     1
176
     1
 91
        4
176
     1
 64
     7
176
     1
 65
   257
176
     1
 75
     1
176
     1
175
     1
176
     1
 42
1.0
176
     1
 92
        0
176
     1
 66
   257
176
     1
 43
1.0
176
     1
 76
     1
176
     1
 77
     6
176
     1
 78
     2
176
     1
 67
     7
176
     1
 79
     5
176
     1
170
     0
176
     1
171
     0
176
     1
290
     0
176
     1
 93
        1
176
     1
 44
0.0
176
     1
173
     0
176
     1
  0
VISUALSTYLE
  5
31
102
{ACAD_REACTORS
330
2A
102
}
330
2A
100
AcDbVisualStyle
  2
3D Hidden
 70
     6
177
     2
291
     0
 71
     1
176
     1
 72
     2
176
     1
 73
     2
176
     1
 90
        0
176
     1
 40
-0.6
176
     1
 41
-30.0
176
     1
 62
     5
 63
     7
421
 16777215
176
     1
 74
     2
176
     1
 91
        2
176
     1
 64
     7
176
     1
 65
   257
176
     1
 75
     2
176
     1
175
     1
176
     1
 42
40.0
176
     1
 92
        0
176
     1
 66
   257
176
     1
 43
1.0
176
     1
 76
     1
176
     1
 77
     6
176
     1
 78
     2
176
     1
 67
     7
176
     1
 79
     3
176
     1
170
     0
176
     1
171
     0
176
     1
290
     0
176
     1
 93
        1
176
     1
 44
0.0
176
     1
173
     0
176
     1
  0
VISUALSTYLE
  5
30
102
{ACAD_REACTORS
330
2A
102
}
330
2A
100
AcDbVisualStyle
  2
3dWireframe
 70
     5
177
     2
291
     0
 71
     0
176
     1
 72
     2
176
     1
 73
     0
176
     1
 90
        0
176
     1
 40
-0.6
176
     1
 41
-30.0
176
     1
 62
     5
 63
     7
421
 16777215
176
     1
 74
     1
176
     1
 91
        4
176
     1
 64
     7
176
     1
 65
   257
176
     1
 75
     1
176
     1
175
     1
176
     1
 42
1.0
176
     1
 92
        0
176
     1
 66
   257
176
     1
 43
1.0
176
     1
 76
     1
176
     1
 77
     6
176
     1
 78
     2
176
     1
 67
     7
176
     1
 79
     5
176
     1
170
     0
176
     1
171
     0
176
     1
290
     0
176
     1
 93
        1
176
     1
 44
0.0
176
     1
173
     0
176
     1
  0
VISUALSTYLE
  5
32
102
{ACAD_REACTORS
330
2A
102
}
330
2A
100
AcDbVisualStyle
  2
Basic
 70
     7
177
     2
291
     1
 71
     1
176
     1
 72
     0
176
     1
 73
     1
176
     1
 90
        0
176
     1
 40
-0.6
176
     1
 41
-30.0
176
     1
 62
     5
 63
     7
421
 16777215
176
     1
 74
     0
176
     1
 91
        4
176
     1
 64
     7
176
     1
 65
   257
176
     1
 75
     1
176
     1
175
     1
176
     1
 42
1.0
176
     1
 92
        8
176
     1
 66
     7
176
     1
 43
1.0
176
     1
 76
     1
176
     1
 77
     6
176
     1
 78
     2
176
     1
 67
     7
176
     1
 79
     5
176
     1
170
     0
176
     1
171
     0
176
     1
290
     0
176
     1
 93
        1
176
     1
 44
0.0
176
     1
173
     0
176
     1
  0
VISUALSTYLE
  5
36
102
{ACAD_REACTORS
330
2A
102
}
330
2A
100
AcDbVisualStyle
  2
Brighten
 70
    12
177
     2
291
     1
 71
     2
176
     1
 72
     2
176
     1
 73
     0
176
     1
 90
        0
176
     1
 40
-0.6
176
     1
 41
-30.0
176
     1
 62
     5
 63
     7
421
 16777215
176
     1
 74
     1
176
     1
 91
        4
176
     1
 64
     7
176
     1
 65
   257
176
     1
 75
     1
176
     1
175
     1
176
     1
 42
1.0
176
     1
 92
        8
176
     1
 66
     7
176
     1
 43
1.0
176
     1
 76
     1
176
     1
 77
     6
176
     1
 78
     2
176
     1
 67
     7
176
     1
 79
     5
176
     1
170
     0
176
     1
171
     0
176
     1
290
     0
176
     1
 93
        1
176
     1
 44
50.0
176
     1
173
     0
176
     1
  0
VISUALSTYLE
  5
3A
102
{ACAD_REACTORS
330
2A
102
}
330
2A
100
AcDbVisualStyle
  2
ColorChange
 70
    16
177
     2
291
     1
 71
     2
176
     1
 72
     2
176
     1
 73
     3
176
     1
 90
        0
176
     1
 40
-0.6
176
     1
 41
-30.0
176
     1
 62
     5
 63
     8
421
  8421504
176
     1
 74
     1
176
     1
 91
        4
176
     1
 64
     7
176
     1
 65
   257
176
     1
 75
     1
176
     1
175
     1
176
     1
 42
1.0
176
     1
 92
        8
176
     1
 66
     8
424
  8421504
176
     1
 43
1.0
176
     1
 76
     1
176
     1
 77
     6
176
     1
 78
     2
176
     1
 67
     7
176
     1
 79
     5
176
     1
170
     0
176
     1
171
     0
176
     1
290
     0
176
     1
 93
        1
176
     1
 44
0.0
176
     1
173
     0
176
     1
  0
VISUALSTYLE
  5
34
102
{ACAD_REACTORS
330
2A
102
}
330
2A
100
AcDbVisualStyle
  2
Conceptual
 70
     9
177
     2
291
     0
 71
     3
176
     1
 72
     2
176
     1
 73
     0
176
     1
 90
        0
176
     1
 40
-0.6
176
     1
 41
-30.0
176
     1
 62
     5
 63
     7
421
 16777215
176
     1
 74
     2
176
     1
 91
        2
176
     1
 64
     7
176
     1
 65
   257
176
     1
 75
     1
176
     1
175
     1
176
     1
 42
40.0
176
     1
 92
        8
176
     1
 66
     7
176
     1
 43
1.0
176
     1
 76
     1
176
     1
 77
     6
176
     1
 78
     2
176
     1
 67
     7
176
     1
 79
     3
176
     1
170
     0
176
     1
171
     0
176
     1
290
     0
176
     1
 93
        1
176
     1
 44
0.0
176
     1
173
     0
176
     1
  0
VISUALSTYLE
  5
35
102
{ACAD_REACTORS
330
2A
102
}
330
2A
100
AcDbVisualStyle
  2
Dim
 70
    11
177
     2
291
     1
 71
     2
176
     1
 72
     2
176
     1
 73
     0
176
     1
 90
        0
176
     1
 40
-0.6
176
     1
 41
-30.0
176
     1
 62
     5
 63
     7
421
 16777215
176
     1
 74
     1
176
     1
 91
        4
176
     1
 64
     7
176
     1
 65
   257
176
     1
 75
     1
176
     1
175
     1
176
     1
 42
1.0
176
     1
 92
        8
176
     1
 66
     7
176
     1
 43
1.0
176
     1
 76
     1
176
     1
 77
     6
176
     1
 78
     2
176
     1
 67
     7
176
     1
 79
     5
176
     1
170
     0
176
     1
171
     0
176
     1
290
     0
176
     1
 93
        1
176
     1
 44
-50.0
176
     1
173
     0
176
     1
  0
VISUALSTYLE
  5
39
102
{ACAD_REACTORS
330
2A
102
}
330
2A
100
AcDbVisualStyle
  2
Facepattern
 70
    15
177
     2
291
     1
 71
     2
176
     1
 72
     2
176
     1
 73
     0
176
     1
 90
        0
176
     1
 40
-0.6
176
     1
 41
-30.0
176
     1
 62
     5
 63
     7
421
 16777215
176
     1
 74
     1
176
     1
 91
        4
176
     1
 64
     7
176
     1
 65
   257
176
     1
 75
     1
176
     1
175
     1
176
     1
 42
1.0
176
     1
 92
        8
176
     1
 66
     7
176
     1
 43
1.0
176
     1
 76
     1
176
     1
 77
     6
176
     1
 78
     2
176
     1
 67
     7
176
     1
 79
     5
176
     1
170
     0
176
     1
171
     0
176
     1
290
     0
176
     1
 93
        1
176
     1
 44
0.0
176
     1
173
     0
176
     1
  0
VISUALSTYLE
  5
2B
102
{ACAD_REACTORS
330
2A
102
}
330
2A
100
AcDbVisualStyle
  2
Flat
 70
     0
177
     2
291
     1
 71
     2
176
     1
 72
     1
176
     1
 73
     1
176
     1
 90
        2
176
     1
 40
-0.6
176
     1
 41
30.0
176
     1
 62
     5
 63
     7
421
 16777215
176
     1
 74
     0
176
     1
 91
        4
176
     1
 64
     7
176
     1
 65
   257
176
     1
 75
     1
176
     1
175
     1
176
     1
 42
1.0
176
     1
 92
        8
176
     1
 66
     7
176
     1
 43
1.0
176
     1
 76
     1
176
     1
 77
     6
176
     1
 78
     2
176
     1
 67
     7
176
     1
 79
     5
176
     1
170
     0
176
     1
171
     0
176
     1
290
     0
176
     1
 93
       13
176
     1
 44
0.0
176
     1
173
     0
176
     1
  0
VISUALSTYLE
  5
2C
102
{ACAD_REACTORS
330
2A
102
}
330
2A
100
AcDbVisualStyle
  2
FlatWithEdges
 70
     1
177
     2
291
     1
 71
     2
176
     1
 72
     1
176
     1
 73
     1
176
     1
 90
        2
176
     1
 40
-0.6
176
     1
 41
30.0
176
     1
 62
     5
 63
     7
421
 16777215
176
     1
 74
     1
176
     1
 91
        4
176
     1
 64
     7
176
     1
 65
   257
176
     1
 75
     1
176
     1
175
     1
176
     1
 42
1.0
176
     1
 92
        0
176
     1
 66
   257
176
     1
 43
1.0
176
     1
 76
     1
176
     1
 77
     6
176
     1
 78
     2
176
     1
 67
     7
176
     1
 79
     5
176
     1
170
     0
176
     1
171
     0
176
     1
290
     0
176
     1
 93
       13
176
     1
 44
0.0
176
     1
173
     0
176
     1
  0
VISUALSTYLE
  5
2D
102
{ACAD_REACTORS
330
2A
102
}
330
2A
100
AcDbVisualStyle
  2
Gouraud
 70
     2
177
     2
291
     1
 71
     2
176
     1
 72
     2
176
     1
 73
     1
176
     1
 90
        2
176
     1
 40
-0.6
176
     1
 41
30.0
176
     1
 62
     5
 63
     7
421
 16777215
176
     1
 74
     0
176
     1
 91
        4
176
     1
 64
     7
176
     1
 65
   257
176
     1
 75
     1
176
     1
175
     1
176
     1
 42
1.0
176
     1
 92
        0
176
     1
 66
     7
176
     1
 43
1.0
176
     1
 76
     1
176
     1
 77
     6
176
     1
 78
     2
176
     1
 67
     7
176
     1
 79
     5
176
     1
170
     0
176
     1
171
     0
176
     1
290
     0
176
     1
 93
       13
176
     1
 44
0.0
176
     1
173
     0
176
     1
  0
VISUALSTYLE
  5
2E
102
{ACAD_REACTORS
330
2A
102
}
330
2A
100
AcDbVisualStyle
  2
GouraudWithEdges
 70
     3
177
     2
291
     1
 71
     2
176
     1
 72
     2
176
     1
 73
     1
176
     1
 90
        2
176
     1
 40
-0.6
176
     1
 41
30.0
176
     1
 62
     5
 63
     7
421
 16777215
176
     1
 74
     1
176
     1
 91
        4
176
     1
 64
     7
176
     1
 65
   257
176
     1
 75
     1
176
     1
175
     1
176
     1
 42
1.0
176
     1
 92
        0
176
     1
 66
   257
176
     1
 43
1.0
176
     1
 76
     1
176
     1
 77
     6
176
     1
 78
     2
176
     1
 67
     7
176
     1
 79
     5
176
     1
170
     0
176
     1
171
     0
176
     1
290
     0
176
     1
 93
       13
176
     1
 44
0.0
176
     1
173
     0
176
     1
  0
VISUALSTYLE
  5
38
102
{ACAD_REACTORS
330
2A
102
}
330
2A
100
AcDbVisualStyle
  2
Linepattern
 70
    14
177
     2
291
     1
 71
     2
176
     1
 72
     2
176
     1
 73
     0
176
     1
 90
        0
176
     1
 40
-0.6
176
     1
 41
-30.0
176
     1
 62
     5
 63
     7
421
 16777215
176
     1
 74
     1
176
     1
 91
        4
176
     1
 64
     7
176
     1
 65
   257
176
     1
 75
     7
176
     1
175
     7
176
     1
 42
1.0
176
     1
 92
        8
176
     1
 66
     7
176
     1
 43
1.0
176
     1
 76
     1
176
     1
 77
     6
176
     1
 78
     2
176
     1
 67
     7
176
     1
 79
     5
176
     1
170
     0
176
     1
171
     0
176
     1
290
     0
176
     1
 93
        1
176
     1
 44
0.0
176
     1
173
     0
176
     1
  0
VISUALSTYLE
  5
33
102
{ACAD_REACTORS
330
2A
102
}
330
2A
100
AcDbVisualStyle
  2
Realistic
 70
     8
177
     2
291
     0
 71
     2
176
     1
 72
     2
176
     1
 73
     0
176
     1
 90
        0
176
     1
 40
-0.6
176
     1
 41
-30.0
176
     1
 62
     5
 63
     7
421
 16777215
176
     1
 74
     1
176
     1
 91
        0
176
     1
 64
     7
176
     1
 65
   257
176
     1
 75
     1
176
     1
175
     1
176
     1
 42
1.0
176
     1
 92
        8
176
     1
 66
     8
424
  7895160
176
     1
 43
1.0
176
     1
 76
     1
176
     1
 77
     6
176
     1
 78
     2
176
     1
 67
     7
176
     1
 79
     5
176
     1
170
     0
176
     1
171
     0
176
     1
290
     0
176
     1
 93
       13
176
     1
 44
0.0
176
     1
173
     0
176
     1
  0
VISUALSTYLE
  5
37
102
{ACAD_REACTORS
330
2A
102
}
330
2A
100
AcDbVisualStyle
  2
Thicken
 70
    13
177
     2
291
     1
 71
     2
176
     1
 72
     2
176
     1
 73
     0
176
     1
 90
        0
176
     1
 40
-0.6
176
     1
 41
-30.0
176
     1
 62
     5
 63
     7
421
 16777215
176
     1
 74
     1
176
     1
 91
        4
176
     1
 64
     7
176
     1
 65
   257
176
     1
 75
     1
176
     1
175
     1
176
     1
 42
1.0
176
     1
 92
       12
176
     1
 66
     7
176
     1
 43
1.0
176
     1
 76
     1
176
     1
 77
     6
176
     1
 78
     2
176
     1
 67
     7
176
     1
 79
     5
176
     1
170
     0
176
     1
171
     0
176
     1
290
     0
176
     1
 93
        1
176
     1
 44
0.0
176
     1
173
     0
176
     1
  0
ENDSEC
  0
EOF
