  0
SECTION
  2
HEADER
  9
$ACADVER
  1
AC1024
  9
$ACADMAINTVER
 70
     6
  9
$DWGCODEPAGE
  3
UNDEFINED
  9
$INSBASE
 10
0.0
 20
0.0
 30
0.0
  9
$EXTMIN
 10
1.000000000000000E+20
 20
1.000000000000000E+20
 30
1.000000000000000E+20
  9
$EXTMAX
 10
-1.000000000000000E+20
 20
-1.000000000000000E+20
 30
-1.000000000000000E+20
  9
$LIMMIN
 10
0.0
 20
0.0
  9
$LIMMAX
 10
12.0
 20
9.0
  9
$ORTHOMODE
 70
     0
  9
$REGENMODE
 70
     1
  9
$FILLMODE
 70
     1
  9
$QTEXTMODE
 70
     0
  9
$MIRRTEXT
 70
     1
  9
$LTSCALE
 40
1.0
  9
$ATTMODE
 70
     1
  9
$TEXTSIZE
 40
0.2
  9
$TRACEWID
 40
0.05
  9
$TEXTSTYLE
  7
Standard
  9
$CLAYER
  8
0
  9
$CELTYPE
  6
ByLayer
  9
$CECOLOR
 62
   256
  9
$CELTSCALE
 40
1.0
  9
$DISPSILH
 70
     0
  9
$DIMSCALE
 40
1.0
  9
$DIMASZ
 40
0.18
  9
$DIMEXO
 40
0.0625
  9
$DIMDLI
 40
0.38
  9
$DIMRND
 40
0.0
  9
$DIMDLE
 40
0.0
  9
$DIMEXE
 40
0.18
  9
$DIMTP
 40
0.0
  9
$DIMTM
 40
0.0
  9
$DIMTXT
 40
0.18
  9
$DIMCEN
 40
0.09
  9
$DIMTSZ
 40
0.0
  9
$DIMTOL
 70
     0
  9
$DIMLIM
 70
     0
  9
$DIMTIH
 70
     1
  9
$DIMTOH
 70
     1
  9
$DIMSE1
 70
     0
  9
$DIMSE2
 70
     0
  9
$DIMTAD
 70
     0
  9
$DIMZIN
 70
     0
  9
$DIMBLK
  1

  9
$DIMASO
 70
     1
  9
$DIMSHO
 70
     1
  9
$DIMPOST
  1

  9
$DIMAPOST
  1

  9
$DIMALT
 70
     0
  9
$DIMALTD
 70
     2
  9
$DIMALTF
 40
25.4
  9
$DIMLFAC
 40
1.0
  9
$DIMTOFL
 70
     0
  9
$DIMTVP
 40
0.0
  9
$DIMTIX
 70
     0
  9
$DIMSOXD
 70
     0
  9
$DIMSAH
 70
     0
  9
$DIMBLK1
  1

  9
$DIMBLK2
  1

  9
$DIMSTYLE
  2
Standard
  9
$DIMCLRD
 70
     0
  9
$DIMCLRE
 70
     0
  9
$DIMCLRT
 70
     0
  9
$DIMTFAC
 40
1.0
  9
$DIMGAP
 40
0.09
  9
$DIMJUST
 70
     0
  9
$DIMSD1
 70
     0
  9
$DIMSD2
 70
     0
  9
$DIMTOLJ
 70
     1
  9
$DIMTZIN
 70
     0
  9
$DIMALTZ
 70
     0
  9
$DIMALTTZ
 70
     0
  9
$DIMUPT
 70
     0
  9
$DIMDEC
 70
     4
  9
$DIMTDEC
 70
     4
  9
$DIMALTU
 70
     2
  9
$DIMALTTD
 70
     2
  9
$DIMTXSTY
  7
Standard
  9
$DIMAUNIT
 70
     0
  9
$DIMADEC
 70
     0
  9
$DIMALTRND
 40
0.0
  9
$DIMAZIN
 70
     0
  9
$DIMDSEP
 70
    46
  9
$DIMATFIT
 70
     3
  9
$DIMFRAC
 70
     0
  9
$DIMLDRBLK
  1

  9
$DIMLUNIT
 70
     2
  9
$DIMLWD
 70
    -2
  9
$DIMLWE
 70
    -2
  9
$DIMTMOVE
 70
     0
  9
$DIMFXL
 40
1.0
  9
$DIMFXLON
 70
     0
  9
$DIMJOGANG
 40
0.7853981633974483
  9
$DIMTFILL
 70
     0
  9
$DIMTFILLCLR
 70
     0
  9
$DIMARCSYM
 70
     0
  9
$DIMLTYPE
  6

  9
$DIMLTEX1
  6

  9
$DIMLTEX2
  6

  9
$DIMTXTDIRECTION
 70
     0
  9
$LUNITS
 70
     2
  9
$LUPREC
 70
     4
  9
$SKETCHINC
 40
0.1
  9
$FILLETRAD
 40
0.5
  9
$AUNITS
 70
     0
  9
$AUPREC
 70
     0
  9
$MENU
  1
.
  9
$ELEVATION
 40
0.0
  9
$PELEVATION
 40
0.0
  9
$THICKNESS
 40
0.0
  9
$LIMCHECK
 70
     0
  9
$CHAMFERA
 40
0.5
  9
$CHAMFERB
 40
0.5
  9
$CHAMFERC
 40
1.0
  9
$CHAMFERD
 40
0.0
  9
$SKPOLY
 70
     0
  9
$TDCREATE
 40
2457917.614340278
  9
$TDUCREATE
 40
2457917.239340278
  9
$TDUPDATE
 40
2457917.614340278
  9
$TDUUPDATE
 40
2457917.239340278
  9
$TDINDWG
 40
0.0000000116
  9
$TDUSRTIMER
 40
0.0000000116
  9
$USRTIMER
 70
     1
  9
$ANGBASE
 50
0.0
  9
$ANGDIR
 70
     0
  9
$PDMODE
 70
     0
  9
$PDSIZE
 40
0.0
  9
$PLINEWID
 40
0.0
  9
$SPLFRAME
 70
     0
  9
$SPLINETYPE
 70
     6
  9
$SPLINESEGS
 70
     8
  9
$HANDSEED
  5
10C
  9
$SURFTAB1
 70
     6
  9
$SURFTAB2
 70
     6
  9
$SURFTYPE
 70
     6
  9
$SURFU
 70
     6
  9
$SURFV
 70
     6
  9
$UCSBASE
  2

  9
$UCSNAME
  2

  9
$UCSORG
 10
0.0
 20
0.0
 30
0.0
  9
$UCSXDIR
 10
1.0
 20
0.0
 30
0.0
  9
$UCSYDIR
 10
0.0
 20
1.0
 30
0.0
  9
$UCSORTHOREF
  2

  9
$UCSORTHOVIEW
 70
     0
  9
$UCSORGTOP
 10
0.0
 20
0.0
 30
0.0
  9
$UCSORGBOTTOM
 10
0.0
 20
0.0
 30
0.0
  9
$UCSORGLEFT
 10
0.0
 20
0.0
 30
0.0
  9
$UCSORGRIGHT
 10
0.0
 20
0.0
 30
0.0
  9
$UCSORGFRONT
 10
0.0
 20
0.0
 30
0.0
  9
$UCSORGBACK
 10
0.0
 20
0.0
 30
0.0
  9
$PUCSBASE
  2

  9
$PUCSNAME
  2

  9
$PUCSORG
 10
0.0
 20
0.0
 30
0.0
  9
$PUCSXDIR
 10
1.0
 20
0.0
 30
0.0
  9
$PUCSYDIR
 10
0.0
 20
1.0
 30
0.0
  9
$PUCSORTHOREF
  2

  9
$PUCSORTHOVIEW
 70
     0
  9
$PUCSORGTOP
 10
0.0
 20
0.0
 30
0.0
  9
$PUCSORGBOTTOM
 10
0.0
 20
0.0
 30
0.0
  9
$PUCSORGLEFT
 10
0.0
 20
0.0
 30
0.0
  9
$PUCSORGRIGHT
 10
0.0
 20
0.0
 30
0.0
  9
$PUCSORGFRONT
 10
0.0
 20
0.0
 30
0.0
  9
$PUCSORGBACK
 10
0.0
 20
0.0
 30
0.0
  9
$USERI1
 70
     0
  9
$USERI2
 70
     0
  9
$USERI3
 70
     0
  9
$USERI4
 70
     0
  9
$USERI5
 70
     0
  9
$USERR1
 40
0.0
  9
$USERR2
 40
0.0
  9
$USERR3
 40
0.0
  9
$USERR4
 40
0.0
  9
$USERR5
 40
0.0
  9
$WORLDVIEW
 70
     1
  9
$SHADEDGE
 70
     3
  9
$SHADEDIF
 70
    70
  9
$TILEMODE
 70
     1
  9
$MAXACTVP
 70
    64
  9
$PINSBASE
 10
0.0
 20
0.0
 30
0.0
  9
$PLIMCHECK
 70
     0
  9
$PEXTMIN
 10
1.000000000000000E+20
 20
1.000000000000000E+20
 30
1.000000000000000E+20
  9
$PEXTMAX
 10
-1.000000000000000E+20
 20
-1.000000000000000E+20
 30
-1.000000000000000E+20
  9
$PLIMMIN
 10
0.0
 20
0.0
  9
$PLIMMAX
 10
12.0
 20
9.0
  9
$UNITMODE
 70
     0
  9
$VISRETAIN
 70
     1
  9
$PLINEGEN
 70
     0
  9
$PSLTSCALE
 70
     1
  9
$TREEDEPTH
 70
  3020
  9
$CMLSTYLE
  2
Standard
  9
$CMLJUST
 70
     0
  9
$CMLSCALE
 40
1.0
  9
$PROXYGRAPHICS
 70
     1
  9
$MEASUREMENT
 70
     0
  9
$CELWEIGHT
370
    -1
  9
$ENDCAPS
280
     0
  9
$JOINSTYLE
280
     0
  9
$LWDISPLAY
290
     1
  9
$INSUNITS
 70
     1
  9
$HYPERLINKBASE
  1

  9
$STYLESHEET
  1

  9
$XEDIT
290
     1
  9
$CEPSNTYPE
380
     0
  9
$PSTYLEMODE
290
     1
  9
$FINGERPRINTGUID
  2
{EB4E2B2A-CB25-0FB3-7D11-68A9EB455C51}
  9
$VERSIONGUID
  2
{FAEB1C32-E019-11D5-929B-00C0DF256EC4}
  9
$EXTNAMES
290
     1
  9
$PSVPSCALE
 40
0.0
  9
$OLESTARTUP
290
     0
  9
$SORTENTS
280
   127
  9
$INDEXCTL
280
     0
  9
$HIDETEXT
280
     1
  9
$XCLIPFRAME
280
     2
  9
$HALOGAP
280
     0
  9
$OBSCOLOR
 70
   257
  9
$OBSLTYPE
280
     0
  9
$INTERSECTIONDISPLAY
280
     0
  9
$INTERSECTIONCOLOR
 70
   257
  9
$DIMASSOC
280
     2
  9
$PROJECTNAME
  1

  9
$CAMERADISPLAY
290
     0
  9
$LENSLENGTH
 40
50.0
  9
$CAMERAHEIGHT
 40
0.0
  9
$STEPSPERSEC
 40
2.0
  9
$STEPSIZE
 40
6.0
  9
$3DDWFPREC
 40
2.0
  9
$PSOLWIDTH
 40
0.25
  9
$PSOLHEIGHT
 40
4.0
  9
$LOFTANG1
 40
1.570796326794897
  9
$LOFTANG2
 40
1.570796326794897
  9
$LOFTMAG1
 40
0.0
  9
$LOFTMAG2
 40
0.0
  9
$LOFTPARAM
 70
     7
  9
$LOFTNORMALS
280
     1
  9
$LATITUDE
 40
37.795
  9
$LONGITUDE
 40
-122.394
  9
$NORTHDIRECTION
 40
0.0
  9
$TIMEZONE
 70
 -8000
  9
$LIGHTGLYPHDISPLAY
280
     1
  9
$TILEMODELIGHTSYNCH
280
     1
  9
$CMATERIAL
347
3C
  9
$SOLIDHIST
280
     1
  9
$SHOWHIST
280
     1
  9
$DWFFRAME
280
     2
  9
$DGNFRAME
280
     2
  9
$REALWORLDSCALE
290
     1
  9
$INTERFERECOLOR
 62
   256
  9
$CSHADOW
280
     0
  9
$SHADOWPLANELOCATION
 40
0.0
  0
ENDSEC
  0
SECTION
  2
CLASSES
  0
CLASS
  1
ACDBDICTIONARYWDFLT
  2
AcDbDictionaryWithDefault
  3
ObjectDBX Classes
 90
        0
 91
        4
280
     0
281
     0
  0
CLASS
  1
VISUALSTYLE
  2
AcDbVisualStyle
  3
ObjectDBX Classes
 90
     4095
 91
        4
280
     0
281
     0
  0
CLASS
  1
MATERIAL
  2
AcDbMaterial
  3
ObjectDBX Classes
 90
     1153
 91
        4
280
     0
281
     0
  0
CLASS
  1
SUN
  2
AcDbSun
  3
SCENEOE
 90
     1024
 91
        4
280
     0
281
     0
  0
ENDSEC
  0
SECTION
  2
TABLES
  0
TABLE
  2
VPORT
  5
8
330
0
100
AcDbSymbolTable
 70
     1
  0
VPORT
  5
29
330
8
100
AcDbSymbolTableRecord
100
AcDbViewportTableRecord
  2
*Active
 70
     0
 10
0.0
 20
0.0
 11
1.0
 21
1.0
 12
0.0
 22
0.0
 13
0.0
 23
0.0
 14
0.5
 24
0.5
 15
0.5
 25
0.5
 16
0.0
 26
0.0
 36
1.0
 17
91.00082462281999
 27
-128.4993055234307
 37
0.0
 40
256.9986110468615
 41
0.7081814508812795
 42
50.0
 43
0.0
 44
0.0
 50
0.0
 51
0.0
 71
     0
 72
   100
 73
     1
 74
     3
 75
     0
 76
     0
 77
     0
 78
     0
281
     0
 65
     1
110
0.0
120
0.0
130
0.0
111
1.0
121
0.0
131
0.0
112
0.0
122
1.0
132
0.0
 79
     0
146
0.0
 60
     3
 61
     5
292
     1
282
     1
141
0.0
142
0.0
 63
   250
361
3F
  0
ENDTAB
  0
TABLE
  2
LTYPE
  5
5
330
0
100
AcDbSymbolTable
 70
     1
  0
LTYPE
  5
14
330
5
100
AcDbSymbolTableRecord
100
AcDbLinetypeTableRecord
  2
ByBlock
 70
     0
  3

 72
    65
 73
     0
 40
0.0
  0
LTYPE
  5
15
330
5
100
AcDbSymbolTableRecord
100
AcDbLinetypeTableRecord
  2
ByLayer
 70
     0
  3

 72
    65
 73
     0
 40
0.0
  0
LTYPE
  5
16
330
5
100
AcDbSymbolTableRecord
100
AcDbLinetypeTableRecord
  2
Continuous
 70
     0
  3
Solid line
 72
    65
 73
     0
 40
0.0
  0
ENDTAB
  0
TABLE
  2
LAYER
  5
2
330
0
100
AcDbSymbolTable
 70
     2
  0
LAYER
  5
10
330
2
100
AcDbSymbolTableRecord
100
AcDbLayerTableRecord
  2
0
 70
     0
 62
     7
  6
Continuous
370
    -3
390
F
347
3E
  0
LAYER
  5
40
330
2
100
AcDbSymbolTableRecord
100
AcDbLayerTableRecord
  2
_U+30EC_U+30A4_U+30E4_U+30FC 1
 70
     0
 62
     7
  6
Continuous
370
    -3
390
F
347
3E
  0
ENDTAB
  0
TABLE
  2
STYLE
  5
3
330
0
100
AcDbSymbolTable
 70
     1
  0
STYLE
  5
11
330
3
100
AcDbSymbolTableRecord
100
AcDbTextStyleTableRecord
  2
Standard
 70
     0
 40
0.0
 41
1.0
 50
0.0
 71
     0
 42
0.2
  3
txt
  4

  0
ENDTAB
  0
TABLE
  2
VIEW
  5
6
330
0
100
AcDbSymbolTable
 70
     0
  0
ENDTAB
  0
TABLE
  2
UCS
  5
7
330
0
100
AcDbSymbolTable
 70
     0
  0
ENDTAB
  0
TABLE
  2
APPID
  5
9
330
0
100
AcDbSymbolTable
 70
     1
  0
APPID
  5
12
330
9
100
AcDbSymbolTableRecord
100
AcDbRegAppTableRecord
  2
ACAD
 70
     0
  0
ENDTAB
  0
TABLE
  2
DIMSTYLE
  5
A
330
0
100
AcDbSymbolTable
 70
     1
100
AcDbDimStyleTable
  0
DIMSTYLE
105
27
330
A
100
AcDbSymbolTableRecord
100
AcDbDimStyleTableRecord
  2
Standard
 70
     0
178
     0
340
11
  0
ENDTAB
  0
TABLE
  2
BLOCK_RECORD
  5
1
330
0
100
AcDbSymbolTable
 70
     7
  0
BLOCK_RECORD
  5
1F
330
1
100
AcDbSymbolTableRecord
100
AcDbBlockTableRecord
  2
*Model_Space
340
22
 70
     0
280
     1
281
     0
  0
BLOCK_RECORD
  5
1B
330
1
100
AcDbSymbolTableRecord
100
AcDbBlockTableRecord
  2
*Paper_Space
340
1E
 70
     0
280
     1
281
     0
  0
BLOCK_RECORD
  5
23
330
1
100
AcDbSymbolTableRecord
100
AcDbBlockTableRecord
  2
*Paper_Space0
340
26
 70
     0
280
     1
281
     0
  0
BLOCK_RECORD
  5
90
330
1
100
AcDbSymbolTableRecord
100
AcDbBlockTableRecord
  2
block 2
340
0
102
{BLKREFS
331
91
102
}
 70
     0
280
     1
281
     0
  0
BLOCK_RECORD
  5
A9
330
1
100
AcDbSymbolTableRecord
100
AcDbBlockTableRecord
  2
block 3
340
0
102
{BLKREFS
331
AA
102
}
 70
     0
280
     1
281
     0
  0
BLOCK_RECORD
  5
BB
330
1
100
AcDbSymbolTableRecord
100
AcDbBlockTableRecord
  2
block 4
340
0
102
{BLKREFS
331
BC
102
}
 70
     0
280
     1
281
     0
  0
BLOCK_RECORD
  5
CF
330
1
100
AcDbSymbolTableRecord
100
AcDbBlockTableRecord
  2
block 5
340
0
102
{BLKREFS
331
D0
102
}
 70
     0
280
     1
281
     0
  0
BLOCK_RECORD
  5
E5
330
1
100
AcDbSymbolTableRecord
100
AcDbBlockTableRecord
  2
block 6
340
0
102
{BLKREFS
331
E6
102
}
 70
     0
280
     1
281
     0
  0
BLOCK_RECORD
  5
EF
330
1
100
AcDbSymbolTableRecord
100
AcDbBlockTableRecord
  2
block 7
340
0
102
{BLKREFS
331
F0
102
}
 70
     0
280
     1
281
     0
  0
ENDTAB
  0
ENDSEC
  0
SECTION
  2
BLOCKS
  0
BLOCK
  5
20
330
1F
100
AcDbEntity
  8
0
100
AcDbBlockBegin
  2
*Model_Space
 70
     0
 10
0.0
 20
0.0
 30
0.0
  3
*Model_Space
  1

  0
ENDBLK
  5
21
330
1F
100
AcDbEntity
  8
0
100
AcDbBlockEnd
  0
BLOCK
  5
1C
330
1B
100
AcDbEntity
 67
     1
  8
0
100
AcDbBlockBegin
  2
*Paper_Space
 70
     0
 10
0.0
 20
0.0
 30
0.0
  3
*Paper_Space
  1

  0
ENDBLK
  5
1D
330
1B
100
AcDbEntity
 67
     1
  8
0
100
AcDbBlockEnd
  0
BLOCK
  5
24
330
23
100
AcDbEntity
  8
0
100
AcDbBlockBegin
  2
*Paper_Space0
 70
     0
 10
0.0
 20
0.0
 30
0.0
  3
*Paper_Space0
  1

  0
ENDBLK
  5
25
330
23
100
AcDbEntity
  8
0
100
AcDbBlockEnd
  0
BLOCK
  5
92
330
90
100
AcDbEntity
  8
0
100
AcDbBlockBegin
  2
block 2
 70
     0
 10
0.0
 20
0.0
 30
0.0
  3
block 2
  1

  0
SPLINE
  5
94
330
90
100
AcDbEntity
  8
_U+30EC_U+30A4_U+30E4_U+30FC 1
370
     0
100
AcDbSpline
210
0.0
220
0.0
230
1.0
 70
    11
 71
     3
 72
    26
 73
    22
 74
     0
 42
0.0000000001
 43
0.0000000001
 12
1.0
 22
0.0
 32
0.0
 13
1.0
 23
0.0
 33
0.0
 40
0.0
 40
0.0
 40
0.0
 40
0.0
 40
1.0
 40
1.0
 40
1.0
 40
2.0
 40
2.0
 40
2.0
 40
3.0
 40
3.0
 40
3.0
 40
4.0
 40
4.0
 40
4.0
 40
5.0
 40
5.0
 40
5.0
 40
6.0
 40
6.0
 40
6.0
 40
7.0
 40
7.0
 40
7.0
 40
7.0
 10
87.51352129973621
 20
-140.1092773087227
 30
0.0
 10
87.51352129973621
 20
-140.1092773087227
 30
0.0
 10
87.51352129973621
 20
-139.0051242057001
 30
0.0
 10
87.51352129973621
 20
-139.0051242057001
 30
0.0
 10
87.51352129973621
 20
-139.0051242057001
 30
0.0
 10
87.18348115224927
 20
-139.0051242057001
 30
0.0
 10
87.18348115224927
 20
-139.0051242057001
 30
0.0
 10
87.18348115224927
 20
-139.0051242057001
 30
0.0
 10
87.18348115224927
 20
-138.8569850998344
 30
0.0
 10
87.18348115224927
 20
-138.8569850998344
 30
0.0
 10
87.51558835702735
 20
-138.8421711892478
 30
0.0
 10
87.56209714607823
 20
-138.6792181727955
 30
0.0
 10
87.59172496725138
 20
-138.5648410026852
 30
0.0
 10
87.59172496725138
 20
-138.5648410026852
 30
0.0
 10
87.73779701582598
 20
-138.5648410026852
 30
0.0
 10
87.73779701582598
 20
-138.5648410026852
 30
0.0
 10
87.73779701582598
 20
-138.5648410026852
 30
0.0
 10
87.73779701582598
 20
-140.1092773087227
 30
0.0
 10
87.73779701582598
 20
-140.1092773087227
 30
0.0
 10
87.73779701582598
 20
-140.1092773087227
 30
0.0
 10
87.51352129973621
 20
-140.1092773087227
 30
0.0
 10
87.51352129973621
 20
-140.1092773087227
 30
0.0
  0
HATCH
  5
95
330
90
100
AcDbEntity
  8
_U+30EC_U+30A4_U+30E4_U+30FC 1
 62
     7
420
 16777215
100
AcDbHatch
 10
0.0
 20
0.0
 30
0.0
210
0.0
220
0.0
230
1.0
  2
SOLID
 70
     1
 71
     0
 91
        1
 92
        1
 93
        1
 72
     4
 94
        3
 73
     0
 74
     1
 95
       26
 96
       22
 40
0.0
 40
0.0
 40
0.0
 40
0.0
 40
1.0
 40
1.0
 40
1.0
 40
2.0
 40
2.0
 40
2.0
 40
3.0
 40
3.0
 40
3.0
 40
4.0
 40
4.0
 40
4.0
 40
5.0
 40
5.0
 40
5.0
 40
6.0
 40
6.0
 40
6.0
 40
7.0
 40
7.0
 40
7.0
 40
7.0
 10
87.51352129973621
 20
-140.1092773087227
 10
87.51352129973621
 20
-140.1092773087227
 10
87.51352129973621
 20
-139.0051242057001
 10
87.51352129973621
 20
-139.0051242057001
 10
87.51352129973621
 20
-139.0051242057001
 10
87.18348115224927
 20
-139.0051242057001
 10
87.18348115224927
 20
-139.0051242057001
 10
87.18348115224927
 20
-139.0051242057001
 10
87.18348115224927
 20
-138.8569850998344
 10
87.18348115224927
 20
-138.8569850998344
 10
87.51558835702735
 20
-138.8421711892478
 10
87.56209714607823
 20
-138.6792181727955
 10
87.59172496725138
 20
-138.5648410026852
 10
87.59172496725138
 20
-138.5648410026852
 10
87.73779701582598
 20
-138.5648410026852
 10
87.73779701582598
 20
-138.5648410026852
 10
87.73779701582598
 20
-138.5648410026852
 10
87.73779701582598
 20
-140.1092773087227
 10
87.73779701582598
 20
-140.1092773087227
 10
87.73779701582598
 20
-140.1092773087227
 10
87.51352129973621
 20
-140.1092773087227
 10
87.51352129973621
 20
-140.1092773087227
 97
        0
 97
        0
 75
     2
 76
     1
 98
        0
  0
SPLINE
  5
96
330
90
100
AcDbEntity
  8
_U+30EC_U+30A4_U+30E4_U+30FC 1
370
     0
100
AcDbSpline
210
0.0
220
0.0
230
1.0
 70
    11
 71
     3
 72
    29
 73
    25
 74
     0
 42
0.0000000001
 43
0.0000000001
 12
1.0
 22
0.0
 32
0.0
 13
1.0
 23
0.0
 33
0.0
 40
0.0
 40
0.0
 40
0.0
 40
0.0
 40
1.0
 40
1.0
 40
1.0
 40
2.0
 40
2.0
 40
2.0
 40
3.0
 40
3.0
 40
3.0
 40
4.0
 40
4.0
 40
4.0
 40
5.0
 40
5.0
 40
5.0
 40
6.0
 40
6.0
 40
6.0
 40
7.0
 40
7.0
 40
7.0
 40
8.0
 40
8.0
 40
8.0
 40
8.0
 10
89.13685029238593
 20
-139.9315103816838
 30
0.0
 10
89.02867429414908
 20
-140.140972187187
 30
0.0
 10
88.85538599124102
 20
-140.1599202123559
 30
0.0
 10
88.73894176383958
 20
-140.1599202123559
 30
0.0
 10
88.57805580467841
 20
-140.1599202123559
 30
0.0
 10
88.43646238023464
 20
-140.113411423305
 30
0.0
 10
88.34137774484174
 20
-139.9315103816838
 30
0.0
 10
88.23768037073572
 20
-139.7368624867672
 30
0.0
 10
88.21838783601832
 20
-139.499839917382
 30
0.0
 10
88.21838783601832
 20
-139.3372314104782
 30
0.0
 10
88.21838783601832
 20
-139.1932264191948
 30
0.0
 10
88.23561331344457
 20
-138.941389939223
 30
0.0
 10
88.34137774484174
 20
-138.7426079297241
 30
0.0
 10
88.44920923353007
 20
-138.5393472960943
 30
0.0
 10
88.61009519269123
 20
-138.5162651563432
 30
0.0
 10
88.73894176383958
 20
-138.5162651563432
 30
0.0
 10
88.8977606657096
 20
-138.5162651563432
 30
0.0
 10
89.04142114744451
 20
-138.5607068881029
 30
0.0
 10
89.13685029238593
 20
-138.7426079297241
 30
0.0
 10
89.23606904236112
 20
-138.9351887673495
 30
0.0
 10
89.25949569166083
 20
-139.1635985980216
 30
0.0
 10
89.25949569166083
 20
-139.3372314104782
 30
0.0
 10
89.25949569166083
 20
-139.5084526560951
 30
0.0
 10
89.23813609965228
 20
-139.7389295440583
 30
0.0
 10
89.13685029238593
 20
-139.9315103816838
 30
0.0
  0
SPLINE
  5
97
330
90
100
AcDbEntity
  8
_U+30EC_U+30A4_U+30E4_U+30FC 1
370
     0
100
AcDbSpline
210
0.0
220
0.0
230
1.0
 70
    11
 71
     3
 72
    17
 73
    13
 74
     0
 42
0.0000000001
 43
0.0000000001
 12
1.0
 22
0.0
 32
0.0
 13
1.0
 23
0.0
 33
0.0
 40
0.0
 40
0.0
 40
0.0
 40
0.0
 40
1.0
 40
1.0
 40
1.0
 40
2.0
 40
2.0
 40
2.0
 40
3.0
 40
3.0
 40
3.0
 40
4.0
 40
4.0
 40
4.0
 40
4.0
 10
88.73894176383958
 20
-138.7088459939686
 30
0.0
 10
88.48917234115896
 20
-138.7088459939686
 30
0.0
 10
88.44266355210809
 20
-138.9923773524047
 30
0.0
 10
88.44266355210809
 20
-139.3372314104782
 30
0.0
 10
88.44266355210809
 20
-139.6565917619609
 30
0.0
 10
88.4788370547032
 20
-139.9652723174393
 30
0.0
 10
88.73894176383958
 20
-139.9652723174393
 30
0.0
 10
88.98664412922903
 20
-139.9652723174393
 30
0.0
 10
89.03521997557107
 20
-139.6841525258428
 30
0.0
 10
89.03521997557107
 20
-139.3372314104782
 30
0.0
 10
89.03521997557107
 20
-139.017526549447
 30
0.0
 10
88.99697941568479
 20
-138.7088459939686
 30
0.0
 10
88.73894176383958
 20
-138.7088459939686
 30
0.0
  0
HATCH
  5
98
330
90
100
AcDbEntity
  8
_U+30EC_U+30A4_U+30E4_U+30FC 1
 62
     7
420
 16777215
100
AcDbHatch
 10
0.0
 20
0.0
 30
0.0
210
0.0
220
0.0
230
1.0
  2
SOLID
 70
     1
 71
     0
 91
        2
 92
        1
 93
        1
 72
     4
 94
        3
 73
     0
 74
     1
 95
       29
 96
       25
 40
0.0
 40
0.0
 40
0.0
 40
0.0
 40
1.0
 40
1.0
 40
1.0
 40
2.0
 40
2.0
 40
2.0
 40
3.0
 40
3.0
 40
3.0
 40
4.0
 40
4.0
 40
4.0
 40
5.0
 40
5.0
 40
5.0
 40
6.0
 40
6.0
 40
6.0
 40
7.0
 40
7.0
 40
7.0
 40
8.0
 40
8.0
 40
8.0
 40
8.0
 10
89.13685029238593
 20
-139.9315103816838
 10
89.02867429414908
 20
-140.140972187187
 10
88.85538599124102
 20
-140.1599202123559
 10
88.73894176383958
 20
-140.1599202123559
 10
88.57805580467841
 20
-140.1599202123559
 10
88.43646238023464
 20
-140.113411423305
 10
88.34137774484174
 20
-139.9315103816838
 10
88.23768037073572
 20
-139.7368624867672
 10
88.21838783601832
 20
-139.499839917382
 10
88.21838783601832
 20
-139.3372314104782
 10
88.21838783601832
 20
-139.1932264191948
 10
88.23561331344457
 20
-138.941389939223
 10
88.34137774484174
 20
-138.7426079297241
 10
88.44920923353007
 20
-138.5393472960943
 10
88.61009519269123
 20
-138.5162651563432
 10
88.73894176383958
 20
-138.5162651563432
 10
88.8977606657096
 20
-138.5162651563432
 10
89.04142114744451
 20
-138.5607068881029
 10
89.13685029238593
 20
-138.7426079297241
 10
89.23606904236112
 20
-138.9351887673495
 10
89.25949569166083
 20
-139.1635985980216
 10
89.25949569166083
 20
-139.3372314104782
 10
89.25949569166083
 20
-139.5084526560951
 10
89.23813609965228
 20
-139.7389295440583
 10
89.13685029238593
 20
-139.9315103816838
 97
        0
 97
        0
 92
        1
 93
        1
 72
     4
 94
        3
 73
     0
 74
     1
 95
       17
 96
       13
 40
0.0
 40
0.0
 40
0.0
 40
0.0
 40
1.0
 40
1.0
 40
1.0
 40
2.0
 40
2.0
 40
2.0
 40
3.0
 40
3.0
 40
3.0
 40
4.0
 40
4.0
 40
4.0
 40
4.0
 10
88.73894176383958
 20
-138.7088459939686
 10
88.48917234115896
 20
-138.7088459939686
 10
88.44266355210809
 20
-138.9923773524047
 10
88.44266355210809
 20
-139.3372314104782
 10
88.44266355210809
 20
-139.6565917619609
 10
88.4788370547032
 20
-139.9652723174393
 10
88.73894176383958
 20
-139.9652723174393
 10
88.98664412922903
 20
-139.9652723174393
 10
89.03521997557107
 20
-139.6841525258428
 10
89.03521997557107
 20
-139.3372314104782
 10
89.03521997557107
 20
-139.017526549447
 10
88.99697941568479
 20
-138.7088459939686
 10
88.73894176383958
 20
-138.7088459939686
 97
        0
 97
        0
 75
     2
 76
     1
 98
        0
  0
ENDBLK
  5
93
330
90
100
AcDbEntity
  8
0
100
AcDbBlockEnd
  0
BLOCK
  5
AB
330
A9
100
AcDbEntity
  8
0
100
AcDbBlockBegin
  2
block 3
 70
     0
 10
0.0
 20
0.0
 30
0.0
  3
block 3
  1

  0
SPLINE
  5
AD
330
A9
100
AcDbEntity
  8
_U+30EC_U+30A4_U+30E4_U+30FC 1
370
     0
100
AcDbSpline
210
0.0
220
0.0
230
1.0
 70
    11
 71
     3
 72
    26
 73
    22
 74
     0
 42
0.0000000001
 43
0.0000000001
 12
1.0
 22
0.0
 32
0.0
 13
1.0
 23
0.0
 33
0.0
 40
0.0
 40
0.0
 40
0.0
 40
0.0
 40
1.0
 40
1.0
 40
1.0
 40
2.0
 40
2.0
 40
2.0
 40
3.0
 40
3.0
 40
3.0
 40
4.0
 40
4.0
 40
4.0
 40
5.0
 40
5.0
 40
5.0
 40
6.0
 40
6.0
 40
6.0
 40
7.0
 40
7.0
 40
7.0
 40
7.0
 10
108.8522704805994
 20
-123.5542154639031
 30
0.0
 10
108.8522704805994
 20
-123.5542154639031
 30
0.0
 10
107.7481173775769
 20
-123.5542154639031
 30
0.0
 10
107.7481173775769
 20
-123.5542154639031
 30
0.0
 10
107.7481173775769
 20
-123.5542154639031
 30
0.0
 10
107.7481173775769
 20
-123.8842556113901
 30
0.0
 10
107.7481173775769
 20
-123.8842556113901
 30
0.0
 10
107.7481173775769
 20
-123.8842556113901
 30
0.0
 10
107.5999782717111
 20
-123.8842556113901
 30
0.0
 10
107.5999782717111
 20
-123.8842556113901
 30
0.0
 10
107.5851643611245
 20
-123.552148406612
 30
0.0
 10
107.4222113446722
 20
-123.5056396175611
 30
0.0
 10
107.3078341745619
 20
-123.476011796388
 30
0.0
 10
107.3078341745619
 20
-123.476011796388
 30
0.0
 10
107.3078341745619
 20
-123.3299397478134
 30
0.0
 10
107.3078341745619
 20
-123.3299397478134
 30
0.0
 10
107.3078341745619
 20
-123.3299397478134
 30
0.0
 10
108.8522704805994
 20
-123.3299397478134
 30
0.0
 10
108.8522704805994
 20
-123.3299397478134
 30
0.0
 10
108.8522704805994
 20
-123.3299397478134
 30
0.0
 10
108.8522704805994
 20
-123.5542154639031
 30
0.0
 10
108.8522704805994
 20
-123.5542154639031
 30
0.0
  0
HATCH
  5
AE
330
A9
100
AcDbEntity
  8
_U+30EC_U+30A4_U+30E4_U+30FC 1
 62
     7
420
 16777215
100
AcDbHatch
 10
0.0
 20
0.0
 30
0.0
210
0.0
220
0.0
230
1.0
  2
SOLID
 70
     1
 71
     0
 91
        1
 92
        1
 93
        1
 72
     4
 94
        3
 73
     0
 74
     1
 95
       26
 96
       22
 40
0.0
 40
0.0
 40
0.0
 40
0.0
 40
1.0
 40
1.0
 40
1.0
 40
2.0
 40
2.0
 40
2.0
 40
3.0
 40
3.0
 40
3.0
 40
4.0
 40
4.0
 40
4.0
 40
5.0
 40
5.0
 40
5.0
 40
6.0
 40
6.0
 40
6.0
 40
7.0
 40
7.0
 40
7.0
 40
7.0
 10
108.8522704805994
 20
-123.5542154639031
 10
108.8522704805994
 20
-123.5542154639031
 10
107.7481173775769
 20
-123.5542154639031
 10
107.7481173775769
 20
-123.5542154639031
 10
107.7481173775769
 20
-123.5542154639031
 10
107.7481173775769
 20
-123.8842556113901
 10
107.7481173775769
 20
-123.8842556113901
 10
107.7481173775769
 20
-123.8842556113901
 10
107.5999782717111
 20
-123.8842556113901
 10
107.5999782717111
 20
-123.8842556113901
 10
107.5851643611245
 20
-123.552148406612
 10
107.4222113446722
 20
-123.5056396175611
 10
107.3078341745619
 20
-123.476011796388
 10
107.3078341745619
 20
-123.476011796388
 10
107.3078341745619
 20
-123.3299397478134
 10
107.3078341745619
 20
-123.3299397478134
 10
107.3078341745619
 20
-123.3299397478134
 10
108.8522704805994
 20
-123.3299397478134
 10
108.8522704805994
 20
-123.3299397478134
 10
108.8522704805994
 20
-123.3299397478134
 10
108.8522704805994
 20
-123.5542154639031
 10
108.8522704805994
 20
-123.5542154639031
 97
        0
 97
        0
 75
     2
 76
     1
 98
        0
  0
ENDBLK
  5
AC
330
A9
100
AcDbEntity
  8
0
100
AcDbBlockEnd
  0
BLOCK
  5
BD
330
BB
100
AcDbEntity
  8
0
100
AcDbBlockBegin
  2
block 4
 70
     0
 10
0.0
 20
0.0
 30
0.0
  3
block 4
  1

  0
SPLINE
  5
BF
330
BB
100
AcDbEntity
  8
_U+30EC_U+30A4_U+30E4_U+30FC 1
370
     0
100
AcDbSpline
210
0.0
220
0.0
230
1.0
 70
    11
 71
     3
 72
    62
 73
    58
 74
     0
 42
0.0000000001
 43
0.0000000001
 12
1.0
 22
0.0
 32
0.0
 13
1.0
 23
0.0
 33
0.0
 40
0.0
 40
0.0
 40
0.0
 40
0.0
 40
1.0
 40
1.0
 40
1.0
 40
2.0
 40
2.0
 40
2.0
 40
3.0
 40
3.0
 40
3.0
 40
4.0
 40
4.0
 40
4.0
 40
5.0
 40
5.0
 40
5.0
 40
6.0
 40
6.0
 40
6.0
 40
7.0
 40
7.0
 40
7.0
 40
8.0
 40
8.0
 40
8.0
 40
9.0
 40
9.0
 40
9.0
 40
10.0
 40
10.0
 40
10.0
 40
11.0
 40
11.0
 40
11.0
 40
12.0
 40
12.0
 40
12.0
 40
13.0
 40
13.0
 40
13.0
 40
14.0
 40
14.0
 40
14.0
 40
15.0
 40
15.0
 40
15.0
 40
16.0
 40
16.0
 40
16.0
 40
17.0
 40
17.0
 40
17.0
 40
18.0
 40
18.0
 40
18.0
 40
19.0
 40
19.0
 40
19.0
 40
19.0
 10
87.36865503458145
 20
-118.2663384035931
 30
0.0
 10
87.27322588964003
 20
-118.2663384035931
 30
0.0
 10
87.05549585497224
 20
-118.2451510663589
 30
0.0
 10
86.93043888885767
 20
-118.0589436553811
 30
0.0
 10
86.8563693359248
 20
-117.9468057973362
 30
0.0
 10
86.8522352213425
 20
-117.8474147925868
 30
0.0
 10
86.8481011067602
 20
-117.7628376984239
 30
0.0
 10
86.8481011067602
 20
-117.7628376984239
 30
0.0
 10
87.06824270826766
 20
-117.7628376984239
 30
0.0
 10
87.06824270826766
 20
-117.7628376984239
 30
0.0
 10
87.07030976555882
 20
-117.8369072513567
 30
0.0
 10
87.08064505201456
 20
-118.0716905086765
 30
0.0
 10
87.36417641045063
 20
-118.0716905086765
 30
0.0
 10
87.5016357203121
 20
-118.0716905086765
 30
0.0
 10
87.65425345030866
 20
-118.0019273251002
 30
0.0
 10
87.65425345030866
 20
-117.7733452396539
 30
0.0
 10
87.65425345030866
 20
-117.6570732670267
 30
0.0
 10
87.6160128904224
 20
-117.6083251659104
 30
0.0
 10
87.58431801195809
 20
-117.5766302874461
 30
0.0
 10
87.51024845902522
 20
-117.5025607345133
 30
0.0
 10
87.39380423162378
 20
-117.4899861359921
 30
0.0
 10
87.3390272134083
 20
-117.4899861359921
 30
0.0
 10
87.3197346786909
 20
-117.4899861359921
 30
0.0
 10
87.2839056856443
 20
-117.4920531932832
 30
0.0
 10
87.2563449217623
 20
-117.4961873078655
 30
0.0
 10
87.2563449217623
 20
-117.4961873078655
 30
0.0
 10
87.2563449217623
 20
-117.3015394129489
 30
0.0
 10
87.2563449217623
 20
-117.3015394129489
 30
0.0
 10
87.29458548164858
 20
-117.3079128395966
 30
0.0
 10
87.33661564656863
 20
-117.3101521516621
 30
0.0
 10
87.3431613279906
 20
-117.3101521516621
 30
0.0
 10
87.40861814221034
 20
-117.3101521516621
 30
0.0
 10
87.60740015170927
 20
-117.2889648144278
 30
0.0
 10
87.60740015170927
 20
-117.0519422450426
 30
0.0
 10
87.60740015170927
 20
-116.8743475727779
 30
0.0
 10
87.47648652326977
 20
-116.8192260450139
 30
0.0
 10
87.36624346774178
 20
-116.8192260450139
 30
0.0
 10
87.10200464402311
 20
-116.8192260450139
 30
0.0
 10
87.09339190530999
 20
-117.0519422450426
 30
0.0
 10
87.08925779072769
 20
-117.1239447406843
 30
0.0
 10
87.08925779072769
 20
-117.1239447406843
 30
0.0
 10
86.88599715709795
 20
-117.1239447406843
 30
0.0
 10
86.88599715709795
 20
-117.1239447406843
 30
0.0
 10
86.89460989581107
 20
-116.999060029344
 30
0.0
 10
86.92217065969307
 20
-116.6225110928062
 30
0.0
 10
87.37899032103721
 20
-116.6225110928062
 30
0.0
 10
87.60326603712697
 20
-116.6225110928062
 30
0.0
 10
87.84442272109446
 20
-116.7494628614376
 30
0.0
 10
87.84442272109446
 20
-117.0455688183949
 30
0.0
 10
87.84442272109446
 20
-117.2317762293726
 30
0.0
 10
87.74933808570155
 20
-117.3142862662444
 30
0.0
 10
87.64977482617783
 20
-117.3756089658818
 30
0.0
 10
87.71109752581529
 20
-117.4031697297638
 30
0.0
 10
87.89299856743648
 20
-117.4836127093444
 30
0.0
 10
87.89299856743648
 20
-117.7607706411327
 30
0.0
 10
87.89299856743648
 20
-118.0992512725585
 30
0.0
 10
87.64564071159553
 20
-118.2663384035931
 30
0.0
 10
87.36865503458145
 20
-118.2663384035931
 30
0.0
  0
HATCH
  5
C0
330
BB
100
AcDbEntity
  8
_U+30EC_U+30A4_U+30E4_U+30FC 1
 62
     7
420
 16777215
100
AcDbHatch
 10
0.0
 20
0.0
 30
0.0
210
0.0
220
0.0
230
1.0
  2
SOLID
 70
     1
 71
     0
 91
        1
 92
        1
 93
        1
 72
     4
 94
        3
 73
     0
 74
     1
 95
       62
 96
       58
 40
0.0
 40
0.0
 40
0.0
 40
0.0
 40
1.0
 40
1.0
 40
1.0
 40
2.0
 40
2.0
 40
2.0
 40
3.0
 40
3.0
 40
3.0
 40
4.0
 40
4.0
 40
4.0
 40
5.0
 40
5.0
 40
5.0
 40
6.0
 40
6.0
 40
6.0
 40
7.0
 40
7.0
 40
7.0
 40
8.0
 40
8.0
 40
8.0
 40
9.0
 40
9.0
 40
9.0
 40
10.0
 40
10.0
 40
10.0
 40
11.0
 40
11.0
 40
11.0
 40
12.0
 40
12.0
 40
12.0
 40
13.0
 40
13.0
 40
13.0
 40
14.0
 40
14.0
 40
14.0
 40
15.0
 40
15.0
 40
15.0
 40
16.0
 40
16.0
 40
16.0
 40
17.0
 40
17.0
 40
17.0
 40
18.0
 40
18.0
 40
18.0
 40
19.0
 40
19.0
 40
19.0
 40
19.0
 10
87.36865503458145
 20
-118.2663384035931
 10
87.27322588964003
 20
-118.2663384035931
 10
87.05549585497224
 20
-118.2451510663589
 10
86.93043888885767
 20
-118.0589436553811
 10
86.8563693359248
 20
-117.9468057973362
 10
86.8522352213425
 20
-117.8474147925868
 10
86.8481011067602
 20
-117.7628376984239
 10
86.8481011067602
 20
-117.7628376984239
 10
87.06824270826766
 20
-117.7628376984239
 10
87.06824270826766
 20
-117.7628376984239
 10
87.07030976555882
 20
-117.8369072513567
 10
87.08064505201456
 20
-118.0716905086765
 10
87.36417641045063
 20
-118.0716905086765
 10
87.5016357203121
 20
-118.0716905086765
 10
87.65425345030866
 20
-118.0019273251002
 10
87.65425345030866
 20
-117.7733452396539
 10
87.65425345030866
 20
-117.6570732670267
 10
87.6160128904224
 20
-117.6083251659104
 10
87.58431801195809
 20
-117.5766302874461
 10
87.51024845902522
 20
-117.5025607345133
 10
87.39380423162378
 20
-117.4899861359921
 10
87.3390272134083
 20
-117.4899861359921
 10
87.3197346786909
 20
-117.4899861359921
 10
87.2839056856443
 20
-117.4920531932832
 10
87.2563449217623
 20
-117.4961873078655
 10
87.2563449217623
 20
-117.4961873078655
 10
87.2563449217623
 20
-117.3015394129489
 10
87.2563449217623
 20
-117.3015394129489
 10
87.29458548164858
 20
-117.3079128395966
 10
87.33661564656863
 20
-117.3101521516621
 10
87.3431613279906
 20
-117.3101521516621
 10
87.40861814221034
 20
-117.3101521516621
 10
87.60740015170927
 20
-117.2889648144278
 10
87.60740015170927
 20
-117.0519422450426
 10
87.60740015170927
 20
-116.8743475727779
 10
87.47648652326977
 20
-116.8192260450139
 10
87.36624346774178
 20
-116.8192260450139
 10
87.10200464402311
 20
-116.8192260450139
 10
87.09339190530999
 20
-117.0519422450426
 10
87.08925779072769
 20
-117.1239447406843
 10
87.08925779072769
 20
-117.1239447406843
 10
86.88599715709795
 20
-117.1239447406843
 10
86.88599715709795
 20
-117.1239447406843
 10
86.89460989581107
 20
-116.999060029344
 10
86.92217065969307
 20
-116.6225110928062
 10
87.37899032103721
 20
-116.6225110928062
 10
87.60326603712697
 20
-116.6225110928062
 10
87.84442272109446
 20
-116.7494628614376
 10
87.84442272109446
 20
-117.0455688183949
 10
87.84442272109446
 20
-117.2317762293726
 10
87.74933808570155
 20
-117.3142862662444
 10
87.64977482617783
 20
-117.3756089658818
 10
87.71109752581529
 20
-117.4031697297638
 10
87.89299856743648
 20
-117.4836127093444
 10
87.89299856743648
 20
-117.7607706411327
 10
87.89299856743648
 20
-118.0992512725585
 10
87.64564071159553
 20
-118.2663384035931
 10
87.36865503458145
 20
-118.2663384035931
 97
        0
 97
        0
 75
     2
 76
     1
 98
        0
  0
SPLINE
  5
C1
330
BB
100
AcDbEntity
  8
_U+30EC_U+30A4_U+30E4_U+30FC 1
370
     0
100
AcDbSpline
210
0.0
220
0.0
230
1.0
 70
    11
 71
     3
 72
    53
 73
    49
 74
     0
 42
0.0000000001
 43
0.0000000001
 12
1.0
 22
0.0
 32
0.0
 13
1.0
 23
0.0
 33
0.0
 40
0.0
 40
0.0
 40
0.0
 40
0.0
 40
1.0
 40
1.0
 40
1.0
 40
2.0
 40
2.0
 40
2.0
 40
3.0
 40
3.0
 40
3.0
 40
4.0
 40
4.0
 40
4.0
 40
5.0
 40
5.0
 40
5.0
 40
6.0
 40
6.0
 40
6.0
 40
7.0
 40
7.0
 40
7.0
 40
8.0
 40
8.0
 40
8.0
 40
9.0
 40
9.0
 40
9.0
 40
10.0
 40
10.0
 40
10.0
 40
11.0
 40
11.0
 40
11.0
 40
12.0
 40
12.0
 40
12.0
 40
13.0
 40
13.0
 40
13.0
 40
14.0
 40
14.0
 40
14.0
 40
15.0
 40
15.0
 40
15.0
 40
16.0
 40
16.0
 40
16.0
 40
16.0
 10
88.53481985633852
 20
-118.2663384035931
 30
0.0
 10
88.45661618882335
 20
-118.2663384035931
 30
0.0
 10
88.35498587200848
 20
-118.2492851809412
 30
0.0
 10
88.25335555519361
 20
-118.1858954240126
 30
0.0
 10
88.08006725228555
 20
-118.0758246232588
 30
0.0
 10
88.058707660277
 20
-117.9447387400451
 30
0.0
 10
88.03975963510813
 20
-117.8369072513567
 30
0.0
 10
88.03975963510813
 20
-117.8369072513567
 30
0.0
 10
88.26196829390673
 20
-117.8369072513567
 30
0.0
 10
88.26196829390673
 20
-117.8369072513567
 30
0.0
 10
88.31674531212221
 20
-118.0356892608557
 30
0.0
 10
88.44386933552792
 20
-118.0653170820288
 30
0.0
 10
88.53688691362967
 20
-118.0653170820288
 30
0.0
 10
88.67641328078228
 20
-118.0653170820288
 30
0.0
 10
88.82868650123034
 20
-117.9659260772794
 30
0.0
 10
88.82868650123034
 20
-117.7332098772507
 30
0.0
 10
88.82868650123034
 20
-117.4772392826967
 30
0.0
 10
88.64885251690029
 20
-117.4074760991204
 30
0.0
 10
88.52827417491655
 20
-117.4074760991204
 30
0.0
 10
88.49657929645225
 20
-117.4074760991204
 30
0.0
 10
88.35498587200848
 20
-117.4074760991204
 30
0.0
 10
88.26610240848903
 20
-117.536494925043
 30
0.0
 10
88.26610240848903
 20
-117.536494925043
 30
0.0
 10
88.09040253874129
 20
-117.5173746450998
 30
0.0
 10
88.09040253874129
 20
-117.5173746450998
 30
0.0
 10
88.09040253874129
 20
-117.5173746450998
 30
0.0
 10
88.21098088072503
 20
-116.6712591939225
 30
0.0
 10
88.21098088072503
 20
-116.6712591939225
 30
0.0
 10
88.21098088072503
 20
-116.6712591939225
 30
0.0
 10
88.9895724603915
 20
-116.6712591939225
 30
0.0
 10
88.9895724603915
 20
-116.6712591939225
 30
0.0
 10
88.9895724603915
 20
-116.6712591939225
 30
0.0
 10
88.9895724603915
 20
-116.8659070888391
 30
0.0
 10
88.9895724603915
 20
-116.8659070888391
 30
0.0
 10
88.9895724603915
 20
-116.8659070888391
 30
0.0
 10
88.37393389717735
 20
-116.8659070888391
 30
0.0
 10
88.37393389717735
 20
-116.8659070888391
 30
0.0
 10
88.37393389717735
 20
-116.8659070888391
 30
0.0
 10
88.30847708295761
 20
-117.2889648144278
 30
0.0
 10
88.30847708295761
 20
-117.2889648144278
 30
0.0
 10
88.36979978259505
 20
-117.2550306238981
 30
0.0
 10
88.45213756469252
 20
-117.2148952614949
 30
0.0
 10
88.57064884938512
 20
-117.2148952614949
 30
0.0
 10
88.82455238664804
 20
-117.2148952614949
 30
0.0
 10
89.06157495603323
 20
-117.4011026724726
 30
0.0
 10
89.06157495603323
 20
-117.7140895973076
 30
0.0
 10
89.06157495603323
 20
-118.0315551462734
 30
0.0
 10
88.83729923994346
 20
-118.2663384035931
 30
0.0
 10
88.53481985633852
 20
-118.2663384035931
 30
0.0
  0
HATCH
  5
C2
330
BB
100
AcDbEntity
  8
_U+30EC_U+30A4_U+30E4_U+30FC 1
 62
     7
420
 16777215
100
AcDbHatch
 10
0.0
 20
0.0
 30
0.0
210
0.0
220
0.0
230
1.0
  2
SOLID
 70
     1
 71
     0
 91
        1
 92
        1
 93
        1
 72
     4
 94
        3
 73
     0
 74
     1
 95
       53
 96
       49
 40
0.0
 40
0.0
 40
0.0
 40
0.0
 40
1.0
 40
1.0
 40
1.0
 40
2.0
 40
2.0
 40
2.0
 40
3.0
 40
3.0
 40
3.0
 40
4.0
 40
4.0
 40
4.0
 40
5.0
 40
5.0
 40
5.0
 40
6.0
 40
6.0
 40
6.0
 40
7.0
 40
7.0
 40
7.0
 40
8.0
 40
8.0
 40
8.0
 40
9.0
 40
9.0
 40
9.0
 40
10.0
 40
10.0
 40
10.0
 40
11.0
 40
11.0
 40
11.0
 40
12.0
 40
12.0
 40
12.0
 40
13.0
 40
13.0
 40
13.0
 40
14.0
 40
14.0
 40
14.0
 40
15.0
 40
15.0
 40
15.0
 40
16.0
 40
16.0
 40
16.0
 40
16.0
 10
88.53481985633852
 20
-118.2663384035931
 10
88.45661618882335
 20
-118.2663384035931
 10
88.35498587200848
 20
-118.2492851809412
 10
88.25335555519361
 20
-118.1858954240126
 10
88.08006725228555
 20
-118.0758246232588
 10
88.058707660277
 20
-117.9447387400451
 10
88.03975963510813
 20
-117.8369072513567
 10
88.03975963510813
 20
-117.8369072513567
 10
88.26196829390673
 20
-117.8369072513567
 10
88.26196829390673
 20
-117.8369072513567
 10
88.31674531212221
 20
-118.0356892608557
 10
88.44386933552792
 20
-118.0653170820288
 10
88.53688691362967
 20
-118.0653170820288
 10
88.67641328078228
 20
-118.0653170820288
 10
88.82868650123034
 20
-117.9659260772794
 10
88.82868650123034
 20
-117.7332098772507
 10
88.82868650123034
 20
-117.4772392826967
 10
88.64885251690029
 20
-117.4074760991204
 10
88.52827417491655
 20
-117.4074760991204
 10
88.49657929645225
 20
-117.4074760991204
 10
88.35498587200848
 20
-117.4074760991204
 10
88.26610240848903
 20
-117.536494925043
 10
88.26610240848903
 20
-117.536494925043
 10
88.09040253874129
 20
-117.5173746450998
 10
88.09040253874129
 20
-117.5173746450998
 10
88.09040253874129
 20
-117.5173746450998
 10
88.21098088072503
 20
-116.6712591939225
 10
88.21098088072503
 20
-116.6712591939225
 10
88.21098088072503
 20
-116.6712591939225
 10
88.9895724603915
 20
-116.6712591939225
 10
88.9895724603915
 20
-116.6712591939225
 10
88.9895724603915
 20
-116.6712591939225
 10
88.9895724603915
 20
-116.8659070888391
 10
88.9895724603915
 20
-116.8659070888391
 10
88.9895724603915
 20
-116.8659070888391
 10
88.37393389717735
 20
-116.8659070888391
 10
88.37393389717735
 20
-116.8659070888391
 10
88.37393389717735
 20
-116.8659070888391
 10
88.30847708295761
 20
-117.2889648144278
 10
88.30847708295761
 20
-117.2889648144278
 10
88.36979978259505
 20
-117.2550306238981
 10
88.45213756469252
 20
-117.2148952614949
 10
88.57064884938512
 20
-117.2148952614949
 10
88.82455238664804
 20
-117.2148952614949
 10
89.06157495603323
 20
-117.4011026724726
 10
89.06157495603323
 20
-117.7140895973076
 10
89.06157495603323
 20
-118.0315551462734
 10
88.83729923994346
 20
-118.2663384035931
 10
88.53481985633852
 20
-118.2663384035931
 97
        0
 97
        0
 75
     2
 76
     1
 98
        0
  0
ENDBLK
  5
BE
330
BB
100
AcDbEntity
  8
0
100
AcDbBlockEnd
  0
BLOCK
  5
D1
330
CF
100
AcDbEntity
  8
0
100
AcDbBlockBegin
  2
block 5
 70
     0
 10
0.0
 20
0.0
 30
0.0
  3
block 5
  1

  0
SPLINE
  5
D3
330
CF
100
AcDbEntity
  8
_U+30EC_U+30A4_U+30E4_U+30FC 1
370
     0
100
AcDbSpline
210
0.0
220
0.0
230
1.0
 70
    11
 71
     3
 72
    26
 73
    22
 74
     0
 42
0.0000000001
 43
0.0000000001
 12
1.0
 22
0.0
 32
0.0
 13
1.0
 23
0.0
 33
0.0
 40
0.0
 40
0.0
 40
0.0
 40
0.0
 40
1.0
 40
1.0
 40
1.0
 40
2.0
 40
2.0
 40
2.0
 40
3.0
 40
3.0
 40
3.0
 40
4.0
 40
4.0
 40
4.0
 40
5.0
 40
5.0
 40
5.0
 40
6.0
 40
6.0
 40
6.0
 40
7.0
 40
7.0
 40
7.0
 40
7.0
 10
76.17433401958489
 20
-140.1092773087227
 30
0.0
 10
76.17433401958489
 20
-140.1092773087227
 30
0.0
 10
76.17433401958489
 20
-139.0051242057001
 30
0.0
 10
76.17433401958489
 20
-139.0051242057001
 30
0.0
 10
76.17433401958489
 20
-139.0051242057001
 30
0.0
 10
75.84429387209796
 20
-139.0051242057001
 30
0.0
 10
75.84429387209796
 20
-139.0051242057001
 30
0.0
 10
75.84429387209796
 20
-139.0051242057001
 30
0.0
 10
75.84429387209796
 20
-138.8569850998344
 30
0.0
 10
75.84429387209796
 20
-138.8569850998344
 30
0.0
 10
76.17640107687605
 20
-138.8421711892478
 30
0.0
 10
76.22290986592691
 20
-138.6792181727955
 30
0.0
 10
76.25253768710006
 20
-138.5648410026852
 30
0.0
 10
76.25253768710006
 20
-138.5648410026852
 30
0.0
 10
76.39860973567465
 20
-138.5648410026852
 30
0.0
 10
76.39860973567465
 20
-138.5648410026852
 30
0.0
 10
76.39860973567465
 20
-138.5648410026852
 30
0.0
 10
76.39860973567465
 20
-140.1092773087227
 30
0.0
 10
76.39860973567465
 20
-140.1092773087227
 30
0.0
 10
76.39860973567465
 20
-140.1092773087227
 30
0.0
 10
76.17433401958489
 20
-140.1092773087227
 30
0.0
 10
76.17433401958489
 20
-140.1092773087227
 30
0.0
  0
HATCH
  5
D4
330
CF
100
AcDbEntity
  8
_U+30EC_U+30A4_U+30E4_U+30FC 1
 62
     7
420
 16777215
100
AcDbHatch
 10
0.0
 20
0.0
 30
0.0
210
0.0
220
0.0
230
1.0
  2
SOLID
 70
     1
 71
     0
 91
        1
 92
        1
 93
        1
 72
     4
 94
        3
 73
     0
 74
     1
 95
       26
 96
       22
 40
0.0
 40
0.0
 40
0.0
 40
0.0
 40
1.0
 40
1.0
 40
1.0
 40
2.0
 40
2.0
 40
2.0
 40
3.0
 40
3.0
 40
3.0
 40
4.0
 40
4.0
 40
4.0
 40
5.0
 40
5.0
 40
5.0
 40
6.0
 40
6.0
 40
6.0
 40
7.0
 40
7.0
 40
7.0
 40
7.0
 10
76.17433401958489
 20
-140.1092773087227
 10
76.17433401958489
 20
-140.1092773087227
 10
76.17433401958489
 20
-139.0051242057001
 10
76.17433401958489
 20
-139.0051242057001
 10
76.17433401958489
 20
-139.0051242057001
 10
75.84429387209796
 20
-139.0051242057001
 10
75.84429387209796
 20
-139.0051242057001
 10
75.84429387209796
 20
-139.0051242057001
 10
75.84429387209796
 20
-138.8569850998344
 10
75.84429387209796
 20
-138.8569850998344
 10
76.17640107687605
 20
-138.8421711892478
 10
76.22290986592691
 20
-138.6792181727955
 10
76.25253768710006
 20
-138.5648410026852
 10
76.25253768710006
 20
-138.5648410026852
 10
76.39860973567465
 20
-138.5648410026852
 10
76.39860973567465
 20
-138.5648410026852
 10
76.39860973567465
 20
-138.5648410026852
 10
76.39860973567465
 20
-140.1092773087227
 10
76.39860973567465
 20
-140.1092773087227
 10
76.39860973567465
 20
-140.1092773087227
 10
76.17433401958489
 20
-140.1092773087227
 10
76.17433401958489
 20
-140.1092773087227
 97
        0
 97
        0
 75
     2
 76
     1
 98
        0
  0
SPLINE
  5
D5
330
CF
100
AcDbEntity
  8
_U+30EC_U+30A4_U+30E4_U+30FC 1
370
     0
100
AcDbSpline
210
0.0
220
0.0
230
1.0
 70
    11
 71
     3
 72
    44
 73
    40
 74
     0
 42
0.0000000001
 43
0.0000000001
 12
1.0
 22
0.0
 32
0.0
 13
1.0
 23
0.0
 33
0.0
 40
0.0
 40
0.0
 40
0.0
 40
0.0
 40
1.0
 40
1.0
 40
1.0
 40
2.0
 40
2.0
 40
2.0
 40
3.0
 40
3.0
 40
3.0
 40
4.0
 40
4.0
 40
4.0
 40
5.0
 40
5.0
 40
5.0
 40
6.0
 40
6.0
 40
6.0
 40
7.0
 40
7.0
 40
7.0
 40
8.0
 40
8.0
 40
8.0
 40
9.0
 40
9.0
 40
9.0
 40
10.0
 40
10.0
 40
10.0
 40
11.0
 40
11.0
 40
11.0
 40
12.0
 40
12.0
 40
12.0
 40
13.0
 40
13.0
 40
13.0
 40
13.0
 10
77.49294431656426
 20
-139.527400681264
 30
0.0
 10
77.27504202712221
 20
-139.686219583134
 30
0.0
 10
77.1818521942462
 20
-139.7602891360669
 30
0.0
 10
77.13327634790419
 20
-139.9039496178018
 30
0.0
 10
77.13327634790419
 20
-139.9039496178018
 30
0.0
 10
77.91169567279638
 20
-139.9039496178018
 30
0.0
 10
77.91169567279638
 20
-139.9039496178018
 30
0.0
 10
77.91169567279638
 20
-139.9039496178018
 30
0.0
 10
77.91169567279638
 20
-140.1092773087227
 30
0.0
 10
77.91169567279638
 20
-140.1092773087227
 30
0.0
 10
77.91169567279638
 20
-140.1092773087227
 30
0.0
 10
76.88367917999783
 20
-140.1092773087227
 30
0.0
 10
76.88367917999783
 20
-140.1092773087227
 30
0.0
 10
76.91537405846213
 20
-139.7516763973537
 30
0.0
 10
76.98083087268188
 20
-139.6734727298386
 30
0.0
 10
77.3659925479328
 20
-139.3751274608159
 30
0.0
 10
77.62196314248688
 20
-139.176345451317
 30
0.0
 10
77.68741995670662
 20
-139.1084770702576
 30
0.0
 10
77.68741995670662
 20
-138.9710177603961
 30
0.0
 10
77.68741995670662
 20
-138.8525064757035
 30
0.0
 10
77.61558971583916
 20
-138.721592847264
 30
0.0
 10
77.4188747636314
 20
-138.721592847264
 30
0.0
 10
77.15859779972077
 20
-138.721592847264
 30
0.0
 10
77.15015731578191
 20
-138.9520697352273
 30
0.0
 10
77.14585094642534
 20
-139.0685139626287
 30
0.0
 10
77.14585094642534
 20
-139.0685139626287
 30
0.0
 10
76.92174748510985
 20
-139.0685139626287
 30
0.0
 10
76.92174748510985
 20
-139.0685139626287
 30
0.0
 10
76.9301879690487
 20
-138.941389939223
 30
0.0
 10
76.94069551027872
 20
-138.8294243359524
 30
0.0
 10
77.0211384898593
 20
-138.7109130512598
 30
0.0
 10
77.13103703583877
 20
-138.5500270920986
 30
0.0
 10
77.31724444681653
 20
-138.5162651563432
 30
0.0
 10
77.43368867421798
 20
-138.5162651563432
 30
0.0
 10
77.71084660600631
 20
-138.5162651563432
 30
0.0
 10
77.9180690994441
 20
-138.7002332552555
 30
0.0
 10
77.9180690994441
 20
-138.9730848176873
 30
0.0
 10
77.9180690994441
 20
-139.2018391579079
 30
0.0
 10
77.80179712681692
 20
-139.3010579078831
 30
0.0
 10
77.49294431656426
 20
-139.527400681264
 30
0.0
  0
HATCH
  5
D6
330
CF
100
AcDbEntity
  8
_U+30EC_U+30A4_U+30E4_U+30FC 1
 62
     7
420
 16777215
100
AcDbHatch
 10
0.0
 20
0.0
 30
0.0
210
0.0
220
0.0
230
1.0
  2
SOLID
 70
     1
 71
     0
 91
        1
 92
        1
 93
        1
 72
     4
 94
        3
 73
     0
 74
     1
 95
       44
 96
       40
 40
0.0
 40
0.0
 40
0.0
 40
0.0
 40
1.0
 40
1.0
 40
1.0
 40
2.0
 40
2.0
 40
2.0
 40
3.0
 40
3.0
 40
3.0
 40
4.0
 40
4.0
 40
4.0
 40
5.0
 40
5.0
 40
5.0
 40
6.0
 40
6.0
 40
6.0
 40
7.0
 40
7.0
 40
7.0
 40
8.0
 40
8.0
 40
8.0
 40
9.0
 40
9.0
 40
9.0
 40
10.0
 40
10.0
 40
10.0
 40
11.0
 40
11.0
 40
11.0
 40
12.0
 40
12.0
 40
12.0
 40
13.0
 40
13.0
 40
13.0
 40
13.0
 10
77.49294431656426
 20
-139.527400681264
 10
77.27504202712221
 20
-139.686219583134
 10
77.1818521942462
 20
-139.7602891360669
 10
77.13327634790419
 20
-139.9039496178018
 10
77.13327634790419
 20
-139.9039496178018
 10
77.91169567279638
 20
-139.9039496178018
 10
77.91169567279638
 20
-139.9039496178018
 10
77.91169567279638
 20
-139.9039496178018
 10
77.91169567279638
 20
-140.1092773087227
 10
77.91169567279638
 20
-140.1092773087227
 10
77.91169567279638
 20
-140.1092773087227
 10
76.88367917999783
 20
-140.1092773087227
 10
76.88367917999783
 20
-140.1092773087227
 10
76.91537405846213
 20
-139.7516763973537
 10
76.98083087268188
 20
-139.6734727298386
 10
77.3659925479328
 20
-139.3751274608159
 10
77.62196314248688
 20
-139.176345451317
 10
77.68741995670662
 20
-139.1084770702576
 10
77.68741995670662
 20
-138.9710177603961
 10
77.68741995670662
 20
-138.8525064757035
 10
77.61558971583916
 20
-138.721592847264
 10
77.4188747636314
 20
-138.721592847264
 10
77.15859779972077
 20
-138.721592847264
 10
77.15015731578191
 20
-138.9520697352273
 10
77.14585094642534
 20
-139.0685139626287
 10
77.14585094642534
 20
-139.0685139626287
 10
76.92174748510985
 20
-139.0685139626287
 10
76.92174748510985
 20
-139.0685139626287
 10
76.9301879690487
 20
-138.941389939223
 10
76.94069551027872
 20
-138.8294243359524
 10
77.0211384898593
 20
-138.7109130512598
 10
77.13103703583877
 20
-138.5500270920986
 10
77.31724444681653
 20
-138.5162651563432
 10
77.43368867421798
 20
-138.5162651563432
 10
77.71084660600631
 20
-138.5162651563432
 10
77.9180690994441
 20
-138.7002332552555
 10
77.9180690994441
 20
-138.9730848176873
 10
77.9180690994441
 20
-139.2018391579079
 10
77.80179712681692
 20
-139.3010579078831
 10
77.49294431656426
 20
-139.527400681264
 97
        0
 97
        0
 75
     2
 76
     1
 98
        0
  0
ENDBLK
  5
D2
330
CF
100
AcDbEntity
  8
0
100
AcDbBlockEnd
  0
BLOCK
  5
E7
330
E5
100
AcDbEntity
  8
0
100
AcDbBlockBegin
  2
block 6
 70
     0
 10
0.0
 20
0.0
 30
0.0
  3
block 6
  1

  0
SPLINE
  5
E9
330
E5
100
AcDbEntity
  8
_U+30EC_U+30A4_U+30E4_U+30FC 1
370
     0
100
AcDbSpline
210
0.0
220
0.0
230
1.0
 70
    11
 71
     3
 72
    62
 73
    58
 74
     0
 42
0.0000000001
 43
0.0000000001
 12
1.0
 22
0.0
 32
0.0
 13
1.0
 23
0.0
 33
0.0
 40
0.0
 40
0.0
 40
0.0
 40
0.0
 40
1.0
 40
1.0
 40
1.0
 40
2.0
 40
2.0
 40
2.0
 40
3.0
 40
3.0
 40
3.0
 40
4.0
 40
4.0
 40
4.0
 40
5.0
 40
5.0
 40
5.0
 40
6.0
 40
6.0
 40
6.0
 40
7.0
 40
7.0
 40
7.0
 40
8.0
 40
8.0
 40
8.0
 40
9.0
 40
9.0
 40
9.0
 40
10.0
 40
10.0
 40
10.0
 40
11.0
 40
11.0
 40
11.0
 40
12.0
 40
12.0
 40
12.0
 40
13.0
 40
13.0
 40
13.0
 40
14.0
 40
14.0
 40
14.0
 40
15.0
 40
15.0
 40
15.0
 40
16.0
 40
16.0
 40
16.0
 40
17.0
 40
17.0
 40
17.0
 40
18.0
 40
18.0
 40
18.0
 40
19.0
 40
19.0
 40
19.0
 40
19.0
 10
108.9029133842326
 20
-134.9085611641895
 30
0.0
 10
108.9029133842326
 20
-135.003990309131
 30
0.0
 10
108.8818983017726
 20
-135.2217203437988
 30
0.0
 10
108.6958631455691
 20
-135.3467773099133
 30
0.0
 10
108.5835530327499
 20
-135.4205023532976
 30
0.0
 10
108.4843342827748
 20
-135.4249809774285
 30
0.0
 10
108.3995849338376
 20
-135.4291150920108
 30
0.0
 10
108.3995849338376
 20
-135.4291150920108
 30
0.0
 10
108.3995849338376
 20
-135.2089734905033
 30
0.0
 10
108.3995849338376
 20
-135.2089734905033
 30
0.0
 10
108.4736544867705
 20
-135.2069064332122
 30
0.0
 10
108.708265489316
 20
-135.1965711467564
 30
0.0
 10
108.708265489316
 20
-134.9130397883204
 30
0.0
 10
108.708265489316
 20
-134.7755804784589
 30
0.0
 10
108.6386745605139
 20
-134.6229627484623
 30
0.0
 10
108.4102647298419
 20
-134.6229627484623
 30
0.0
 10
108.2938205024404
 20
-134.6229627484623
 30
0.0
 10
108.2452446560984
 20
-134.6612033083486
 30
0.0
 10
108.2135497776341
 20
-134.6928981868129
 30
0.0
 10
108.1394802247012
 20
-134.7669677397458
 30
0.0
 10
108.1267333714058
 20
-134.8834119671472
 30
0.0
 10
108.1267333714058
 20
-134.9381889853627
 30
0.0
 10
108.1267333714058
 20
-134.9574815200801
 30
0.0
 10
108.128800428697
 20
-134.9933105131267
 30
0.0
 10
108.1329345432793
 20
-135.0208712770087
 30
0.0
 10
108.1329345432793
 20
-135.0208712770087
 30
0.0
 10
107.9382866483626
 20
-135.0208712770087
 30
0.0
 10
107.9382866483626
 20
-135.0208712770087
 30
0.0
 10
107.9448323297846
 20
-134.9826307171224
 30
0.0
 10
107.9468993870758
 20
-134.9406005522024
 30
0.0
 10
107.9468993870758
 20
-134.9340548707804
 30
0.0
 10
107.9468993870758
 20
-134.8685980565606
 30
0.0
 10
107.9255397950672
 20
-134.6698160470617
 30
0.0
 10
107.6888617352306
 20
-134.6698160470617
 30
0.0
 10
107.5110948081917
 20
-134.6698160470617
 30
0.0
 10
107.4559732804277
 20
-134.8007296755012
 30
0.0
 10
107.4559732804277
 20
-134.9109727310292
 30
0.0
 10
107.4559732804277
 20
-135.1752115547479
 30
0.0
 10
107.6888617352306
 20
-135.183824293461
 30
0.0
 10
107.7605197213238
 20
-135.1879584080433
 30
0.0
 10
107.7605197213238
 20
-135.1879584080433
 30
0.0
 10
107.7605197213238
 20
-135.391219041673
 30
0.0
 10
107.7605197213238
 20
-135.391219041673
 30
0.0
 10
107.6358072647577
 20
-135.3826063029599
 30
0.0
 10
107.2592583282199
 20
-135.3550455390779
 30
0.0
 10
107.2592583282199
 20
-134.8982258777338
 30
0.0
 10
107.2592583282199
 20
-134.673950161644
 30
0.0
 10
107.3863823516256
 20
-134.4327934776765
 30
0.0
 10
107.6823160538086
 20
-134.4327934776765
 30
0.0
 10
107.8686957195606
 20
-134.4327934776765
 30
0.0
 10
107.9510335016581
 20
-134.5278781130694
 30
0.0
 10
108.0123562012955
 20
-134.6274413725932
 30
0.0
 10
108.0399169651775
 20
-134.5661186729557
 30
0.0
 10
108.1201876899839
 20
-134.3842176313345
 30
0.0
 10
108.3975178765465
 20
-134.3842176313345
 30
0.0
 10
108.735826253198
 20
-134.3842176313345
 30
0.0
 10
108.9029133842326
 20
-134.6315754871754
 30
0.0
 10
108.9029133842326
 20
-134.9085611641895
 30
0.0
  0
HATCH
  5
EA
330
E5
100
AcDbEntity
  8
_U+30EC_U+30A4_U+30E4_U+30FC 1
 62
     7
420
 16777215
100
AcDbHatch
 10
0.0
 20
0.0
 30
0.0
210
0.0
220
0.0
230
1.0
  2
SOLID
 70
     1
 71
     0
 91
        1
 92
        1
 93
        1
 72
     4
 94
        3
 73
     0
 74
     1
 95
       62
 96
       58
 40
0.0
 40
0.0
 40
0.0
 40
0.0
 40
1.0
 40
1.0
 40
1.0
 40
2.0
 40
2.0
 40
2.0
 40
3.0
 40
3.0
 40
3.0
 40
4.0
 40
4.0
 40
4.0
 40
5.0
 40
5.0
 40
5.0
 40
6.0
 40
6.0
 40
6.0
 40
7.0
 40
7.0
 40
7.0
 40
8.0
 40
8.0
 40
8.0
 40
9.0
 40
9.0
 40
9.0
 40
10.0
 40
10.0
 40
10.0
 40
11.0
 40
11.0
 40
11.0
 40
12.0
 40
12.0
 40
12.0
 40
13.0
 40
13.0
 40
13.0
 40
14.0
 40
14.0
 40
14.0
 40
15.0
 40
15.0
 40
15.0
 40
16.0
 40
16.0
 40
16.0
 40
17.0
 40
17.0
 40
17.0
 40
18.0
 40
18.0
 40
18.0
 40
19.0
 40
19.0
 40
19.0
 40
19.0
 10
108.9029133842326
 20
-134.9085611641895
 10
108.9029133842326
 20
-135.003990309131
 10
108.8818983017726
 20
-135.2217203437988
 10
108.6958631455691
 20
-135.3467773099133
 10
108.5835530327499
 20
-135.4205023532976
 10
108.4843342827748
 20
-135.4249809774285
 10
108.3995849338376
 20
-135.4291150920108
 10
108.3995849338376
 20
-135.4291150920108
 10
108.3995849338376
 20
-135.2089734905033
 10
108.3995849338376
 20
-135.2089734905033
 10
108.4736544867705
 20
-135.2069064332122
 10
108.708265489316
 20
-135.1965711467564
 10
108.708265489316
 20
-134.9130397883204
 10
108.708265489316
 20
-134.7755804784589
 10
108.6386745605139
 20
-134.6229627484623
 10
108.4102647298419
 20
-134.6229627484623
 10
108.2938205024404
 20
-134.6229627484623
 10
108.2452446560984
 20
-134.6612033083486
 10
108.2135497776341
 20
-134.6928981868129
 10
108.1394802247012
 20
-134.7669677397458
 10
108.1267333714058
 20
-134.8834119671472
 10
108.1267333714058
 20
-134.9381889853627
 10
108.1267333714058
 20
-134.9574815200801
 10
108.128800428697
 20
-134.9933105131267
 10
108.1329345432793
 20
-135.0208712770087
 10
108.1329345432793
 20
-135.0208712770087
 10
107.9382866483626
 20
-135.0208712770087
 10
107.9382866483626
 20
-135.0208712770087
 10
107.9448323297846
 20
-134.9826307171224
 10
107.9468993870758
 20
-134.9406005522024
 10
107.9468993870758
 20
-134.9340548707804
 10
107.9468993870758
 20
-134.8685980565606
 10
107.9255397950672
 20
-134.6698160470617
 10
107.6888617352306
 20
-134.6698160470617
 10
107.5110948081917
 20
-134.6698160470617
 10
107.4559732804277
 20
-134.8007296755012
 10
107.4559732804277
 20
-134.9109727310292
 10
107.4559732804277
 20
-135.1752115547479
 10
107.6888617352306
 20
-135.183824293461
 10
107.7605197213238
 20
-135.1879584080433
 10
107.7605197213238
 20
-135.1879584080433
 10
107.7605197213238
 20
-135.391219041673
 10
107.7605197213238
 20
-135.391219041673
 10
107.6358072647577
 20
-135.3826063029599
 10
107.2592583282199
 20
-135.3550455390779
 10
107.2592583282199
 20
-134.8982258777338
 10
107.2592583282199
 20
-134.673950161644
 10
107.3863823516256
 20
-134.4327934776765
 10
107.6823160538086
 20
-134.4327934776765
 10
107.8686957195606
 20
-134.4327934776765
 10
107.9510335016581
 20
-134.5278781130694
 10
108.0123562012955
 20
-134.6274413725932
 10
108.0399169651775
 20
-134.5661186729557
 10
108.1201876899839
 20
-134.3842176313345
 10
108.3975178765465
 20
-134.3842176313345
 10
108.735826253198
 20
-134.3842176313345
 10
108.9029133842326
 20
-134.6315754871754
 10
108.9029133842326
 20
-134.9085611641895
 97
        0
 97
        0
 75
     2
 76
     1
 98
        0
  0
ENDBLK
  5
E8
330
E5
100
AcDbEntity
  8
0
100
AcDbBlockEnd
  0
BLOCK
  5
F1
330
EF
100
AcDbEntity
  8
0
100
AcDbBlockBegin
  2
block 7
 70
     0
 10
0.0
 20
0.0
 30
0.0
  3
block 7
  1

  0
SPLINE
  5
F3
330
EF
100
AcDbEntity
  8
_U+30EC_U+30A4_U+30E4_U+30FC 1
370
     0
100
AcDbSpline
210
0.0
220
0.0
230
1.0
 70
    11
 71
     3
 72
    32
 73
    28
 74
     0
 42
0.0000000001
 43
0.0000000001
 12
1.0
 22
0.0
 32
0.0
 13
1.0
 23
0.0
 33
0.0
 40
0.0
 40
0.0
 40
0.0
 40
0.0
 40
1.0
 40
1.0
 40
1.0
 40
2.0
 40
2.0
 40
2.0
 40
3.0
 40
3.0
 40
3.0
 40
4.0
 40
4.0
 40
4.0
 40
5.0
 40
5.0
 40
5.0
 40
6.0
 40
6.0
 40
6.0
 40
7.0
 40
7.0
 40
7.0
 40
8.0
 40
8.0
 40
8.0
 40
9.0
 40
9.0
 40
9.0
 40
9.0
 10
108.9029133842326
 20
-129.5152641820309
 30
0.0
 10
108.9029133842326
 20
-129.688552484939
 30
0.0
 10
108.8333224554306
 20
-129.9341877930373
 30
0.0
 10
108.5012152506525
 20
-129.972083843375
 30
0.0
 10
108.5012152506525
 20
-129.972083843375
 30
0.0
 10
108.5012152506525
 20
-129.7584879232896
 30
0.0
 10
108.5012152506525
 20
-129.7584879232896
 30
0.0
 10
108.5604708929988
 20
-129.7478081272853
 30
0.0
 10
108.708265489316
 20
-129.716113248821
 30
0.0
 10
108.708265489316
 20
-129.5131971247398
 30
0.0
 10
108.708265489316
 20
-129.2210530275906
 30
0.0
 10
108.3785698513776
 20
-129.1831569772528
 30
0.0
 10
108.1732421604567
 20
-129.1704101239574
 30
0.0
 10
108.253512885263
 20
-129.261360644768
 30
0.0
 10
108.3107014703182
 20
-129.3288845162789
 30
0.0
 10
108.3107014703182
 20
-129.5107855579001
 30
0.0
 10
108.3107014703182
 20
-129.6906195422301
 30
0.0
 10
108.204937038921
 20
-129.9930989258351
 30
0.0
 10
107.79876028121
 20
-129.9930989258351
 30
0.0
 10
107.4793999297274
 20
-129.9930989258351
 30
0.0
 10
107.2592583282199
 20
-129.7943169163362
 30
0.0
 10
107.2592583282199
 20
-129.4770236221446
 30
0.0
 10
107.2592583282199
 20
-128.9630153757454
 30
0.0
 10
107.8135741917966
 20
-128.9523355797411
 30
0.0
 10
108.0271701118821
 20
-128.9523355797411
 30
0.0
 10
108.2576469998453
 20
-128.9523355797411
 30
0.0
 10
108.9029133842326
 20
-128.9716281144585
 30
0.0
 10
108.9029133842326
 20
-129.5152641820309
 30
0.0
  0
SPLINE
  5
F4
330
EF
100
AcDbEntity
  8
_U+30EC_U+30A4_U+30E4_U+30FC 1
370
     0
100
AcDbSpline
210
0.0
220
0.0
230
1.0
 70
    11
 71
     3
 72
    17
 73
    13
 74
     0
 42
0.0000000001
 43
0.0000000001
 12
1.0
 22
0.0
 32
0.0
 13
1.0
 23
0.0
 33
0.0
 40
0.0
 40
0.0
 40
0.0
 40
0.0
 40
1.0
 40
1.0
 40
1.0
 40
2.0
 40
2.0
 40
2.0
 40
3.0
 40
3.0
 40
3.0
 40
4.0
 40
4.0
 40
4.0
 40
4.0
 10
107.4518391658454
 20
-129.4749565648535
 30
0.0
 10
107.4518391658454
 20
-129.5934678495461
 30
0.0
 10
107.5090277509005
 20
-129.7691677192938
 30
0.0
 10
107.7946261666277
 20
-129.7691677192938
 30
0.0
 10
108.0209689400087
 20
-129.7691677192938
 30
0.0
 10
108.1160535754016
 20
-129.6292968425927
 30
0.0
 10
108.1160535754016
 20
-129.4939045900224
 30
0.0
 10
108.1160535754016
 20
-129.2317328235949
 30
0.0
 10
107.9065917698984
 20
-129.1934922637086
 30
0.0
 10
107.7901475424969
 20
-129.1934922637086
 30
0.0
 10
107.6147921822977
 20
-129.1934922637086
 30
0.0
 10
107.4518391658454
 20
-129.28892140865
 30
0.0
 10
107.4518391658454
 20
-129.4749565648535
 30
0.0
  0
HATCH
  5
F5
330
EF
100
AcDbEntity
  8
_U+30EC_U+30A4_U+30E4_U+30FC 1
 62
     7
420
 16777215
100
AcDbHatch
 10
0.0
 20
0.0
 30
0.0
210
0.0
220
0.0
230
1.0
  2
SOLID
 70
     1
 71
     0
 91
        2
 92
        1
 93
        1
 72
     4
 94
        3
 73
     0
 74
     1
 95
       32
 96
       28
 40
0.0
 40
0.0
 40
0.0
 40
0.0
 40
1.0
 40
1.0
 40
1.0
 40
2.0
 40
2.0
 40
2.0
 40
3.0
 40
3.0
 40
3.0
 40
4.0
 40
4.0
 40
4.0
 40
5.0
 40
5.0
 40
5.0
 40
6.0
 40
6.0
 40
6.0
 40
7.0
 40
7.0
 40
7.0
 40
8.0
 40
8.0
 40
8.0
 40
9.0
 40
9.0
 40
9.0
 40
9.0
 10
108.9029133842326
 20
-129.5152641820309
 10
108.9029133842326
 20
-129.688552484939
 10
108.8333224554306
 20
-129.9341877930373
 10
108.5012152506525
 20
-129.972083843375
 10
108.5012152506525
 20
-129.972083843375
 10
108.5012152506525
 20
-129.7584879232896
 10
108.5012152506525
 20
-129.7584879232896
 10
108.5604708929988
 20
-129.7478081272853
 10
108.708265489316
 20
-129.716113248821
 10
108.708265489316
 20
-129.5131971247398
 10
108.708265489316
 20
-129.2210530275906
 10
108.3785698513776
 20
-129.1831569772528
 10
108.1732421604567
 20
-129.1704101239574
 10
108.253512885263
 20
-129.261360644768
 10
108.3107014703182
 20
-129.3288845162789
 10
108.3107014703182
 20
-129.5107855579001
 10
108.3107014703182
 20
-129.6906195422301
 10
108.204937038921
 20
-129.9930989258351
 10
107.79876028121
 20
-129.9930989258351
 10
107.4793999297274
 20
-129.9930989258351
 10
107.2592583282199
 20
-129.7943169163362
 10
107.2592583282199
 20
-129.4770236221446
 10
107.2592583282199
 20
-128.9630153757454
 10
107.8135741917966
 20
-128.9523355797411
 10
108.0271701118821
 20
-128.9523355797411
 10
108.2576469998453
 20
-128.9523355797411
 10
108.9029133842326
 20
-128.9716281144585
 10
108.9029133842326
 20
-129.5152641820309
 97
        0
 97
        0
 92
        1
 93
        1
 72
     4
 94
        3
 73
     0
 74
     1
 95
       17
 96
       13
 40
0.0
 40
0.0
 40
0.0
 40
0.0
 40
1.0
 40
1.0
 40
1.0
 40
2.0
 40
2.0
 40
2.0
 40
3.0
 40
3.0
 40
3.0
 40
4.0
 40
4.0
 40
4.0
 40
4.0
 10
107.4518391658454
 20
-129.4749565648535
 10
107.4518391658454
 20
-129.5934678495461
 10
107.5090277509005
 20
-129.7691677192938
 10
107.7946261666277
 20
-129.7691677192938
 10
108.0209689400087
 20
-129.7691677192938
 10
108.1160535754016
 20
-129.6292968425927
 10
108.1160535754016
 20
-129.4939045900224
 10
108.1160535754016
 20
-129.2317328235949
 10
107.9065917698984
 20
-129.1934922637086
 10
107.7901475424969
 20
-129.1934922637086
 10
107.6147921822977
 20
-129.1934922637086
 10
107.4518391658454
 20
-129.28892140865
 10
107.4518391658454
 20
-129.4749565648535
 97
        0
 97
        0
 75
     2
 76
     1
 98
        0
  0
POLYLINE
  5
F6
330
EF
100
AcDbEntity
  8
_U+30EC_U+30A4_U+30E4_U+30FC 1
370
     0
100
AcDb2dPolyline
 66
     1
 10
0.0
 20
0.0
 30
0.0
  0
VERTEX
  5
F7
330
F6
100
AcDbEntity
  8
_U+30EC_U+30A4_U+30E4_U+30FC 1
370
     0
100
AcDbVertex
100
AcDb2dVertex
 10
108.8522704805994
 20
-128.7359835832674
 30
0.0
  0
VERTEX
  5
F8
330
F6
100
AcDbEntity
  8
_U+30EC_U+30A4_U+30E4_U+30FC 1
370
     0
100
AcDbVertex
100
AcDb2dVertex
 10
108.6004340006277
 20
-128.7359835832674
 30
0.0
  0
VERTEX
  5
F9
330
F6
100
AcDbEntity
  8
_U+30EC_U+30A4_U+30E4_U+30FC 1
370
     0
100
AcDbVertex
100
AcDb2dVertex
 10
108.6004340006277
 20
-128.4841471032956
 30
0.0
  0
VERTEX
  5
FA
330
F6
100
AcDbEntity
  8
_U+30EC_U+30A4_U+30E4_U+30FC 1
370
     0
100
AcDbVertex
100
AcDb2dVertex
 10
108.8522704805994
 20
-128.4841471032956
 30
0.0
  0
VERTEX
  5
FB
330
F6
100
AcDbEntity
  8
_U+30EC_U+30A4_U+30E4_U+30FC 1
370
     0
100
AcDbVertex
100
AcDb2dVertex
 10
108.8522704805994
 20
-128.7359835832674
 30
0.0
  0
SEQEND
  5
FC
330
F6
100
AcDbEntity
  8
_U+30EC_U+30A4_U+30E4_U+30FC 1
370
     0
  0
HATCH
  5
FD
330
EF
100
AcDbEntity
  8
_U+30EC_U+30A4_U+30E4_U+30FC 1
 62
     7
420
 16777215
100
AcDbHatch
 10
0.0
 20
0.0
 30
0.0
210
0.0
220
0.0
230
1.0
  2
SOLID
 70
     1
 71
     0
 91
        1
 92
        1
 93
        4
 72
     1
 10
108.8522704805994
 20
-128.7359835832674
 11
108.6004340006277
 21
-128.7359835832674
 72
     1
 10
108.6004340006277
 20
-128.7359835832674
 11
108.6004340006277
 21
-128.4841471032956
 72
     1
 10
108.6004340006277
 20
-128.4841471032956
 11
108.8522704805994
 21
-128.4841471032956
 72
     1
 10
108.8522704805994
 20
-128.4841471032956
 11
108.8522704805994
 21
-128.7359835832674
 97
        0
 75
     2
 76
     1
 98
        0
  0
SPLINE
  5
FE
330
EF
100
AcDbEntity
  8
_U+30EC_U+30A4_U+30E4_U+30FC 1
370
     0
100
AcDbSpline
210
0.0
220
0.0
230
1.0
 70
    11
 71
     3
 72
    53
 73
    49
 74
     0
 42
0.0000000001
 43
0.0000000001
 12
1.0
 22
0.0
 32
0.0
 13
1.0
 23
0.0
 33
0.0
 40
0.0
 40
0.0
 40
0.0
 40
0.0
 40
1.0
 40
1.0
 40
1.0
 40
2.0
 40
2.0
 40
2.0
 40
3.0
 40
3.0
 40
3.0
 40
4.0
 40
4.0
 40
4.0
 40
5.0
 40
5.0
 40
5.0
 40
6.0
 40
6.0
 40
6.0
 40
7.0
 40
7.0
 40
7.0
 40
8.0
 40
8.0
 40
8.0
 40
9.0
 40
9.0
 40
9.0
 40
10.0
 40
10.0
 40
10.0
 40
11.0
 40
11.0
 40
11.0
 40
12.0
 40
12.0
 40
12.0
 40
13.0
 40
13.0
 40
13.0
 40
14.0
 40
14.0
 40
14.0
 40
15.0
 40
15.0
 40
15.0
 40
16.0
 40
16.0
 40
16.0
 40
16.0
 10
108.9029133842326
 20
-127.7668782232666
 30
0.0
 10
108.9029133842326
 20
-127.8450818907818
 30
0.0
 10
108.8860324163549
 20
-127.9467122075967
 30
0.0
 10
108.8226426594263
 20
-128.0483425244115
 30
0.0
 10
108.7127441134468
 20
-128.2216308273196
 30
0.0
 10
108.5814859754588
 20
-128.2429904193282
 30
0.0
 10
108.4736544867705
 20
-128.261938444497
 30
0.0
 10
108.4736544867705
 20
-128.261938444497
 30
0.0
 10
108.4736544867705
 20
-128.0397297856984
 30
0.0
 10
108.4736544867705
 20
-128.0397297856984
 30
0.0
 10
108.6724364962694
 20
-127.9849527674829
 30
0.0
 10
108.7020643174425
 20
-127.8578287440772
 30
0.0
 10
108.7020643174425
 20
-127.7648111659755
 30
0.0
 10
108.7020643174425
 20
-127.6252847988228
 30
0.0
 10
108.6025010579188
 20
-127.4730115783748
 30
0.0
 10
108.3699571126645
 20
-127.4730115783748
 30
0.0
 10
108.1139865181104
 20
-127.4730115783748
 30
0.0
 10
108.0440510797598
 20
-127.6528455627049
 30
0.0
 10
108.0440510797598
 20
-127.7734239046886
 30
0.0
 10
108.0440510797598
 20
-127.8051187831529
 30
0.0
 10
108.0440510797598
 20
-127.9467122075967
 30
0.0
 10
108.1732421604567
 20
-128.0355956711161
 30
0.0
 10
108.1732421604567
 20
-128.0355956711161
 30
0.0
 10
108.1542941352878
 20
-128.2112955408639
 30
0.0
 10
108.1542941352878
 20
-128.2112955408639
 30
0.0
 10
108.1542941352878
 20
-128.2112955408639
 30
0.0
 10
107.3078341745619
 20
-128.0907171988801
 30
0.0
 10
107.3078341745619
 20
-128.0907171988801
 30
0.0
 10
107.3078341745619
 20
-128.0907171988801
 30
0.0
 10
107.3078341745619
 20
-127.3121256192136
 30
0.0
 10
107.3078341745619
 20
-127.3121256192136
 30
0.0
 10
107.3078341745619
 20
-127.3121256192136
 30
0.0
 10
107.5024820694785
 20
-127.3121256192136
 30
0.0
 10
107.5024820694785
 20
-127.3121256192136
 30
0.0
 10
107.5024820694785
 20
-127.3121256192136
 30
0.0
 10
107.5024820694785
 20
-127.9277641824278
 30
0.0
 10
107.5024820694785
 20
-127.9277641824278
 30
0.0
 10
107.5024820694785
 20
-127.9277641824278
 30
0.0
 10
107.9255397950672
 20
-127.9932209966475
 30
0.0
 10
107.9255397950672
 20
-127.9932209966475
 30
0.0
 10
107.8917778593118
 20
-127.9318982970101
 30
0.0
 10
107.8514702421344
 20
-127.8495605149126
 30
0.0
 10
107.8514702421344
 20
-127.73104923022
 30
0.0
 10
107.8514702421344
 20
-127.4771456929571
 30
0.0
 10
108.0378499078864
 20
-127.2401231235719
 30
0.0
 10
108.3510090874956
 20
-127.2401231235719
 30
0.0
 10
108.6683023816871
 20
-127.2401231235719
 30
0.0
 10
108.9029133842326
 20
-127.4643988396617
 30
0.0
 10
108.9029133842326
 20
-127.7668782232666
 30
0.0
  0
HATCH
  5
FF
330
EF
100
AcDbEntity
  8
_U+30EC_U+30A4_U+30E4_U+30FC 1
 62
     7
420
 16777215
100
AcDbHatch
 10
0.0
 20
0.0
 30
0.0
210
0.0
220
0.0
230
1.0
  2
SOLID
 70
     1
 71
     0
 91
        1
 92
        1
 93
        1
 72
     4
 94
        3
 73
     0
 74
     1
 95
       53
 96
       49
 40
0.0
 40
0.0
 40
0.0
 40
0.0
 40
1.0
 40
1.0
 40
1.0
 40
2.0
 40
2.0
 40
2.0
 40
3.0
 40
3.0
 40
3.0
 40
4.0
 40
4.0
 40
4.0
 40
5.0
 40
5.0
 40
5.0
 40
6.0
 40
6.0
 40
6.0
 40
7.0
 40
7.0
 40
7.0
 40
8.0
 40
8.0
 40
8.0
 40
9.0
 40
9.0
 40
9.0
 40
10.0
 40
10.0
 40
10.0
 40
11.0
 40
11.0
 40
11.0
 40
12.0
 40
12.0
 40
12.0
 40
13.0
 40
13.0
 40
13.0
 40
14.0
 40
14.0
 40
14.0
 40
15.0
 40
15.0
 40
15.0
 40
16.0
 40
16.0
 40
16.0
 40
16.0
 10
108.9029133842326
 20
-127.7668782232666
 10
108.9029133842326
 20
-127.8450818907818
 10
108.8860324163549
 20
-127.9467122075967
 10
108.8226426594263
 20
-128.0483425244115
 10
108.7127441134468
 20
-128.2216308273196
 10
108.5814859754588
 20
-128.2429904193282
 10
108.4736544867705
 20
-128.261938444497
 10
108.4736544867705
 20
-128.261938444497
 10
108.4736544867705
 20
-128.0397297856984
 10
108.4736544867705
 20
-128.0397297856984
 10
108.6724364962694
 20
-127.9849527674829
 10
108.7020643174425
 20
-127.8578287440772
 10
108.7020643174425
 20
-127.7648111659755
 10
108.7020643174425
 20
-127.6252847988228
 10
108.6025010579188
 20
-127.4730115783748
 10
108.3699571126645
 20
-127.4730115783748
 10
108.1139865181104
 20
-127.4730115783748
 10
108.0440510797598
 20
-127.6528455627049
 10
108.0440510797598
 20
-127.7734239046886
 10
108.0440510797598
 20
-127.8051187831529
 10
108.0440510797598
 20
-127.9467122075967
 10
108.1732421604567
 20
-128.0355956711161
 10
108.1732421604567
 20
-128.0355956711161
 10
108.1542941352878
 20
-128.2112955408639
 10
108.1542941352878
 20
-128.2112955408639
 10
108.1542941352878
 20
-128.2112955408639
 10
107.3078341745619
 20
-128.0907171988801
 10
107.3078341745619
 20
-128.0907171988801
 10
107.3078341745619
 20
-128.0907171988801
 10
107.3078341745619
 20
-127.3121256192136
 10
107.3078341745619
 20
-127.3121256192136
 10
107.3078341745619
 20
-127.3121256192136
 10
107.5024820694785
 20
-127.3121256192136
 10
107.5024820694785
 20
-127.3121256192136
 10
107.5024820694785
 20
-127.3121256192136
 10
107.5024820694785
 20
-127.9277641824278
 10
107.5024820694785
 20
-127.9277641824278
 10
107.5024820694785
 20
-127.9277641824278
 10
107.9255397950672
 20
-127.9932209966475
 10
107.9255397950672
 20
-127.9932209966475
 10
107.8917778593118
 20
-127.9318982970101
 10
107.8514702421344
 20
-127.8495605149126
 10
107.8514702421344
 20
-127.73104923022
 10
107.8514702421344
 20
-127.4771456929571
 10
108.0378499078864
 20
-127.2401231235719
 10
108.3510090874956
 20
-127.2401231235719
 10
108.6683023816871
 20
-127.2401231235719
 10
108.9029133842326
 20
-127.4643988396617
 10
108.9029133842326
 20
-127.7668782232666
 97
        0
 97
        0
 75
     2
 76
     1
 98
        0
  0
ENDBLK
  5
F2
330
EF
100
AcDbEntity
  8
0
100
AcDbBlockEnd
  0
ENDSEC
  0
SECTION
  2
ENTITIES
  0
POLYLINE
  5
41
330
1F
100
AcDbEntity
  8
_U+30EC_U+30A4_U+30E4_U+30FC 1
 62
   253
420
 11711154
370
     9
100
AcDb2dPolyline
 66
     1
 10
0.0
 20
0.0
 30
0.0
  0
VERTEX
  5
42
330
41
100
AcDbEntity
  8
_U+30EC_U+30A4_U+30E4_U+30FC 1
 62
   253
420
 11711154
370
     9
100
AcDbVertex
100
AcDb2dVertex
 10
70.88818791371388
 20
-122.8920791359435
 30
0.0
  0
VERTEX
  5
43
330
41
100
AcDbEntity
  8
_U+30EC_U+30A4_U+30E4_U+30FC 1
 62
   253
420
 11711154
370
     9
100
AcDbVertex
100
AcDb2dVertex
 10
70.88818791371388
 20
-123.8070788579371
 30
0.0
  0
VERTEX
  5
44
330
41
100
AcDbEntity
  8
_U+30EC_U+30A4_U+30E4_U+30FC 1
 62
   253
420
 11711154
370
     9
100
AcDbVertex
100
AcDb2dVertex
 10
82.78304288802863
 20
-123.8070788579371
 30
0.0
  0
VERTEX
  5
45
330
41
100
AcDbEntity
  8
_U+30EC_U+30A4_U+30E4_U+30FC 1
 62
   253
420
 11711154
370
     9
100
AcDbVertex
100
AcDb2dVertex
 10
82.78304288802863
 20
-136.4368055214464
 30
0.0
  0
VERTEX
  5
46
330
41
100
AcDbEntity
  8
_U+30EC_U+30A4_U+30E4_U+30FC 1
 62
   253
420
 11711154
370
     9
100
AcDbVertex
100
AcDb2dVertex
 10
92.994830405282
 20
-136.4368055214464
 30
0.0
  0
VERTEX
  5
47
330
41
100
AcDbEntity
  8
_U+30EC_U+30A4_U+30E4_U+30FC 1
 62
   253
420
 11711154
370
     9
100
AcDbVertex
100
AcDb2dVertex
 10
92.994830405282
 20
-133.4719552444097
 30
0.0
  0
VERTEX
  5
48
330
41
100
AcDbEntity
  8
_U+30EC_U+30A4_U+30E4_U+30FC 1
 62
   253
420
 11711154
370
     9
100
AcDbVertex
100
AcDb2dVertex
 10
91.96958765366034
 20
-133.4719552444097
 30
0.0
  0
VERTEX
  5
49
330
41
100
AcDbEntity
  8
_U+30EC_U+30A4_U+30E4_U+30FC 1
 62
   253
420
 11711154
370
     9
100
AcDbVertex
100
AcDb2dVertex
 10
91.96958765366034
 20
-135.4852580216843
 30
0.0
  0
VERTEX
  5
4A
330
41
100
AcDbEntity
  8
_U+30EC_U+30A4_U+30E4_U+30FC 1
 62
   253
420
 11711154
370
     9
100
AcDbVertex
100
AcDb2dVertex
 10
83.80796813965839
 20
-135.4852580216843
 30
0.0
  0
VERTEX
  5
4B
330
41
100
AcDbEntity
  8
_U+30EC_U+30A4_U+30E4_U+30FC 1
 62
   253
420
 11711154
370
     9
100
AcDbVertex
100
AcDb2dVertex
 10
83.80796813965839
 20
-123.8442969134833
 30
0.0
  0
VERTEX
  5
4C
330
41
100
AcDbEntity
  8
_U+30EC_U+30A4_U+30E4_U+30FC 1
 62
   253
420
 11711154
370
     9
100
AcDbVertex
100
AcDb2dVertex
 10
105.9876709071404
 20
-123.8442969134833
 30
0.0
  0
VERTEX
  5
4D
330
41
100
AcDbEntity
  8
_U+30EC_U+30A4_U+30E4_U+30FC 1
 62
   253
420
 11711154
370
     9
100
AcDbVertex
100
AcDb2dVertex
 10
105.9876709071404
 20
-122.8555666359529
 30
0.0
  0
VERTEX
  5
4E
330
41
100
AcDbEntity
  8
_U+30EC_U+30A4_U+30E4_U+30FC 1
 62
   253
420
 11711154
370
     9
100
AcDbVertex
100
AcDb2dVertex
 10
70.88818791371388
 20
-122.8920791359435
 30
0.0
  0
SEQEND
  5
50
330
41
100
AcDbEntity
  8
_U+30EC_U+30A4_U+30E4_U+30FC 1
 62
   253
420
 11711154
370
     9
  0
HATCH
  5
4F
330
1F
100
AcDbEntity
  8
_U+30EC_U+30A4_U+30E4_U+30FC 1
 62
   253
420
 11711154
100
AcDbHatch
 10
0.0
 20
0.0
 30
0.0
210
0.0
220
0.0
230
1.0
  2
SOLID
 70
     1
 71
     0
 91
        1
 92
        1
 93
       12
 72
     1
 10
70.88818791371388
 20
-122.8920791359435
 11
70.88818791371388
 21
-123.8070788579371
 72
     1
 10
70.88818791371388
 20
-123.8070788579371
 11
82.78304288802863
 21
-123.8070788579371
 72
     1
 10
82.78304288802863
 20
-123.8070788579371
 11
82.78304288802863
 21
-136.4368055214464
 72
     1
 10
82.78304288802863
 20
-136.4368055214464
 11
92.994830405282
 21
-136.4368055214464
 72
     1
 10
92.994830405282
 20
-136.4368055214464
 11
92.994830405282
 21
-133.4719552444097
 72
     1
 10
92.994830405282
 20
-133.4719552444097
 11
91.96958765366034
 21
-133.4719552444097
 72
     1
 10
91.96958765366034
 20
-133.4719552444097
 11
91.96958765366034
 21
-135.4852580216843
 72
     1
 10
91.96958765366034
 20
-135.4852580216843
 11
83.80796813965839
 21
-135.4852580216843
 72
     1
 10
83.80796813965839
 20
-135.4852580216843
 11
83.80796813965839
 21
-123.8442969134833
 72
     1
 10
83.80796813965839
 20
-123.8442969134833
 11
105.9876709071404
 21
-123.8442969134833
 72
     1
 10
105.9876709071404
 20
-123.8442969134833
 11
105.9876709071404
 21
-122.8555666359529
 72
     1
 10
105.9876709071404
 20
-122.8555666359529
 11
70.88818791371388
 21
-122.8920791359435
 97
        0
 75
     2
 76
     1
 98
        0
  0
POLYLINE
  5
51
330
1F
100
AcDbEntity
  8
_U+30EC_U+30A4_U+30E4_U+30FC 1
 62
     7
420
 16777215
370
    25
100
AcDb2dPolyline
 66
     1
 10
0.0
 20
0.0
 30
0.0
  0
VERTEX
  5
52
330
51
100
AcDbEntity
  8
_U+30EC_U+30A4_U+30E4_U+30FC 1
 62
     7
420
 16777215
370
    25
100
AcDbVertex
100
AcDb2dVertex
 10
70.90025291340608
 20
-122.8610699692848
 30
0.0
  0
VERTEX
  5
53
330
51
100
AcDbEntity
  8
_U+30EC_U+30A4_U+30E4_U+30FC 1
 62
     7
420
 16777215
370
    25
100
AcDbVertex
100
AcDb2dVertex
 10
105.9001820204835
 20
-122.8610699692848
 30
0.0
  0
SEQEND
  5
54
330
51
100
AcDbEntity
  8
_U+30EC_U+30A4_U+30E4_U+30FC 1
 62
     7
420
 16777215
370
    25
  0
POLYLINE
  5
55
330
1F
100
AcDbEntity
  8
_U+30EC_U+30A4_U+30E4_U+30FC 1
 62
     7
420
 16777215
370
    25
100
AcDb2dPolyline
 66
     1
 10
0.0
 20
0.0
 30
0.0
  0
VERTEX
  5
56
330
55
100
AcDbEntity
  8
_U+30EC_U+30A4_U+30E4_U+30FC 1
 62
     7
420
 16777215
370
    25
100
AcDbVertex
100
AcDb2dVertex
 10
70.90025291340608
 20
-123.860842191257
 30
0.0
  0
VERTEX
  5
57
330
55
100
AcDbEntity
  8
_U+30EC_U+30A4_U+30E4_U+30FC 1
 62
     7
420
 16777215
370
    25
100
AcDbVertex
100
AcDb2dVertex
 10
82.9002003850397
 20
-123.860842191257
 30
0.0
  0
SEQEND
  5
58
330
55
100
AcDbEntity
  8
_U+30EC_U+30A4_U+30E4_U+30FC 1
 62
     7
420
 16777215
370
    25
  0
POLYLINE
  5
59
330
1F
100
AcDbEntity
  8
_U+30EC_U+30A4_U+30E4_U+30FC 1
 62
     7
420
 16777215
370
    25
100
AcDb2dPolyline
 66
     1
 10
0.0
 20
0.0
 30
0.0
  0
VERTEX
  5
5A
330
59
100
AcDbEntity
  8
_U+30EC_U+30A4_U+30E4_U+30FC 1
 62
     7
420
 16777215
370
    25
100
AcDbVertex
100
AcDb2dVertex
 10
105.9518286858326
 20
-123.860842191257
 30
0.0
  0
VERTEX
  5
5B
330
59
100
AcDbEntity
  8
_U+30EC_U+30A4_U+30E4_U+30FC 1
 62
     7
420
 16777215
370
    25
100
AcDbVertex
100
AcDb2dVertex
 10
105.9518286858326
 20
-122.8610699692848
 30
0.0
  0
SEQEND
  5
5C
330
59
100
AcDbEntity
  8
_U+30EC_U+30A4_U+30E4_U+30FC 1
 62
     7
420
 16777215
370
    25
  0
POLYLINE
  5
5D
330
1F
100
AcDbEntity
  8
_U+30EC_U+30A4_U+30E4_U+30FC 1
 62
     7
420
 16777215
370
    25
100
AcDb2dPolyline
 66
     1
 10
0.0
 20
0.0
 30
0.0
  0
VERTEX
  5
5E
330
5D
100
AcDbEntity
  8
_U+30EC_U+30A4_U+30E4_U+30FC 1
 62
     7
420
 16777215
370
    25
100
AcDbVertex
100
AcDb2dVertex
 10
83.80038341762966
 20
-123.860842191257
 30
0.0
  0
VERTEX
  5
5F
330
5D
100
AcDbEntity
  8
_U+30EC_U+30A4_U+30E4_U+30FC 1
 62
     7
420
 16777215
370
    25
100
AcDbVertex
100
AcDb2dVertex
 10
105.9518286858326
 20
-123.860842191257
 30
0.0
  0
SEQEND
  5
60
330
5D
100
AcDbEntity
  8
_U+30EC_U+30A4_U+30E4_U+30FC 1
 62
     7
420
 16777215
370
    25
  0
POLYLINE
  5
61
330
1F
100
AcDbEntity
  8
_U+30EC_U+30A4_U+30E4_U+30FC 1
 62
     7
420
 16777215
370
    25
100
AcDb2dPolyline
 66
     1
 10
0.0
 20
0.0
 30
0.0
  0
VERTEX
  5
62
330
61
100
AcDbEntity
  8
_U+30EC_U+30A4_U+30E4_U+30FC 1
 62
     7
420
 16777215
370
    25
100
AcDbVertex
100
AcDb2dVertex
 10
70.94089291236926
 20
-123.860842191257
 30
0.0
  0
VERTEX
  5
63
330
61
100
AcDbEntity
  8
_U+30EC_U+30A4_U+30E4_U+30FC 1
 62
     7
420
 16777215
370
    25
100
AcDbVertex
100
AcDb2dVertex
 10
70.94089291236926
 20
-122.8610699692848
 30
0.0
  0
SEQEND
  5
64
330
61
100
AcDbEntity
  8
_U+30EC_U+30A4_U+30E4_U+30FC 1
 62
     7
420
 16777215
370
    25
  0
POLYLINE
  5
65
330
1F
100
AcDbEntity
  8
_U+30EC_U+30A4_U+30E4_U+30FC 1
 62
     7
420
 16777215
370
    25
100
AcDb2dPolyline
 66
     1
 10
0.0
 20
0.0
 30
0.0
  0
VERTEX
  5
66
330
65
100
AcDbEntity
  8
_U+30EC_U+30A4_U+30E4_U+30FC 1
 62
     7
420
 16777215
370
    25
100
AcDbVertex
100
AcDb2dVertex
 10
82.9002003850397
 20
-136.5291274658674
 30
0.0
  0
VERTEX
  5
67
330
65
100
AcDbEntity
  8
_U+30EC_U+30A4_U+30E4_U+30FC 1
 62
     7
420
 16777215
370
    25
100
AcDbVertex
100
AcDb2dVertex
 10
82.9002003850397
 20
-123.860842191257
 30
0.0
  0
SEQEND
  5
68
330
65
100
AcDbEntity
  8
_U+30EC_U+30A4_U+30E4_U+30FC 1
 62
     7
420
 16777215
370
    25
  0
POLYLINE
  5
69
330
1F
100
AcDbEntity
  8
_U+30EC_U+30A4_U+30E4_U+30FC 1
 62
     7
420
 16777215
370
    25
100
AcDb2dPolyline
 66
     1
 10
0.0
 20
0.0
 30
0.0
  0
VERTEX
  5
6A
330
69
100
AcDbEntity
  8
_U+30EC_U+30A4_U+30E4_U+30FC 1
 62
     7
420
 16777215
370
    25
100
AcDbVertex
100
AcDb2dVertex
 10
82.9002003850397
 20
-136.5291274658674
 30
0.0
  0
VERTEX
  5
6B
330
69
100
AcDbEntity
  8
_U+30EC_U+30A4_U+30E4_U+30FC 1
 62
     7
420
 16777215
370
    25
100
AcDbVertex
100
AcDb2dVertex
 10
92.9004270743571
 20
-136.5291274658674
 30
0.0
  0
SEQEND
  5
6C
330
69
100
AcDbEntity
  8
_U+30EC_U+30A4_U+30E4_U+30FC 1
 62
     7
420
 16777215
370
    25
  0
POLYLINE
  5
6D
330
1F
100
AcDbEntity
  8
_U+30EC_U+30A4_U+30E4_U+30FC 1
 62
     7
420
 16777215
370
    25
100
AcDb2dPolyline
 66
     1
 10
0.0
 20
0.0
 30
0.0
  0
VERTEX
  5
6E
330
6D
100
AcDbEntity
  8
_U+30EC_U+30A4_U+30E4_U+30FC 1
 62
     7
420
 16777215
370
    25
100
AcDbVertex
100
AcDb2dVertex
 10
83.80038341762966
 20
-135.5293552438955
 30
0.0
  0
VERTEX
  5
6F
330
6D
100
AcDbEntity
  8
_U+30EC_U+30A4_U+30E4_U+30FC 1
 62
     7
420
 16777215
370
    25
100
AcDbVertex
100
AcDb2dVertex
 10
91.99026043091071
 20
-135.5293552438955
 30
0.0
  0
SEQEND
  5
70
330
6D
100
AcDbEntity
  8
_U+30EC_U+30A4_U+30E4_U+30FC 1
 62
     7
420
 16777215
370
    25
  0
POLYLINE
  5
71
330
1F
100
AcDbEntity
  8
_U+30EC_U+30A4_U+30E4_U+30FC 1
 62
     7
420
 16777215
370
    25
100
AcDb2dPolyline
 66
     1
 10
0.0
 20
0.0
 30
0.0
  0
VERTEX
  5
72
330
71
100
AcDbEntity
  8
_U+30EC_U+30A4_U+30E4_U+30FC 1
 62
     7
420
 16777215
370
    25
100
AcDbVertex
100
AcDb2dVertex
 10
91.96546015376565
 20
-133.5291405221731
 30
0.0
  0
VERTEX
  5
73
330
71
100
AcDbEntity
  8
_U+30EC_U+30A4_U+30E4_U+30FC 1
 62
     7
420
 16777215
370
    25
100
AcDbVertex
100
AcDb2dVertex
 10
92.96590262824223
 20
-133.5291405221731
 30
0.0
  0
SEQEND
  5
74
330
71
100
AcDbEntity
  8
_U+30EC_U+30A4_U+30E4_U+30FC 1
 62
     7
420
 16777215
370
    25
  0
POLYLINE
  5
75
330
1F
100
AcDbEntity
  8
_U+30EC_U+30A4_U+30E4_U+30FC 1
 62
     7
420
 16777215
370
    25
100
AcDb2dPolyline
 66
     1
 10
0.0
 20
0.0
 30
0.0
  0
VERTEX
  5
76
330
75
100
AcDbEntity
  8
_U+30EC_U+30A4_U+30E4_U+30FC 1
 62
     7
420
 16777215
370
    25
100
AcDbVertex
100
AcDb2dVertex
 10
92.96590262824223
 20
-136.5291274658674
 30
0.0
  0
VERTEX
  5
77
330
75
100
AcDbEntity
  8
_U+30EC_U+30A4_U+30E4_U+30FC 1
 62
     7
420
 16777215
370
    25
100
AcDbVertex
100
AcDb2dVertex
 10
92.96590262824223
 20
-133.5291405221731
 30
0.0
  0
SEQEND
  5
78
330
75
100
AcDbEntity
  8
_U+30EC_U+30A4_U+30E4_U+30FC 1
 62
     7
420
 16777215
370
    25
  0
POLYLINE
  5
79
330
1F
100
AcDbEntity
  8
_U+30EC_U+30A4_U+30E4_U+30FC 1
 62
     7
420
 16777215
370
    25
100
AcDb2dPolyline
 66
     1
 10
0.0
 20
0.0
 30
0.0
  0
VERTEX
  5
7A
330
79
100
AcDbEntity
  8
_U+30EC_U+30A4_U+30E4_U+30FC 1
 62
     7
420
 16777215
370
    25
100
AcDbVertex
100
AcDb2dVertex
 10
91.96546015376565
 20
-135.5293552438955
 30
0.0
  0
VERTEX
  5
7B
330
79
100
AcDbEntity
  8
_U+30EC_U+30A4_U+30E4_U+30FC 1
 62
     7
420
 16777215
370
    25
100
AcDbVertex
100
AcDb2dVertex
 10
91.96546015376565
 20
-133.5291405221731
 30
0.0
  0
SEQEND
  5
7C
330
79
100
AcDbEntity
  8
_U+30EC_U+30A4_U+30E4_U+30FC 1
 62
     7
420
 16777215
370
    25
  0
POLYLINE
  5
7D
330
1F
100
AcDbEntity
  8
_U+30EC_U+30A4_U+30E4_U+30FC 1
 62
     7
420
 16777215
370
    25
100
AcDb2dPolyline
 66
     1
 10
0.0
 20
0.0
 30
0.0
  0
VERTEX
  5
7E
330
7D
100
AcDbEntity
  8
_U+30EC_U+30A4_U+30E4_U+30FC 1
 62
     7
420
 16777215
370
    25
100
AcDbVertex
100
AcDb2dVertex
 10
83.80038341762966
 20
-128.2378266346071
 30
0.0
  0
VERTEX
  5
7F
330
7D
100
AcDbEntity
  8
_U+30EC_U+30A4_U+30E4_U+30FC 1
 62
     7
420
 16777215
370
    25
100
AcDbVertex
100
AcDb2dVertex
 10
83.80038341762966
 20
-123.860842191257
 30
0.0
  0
SEQEND
  5
80
330
7D
100
AcDbEntity
  8
_U+30EC_U+30A4_U+30E4_U+30FC 1
 62
     7
420
 16777215
370
    25
  0
SPLINE
  5
81
330
1F
100
AcDbEntity
  8
_U+30EC_U+30A4_U+30E4_U+30FC 1
 62
     7
420
 16777215
370
     9
100
AcDbSpline
210
0.0
220
0.0
230
1.0
 70
    11
 71
     3
 72
    17
 73
    13
 74
     0
 42
0.0000000001
 43
0.0000000001
 12
1.0
 22
0.0
 32
0.0
 13
1.0
 23
0.0
 33
0.0
 40
0.0
 40
0.0
 40
0.0
 40
0.0
 40
1.0
 40
1.0
 40
1.0
 40
2.0
 40
2.0
 40
2.0
 40
3.0
 40
3.0
 40
3.0
 40
4.0
 40
4.0
 40
4.0
 40
4.0
 10
70.96844485611079
 20
-118.8606052480627
 30
0.0
 10
70.96844485611079
 20
-118.8055013591875
 30
0.0
 10
70.92367735725291
 20
-118.7606985814211
 30
0.0
 10
70.86853819199297
 20
-118.7606985814211
 30
0.0
 10
70.81343609340767
 20
-118.7606985814211
 30
0.0
 10
70.76863331564127
 20
-118.8055013591875
 30
0.0
 10
70.76863331564127
 20
-118.8606052480627
 30
0.0
 10
70.76863331564127
 20
-118.9164146924931
 30
0.0
 10
70.81343609340767
 20
-118.9612174702599
 30
0.0
 10
70.86853819199297
 20
-118.9612174702599
 30
0.0
 10
70.92367735725291
 20
-118.9612174702599
 30
0.0
 10
70.96844485611079
 20
-118.9164146924931
 30
0.0
 10
70.96844485611079
 20
-118.8606052480627
 30
0.0
  0
SPLINE
  5
82
330
1F
100
AcDbEntity
  8
_U+30EC_U+30A4_U+30E4_U+30FC 1
 62
     7
420
 16777215
370
     9
100
AcDbSpline
210
0.0
220
0.0
230
1.0
 70
    11
 71
     3
 72
    17
 73
    13
 74
     0
 42
0.0000000001
 43
0.0000000001
 12
1.0
 22
0.0
 32
0.0
 13
1.0
 23
0.0
 33
0.0
 40
0.0
 40
0.0
 40
0.0
 40
0.0
 40
1.0
 40
1.0
 40
1.0
 40
2.0
 40
2.0
 40
2.0
 40
3.0
 40
3.0
 40
3.0
 40
4.0
 40
4.0
 40
4.0
 40
4.0
 10
105.8684672990704
 20
-118.8606052480627
 30
0.0
 10
105.8684672990704
 20
-118.8055013591875
 30
0.0
 10
105.8236998002125
 20
-118.7606985814211
 30
0.0
 10
105.7685606349526
 20
-118.7606985814211
 30
0.0
 10
105.7134567474695
 20
-118.7606985814211
 30
0.0
 10
105.6686539708347
 20
-118.8055013591875
 30
0.0
 10
105.6686539708347
 20
-118.8606052480627
 30
0.0
 10
105.6686539708347
 20
-118.9164146924931
 30
0.0
 10
105.7134567474695
 20
-118.9612174702599
 30
0.0
 10
105.7685606349526
 20
-118.9612174702599
 30
0.0
 10
105.8236998002125
 20
-118.9612174702599
 30
0.0
 10
105.8684672990704
 20
-118.9164146924931
 30
0.0
 10
105.8684672990704
 20
-118.8606052480627
 30
0.0
  0
SPLINE
  5
83
330
1F
100
AcDbEntity
  8
_U+30EC_U+30A4_U+30E4_U+30FC 1
 62
     7
420
 16777215
370
     9
100
AcDbSpline
210
0.0
220
0.0
230
1.0
 70
    11
 71
     3
 72
    17
 73
    13
 74
     0
 42
0.0000000001
 43
0.0000000001
 12
1.0
 22
0.0
 32
0.0
 13
1.0
 23
0.0
 33
0.0
 40
0.0
 40
0.0
 40
0.0
 40
0.0
 40
1.0
 40
1.0
 40
1.0
 40
2.0
 40
2.0
 40
2.0
 40
3.0
 40
3.0
 40
3.0
 40
4.0
 40
4.0
 40
4.0
 40
4.0
 10
110.0680396919304
 20
-122.8610699692848
 30
0.0
 10
110.0680396919304
 20
-122.805930802632
 30
0.0
 10
110.0232749724943
 20
-122.7611633026431
 30
0.0
 10
109.9681330278125
 20
-122.7611633026431
 30
0.0
 10
109.9130291403295
 20
-122.7611633026431
 30
0.0
 10
109.8682263636947
 20
-122.805930802632
 30
0.0
 10
109.8682263636947
 20
-122.8610699692848
 30
0.0
 10
109.8682263636947
 20
-122.91617385816
 30
0.0
 10
109.9130291403295
 20
-122.9609766359264
 30
0.0
 10
109.9681330278125
 20
-122.9609766359264
 30
0.0
 10
110.0232749724943
 20
-122.9609766359264
 30
0.0
 10
110.0680396919304
 20
-122.91617385816
 30
0.0
 10
110.0680396919304
 20
-122.8610699692848
 30
0.0
  0
SPLINE
  5
84
330
1F
100
AcDbEntity
  8
_U+30EC_U+30A4_U+30E4_U+30FC 1
 62
     7
420
 16777215
370
     9
100
AcDbSpline
210
0.0
220
0.0
230
1.0
 70
    11
 71
     3
 72
    17
 73
    13
 74
     0
 42
0.0000000001
 43
0.0000000001
 12
1.0
 22
0.0
 32
0.0
 13
1.0
 23
0.0
 33
0.0
 40
0.0
 40
0.0
 40
0.0
 40
0.0
 40
1.0
 40
1.0
 40
1.0
 40
2.0
 40
2.0
 40
2.0
 40
3.0
 40
3.0
 40
3.0
 40
4.0
 40
4.0
 40
4.0
 40
4.0
 10
110.0680396919304
 20
-123.860842191257
 30
0.0
 10
110.0680396919304
 20
-123.8057030246042
 30
0.0
 10
110.0232749724943
 20
-123.7609355246154
 30
0.0
 10
109.9681330278125
 20
-123.7609355246154
 30
0.0
 10
109.9130291403295
 20
-123.7609355246154
 30
0.0
 10
109.8682263636947
 20
-123.8057030246042
 30
0.0
 10
109.8682263636947
 20
-123.860842191257
 30
0.0
 10
109.8682263636947
 20
-123.9159460801322
 30
0.0
 10
109.9130291403295
 20
-123.9607488578986
 30
0.0
 10
109.9681330278125
 20
-123.9607488578986
 30
0.0
 10
110.0232749724943
 20
-123.9607488578986
 30
0.0
 10
110.0680396919304
 20
-123.9159460801322
 30
0.0
 10
110.0680396919304
 20
-123.860842191257
 30
0.0
  0
SPLINE
  5
85
330
1F
100
AcDbEntity
  8
_U+30EC_U+30A4_U+30E4_U+30FC 1
 62
     7
420
 16777215
370
     9
100
AcDbSpline
210
0.0
220
0.0
230
1.0
 70
    11
 71
     3
 72
    17
 73
    13
 74
     0
 42
0.0000000001
 43
0.0000000001
 12
1.0
 22
0.0
 32
0.0
 13
1.0
 23
0.0
 33
0.0
 40
0.0
 40
0.0
 40
0.0
 40
0.0
 40
1.0
 40
1.0
 40
1.0
 40
2.0
 40
2.0
 40
2.0
 40
3.0
 40
3.0
 40
3.0
 40
4.0
 40
4.0
 40
4.0
 40
4.0
 10
83.0004598269263
 20
-140.7548760759225
 30
0.0
 10
83.0004598269263
 20
-140.6997721870476
 30
0.0
 10
82.95565705029153
 20
-140.6549694092808
 30
0.0
 10
82.9002003850397
 20
-140.6549694092808
 30
0.0
 10
82.84506121977974
 20
-140.6549694092808
 30
0.0
 10
82.80029372092186
 20
-140.6997721870476
 30
0.0
 10
82.80029372092186
 20
-140.7548760759225
 30
0.0
 10
82.80029372092186
 20
-140.8100152425755
 30
0.0
 10
82.84506121977974
 20
-140.8547827425641
 30
0.0
 10
82.9002003850397
 20
-140.8547827425641
 30
0.0
 10
82.95565705029153
 20
-140.8547827425641
 30
0.0
 10
83.0004598269263
 20
-140.8100152425755
 30
0.0
 10
83.0004598269263
 20
-140.7548760759225
 30
0.0
  0
SPLINE
  5
86
330
1F
100
AcDbEntity
  8
_U+30EC_U+30A4_U+30E4_U+30FC 1
 62
     7
420
 16777215
370
     9
100
AcDbSpline
210
0.0
220
0.0
230
1.0
 70
    11
 71
     3
 72
    17
 73
    13
 74
     0
 42
0.0000000001
 43
0.0000000001
 12
1.0
 22
0.0
 32
0.0
 13
1.0
 23
0.0
 33
0.0
 40
0.0
 40
0.0
 40
0.0
 40
0.0
 40
1.0
 40
1.0
 40
1.0
 40
2.0
 40
2.0
 40
2.0
 40
3.0
 40
3.0
 40
3.0
 40
4.0
 40
4.0
 40
4.0
 40
4.0
 10
93.15125206795801
 20
-140.7548760759225
 30
0.0
 10
93.15125206795801
 20
-140.6997721870476
 30
0.0
 10
93.10644929132326
 20
-140.6549694092808
 30
0.0
 10
93.05134540384019
 20
-140.6549694092808
 30
0.0
 10
92.99620623858023
 20
-140.6549694092808
 30
0.0
 10
92.95143873972235
 20
-140.6997721870476
 30
0.0
 10
92.95143873972235
 20
-140.7548760759225
 30
0.0
 10
92.95143873972235
 20
-140.8100152425755
 30
0.0
 10
92.99620623858023
 20
-140.8547827425641
 30
0.0
 10
93.05134540384019
 20
-140.8547827425641
 30
0.0
 10
93.10644929132326
 20
-140.8547827425641
 30
0.0
 10
93.15125206795801
 20
-140.8100152425755
 30
0.0
 10
93.15125206795801
 20
-140.7548760759225
 30
0.0
  0
SPLINE
  5
87
330
1F
100
AcDbEntity
  8
_U+30EC_U+30A4_U+30E4_U+30FC 1
 62
     7
420
 16777215
370
     9
100
AcDbSpline
210
0.0
220
0.0
230
1.0
 70
    11
 71
     3
 72
    17
 73
    13
 74
     0
 42
0.0000000001
 43
0.0000000001
 12
1.0
 22
0.0
 32
0.0
 13
1.0
 23
0.0
 33
0.0
 40
0.0
 40
0.0
 40
0.0
 40
0.0
 40
1.0
 40
1.0
 40
1.0
 40
2.0
 40
2.0
 40
2.0
 40
3.0
 40
3.0
 40
3.0
 40
4.0
 40
4.0
 40
4.0
 40
4.0
 10
71.1134717968553
 20
-140.7548760759225
 30
0.0
 10
71.1134717968553
 20
-140.6997721870476
 30
0.0
 10
71.06870429799741
 20
-140.6549694092808
 30
0.0
 10
71.01356513273747
 20
-140.6549694092808
 30
0.0
 10
70.95810846748562
 20
-140.6549694092808
 30
0.0
 10
70.91334096862772
 20
-140.6997721870476
 30
0.0
 10
70.91334096862772
 20
-140.7548760759225
 30
0.0
 10
70.91334096862772
 20
-140.8100152425755
 30
0.0
 10
70.95810846748562
 20
-140.8547827425641
 30
0.0
 10
71.01356513273747
 20
-140.8547827425641
 30
0.0
 10
71.06870429799741
 20
-140.8547827425641
 30
0.0
 10
71.1134717968553
 20
-140.8100152425755
 30
0.0
 10
71.1134717968553
 20
-140.7548760759225
 30
0.0
  0
POLYLINE
  5
88
330
1F
100
AcDbEntity
  8
_U+30EC_U+30A4_U+30E4_U+30FC 1
 62
     7
420
 16777215
370
     9
100
AcDb2dPolyline
 66
     1
 10
0.0
 20
0.0
 30
0.0
  0
VERTEX
  5
89
330
88
100
AcDbEntity
  8
_U+30EC_U+30A4_U+30E4_U+30FC 1
 62
     7
420
 16777215
370
     9
100
AcDbVertex
100
AcDb2dVertex
 10
82.9002003850397
 20
-140.7548760759225
 30
0.0
  0
VERTEX
  5
8A
330
88
100
AcDbEntity
  8
_U+30EC_U+30A4_U+30E4_U+30FC 1
 62
     7
420
 16777215
370
     9
100
AcDbVertex
100
AcDb2dVertex
 10
92.9004270743571
 20
-140.7548760759225
 30
0.0
  0
SEQEND
  5
8B
330
88
100
AcDbEntity
  8
_U+30EC_U+30A4_U+30E4_U+30FC 1
 62
     7
420
 16777215
370
     9
  0
POLYLINE
  5
8C
330
1F
100
AcDbEntity
  8
_U+30EC_U+30A4_U+30E4_U+30FC 1
 62
     7
420
 16777215
370
     9
100
AcDb2dPolyline
 66
     1
 10
0.0
 20
0.0
 30
0.0
  0
VERTEX
  5
8D
330
8C
100
AcDbEntity
  8
_U+30EC_U+30A4_U+30E4_U+30FC 1
 62
     7
420
 16777215
370
     9
100
AcDbVertex
100
AcDb2dVertex
 10
93.05134540384019
 20
-139.2948699651763
 30
0.0
  0
VERTEX
  5
8E
330
8C
100
AcDbEntity
  8
_U+30EC_U+30A4_U+30E4_U+30FC 1
 62
     7
420
 16777215
370
     9
100
AcDbVertex
100
AcDb2dVertex
 10
93.05134540384019
 20
-141.7546482978944
 30
0.0
  0
SEQEND
  5
8F
330
8C
100
AcDbEntity
  8
_U+30EC_U+30A4_U+30E4_U+30FC 1
 62
     7
420
 16777215
370
     9
  0
INSERT
  5
91
330
1F
100
AcDbEntity
  8
_U+30EC_U+30A4_U+30E4_U+30FC 1
100
AcDbBlockReference
  2
block 2
 10
0.0
 20
0.0
 30
0.0
  0
POLYLINE
  5
99
330
1F
100
AcDbEntity
  8
_U+30EC_U+30A4_U+30E4_U+30FC 1
 62
     7
420
 16777215
370
     9
100
AcDb2dPolyline
 66
     1
 10
0.0
 20
0.0
 30
0.0
  0
VERTEX
  5
9A
330
99
100
AcDbEntity
  8
_U+30EC_U+30A4_U+30E4_U+30FC 1
 62
     7
420
 16777215
370
     9
100
AcDbVertex
100
AcDb2dVertex
 10
109.9681330278125
 20
-122.8610699692848
 30
0.0
  0
VERTEX
  5
9B
330
99
100
AcDbEntity
  8
_U+30EC_U+30A4_U+30E4_U+30FC 1
 62
     7
420
 16777215
370
     9
100
AcDbVertex
100
AcDb2dVertex
 10
109.9681330278125
 20
-119.0907574702274
 30
0.0
  0
SEQEND
  5
9C
330
99
100
AcDbEntity
  8
_U+30EC_U+30A4_U+30E4_U+30FC 1
 62
     7
420
 16777215
370
     9
  0
POLYLINE
  5
9D
330
1F
100
AcDbEntity
  8
_U+30EC_U+30A4_U+30E4_U+30FC 1
 62
     7
420
 16777215
370
     9
100
AcDb2dPolyline
 66
     1
 10
0.0
 20
0.0
 30
0.0
  0
VERTEX
  5
9E
330
9D
100
AcDbEntity
  8
_U+30EC_U+30A4_U+30E4_U+30FC 1
 62
     7
420
 16777215
370
     9
100
AcDbVertex
100
AcDb2dVertex
 10
109.9681330278125
 20
-122.8610699692848
 30
0.0
  0
VERTEX
  5
9F
330
9D
100
AcDbEntity
  8
_U+30EC_U+30A4_U+30E4_U+30FC 1
 62
     7
420
 16777215
370
     9
100
AcDbVertex
100
AcDb2dVertex
 10
109.9681330278125
 20
-123.860842191257
 30
0.0
  0
SEQEND
  5
A0
330
9D
100
AcDbEntity
  8
_U+30EC_U+30A4_U+30E4_U+30FC 1
 62
     7
420
 16777215
370
     9
  0
POLYLINE
  5
A1
330
1F
100
AcDbEntity
  8
_U+30EC_U+30A4_U+30E4_U+30FC 1
 62
     7
420
 16777215
370
     9
100
AcDb2dPolyline
 66
     1
 10
0.0
 20
0.0
 30
0.0
  0
VERTEX
  5
A2
330
A1
100
AcDbEntity
  8
_U+30EC_U+30A4_U+30E4_U+30FC 1
 62
     7
420
 16777215
370
     9
100
AcDbVertex
100
AcDb2dVertex
 10
108.5080944173175
 20
-122.8610699692848
 30
0.0
  0
VERTEX
  5
A3
330
A1
100
AcDbEntity
  8
_U+30EC_U+30A4_U+30E4_U+30FC 1
 62
     7
420
 16777215
370
     9
100
AcDbVertex
100
AcDb2dVertex
 10
110.9679052245284
 20
-122.8610699692848
 30
0.0
  0
SEQEND
  5
A4
330
A1
100
AcDbEntity
  8
_U+30EC_U+30A4_U+30E4_U+30FC 1
 62
     7
420
 16777215
370
     9
  0
POLYLINE
  5
A5
330
1F
100
AcDbEntity
  8
_U+30EC_U+30A4_U+30E4_U+30FC 1
 62
     7
420
 16777215
370
     9
100
AcDb2dPolyline
 66
     1
 10
0.0
 20
0.0
 30
0.0
  0
VERTEX
  5
A6
330
A5
100
AcDbEntity
  8
_U+30EC_U+30A4_U+30E4_U+30FC 1
 62
     7
420
 16777215
370
     9
100
AcDbVertex
100
AcDb2dVertex
 10
108.5080944173175
 20
-123.860842191257
 30
0.0
  0
VERTEX
  5
A7
330
A5
100
AcDbEntity
  8
_U+30EC_U+30A4_U+30E4_U+30FC 1
 62
     7
420
 16777215
370
     9
100
AcDbVertex
100
AcDb2dVertex
 10
110.9679052245284
 20
-123.860842191257
 30
0.0
  0
SEQEND
  5
A8
330
A5
100
AcDbEntity
  8
_U+30EC_U+30A4_U+30E4_U+30FC 1
 62
     7
420
 16777215
370
     9
  0
INSERT
  5
AA
330
1F
100
AcDbEntity
  8
_U+30EC_U+30A4_U+30E4_U+30FC 1
100
AcDbBlockReference
  2
block 3
 10
0.0
 20
0.0
 30
0.0
  0
POLYLINE
  5
AF
330
1F
100
AcDbEntity
  8
_U+30EC_U+30A4_U+30E4_U+30FC 1
 62
     7
420
 16777215
370
     9
100
AcDb2dPolyline
 66
     1
 10
0.0
 20
0.0
 30
0.0
  0
VERTEX
  5
B0
330
AF
100
AcDbEntity
  8
_U+30EC_U+30A4_U+30E4_U+30FC 1
 62
     7
420
 16777215
370
     9
100
AcDbVertex
100
AcDb2dVertex
 10
70.86853819199297
 20
-118.8606052480627
 30
0.0
  0
VERTEX
  5
B1
330
AF
100
AcDbEntity
  8
_U+30EC_U+30A4_U+30E4_U+30FC 1
 62
     7
420
 16777215
370
     9
100
AcDbVertex
100
AcDb2dVertex
 10
105.8684672990704
 20
-118.8606052480627
 30
0.0
  0
SEQEND
  5
B2
330
AF
100
AcDbEntity
  8
_U+30EC_U+30A4_U+30E4_U+30FC 1
 62
     7
420
 16777215
370
     9
  0
POLYLINE
  5
B3
330
1F
100
AcDbEntity
  8
_U+30EC_U+30A4_U+30E4_U+30FC 1
 62
     7
420
 16777215
370
     9
100
AcDb2dPolyline
 66
     1
 10
0.0
 20
0.0
 30
0.0
  0
VERTEX
  5
B4
330
B3
100
AcDbEntity
  8
_U+30EC_U+30A4_U+30E4_U+30FC 1
 62
     7
420
 16777215
370
     9
100
AcDbVertex
100
AcDb2dVertex
 10
70.86853819199297
 20
-120.3206466365864
 30
0.0
  0
VERTEX
  5
B5
330
B3
100
AcDbEntity
  8
_U+30EC_U+30A4_U+30E4_U+30FC 1
 62
     7
420
 16777215
370
     9
100
AcDbVertex
100
AcDb2dVertex
 10
70.86853819199297
 20
-117.860868303868
 30
0.0
  0
SEQEND
  5
B6
330
B3
100
AcDbEntity
  8
_U+30EC_U+30A4_U+30E4_U+30FC 1
 62
     7
420
 16777215
370
     9
  0
POLYLINE
  5
B7
330
1F
100
AcDbEntity
  8
_U+30EC_U+30A4_U+30E4_U+30FC 1
 62
     7
420
 16777215
370
     9
100
AcDb2dPolyline
 66
     1
 10
0.0
 20
0.0
 30
0.0
  0
VERTEX
  5
B8
330
B7
100
AcDbEntity
  8
_U+30EC_U+30A4_U+30E4_U+30FC 1
 62
     7
420
 16777215
370
     9
100
AcDbVertex
100
AcDb2dVertex
 10
105.7685606349526
 20
-120.3206466365864
 30
0.0
  0
VERTEX
  5
B9
330
B7
100
AcDbEntity
  8
_U+30EC_U+30A4_U+30E4_U+30FC 1
 62
     7
420
 16777215
370
     9
100
AcDbVertex
100
AcDb2dVertex
 10
105.7685606349526
 20
-117.860868303868
 30
0.0
  0
SEQEND
  5
BA
330
B7
100
AcDbEntity
  8
_U+30EC_U+30A4_U+30E4_U+30FC 1
 62
     7
420
 16777215
370
     9
  0
INSERT
  5
BC
330
1F
100
AcDbEntity
  8
_U+30EC_U+30A4_U+30E4_U+30FC 1
100
AcDbBlockReference
  2
block 4
 10
0.0
 20
0.0
 30
0.0
  0
POLYLINE
  5
C3
330
1F
100
AcDbEntity
  8
_U+30EC_U+30A4_U+30E4_U+30FC 1
 62
     7
420
 16777215
370
     9
100
AcDb2dPolyline
 66
     1
 10
0.0
 20
0.0
 30
0.0
  0
VERTEX
  5
C4
330
C3
100
AcDbEntity
  8
_U+30EC_U+30A4_U+30E4_U+30FC 1
 62
     7
420
 16777215
370
     9
100
AcDbVertex
100
AcDb2dVertex
 10
70.90025291340608
 20
-140.7548760759225
 30
0.0
  0
VERTEX
  5
C5
330
C3
100
AcDbEntity
  8
_U+30EC_U+30A4_U+30E4_U+30FC 1
 62
     7
420
 16777215
370
     9
100
AcDbVertex
100
AcDb2dVertex
 10
82.9002003850397
 20
-140.7548760759225
 30
0.0
  0
SEQEND
  5
C6
330
C3
100
AcDbEntity
  8
_U+30EC_U+30A4_U+30E4_U+30FC 1
 62
     7
420
 16777215
370
     9
  0
POLYLINE
  5
C7
330
1F
100
AcDbEntity
  8
_U+30EC_U+30A4_U+30E4_U+30FC 1
 62
     7
420
 16777215
370
     9
100
AcDb2dPolyline
 66
     1
 10
0.0
 20
0.0
 30
0.0
  0
VERTEX
  5
C8
330
C7
100
AcDbEntity
  8
_U+30EC_U+30A4_U+30E4_U+30FC 1
 62
     7
420
 16777215
370
     9
100
AcDbVertex
100
AcDb2dVertex
 10
71.01356513273747
 20
-126.4012302461775
 30
0.0
  0
VERTEX
  5
C9
330
C7
100
AcDbEntity
  8
_U+30EC_U+30A4_U+30E4_U+30FC 1
 62
     7
420
 16777215
370
     9
100
AcDbVertex
100
AcDb2dVertex
 10
71.01356513273747
 20
-141.7546482978944
 30
0.0
  0
SEQEND
  5
CA
330
C7
100
AcDbEntity
  8
_U+30EC_U+30A4_U+30E4_U+30FC 1
 62
     7
420
 16777215
370
     9
  0
POLYLINE
  5
CB
330
1F
100
AcDbEntity
  8
_U+30EC_U+30A4_U+30E4_U+30FC 1
 62
     7
420
 16777215
370
     9
100
AcDb2dPolyline
 66
     1
 10
0.0
 20
0.0
 30
0.0
  0
VERTEX
  5
CC
330
CB
100
AcDbEntity
  8
_U+30EC_U+30A4_U+30E4_U+30FC 1
 62
     7
420
 16777215
370
     9
100
AcDbVertex
100
AcDb2dVertex
 10
82.9002003850397
 20
-139.2948699651763
 30
0.0
  0
VERTEX
  5
CD
330
CB
100
AcDbEntity
  8
_U+30EC_U+30A4_U+30E4_U+30FC 1
 62
     7
420
 16777215
370
     9
100
AcDbVertex
100
AcDb2dVertex
 10
82.9002003850397
 20
-141.7546482978944
 30
0.0
  0
SEQEND
  5
CE
330
CB
100
AcDbEntity
  8
_U+30EC_U+30A4_U+30E4_U+30FC 1
 62
     7
420
 16777215
370
     9
  0
INSERT
  5
D0
330
1F
100
AcDbEntity
  8
_U+30EC_U+30A4_U+30E4_U+30FC 1
100
AcDbBlockReference
  2
block 5
 10
0.0
 20
0.0
 30
0.0
  0
POLYLINE
  5
D7
330
1F
100
AcDbEntity
  8
_U+30EC_U+30A4_U+30E4_U+30FC 1
 62
     7
420
 16777215
370
     9
100
AcDb2dPolyline
 66
     1
 10
0.0
 20
0.0
 30
0.0
  0
VERTEX
  5
D8
330
D7
100
AcDbEntity
  8
_U+30EC_U+30A4_U+30E4_U+30FC 1
 62
     7
420
 16777215
370
     9
100
AcDbVertex
100
AcDb2dVertex
 10
109.9681330278125
 20
-133.3610419111044
 30
0.0
  0
VERTEX
  5
D9
330
D7
100
AcDbEntity
  8
_U+30EC_U+30A4_U+30E4_U+30FC 1
 62
     7
420
 16777215
370
     9
100
AcDbVertex
100
AcDb2dVertex
 10
109.9681330278125
 20
-123.860842191257
 30
0.0
  0
SEQEND
  5
DA
330
D7
100
AcDbEntity
  8
_U+30EC_U+30A4_U+30E4_U+30FC 1
 62
     7
420
 16777215
370
     9
  0
SPLINE
  5
DB
330
1F
100
AcDbEntity
  8
_U+30EC_U+30A4_U+30E4_U+30FC 1
 62
     7
420
 16777215
370
     9
100
AcDbSpline
210
0.0
220
0.0
230
1.0
 70
    11
 71
     3
 72
    17
 73
    13
 74
     0
 42
0.0000000001
 43
0.0000000001
 12
1.0
 22
0.0
 32
0.0
 13
1.0
 23
0.0
 33
0.0
 40
0.0
 40
0.0
 40
0.0
 40
0.0
 40
1.0
 40
1.0
 40
1.0
 40
2.0
 40
2.0
 40
2.0
 40
3.0
 40
3.0
 40
3.0
 40
4.0
 40
4.0
 40
4.0
 40
4.0
 10
110.0680396919304
 20
-133.4009763555388
 30
0.0
 10
110.0680396919304
 20
-133.3451669111083
 30
0.0
 10
110.0232749724943
 20
-133.3003994111191
 30
0.0
 10
109.9681330278125
 20
-133.3003994111191
 30
0.0
 10
109.9130291403295
 20
-133.3003994111191
 30
0.0
 10
109.8682263636947
 20
-133.3451669111083
 30
0.0
 10
109.8682263636947
 20
-133.4009763555388
 30
0.0
 10
109.8682263636947
 20
-133.4561155221919
 30
0.0
 10
109.9130291403295
 20
-133.5008830221804
 30
0.0
 10
109.9681330278125
 20
-133.5008830221804
 30
0.0
 10
110.0232749724943
 20
-133.5008830221804
 30
0.0
 10
110.0680396919304
 20
-133.4561155221919
 30
0.0
 10
110.0680396919304
 20
-133.4009763555388
 30
0.0
  0
SPLINE
  5
DC
330
1F
100
AcDbEntity
  8
_U+30EC_U+30A4_U+30E4_U+30FC 1
 62
     7
420
 16777215
370
     9
100
AcDbSpline
210
0.0
220
0.0
230
1.0
 70
    11
 71
     3
 72
    17
 73
    13
 74
     0
 42
0.0000000001
 43
0.0000000001
 12
1.0
 22
0.0
 32
0.0
 13
1.0
 23
0.0
 33
0.0
 40
0.0
 40
0.0
 40
0.0
 40
0.0
 40
1.0
 40
1.0
 40
1.0
 40
2.0
 40
2.0
 40
2.0
 40
3.0
 40
3.0
 40
3.0
 40
4.0
 40
4.0
 40
4.0
 40
4.0
 10
110.0680396919304
 20
-136.4009632992331
 30
0.0
 10
110.0680396919304
 20
-136.3451538548027
 30
0.0
 10
110.0232749724943
 20
-136.3003863548141
 30
0.0
 10
109.9681330278125
 20
-136.3003863548141
 30
0.0
 10
109.9130291403295
 20
-136.3003863548141
 30
0.0
 10
109.8682263636947
 20
-136.3451538548027
 30
0.0
 10
109.8682263636947
 20
-136.4009632992331
 30
0.0
 10
109.8682263636947
 20
-136.4561024658862
 30
0.0
 10
109.9130291403295
 20
-136.5008699658748
 30
0.0
 10
109.9681330278125
 20
-136.5008699658748
 30
0.0
 10
110.0232749724943
 20
-136.5008699658748
 30
0.0
 10
110.0680396919304
 20
-136.4561024658862
 30
0.0
 10
110.0680396919304
 20
-136.4009632992331
 30
0.0
  0
POLYLINE
  5
DD
330
1F
100
AcDbEntity
  8
_U+30EC_U+30A4_U+30E4_U+30FC 1
 62
     7
420
 16777215
370
     9
100
AcDb2dPolyline
 66
     1
 10
0.0
 20
0.0
 30
0.0
  0
VERTEX
  5
DE
330
DD
100
AcDbEntity
  8
_U+30EC_U+30A4_U+30E4_U+30FC 1
 62
     7
420
 16777215
370
     9
100
AcDbVertex
100
AcDb2dVertex
 10
109.9681330278125
 20
-136.4009632992331
 30
0.0
  0
VERTEX
  5
DF
330
DD
100
AcDbEntity
  8
_U+30EC_U+30A4_U+30E4_U+30FC 1
 62
     7
420
 16777215
370
     9
100
AcDbVertex
100
AcDb2dVertex
 10
109.9681330278125
 20
-133.4009763555388
 30
0.0
  0
SEQEND
  5
E0
330
DD
100
AcDbEntity
  8
_U+30EC_U+30A4_U+30E4_U+30FC 1
 62
     7
420
 16777215
370
     9
  0
POLYLINE
  5
E1
330
1F
100
AcDbEntity
  8
_U+30EC_U+30A4_U+30E4_U+30FC 1
 62
     7
420
 16777215
370
     9
100
AcDb2dPolyline
 66
     1
 10
0.0
 20
0.0
 30
0.0
  0
VERTEX
  5
E2
330
E1
100
AcDbEntity
  8
_U+30EC_U+30A4_U+30E4_U+30FC 1
 62
     7
420
 16777215
370
     9
100
AcDbVertex
100
AcDb2dVertex
 10
95.52975275389522
 20
-136.4009632992331
 30
0.0
  0
VERTEX
  5
E3
330
E1
100
AcDbEntity
  8
_U+30EC_U+30A4_U+30E4_U+30FC 1
 62
     7
420
 16777215
370
     9
100
AcDbVertex
100
AcDb2dVertex
 10
110.9679052245284
 20
-136.4009632992331
 30
0.0
  0
SEQEND
  5
E4
330
E1
100
AcDbEntity
  8
_U+30EC_U+30A4_U+30E4_U+30FC 1
 62
     7
420
 16777215
370
     9
  0
INSERT
  5
E6
330
1F
100
AcDbEntity
  8
_U+30EC_U+30A4_U+30E4_U+30FC 1
100
AcDbBlockReference
  2
block 6
 10
0.0
 20
0.0
 30
0.0
  0
POLYLINE
  5
EB
330
1F
100
AcDbEntity
  8
_U+30EC_U+30A4_U+30E4_U+30FC 1
 62
     7
420
 16777215
370
     9
100
AcDb2dPolyline
 66
     1
 10
0.0
 20
0.0
 30
0.0
  0
VERTEX
  5
EC
330
EB
100
AcDbEntity
  8
_U+30EC_U+30A4_U+30E4_U+30FC 1
 62
     7
420
 16777215
370
     9
100
AcDbVertex
100
AcDb2dVertex
 10
95.52975275389522
 20
-133.4009763555388
 30
0.0
  0
VERTEX
  5
ED
330
EB
100
AcDbEntity
  8
_U+30EC_U+30A4_U+30E4_U+30FC 1
 62
     7
420
 16777215
370
     9
100
AcDbVertex
100
AcDb2dVertex
 10
110.9679052245284
 20
-133.4009763555388
 30
0.0
  0
SEQEND
  5
EE
330
EB
100
AcDbEntity
  8
_U+30EC_U+30A4_U+30E4_U+30FC 1
 62
     7
420
 16777215
370
     9
  0
INSERT
  5
F0
330
1F
100
AcDbEntity
  8
_U+30EC_U+30A4_U+30E4_U+30FC 1
100
AcDbBlockReference
  2
block 7
 10
0.0
 20
0.0
 30
0.0
  0
POLYLINE
  5
100
330
1F
100
AcDbEntity
  8
_U+30EC_U+30A4_U+30E4_U+30FC 1
 62
     7
420
 16777215
370
    25
100
AcDb2dPolyline
 66
     1
 10
0.0
 20
0.0
 30
0.0
  0
VERTEX
  5
101
330
100
100
AcDbEntity
  8
_U+30EC_U+30A4_U+30E4_U+30FC 1
 62
     7
420
 16777215
370
    25
100
AcDbVertex
100
AcDb2dVertex
 10
83.80038341762966
 20
-135.5293552438955
 30
0.0
  0
VERTEX
  5
102
330
100
100
AcDbEntity
  8
_U+30EC_U+30A4_U+30E4_U+30FC 1
 62
     7
420
 16777215
370
    25
100
AcDbVertex
100
AcDb2dVertex
 10
83.80038341762966
 20
-128.9840221899761
 30
0.0
  0
SEQEND
  5
103
330
100
100
AcDbEntity
  8
_U+30EC_U+30A4_U+30E4_U+30FC 1
 62
     7
420
 16777215
370
    25
  0
POLYLINE
  5
104
330
1F
100
AcDbEntity
  8
_U+30EC_U+30A4_U+30E4_U+30FC 1
 62
   179
420
  2234388
370
    25
100
AcDb2dPolyline
 66
     1
 10
0.0
 20
0.0
 30
0.0
  0
VERTEX
  5
105
330
104
100
AcDbEntity
  8
_U+30EC_U+30A4_U+30E4_U+30FC 1
 62
   179
420
  2234388
370
    25
100
AcDbVertex
100
AcDb2dVertex
 10
83.80038341762966
 20
-128.9840221899761
 30
0.0
  0
VERTEX
  5
106
330
104
100
AcDbEntity
  8
_U+30EC_U+30A4_U+30E4_U+30FC 1
 62
   179
420
  2234388
370
    25
100
AcDbVertex
100
AcDb2dVertex
 10
84.10045831230838
 20
-128.6112771900694
 30
0.0
  0
VERTEX
  5
107
330
104
100
AcDbEntity
  8
_U+30EC_U+30A4_U+30E4_U+30FC 1
 62
   179
420
  2234388
370
    25
100
AcDbVertex
100
AcDb2dVertex
 10
83.80038341762966
 20
-128.2378266346071
 30
0.0
  0
SEQEND
  5
109
330
104
100
AcDbEntity
  8
_U+30EC_U+30A4_U+30E4_U+30FC 1
 62
   179
420
  2234388
370
    25
  0
HATCH
  5
108
330
1F
100
AcDbEntity
  8
_U+30EC_U+30A4_U+30E4_U+30FC 1
 62
   253
420
 11711154
100
AcDbHatch
 10
0.0
 20
0.0
 30
0.0
210
0.0
220
0.0
230
1.0
  2
SOLID
 70
     1
 71
     0
 91
        1
 92
        1
 93
        3
 72
     1
 10
83.80038341762966
 20
-128.9840221899761
 11
84.10045831230838
 21
-128.6112771900694
 72
     1
 10
84.10045831230838
 20
-128.6112771900694
 11
83.80038341762966
 21
-128.2378266346071
 72
     1
 10
83.80038341762966
 20
-128.2378266346071
 11
83.80038341762966
 21
-128.9840221899761
 97
        0
 75
     2
 76
     1
 98
        0
  0
ENDSEC
  0
SECTION
  2
OBJECTS
  0
DICTIONARY
  5
C
330
0
100
AcDbDictionary
281
     1
  3
ACAD_GROUP
350
D
  3
ACAD_LAYOUT
350
1A
  3
ACAD_MATERIAL
350
3B
  3
ACAD_MLEADERSTYLE
350
10B
  3
ACAD_MLINESTYLE
350
17
  3
ACAD_PLOTSETTINGS
350
19
  3
ACAD_PLOTSTYLENAME
350
E
  3
ACAD_TABLESTYLE
350
10A
  3
ACAD_VISUALSTYLE
350
2A
  0
SUN
  5
3F
330
29
100
AcDbSun
 90
        1
290
     0
 63
     7
421
 16777215
 40
1.0
291
     1
 91
  2455826
 92
 54000000
292
     0
 70
     2
 71
   256
280
     1
  0
DICTIONARY
  5
D
102
{ACAD_REACTORS
330
C
102
}
330
C
100
AcDbDictionary
281
     1
  0
DICTIONARY
  5
1A
102
{ACAD_REACTORS
330
C
102
}
330
C
100
AcDbDictionary
281
     1
  3
Layout1
350
1E
  3
Layout2
350
26
  3
Model
350
22
  0
DICTIONARY
  5
3B
102
{ACAD_REACTORS
330
C
102
}
330
C
100
AcDbDictionary
281
     1
  3
ByBlock
350
3D
  3
ByLayer
350
3C
  3
Global
350
3E
  0
DICTIONARY
  5
10B
102
{ACAD_REACTORS
330
C
102
}
330
C
100
AcDbDictionary
281
     1
  0
DICTIONARY
  5
17
102
{ACAD_REACTORS
330
C
102
}
330
C
100
AcDbDictionary
281
     1
  3
Standard
350
18
  0
DICTIONARY
  5
19
102
{ACAD_REACTORS
330
C
102
}
330
C
100
AcDbDictionary
281
     1
  0
ACDBDICTIONARYWDFLT
  5
E
102
{ACAD_REACTORS
330
C
102
}
330
C
100
AcDbDictionary
281
     1
  3
Normal
350
F
100
AcDbDictionaryWithDefault
340
F
  0
DICTIONARY
  5
10A
102
{ACAD_REACTORS
330
C
102
}
330
C
100
AcDbDictionary
281
     1
  0
DICTIONARY
  5
2A
102
{ACAD_REACTORS
330
C
102
}
330
C
100
AcDbDictionary
281
     1
  3
2dWireframe
350
2F
  3
3D Hidden
350
31
  3
3dWireframe
350
30
  3
Basic
350
32
  3
Brighten
350
36
  3
ColorChange
350
3A
  3
Conceptual
350
34
  3
Dim
350
35
  3
Facepattern
350
39
  3
Flat
350
2B
  3
FlatWithEdges
350
2C
  3
Gouraud
350
2D
  3
GouraudWithEdges
350
2E
  3
Linepattern
350
38
  3
Realistic
350
33
  3
Thicken
350
37
  0
LAYOUT
  5
1E
102
{ACAD_REACTORS
330
1A
102
}
330
1A
100
AcDbPlotSettings
  1

  2
none_device
  4

  6

 40
0.0
 41
0.0
 42
0.0
 43
0.0
 44
0.0
 45
0.0
 46
0.0
 47
0.0
 48
0.0
 49
0.0
140
0.0
141
0.0
142
1.0
143
1.0
 70
   688
 72
     0
 73
     0
 74
     5
  7

 75
    16
 76
     0
 77
     2
 78
   300
147
1.0
148
0.0
149
0.0
100
AcDbLayout
  1
Layout1
 70
     1
 71
     1
 10
0.0
 20
0.0
 11
12.0
 21
9.0
 12
0.0
 22
0.0
 32
0.0
 14
1.000000000000000E+20
 24
1.000000000000000E+20
 34
1.000000000000000E+20
 15
-1.000000000000000E+20
 25
-1.000000000000000E+20
 35
-1.000000000000000E+20
146
0.0
 13
0.0
 23
0.0
 33
0.0
 16
1.0
 26
0.0
 36
0.0
 17
0.0
 27
1.0
 37
0.0
 76
     0
330
1B
  0
LAYOUT
  5
26
102
{ACAD_REACTORS
330
1A
102
}
330
1A
100
AcDbPlotSettings
  1

  2
none_device
  4

  6

 40
0.0
 41
0.0
 42
0.0
 43
0.0
 44
0.0
 45
0.0
 46
0.0
 47
0.0
 48
0.0
 49
0.0
140
0.0
141
0.0
142
1.0
143
1.0
 70
   688
 72
     0
 73
     0
 74
     5
  7

 75
    16
 76
     0
 77
     2
 78
   300
147
1.0
148
0.0
149
0.0
100
AcDbLayout
  1
Layout2
 70
     1
 71
     2
 10
0.0
 20
0.0
 11
0.0
 21
0.0
 12
0.0
 22
0.0
 32
0.0
 14
0.0
 24
0.0
 34
0.0
 15
0.0
 25
0.0
 35
0.0
146
0.0
 13
0.0
 23
0.0
 33
0.0
 16
1.0
 26
0.0
 36
0.0
 17
0.0
 27
1.0
 37
0.0
 76
     0
330
23
  0
LAYOUT
  5
22
102
{ACAD_REACTORS
330
1A
102
}
330
1A
100
AcDbPlotSettings
  1

  2
none_device
  4

  6

 40
0.0
 41
0.0
 42
0.0
 43
0.0
 44
0.0
 45
0.0
 46
0.0
 47
0.0
 48
0.0
 49
0.0
140
0.0
141
0.0
142
1.0
143
1.0
 70
  1712
 72
     0
 73
     0
 74
     0
  7

 75
     0
 76
     0
 77
     2
 78
   300
147
1.0
148
0.0
149
0.0
100
AcDbLayout
  1
Model
 70
     1
 71
     0
 10
0.0
 20
0.0
 11
12.0
 21
9.0
 12
0.0
 22
0.0
 32
0.0
 14
1.000000000000000E+20
 24
1.000000000000000E+20
 34
1.000000000000000E+20
 15
-1.000000000000000E+20
 25
-1.000000000000000E+20
 35
-1.000000000000000E+20
146
0.0
 13
0.0
 23
0.0
 33
0.0
 16
1.0
 26
0.0
 36
0.0
 17
0.0
 27
1.0
 37
0.0
 76
     0
330
1F
331
29
  0
MATERIAL
  5
3D
102
{ACAD_REACTORS
330
3B
102
}
330
3B
100
AcDbMaterial
  1
ByBlock
 72
     1
 94
      127
  0
MATERIAL
  5
3C
102
{ACAD_REACTORS
330
3B
102
}
330
3B
100
AcDbMaterial
  1
ByLayer
 72
     1
 94
      127
  0
MATERIAL
  5
3E
102
{ACAD_REACTORS
330
3B
102
}
330
3B
100
AcDbMaterial
  1
Global
 72
     1
 94
      127
  0
MLINESTYLE
  5
18
102
{ACAD_REACTORS
330
17
102
}
330
17
100
AcDbMlineStyle
  2
Standard
 70
     0
  3

 62
   256
 51
90.0
 52
90.0
 71
     2
 49
0.5
 62
   256
  6
BYLAYER
 49
-0.5
 62
   256
  6
BYLAYER
  0
ACDBPLACEHOLDER
  5
F
102
{ACAD_REACTORS
330
E
102
}
330
E
  0
VISUALSTYLE
  5
2F
102
{ACAD_REACTORS
330
2A
102
}
330
2A
100
AcDbVisualStyle
  2
2dWireframe
 70
     4
177
     2
291
     0
 71
     0
176
     1
 72
     2
176
     1
 73
     0
176
     1
 90
        0
176
     1
 40
-0.6
176
     1
 41
-30.0
176
     1
 62
     5
 63
     7
421
 16777215
176
     1
 74
     1
176
     1
 91
        4
176
     1
 64
     7
176
     1
 65
   257
176
     1
 75
     1
176
     1
175
     1
176
     1
 42
1.0
176
     1
 92
        0
176
     1
 66
   257
176
     1
 43
1.0
176
     1
 76
     1
176
     1
 77
     6
176
     1
 78
     2
176
     1
 67
     7
176
     1
 79
     5
176
     1
170
     0
176
     1
171
     0
176
     1
290
     0
176
     1
 93
        1
176
     1
 44
0.0
176
     1
173
     0
176
     1
  0
VISUALSTYLE
  5
31
102
{ACAD_REACTORS
330
2A
102
}
330
2A
100
AcDbVisualStyle
  2
3D Hidden
 70
     6
177
     2
291
     0
 71
     1
176
     1
 72
     2
176
     1
 73
     2
176
     1
 90
        0
176
     1
 40
-0.6
176
     1
 41
-30.0
176
     1
 62
     5
 63
     7
421
 16777215
176
     1
 74
     2
176
     1
 91
        2
176
     1
 64
     7
176
     1
 65
   257
176
     1
 75
     2
176
     1
175
     1
176
     1
 42
40.0
176
     1
 92
        0
176
     1
 66
   257
176
     1
 43
1.0
176
     1
 76
     1
176
     1
 77
     6
176
     1
 78
     2
176
     1
 67
     7
176
     1
 79
     3
176
     1
170
     0
176
     1
171
     0
176
     1
290
     0
176
     1
 93
        1
176
     1
 44
0.0
176
     1
173
     0
176
     1
  0
VISUALSTYLE
  5
30
102
{ACAD_REACTORS
330
2A
102
}
330
2A
100
AcDbVisualStyle
  2
3dWireframe
 70
     5
177
     2
291
     0
 71
     0
176
     1
 72
     2
176
     1
 73
     0
176
     1
 90
        0
176
     1
 40
-0.6
176
     1
 41
-30.0
176
     1
 62
     5
 63
     7
421
 16777215
176
     1
 74
     1
176
     1
 91
        4
176
     1
 64
     7
176
     1
 65
   257
176
     1
 75
     1
176
     1
175
     1
176
     1
 42
1.0
176
     1
 92
        0
176
     1
 66
   257
176
     1
 43
1.0
176
     1
 76
     1
176
     1
 77
     6
176
     1
 78
     2
176
     1
 67
     7
176
     1
 79
     5
176
     1
170
     0
176
     1
171
     0
176
     1
290
     0
176
     1
 93
        1
176
     1
 44
0.0
176
     1
173
     0
176
     1
  0
VISUALSTYLE
  5
32
102
{ACAD_REACTORS
330
2A
102
}
330
2A
100
AcDbVisualStyle
  2
Basic
 70
     7
177
     2
291
     1
 71
     1
176
     1
 72
     0
176
     1
 73
     1
176
     1
 90
        0
176
     1
 40
-0.6
176
     1
 41
-30.0
176
     1
 62
     5
 63
     7
421
 16777215
176
     1
 74
     0
176
     1
 91
        4
176
     1
 64
     7
176
     1
 65
   257
176
     1
 75
     1
176
     1
175
     1
176
     1
 42
1.0
176
     1
 92
        8
176
     1
 66
     7
176
     1
 43
1.0
176
     1
 76
     1
176
     1
 77
     6
176
     1
 78
     2
176
     1
 67
     7
176
     1
 79
     5
176
     1
170
     0
176
     1
171
     0
176
     1
290
     0
176
     1
 93
        1
176
     1
 44
0.0
176
     1
173
     0
176
     1
  0
VISUALSTYLE
  5
36
102
{ACAD_REACTORS
330
2A
102
}
330
2A
100
AcDbVisualStyle
  2
Brighten
 70
    12
177
     2
291
     1
 71
     2
176
     1
 72
     2
176
     1
 73
     0
176
     1
 90
        0
176
     1
 40
-0.6
176
     1
 41
-30.0
176
     1
 62
     5
 63
     7
421
 16777215
176
     1
 74
     1
176
     1
 91
        4
176
     1
 64
     7
176
     1
 65
   257
176
     1
 75
     1
176
     1
175
     1
176
     1
 42
1.0
176
     1
 92
        8
176
     1
 66
     7
176
     1
 43
1.0
176
     1
 76
     1
176
     1
 77
     6
176
     1
 78
     2
176
     1
 67
     7
176
     1
 79
     5
176
     1
170
     0
176
     1
171
     0
176
     1
290
     0
176
     1
 93
        1
176
     1
 44
50.0
176
     1
173
     0
176
     1
  0
VISUALSTYLE
  5
3A
102
{ACAD_REACTORS
330
2A
102
}
330
2A
100
AcDbVisualStyle
  2
ColorChange
 70
    16
177
     2
291
     1
 71
     2
176
     1
 72
     2
176
     1
 73
     3
176
     1
 90
        0
176
     1
 40
-0.6
176
     1
 41
-30.0
176
     1
 62
     5
 63
     8
421
  8421504
176
     1
 74
     1
176
     1
 91
        4
176
     1
 64
     7
176
     1
 65
   257
176
     1
 75
     1
176
     1
175
     1
176
     1
 42
1.0
176
     1
 92
        8
176
     1
 66
     8
424
  8421504
176
     1
 43
1.0
176
     1
 76
     1
176
     1
 77
     6
176
     1
 78
     2
176
     1
 67
     7
176
     1
 79
     5
176
     1
170
     0
176
     1
171
     0
176
     1
290
     0
176
     1
 93
        1
176
     1
 44
0.0
176
     1
173
     0
176
     1
  0
VISUALSTYLE
  5
34
102
{ACAD_REACTORS
330
2A
102
}
330
2A
100
AcDbVisualStyle
  2
Conceptual
 70
     9
177
     2
291
     0
 71
     3
176
     1
 72
     2
176
     1
 73
     0
176
     1
 90
        0
176
     1
 40
-0.6
176
     1
 41
-30.0
176
     1
 62
     5
 63
     7
421
 16777215
176
     1
 74
     2
176
     1
 91
        2
176
     1
 64
     7
176
     1
 65
   257
176
     1
 75
     1
176
     1
175
     1
176
     1
 42
40.0
176
     1
 92
        8
176
     1
 66
     7
176
     1
 43
1.0
176
     1
 76
     1
176
     1
 77
     6
176
     1
 78
     2
176
     1
 67
     7
176
     1
 79
     3
176
     1
170
     0
176
     1
171
     0
176
     1
290
     0
176
     1
 93
        1
176
     1
 44
0.0
176
     1
173
     0
176
     1
  0
VISUALSTYLE
  5
35
102
{ACAD_REACTORS
330
2A
102
}
330
2A
100
AcDbVisualStyle
  2
Dim
 70
    11
177
     2
291
     1
 71
     2
176
     1
 72
     2
176
     1
 73
     0
176
     1
 90
        0
176
     1
 40
-0.6
176
     1
 41
-30.0
176
     1
 62
     5
 63
     7
421
 16777215
176
     1
 74
     1
176
     1
 91
        4
176
     1
 64
     7
176
     1
 65
   257
176
     1
 75
     1
176
     1
175
     1
176
     1
 42
1.0
176
     1
 92
        8
176
     1
 66
     7
176
     1
 43
1.0
176
     1
 76
     1
176
     1
 77
     6
176
     1
 78
     2
176
     1
 67
     7
176
     1
 79
     5
176
     1
170
     0
176
     1
171
     0
176
     1
290
     0
176
     1
 93
        1
176
     1
 44
-50.0
176
     1
173
     0
176
     1
  0
VISUALSTYLE
  5
39
102
{ACAD_REACTORS
330
2A
102
}
330
2A
100
AcDbVisualStyle
  2
Facepattern
 70
    15
177
     2
291
     1
 71
     2
176
     1
 72
     2
176
     1
 73
     0
176
     1
 90
        0
176
     1
 40
-0.6
176
     1
 41
-30.0
176
     1
 62
     5
 63
     7
421
 16777215
176
     1
 74
     1
176
     1
 91
        4
176
     1
 64
     7
176
     1
 65
   257
176
     1
 75
     1
176
     1
175
     1
176
     1
 42
1.0
176
     1
 92
        8
176
     1
 66
     7
176
     1
 43
1.0
176
     1
 76
     1
176
     1
 77
     6
176
     1
 78
     2
176
     1
 67
     7
176
     1
 79
     5
176
     1
170
     0
176
     1
171
     0
176
     1
290
     0
176
     1
 93
        1
176
     1
 44
0.0
176
     1
173
     0
176
     1
  0
VISUALSTYLE
  5
2B
102
{ACAD_REACTORS
330
2A
102
}
330
2A
100
AcDbVisualStyle
  2
Flat
 70
     0
177
     2
291
     1
 71
     2
176
     1
 72
     1
176
     1
 73
     1
176
     1
 90
        2
176
     1
 40
-0.6
176
     1
 41
30.0
176
     1
 62
     5
 63
     7
421
 16777215
176
     1
 74
     0
176
     1
 91
        4
176
     1
 64
     7
176
     1
 65
   257
176
     1
 75
     1
176
     1
175
     1
176
     1
 42
1.0
176
     1
 92
        8
176
     1
 66
     7
176
     1
 43
1.0
176
     1
 76
     1
176
     1
 77
     6
176
     1
 78
     2
176
     1
 67
     7
176
     1
 79
     5
176
     1
170
     0
176
     1
171
     0
176
     1
290
     0
176
     1
 93
       13
176
     1
 44
0.0
176
     1
173
     0
176
     1
  0
VISUALSTYLE
  5
2C
102
{ACAD_REACTORS
330
2A
102
}
330
2A
100
AcDbVisualStyle
  2
FlatWithEdges
 70
     1
177
     2
291
     1
 71
     2
176
     1
 72
     1
176
     1
 73
     1
176
     1
 90
        2
176
     1
 40
-0.6
176
     1
 41
30.0
176
     1
 62
     5
 63
     7
421
 16777215
176
     1
 74
     1
176
     1
 91
        4
176
     1
 64
     7
176
     1
 65
   257
176
     1
 75
     1
176
     1
175
     1
176
     1
 42
1.0
176
     1
 92
        0
176
     1
 66
   257
176
     1
 43
1.0
176
     1
 76
     1
176
     1
 77
     6
176
     1
 78
     2
176
     1
 67
     7
176
     1
 79
     5
176
     1
170
     0
176
     1
171
     0
176
     1
290
     0
176
     1
 93
       13
176
     1
 44
0.0
176
     1
173
     0
176
     1
  0
VISUALSTYLE
  5
2D
102
{ACAD_REACTORS
330
2A
102
}
330
2A
100
AcDbVisualStyle
  2
Gouraud
 70
     2
177
     2
291
     1
 71
     2
176
     1
 72
     2
176
     1
 73
     1
176
     1
 90
        2
176
     1
 40
-0.6
176
     1
 41
30.0
176
     1
 62
     5
 63
     7
421
 16777215
176
     1
 74
     0
176
     1
 91
        4
176
     1
 64
     7
176
     1
 65
   257
176
     1
 75
     1
176
     1
175
     1
176
     1
 42
1.0
176
     1
 92
        0
176
     1
 66
     7
176
     1
 43
1.0
176
     1
 76
     1
176
     1
 77
     6
176
     1
 78
     2
176
     1
 67
     7
176
     1
 79
     5
176
     1
170
     0
176
     1
171
     0
176
     1
290
     0
176
     1
 93
       13
176
     1
 44
0.0
176
     1
173
     0
176
     1
  0
VISUALSTYLE
  5
2E
102
{ACAD_REACTORS
330
2A
102
}
330
2A
100
AcDbVisualStyle
  2
GouraudWithEdges
 70
     3
177
     2
291
     1
 71
     2
176
     1
 72
     2
176
     1
 73
     1
176
     1
 90
        2
176
     1
 40
-0.6
176
     1
 41
30.0
176
     1
 62
     5
 63
     7
421
 16777215
176
     1
 74
     1
176
     1
 91
        4
176
     1
 64
     7
176
     1
 65
   257
176
     1
 75
     1
176
     1
175
     1
176
     1
 42
1.0
176
     1
 92
        0
176
     1
 66
   257
176
     1
 43
1.0
176
     1
 76
     1
176
     1
 77
     6
176
     1
 78
     2
176
     1
 67
     7
176
     1
 79
     5
176
     1
170
     0
176
     1
171
     0
176
     1
290
     0
176
     1
 93
       13
176
     1
 44
0.0
176
     1
173
     0
176
     1
  0
VISUALSTYLE
  5
38
102
{ACAD_REACTORS
330
2A
102
}
330
2A
100
AcDbVisualStyle
  2
Linepattern
 70
    14
177
     2
291
     1
 71
     2
176
     1
 72
     2
176
     1
 73
     0
176
     1
 90
        0
176
     1
 40
-0.6
176
     1
 41
-30.0
176
     1
 62
     5
 63
     7
421
 16777215
176
     1
 74
     1
176
     1
 91
        4
176
     1
 64
     7
176
     1
 65
   257
176
     1
 75
     7
176
     1
175
     7
176
     1
 42
1.0
176
     1
 92
        8
176
     1
 66
     7
176
     1
 43
1.0
176
     1
 76
     1
176
     1
 77
     6
176
     1
 78
     2
176
     1
 67
     7
176
     1
 79
     5
176
     1
170
     0
176
     1
171
     0
176
     1
290
     0
176
     1
 93
        1
176
     1
 44
0.0
176
     1
173
     0
176
     1
  0
VISUALSTYLE
  5
33
102
{ACAD_REACTORS
330
2A
102
}
330
2A
100
AcDbVisualStyle
  2
Realistic
 70
     8
177
     2
291
     0
 71
     2
176
     1
 72
     2
176
     1
 73
     0
176
     1
 90
        0
176
     1
 40
-0.6
176
     1
 41
-30.0
176
     1
 62
     5
 63
     7
421
 16777215
176
     1
 74
     1
176
     1
 91
        0
176
     1
 64
     7
176
     1
 65
   257
176
     1
 75
     1
176
     1
175
     1
176
     1
 42
1.0
176
     1
 92
        8
176
     1
 66
     8
424
  7895160
176
     1
 43
1.0
176
     1
 76
     1
176
     1
 77
     6
176
     1
 78
     2
176
     1
 67
     7
176
     1
 79
     5
176
     1
170
     0
176
     1
171
     0
176
     1
290
     0
176
     1
 93
       13
176
     1
 44
0.0
176
     1
173
     0
176
     1
  0
VISUALSTYLE
  5
37
102
{ACAD_REACTORS
330
2A
102
}
330
2A
100
AcDbVisualStyle
  2
Thicken
 70
    13
177
     2
291
     1
 71
     2
176
     1
 72
     2
176
     1
 73
     0
176
     1
 90
        0
176
     1
 40
-0.6
176
     1
 41
-30.0
176
     1
 62
     5
 63
     7
421
 16777215
176
     1
 74
     1
176
     1
 91
        4
176
     1
 64
     7
176
     1
 65
   257
176
     1
 75
     1
176
     1
175
     1
176
     1
 42
1.0
176
     1
 92
       12
176
     1
 66
     7
176
     1
 43
1.0
176
     1
 76
     1
176
     1
 77
     6
176
     1
 78
     2
176
     1
 67
     7
176
     1
 79
     5
176
     1
170
     0
176
     1
171
     0
176
     1
290
     0
176
     1
 93
        1
176
     1
 44
0.0
176
     1
173
     0
176
     1
  0
ENDSEC
  0
EOF
