  0
SECTION
  2
HEADER
  9
$ACADVER
  1
AC1024
  9
$ACADMAINTVER
 70
     6
  9
$DWGCODEPAGE
  3
UNDEFINED
  9
$INSBASE
 10
0.0
 20
0.0
 30
0.0
  9
$EXTMIN
 10
1.000000000000000E+20
 20
1.000000000000000E+20
 30
1.000000000000000E+20
  9
$EXTMAX
 10
-1.000000000000000E+20
 20
-1.000000000000000E+20
 30
-1.000000000000000E+20
  9
$LIMMIN
 10
0.0
 20
0.0
  9
$LIMMAX
 10
12.0
 20
9.0
  9
$ORTHOMODE
 70
     0
  9
$REGENMODE
 70
     1
  9
$FILLMODE
 70
     1
  9
$QTEXTMODE
 70
     0
  9
$MIRRTEXT
 70
     1
  9
$LTSCALE
 40
1.0
  9
$ATTMODE
 70
     1
  9
$TEXTSIZE
 40
0.2
  9
$TRACEWID
 40
0.05
  9
$TEXTSTYLE
  7
Standard
  9
$CLAYER
  8
0
  9
$CELTYPE
  6
ByLayer
  9
$CECOLOR
 62
   256
  9
$CELTSCALE
 40
1.0
  9
$DISPSILH
 70
     0
  9
$DIMSCALE
 40
1.0
  9
$DIMASZ
 40
0.18
  9
$DIMEXO
 40
0.0625
  9
$DIMDLI
 40
0.38
  9
$DIMRND
 40
0.0
  9
$DIMDLE
 40
0.0
  9
$DIMEXE
 40
0.18
  9
$DIMTP
 40
0.0
  9
$DIMTM
 40
0.0
  9
$DIMTXT
 40
0.18
  9
$DIMCEN
 40
0.09
  9
$DIMTSZ
 40
0.0
  9
$DIMTOL
 70
     0
  9
$DIMLIM
 70
     0
  9
$DIMTIH
 70
     1
  9
$DIMTOH
 70
     1
  9
$DIMSE1
 70
     0
  9
$DIMSE2
 70
     0
  9
$DIMTAD
 70
     0
  9
$DIMZIN
 70
     0
  9
$DIMBLK
  1

  9
$DIMASO
 70
     1
  9
$DIMSHO
 70
     1
  9
$DIMPOST
  1

  9
$DIMAPOST
  1

  9
$DIMALT
 70
     0
  9
$DIMALTD
 70
     2
  9
$DIMALTF
 40
25.4
  9
$DIMLFAC
 40
1.0
  9
$DIMTOFL
 70
     0
  9
$DIMTVP
 40
0.0
  9
$DIMTIX
 70
     0
  9
$DIMSOXD
 70
     0
  9
$DIMSAH
 70
     0
  9
$DIMBLK1
  1

  9
$DIMBLK2
  1

  9
$DIMSTYLE
  2
Standard
  9
$DIMCLRD
 70
     0
  9
$DIMCLRE
 70
     0
  9
$DIMCLRT
 70
     0
  9
$DIMTFAC
 40
1.0
  9
$DIMGAP
 40
0.09
  9
$DIMJUST
 70
     0
  9
$DIMSD1
 70
     0
  9
$DIMSD2
 70
     0
  9
$DIMTOLJ
 70
     1
  9
$DIMTZIN
 70
     0
  9
$DIMALTZ
 70
     0
  9
$DIMALTTZ
 70
     0
  9
$DIMUPT
 70
     0
  9
$DIMDEC
 70
     4
  9
$DIMTDEC
 70
     4
  9
$DIMALTU
 70
     2
  9
$DIMALTTD
 70
     2
  9
$DIMTXSTY
  7
Standard
  9
$DIMAUNIT
 70
     0
  9
$DIMADEC
 70
     0
  9
$DIMALTRND
 40
0.0
  9
$DIMAZIN
 70
     0
  9
$DIMDSEP
 70
    46
  9
$DIMATFIT
 70
     3
  9
$DIMFRAC
 70
     0
  9
$DIMLDRBLK
  1

  9
$DIMLUNIT
 70
     2
  9
$DIMLWD
 70
    -2
  9
$DIMLWE
 70
    -2
  9
$DIMTMOVE
 70
     0
  9
$DIMFXL
 40
1.0
  9
$DIMFXLON
 70
     0
  9
$DIMJOGANG
 40
0.7853981633974483
  9
$DIMTFILL
 70
     0
  9
$DIMTFILLCLR
 70
     0
  9
$DIMARCSYM
 70
     0
  9
$DIMLTYPE
  6

  9
$DIMLTEX1
  6

  9
$DIMLTEX2
  6

  9
$DIMTXTDIRECTION
 70
     0
  9
$LUNITS
 70
     2
  9
$LUPREC
 70
     4
  9
$SKETCHINC
 40
0.1
  9
$FILLETRAD
 40
0.5
  9
$AUNITS
 70
     0
  9
$AUPREC
 70
     0
  9
$MENU
  1
.
  9
$ELEVATION
 40
0.0
  9
$PELEVATION
 40
0.0
  9
$THICKNESS
 40
0.0
  9
$LIMCHECK
 70
     0
  9
$CHAMFERA
 40
0.5
  9
$CHAMFERB
 40
0.5
  9
$CHAMFERC
 40
1.0
  9
$CHAMFERD
 40
0.0
  9
$SKPOLY
 70
     0
  9
$TDCREATE
 40
2457917.614305544
  9
$TDUCREATE
 40
2457917.239305555
  9
$TDUPDATE
 40
2457917.614305544
  9
$TDUUPDATE
 40
2457917.239305555
  9
$TDINDWG
 40
0.0000000116
  9
$TDUSRTIMER
 40
0.0000000116
  9
$USRTIMER
 70
     1
  9
$ANGBASE
 50
0.0
  9
$ANGDIR
 70
     0
  9
$PDMODE
 70
     0
  9
$PDSIZE
 40
0.0
  9
$PLINEWID
 40
0.0
  9
$SPLFRAME
 70
     0
  9
$SPLINETYPE
 70
     6
  9
$SPLINESEGS
 70
     8
  9
$HANDSEED
  5
E9
  9
$SURFTAB1
 70
     6
  9
$SURFTAB2
 70
     6
  9
$SURFTYPE
 70
     6
  9
$SURFU
 70
     6
  9
$SURFV
 70
     6
  9
$UCSBASE
  2

  9
$UCSNAME
  2

  9
$UCSORG
 10
0.0
 20
0.0
 30
0.0
  9
$UCSXDIR
 10
1.0
 20
0.0
 30
0.0
  9
$UCSYDIR
 10
0.0
 20
1.0
 30
0.0
  9
$UCSORTHOREF
  2

  9
$UCSORTHOVIEW
 70
     0
  9
$UCSORGTOP
 10
0.0
 20
0.0
 30
0.0
  9
$UCSORGBOTTOM
 10
0.0
 20
0.0
 30
0.0
  9
$UCSORGLEFT
 10
0.0
 20
0.0
 30
0.0
  9
$UCSORGRIGHT
 10
0.0
 20
0.0
 30
0.0
  9
$UCSORGFRONT
 10
0.0
 20
0.0
 30
0.0
  9
$UCSORGBACK
 10
0.0
 20
0.0
 30
0.0
  9
$PUCSBASE
  2

  9
$PUCSNAME
  2

  9
$PUCSORG
 10
0.0
 20
0.0
 30
0.0
  9
$PUCSXDIR
 10
1.0
 20
0.0
 30
0.0
  9
$PUCSYDIR
 10
0.0
 20
1.0
 30
0.0
  9
$PUCSORTHOREF
  2

  9
$PUCSORTHOVIEW
 70
     0
  9
$PUCSORGTOP
 10
0.0
 20
0.0
 30
0.0
  9
$PUCSORGBOTTOM
 10
0.0
 20
0.0
 30
0.0
  9
$PUCSORGLEFT
 10
0.0
 20
0.0
 30
0.0
  9
$PUCSORGRIGHT
 10
0.0
 20
0.0
 30
0.0
  9
$PUCSORGFRONT
 10
0.0
 20
0.0
 30
0.0
  9
$PUCSORGBACK
 10
0.0
 20
0.0
 30
0.0
  9
$USERI1
 70
     0
  9
$USERI2
 70
     0
  9
$USERI3
 70
     0
  9
$USERI4
 70
     0
  9
$USERI5
 70
     0
  9
$USERR1
 40
0.0
  9
$USERR2
 40
0.0
  9
$USERR3
 40
0.0
  9
$USERR4
 40
0.0
  9
$USERR5
 40
0.0
  9
$WORLDVIEW
 70
     1
  9
$SHADEDGE
 70
     3
  9
$SHADEDIF
 70
    70
  9
$TILEMODE
 70
     1
  9
$MAXACTVP
 70
    64
  9
$PINSBASE
 10
0.0
 20
0.0
 30
0.0
  9
$PLIMCHECK
 70
     0
  9
$PEXTMIN
 10
1.000000000000000E+20
 20
1.000000000000000E+20
 30
1.000000000000000E+20
  9
$PEXTMAX
 10
-1.000000000000000E+20
 20
-1.000000000000000E+20
 30
-1.000000000000000E+20
  9
$PLIMMIN
 10
0.0
 20
0.0
  9
$PLIMMAX
 10
12.0
 20
9.0
  9
$UNITMODE
 70
     0
  9
$VISRETAIN
 70
     1
  9
$PLINEGEN
 70
     0
  9
$PSLTSCALE
 70
     1
  9
$TREEDEPTH
 70
  3020
  9
$CMLSTYLE
  2
Standard
  9
$CMLJUST
 70
     0
  9
$CMLSCALE
 40
1.0
  9
$PROXYGRAPHICS
 70
     1
  9
$MEASUREMENT
 70
     0
  9
$CELWEIGHT
370
    -1
  9
$ENDCAPS
280
     0
  9
$JOINSTYLE
280
     0
  9
$LWDISPLAY
290
     1
  9
$INSUNITS
 70
     1
  9
$HYPERLINKBASE
  1

  9
$STYLESHEET
  1

  9
$XEDIT
290
     1
  9
$CEPSNTYPE
380
     0
  9
$PSTYLEMODE
290
     1
  9
$FINGERPRINTGUID
  2
{D56CA7B6-9063-3192-A993-B5EB6A0D2FD5}
  9
$VERSIONGUID
  2
{FAEB1C32-E019-11D5-929B-00C0DF256EC4}
  9
$EXTNAMES
290
     1
  9
$PSVPSCALE
 40
0.0
  9
$OLESTARTUP
290
     0
  9
$SORTENTS
280
   127
  9
$INDEXCTL
280
     0
  9
$HIDETEXT
280
     1
  9
$XCLIPFRAME
280
     2
  9
$HALOGAP
280
     0
  9
$OBSCOLOR
 70
   257
  9
$OBSLTYPE
280
     0
  9
$INTERSECTIONDISPLAY
280
     0
  9
$INTERSECTIONCOLOR
 70
   257
  9
$DIMASSOC
280
     2
  9
$PROJECTNAME
  1

  9
$CAMERADISPLAY
290
     0
  9
$LENSLENGTH
 40
50.0
  9
$CAMERAHEIGHT
 40
0.0
  9
$STEPSPERSEC
 40
2.0
  9
$STEPSIZE
 40
6.0
  9
$3DDWFPREC
 40
2.0
  9
$PSOLWIDTH
 40
0.25
  9
$PSOLHEIGHT
 40
4.0
  9
$LOFTANG1
 40
1.570796326794897
  9
$LOFTANG2
 40
1.570796326794897
  9
$LOFTMAG1
 40
0.0
  9
$LOFTMAG2
 40
0.0
  9
$LOFTPARAM
 70
     7
  9
$LOFTNORMALS
280
     1
  9
$LATITUDE
 40
37.795
  9
$LONGITUDE
 40
-122.394
  9
$NORTHDIRECTION
 40
0.0
  9
$TIMEZONE
 70
 -8000
  9
$LIGHTGLYPHDISPLAY
280
     1
  9
$TILEMODELIGHTSYNCH
280
     1
  9
$CMATERIAL
347
3C
  9
$SOLIDHIST
280
     1
  9
$SHOWHIST
280
     1
  9
$DWFFRAME
280
     2
  9
$DGNFRAME
280
     2
  9
$REALWORLDSCALE
290
     1
  9
$INTERFERECOLOR
 62
   256
  9
$CSHADOW
280
     0
  9
$SHADOWPLANELOCATION
 40
0.0
  0
ENDSEC
  0
SECTION
  2
CLASSES
  0
CLASS
  1
ACDBDICTIONARYWDFLT
  2
AcDbDictionaryWithDefault
  3
ObjectDBX Classes
 90
        0
 91
        4
280
     0
281
     0
  0
CLASS
  1
VISUALSTYLE
  2
AcDbVisualStyle
  3
ObjectDBX Classes
 90
     4095
 91
        4
280
     0
281
     0
  0
CLASS
  1
MATERIAL
  2
AcDbMaterial
  3
ObjectDBX Classes
 90
     1153
 91
        4
280
     0
281
     0
  0
CLASS
  1
SUN
  2
AcDbSun
  3
SCENEOE
 90
     1024
 91
        4
280
     0
281
     0
  0
ENDSEC
  0
SECTION
  2
TABLES
  0
TABLE
  2
VPORT
  5
8
330
0
100
AcDbSymbolTable
 70
     1
  0
VPORT
  5
29
330
8
100
AcDbSymbolTableRecord
100
AcDbViewportTableRecord
  2
*Active
 70
     0
 10
0.0
 20
0.0
 11
1.0
 21
1.0
 12
0.0
 22
0.0
 13
0.0
 23
0.0
 14
0.5
 24
0.5
 15
0.5
 25
0.5
 16
0.0
 26
0.0
 36
1.0
 17
91.00082462281999
 27
-128.4993055234307
 37
0.0
 40
256.9986110468615
 41
0.7081814508812795
 42
50.0
 43
0.0
 44
0.0
 50
0.0
 51
0.0
 71
     0
 72
   100
 73
     1
 74
     3
 75
     0
 76
     0
 77
     0
 78
     0
281
     0
 65
     1
110
0.0
120
0.0
130
0.0
111
1.0
121
0.0
131
0.0
112
0.0
122
1.0
132
0.0
 79
     0
146
0.0
 60
     3
 61
     5
292
     1
282
     1
141
0.0
142
0.0
 63
   250
361
3F
  0
ENDTAB
  0
TABLE
  2
LTYPE
  5
5
330
0
100
AcDbSymbolTable
 70
     1
  0
LTYPE
  5
14
330
5
100
AcDbSymbolTableRecord
100
AcDbLinetypeTableRecord
  2
ByBlock
 70
     0
  3

 72
    65
 73
     0
 40
0.0
  0
LTYPE
  5
15
330
5
100
AcDbSymbolTableRecord
100
AcDbLinetypeTableRecord
  2
ByLayer
 70
     0
  3

 72
    65
 73
     0
 40
0.0
  0
LTYPE
  5
16
330
5
100
AcDbSymbolTableRecord
100
AcDbLinetypeTableRecord
  2
Continuous
 70
     0
  3
Solid line
 72
    65
 73
     0
 40
0.0
  0
ENDTAB
  0
TABLE
  2
LAYER
  5
2
330
0
100
AcDbSymbolTable
 70
     2
  0
LAYER
  5
10
330
2
100
AcDbSymbolTableRecord
100
AcDbLayerTableRecord
  2
0
 70
     0
 62
     7
  6
Continuous
370
    -3
390
F
347
3E
  0
LAYER
  5
40
330
2
100
AcDbSymbolTableRecord
100
AcDbLayerTableRecord
  2
_U+30EC_U+30A4_U+30E4_U+30FC 1
 70
     0
 62
     7
  6
Continuous
370
    -3
390
F
347
3E
  0
ENDTAB
  0
TABLE
  2
STYLE
  5
3
330
0
100
AcDbSymbolTable
 70
     1
  0
STYLE
  5
11
330
3
100
AcDbSymbolTableRecord
100
AcDbTextStyleTableRecord
  2
Standard
 70
     0
 40
0.0
 41
1.0
 50
0.0
 71
     0
 42
0.2
  3
txt
  4

  0
ENDTAB
  0
TABLE
  2
VIEW
  5
6
330
0
100
AcDbSymbolTable
 70
     0
  0
ENDTAB
  0
TABLE
  2
UCS
  5
7
330
0
100
AcDbSymbolTable
 70
     0
  0
ENDTAB
  0
TABLE
  2
APPID
  5
9
330
0
100
AcDbSymbolTable
 70
     1
  0
APPID
  5
12
330
9
100
AcDbSymbolTableRecord
100
AcDbRegAppTableRecord
  2
ACAD
 70
     0
  0
ENDTAB
  0
TABLE
  2
DIMSTYLE
  5
A
330
0
100
AcDbSymbolTable
 70
     1
100
AcDbDimStyleTable
  0
DIMSTYLE
105
27
330
A
100
AcDbSymbolTableRecord
100
AcDbDimStyleTableRecord
  2
Standard
 70
     0
178
     0
340
11
  0
ENDTAB
  0
TABLE
  2
BLOCK_RECORD
  5
1
330
0
100
AcDbSymbolTable
 70
    11
  0
BLOCK_RECORD
  5
1F
330
1
100
AcDbSymbolTableRecord
100
AcDbBlockTableRecord
  2
*Model_Space
340
22
 70
     0
280
     1
281
     0
  0
BLOCK_RECORD
  5
1B
330
1
100
AcDbSymbolTableRecord
100
AcDbBlockTableRecord
  2
*Paper_Space
340
1E
 70
     0
280
     1
281
     0
  0
BLOCK_RECORD
  5
23
330
1
100
AcDbSymbolTableRecord
100
AcDbBlockTableRecord
  2
*Paper_Space0
340
26
 70
     0
280
     1
281
     0
  0
BLOCK_RECORD
  5
41
330
1
100
AcDbSymbolTableRecord
100
AcDbBlockTableRecord
  2
block 2
340
0
102
{BLKREFS
331
42
102
}
 70
     0
280
     1
281
     0
  0
BLOCK_RECORD
  5
53
330
1
100
AcDbSymbolTableRecord
100
AcDbBlockTableRecord
  2
block 3
340
0
102
{BLKREFS
331
54
102
}
 70
     0
280
     1
281
     0
  0
BLOCK_RECORD
  5
6E
330
1
100
AcDbSymbolTableRecord
100
AcDbBlockTableRecord
  2
block 4
340
0
102
{BLKREFS
331
6F
102
}
 70
     0
280
     1
281
     0
  0
BLOCK_RECORD
  5
82
330
1
100
AcDbSymbolTableRecord
100
AcDbBlockTableRecord
  2
block 5
340
0
102
{BLKREFS
331
83
102
}
 70
     0
280
     1
281
     0
  0
BLOCK_RECORD
  5
94
330
1
100
AcDbSymbolTableRecord
100
AcDbBlockTableRecord
  2
block 6
340
0
102
{BLKREFS
331
95
102
}
 70
     0
280
     1
281
     0
  0
BLOCK_RECORD
  5
A9
330
1
100
AcDbSymbolTableRecord
100
AcDbBlockTableRecord
  2
block 7
340
0
102
{BLKREFS
331
AA
102
}
 70
     0
280
     1
281
     0
  0
BLOCK_RECORD
  5
B2
330
1
100
AcDbSymbolTableRecord
100
AcDbBlockTableRecord
  2
block 8
340
0
102
{BLKREFS
331
B3
102
}
 70
     0
280
     1
281
     0
  0
BLOCK_RECORD
  5
C2
330
1
100
AcDbSymbolTableRecord
100
AcDbBlockTableRecord
  2
block 9
340
0
102
{BLKREFS
331
C3
102
}
 70
     0
280
     1
281
     0
  0
BLOCK_RECORD
  5
CA
330
1
100
AcDbSymbolTableRecord
100
AcDbBlockTableRecord
  2
block 10
340
0
102
{BLKREFS
331
CB
102
}
 70
     0
280
     1
281
     0
  0
BLOCK_RECORD
  5
D6
330
1
100
AcDbSymbolTableRecord
100
AcDbBlockTableRecord
  2
block 11
340
0
102
{BLKREFS
331
D7
102
}
 70
     0
280
     1
281
     0
  0
ENDTAB
  0
ENDSEC
  0
SECTION
  2
BLOCKS
  0
BLOCK
  5
20
330
1F
100
AcDbEntity
  8
0
100
AcDbBlockBegin
  2
*Model_Space
 70
     0
 10
0.0
 20
0.0
 30
0.0
  3
*Model_Space
  1

  0
ENDBLK
  5
21
330
1F
100
AcDbEntity
  8
0
100
AcDbBlockEnd
  0
BLOCK
  5
1C
330
1B
100
AcDbEntity
 67
     1
  8
0
100
AcDbBlockBegin
  2
*Paper_Space
 70
     0
 10
0.0
 20
0.0
 30
0.0
  3
*Paper_Space
  1

  0
ENDBLK
  5
1D
330
1B
100
AcDbEntity
 67
     1
  8
0
100
AcDbBlockEnd
  0
BLOCK
  5
24
330
23
100
AcDbEntity
  8
0
100
AcDbBlockBegin
  2
*Paper_Space0
 70
     0
 10
0.0
 20
0.0
 30
0.0
  3
*Paper_Space0
  1

  0
ENDBLK
  5
25
330
23
100
AcDbEntity
  8
0
100
AcDbBlockEnd
  0
BLOCK
  5
43
330
41
100
AcDbEntity
  8
0
100
AcDbBlockBegin
  2
block 2
 70
     0
 10
0.0
 20
0.0
 30
0.0
  3
block 2
  1

  0
POLYLINE
  5
45
330
41
100
AcDbEntity
  8
_U+30EC_U+30A4_U+30E4_U+30FC 1
370
     0
100
AcDb2dPolyline
 66
     1
 10
0.0
 20
0.0
 30
0.0
  0
VERTEX
  5
46
330
45
100
AcDbEntity
  8
_U+30EC_U+30A4_U+30E4_U+30FC 1
370
     0
100
AcDbVertex
100
AcDb2dVertex
 10
73.2218834097319
 20
-124.9081335798842
 30
0.0
  0
VERTEX
  5
47
330
45
100
AcDbEntity
  8
_U+30EC_U+30A4_U+30E4_U+30FC 1
370
     0
100
AcDbVertex
100
AcDb2dVertex
 10
83.28568065298305
 20
-124.9081335798842
 30
0.0
  0
VERTEX
  5
48
330
45
100
AcDbEntity
  8
_U+30EC_U+30A4_U+30E4_U+30FC 1
370
     0
100
AcDbVertex
100
AcDb2dVertex
 10
83.28568065298305
 20
-135.6082716327648
 30
0.0
  0
VERTEX
  5
49
330
45
100
AcDbEntity
  8
_U+30EC_U+30A4_U+30E4_U+30FC 1
370
     0
100
AcDbVertex
100
AcDb2dVertex
 10
91.286257115538
 20
-135.6082716327648
 30
0.0
  0
VERTEX
  5
4A
330
45
100
AcDbEntity
  8
_U+30EC_U+30A4_U+30E4_U+30FC 1
370
     0
100
AcDbVertex
100
AcDb2dVertex
 10
91.286257115538
 20
-134.6077938552368
 30
0.0
  0
VERTEX
  5
4B
330
45
100
AcDbEntity
  8
_U+30EC_U+30A4_U+30E4_U+30FC 1
370
     0
100
AcDbVertex
100
AcDb2dVertex
 10
84.1858989633499
 20
-134.6077938552368
 30
0.0
  0
VERTEX
  5
4C
330
45
100
AcDbEntity
  8
_U+30EC_U+30A4_U+30E4_U+30FC 1
370
     0
100
AcDbVertex
100
AcDb2dVertex
 10
84.1858989633499
 20
-124.9081335798842
 30
0.0
  0
VERTEX
  5
4D
330
45
100
AcDbEntity
  8
_U+30EC_U+30A4_U+30E4_U+30FC 1
370
     0
100
AcDbVertex
100
AcDb2dVertex
 10
103.2860281982872
 20
-124.9081335798842
 30
0.0
  0
VERTEX
  5
4E
330
45
100
AcDbEntity
  8
_U+30EC_U+30A4_U+30E4_U+30FC 1
370
     0
100
AcDbVertex
100
AcDb2dVertex
 10
103.2860281982872
 20
-123.9080438579117
 30
0.0
  0
VERTEX
  5
4F
330
45
100
AcDbEntity
  8
_U+30EC_U+30A4_U+30E4_U+30FC 1
370
     0
100
AcDbVertex
100
AcDb2dVertex
 10
73.24393202028051
 20
-123.9080438579117
 30
0.0
  0
VERTEX
  5
50
330
45
100
AcDbEntity
  8
_U+30EC_U+30A4_U+30E4_U+30FC 1
370
     0
100
AcDbVertex
100
AcDb2dVertex
 10
73.2218834097319
 20
-124.9081335798842
 30
0.0
  0
SEQEND
  5
52
330
45
100
AcDbEntity
  8
_U+30EC_U+30A4_U+30E4_U+30FC 1
370
     0
  0
HATCH
  5
51
330
41
100
AcDbEntity
  8
_U+30EC_U+30A4_U+30E4_U+30FC 1
 62
   253
420
 11711154
100
AcDbHatch
 10
0.0
 20
0.0
 30
0.0
210
0.0
220
0.0
230
1.0
  2
SOLID
 70
     1
 71
     0
 91
        1
 92
        1
 93
       10
 72
     1
 10
73.2218834097319
 20
-124.9081335798842
 11
83.28568065298305
 21
-124.9081335798842
 72
     1
 10
83.28568065298305
 20
-124.9081335798842
 11
83.28568065298305
 21
-135.6082716327648
 72
     1
 10
83.28568065298305
 20
-135.6082716327648
 11
91.286257115538
 21
-135.6082716327648
 72
     1
 10
91.286257115538
 20
-135.6082716327648
 11
91.286257115538
 21
-134.6077938552368
 72
     1
 10
91.286257115538
 20
-134.6077938552368
 11
84.1858989633499
 21
-134.6077938552368
 72
     1
 10
84.1858989633499
 20
-134.6077938552368
 11
84.1858989633499
 21
-124.9081335798842
 72
     1
 10
84.1858989633499
 20
-124.9081335798842
 11
103.2860281982872
 21
-124.9081335798842
 72
     1
 10
103.2860281982872
 20
-124.9081335798842
 11
103.2860281982872
 21
-123.9080438579117
 72
     1
 10
103.2860281982872
 20
-123.9080438579117
 11
73.24393202028051
 21
-123.9080438579117
 72
     1
 10
73.24393202028051
 20
-123.9080438579117
 11
73.2218834097319
 21
-124.9081335798842
 97
        0
 75
     2
 76
     1
 98
        0
  0
INSERT
  5
54
330
41
100
AcDbEntity
  8
_U+30EC_U+30A4_U+30E4_U+30FC 1
100
AcDbBlockReference
  2
block 3
 10
0.0
 20
0.0
 30
0.0
  0
ENDBLK
  5
44
330
41
100
AcDbEntity
  8
0
100
AcDbBlockEnd
  0
BLOCK
  5
55
330
53
100
AcDbEntity
  8
0
100
AcDbBlockBegin
  2
block 3
 70
     0
 10
0.0
 20
0.0
 30
0.0
  3
block 3
  1

  0
POLYLINE
  5
57
330
53
100
AcDbEntity
  8
_U+30EC_U+30A4_U+30E4_U+30FC 1
 62
     7
420
 16777215
370
    25
100
AcDb2dPolyline
 66
     1
 10
0.0
 20
0.0
 30
0.0
  0
VERTEX
  5
58
330
57
100
AcDbEntity
  8
_U+30EC_U+30A4_U+30E4_U+30FC 1
 62
     7
420
 16777215
370
    25
100
AcDbVertex
100
AcDb2dVertex
 10
91.286257115538
 20
-135.6082716327648
 30
0.0
  0
VERTEX
  5
59
330
57
100
AcDbEntity
  8
_U+30EC_U+30A4_U+30E4_U+30FC 1
 62
     7
420
 16777215
370
    25
100
AcDbVertex
100
AcDb2dVertex
 10
83.28568065298305
 20
-135.6082716327648
 30
0.0
  0
VERTEX
  5
5A
330
57
100
AcDbEntity
  8
_U+30EC_U+30A4_U+30E4_U+30FC 1
 62
     7
420
 16777215
370
    25
100
AcDbVertex
100
AcDb2dVertex
 10
83.28568065298305
 20
-124.9081335798842
 30
0.0
  0
VERTEX
  5
5B
330
57
100
AcDbEntity
  8
_U+30EC_U+30A4_U+30E4_U+30FC 1
 62
     7
420
 16777215
370
    25
100
AcDbVertex
100
AcDb2dVertex
 10
73.2863006303107
 20
-124.9081335798842
 30
0.0
  0
VERTEX
  5
5C
330
57
100
AcDbEntity
  8
_U+30EC_U+30A4_U+30E4_U+30FC 1
 62
     7
420
 16777215
370
    25
100
AcDbVertex
100
AcDb2dVertex
 10
73.20879720391993
 20
-124.9081335798842
 30
0.0
  0
VERTEX
  5
5D
330
57
100
AcDbEntity
  8
_U+30EC_U+30A4_U+30E4_U+30FC 1
 62
     7
420
 16777215
370
    25
100
AcDbVertex
100
AcDb2dVertex
 10
73.20879720391993
 20
-123.9080438579117
 30
0.0
  0
VERTEX
  5
5E
330
57
100
AcDbEntity
  8
_U+30EC_U+30A4_U+30E4_U+30FC 1
 62
     7
420
 16777215
370
    25
100
AcDbVertex
100
AcDb2dVertex
 10
73.28665340807949
 20
-123.9080438579117
 30
0.0
  0
VERTEX
  5
5F
330
57
100
AcDbEntity
  8
_U+30EC_U+30A4_U+30E4_U+30FC 1
 62
     7
420
 16777215
370
    25
100
AcDbVertex
100
AcDb2dVertex
 10
103.2860281982872
 20
-123.9080438579117
 30
0.0
  0
VERTEX
  5
60
330
57
100
AcDbEntity
  8
_U+30EC_U+30A4_U+30E4_U+30FC 1
 62
     7
420
 16777215
370
    25
100
AcDbVertex
100
AcDb2dVertex
 10
103.2860281982872
 20
-124.9081335798842
 30
0.0
  0
VERTEX
  5
61
330
57
100
AcDbEntity
  8
_U+30EC_U+30A4_U+30E4_U+30FC 1
 62
     7
420
 16777215
370
    25
100
AcDbVertex
100
AcDb2dVertex
 10
84.1858989633499
 20
-124.9081335798842
 30
0.0
  0
VERTEX
  5
62
330
57
100
AcDbEntity
  8
_U+30EC_U+30A4_U+30E4_U+30FC 1
 62
     7
420
 16777215
370
    25
100
AcDbVertex
100
AcDb2dVertex
 10
84.1858989633499
 20
-134.6077938552368
 30
0.0
  0
VERTEX
  5
63
330
57
100
AcDbEntity
  8
_U+30EC_U+30A4_U+30E4_U+30FC 1
 62
     7
420
 16777215
370
    25
100
AcDbVertex
100
AcDb2dVertex
 10
91.286257115538
 20
-134.6077938552368
 30
0.0
  0
VERTEX
  5
64
330
57
100
AcDbEntity
  8
_U+30EC_U+30A4_U+30E4_U+30FC 1
 62
     7
420
 16777215
370
    25
100
AcDbVertex
100
AcDb2dVertex
 10
91.286257115538
 20
-135.6082716327648
 30
0.0
  0
SEQEND
  5
65
330
57
100
AcDbEntity
  8
_U+30EC_U+30A4_U+30E4_U+30FC 1
 62
     7
420
 16777215
370
    25
  0
SPLINE
  5
66
330
53
100
AcDbEntity
  8
_U+30EC_U+30A4_U+30E4_U+30FC 1
 62
     7
420
 16777215
370
     9
100
AcDbSpline
210
0.0
220
0.0
230
1.0
 70
    11
 71
     3
 72
    17
 73
    13
 74
     0
 42
0.0000000001
 43
0.0000000001
 12
1.0
 22
0.0
 32
0.0
 13
1.0
 23
0.0
 33
0.0
 40
0.0
 40
0.0
 40
0.0
 40
0.0
 40
1.0
 40
1.0
 40
1.0
 40
2.0
 40
2.0
 40
2.0
 40
3.0
 40
3.0
 40
3.0
 40
4.0
 40
4.0
 40
4.0
 40
4.0
 10
73.3748478502739
 20
-119.9082846922452
 30
0.0
 10
73.3748478502739
 20
-119.8527927478146
 30
0.0
 10
73.33004507363914
 20
-119.8080252478258
 30
0.0
 10
73.27494118615607
 20
-119.8080252478258
 30
0.0
 10
73.21980202089611
 20
-119.8080252478258
 30
0.0
 10
73.17503452203823
 20
-119.8527927478146
 30
0.0
 10
73.17503452203823
 20
-119.9082846922452
 30
0.0
 10
73.17503452203823
 20
-119.9633885811204
 30
0.0
 10
73.21980202089611
 20
-120.0081913588868
 30
0.0
 10
73.27494118615607
 20
-120.0081913588868
 30
0.0
 10
73.33004507363914
 20
-120.0081913588868
 30
0.0
 10
73.3748478502739
 20
-119.9633885811204
 30
0.0
 10
73.3748478502739
 20
-119.9082846922452
 30
0.0
  0
SPLINE
  5
67
330
53
100
AcDbEntity
  8
_U+30EC_U+30A4_U+30E4_U+30FC 1
 62
     7
420
 16777215
370
     9
100
AcDbSpline
210
0.0
220
0.0
230
1.0
 70
    11
 71
     3
 72
    17
 73
    13
 74
     0
 42
0.0000000001
 43
0.0000000001
 12
1.0
 22
0.0
 32
0.0
 13
1.0
 23
0.0
 33
0.0
 40
0.0
 40
0.0
 40
0.0
 40
0.0
 40
1.0
 40
1.0
 40
1.0
 40
2.0
 40
2.0
 40
2.0
 40
3.0
 40
3.0
 40
3.0
 40
4.0
 40
4.0
 40
4.0
 40
4.0
 10
103.3859348624051
 20
-119.9082846922452
 30
0.0
 10
103.3859348624051
 20
-119.8527927478146
 30
0.0
 10
103.3411320857703
 20
-119.8080252478258
 30
0.0
 10
103.2860281982872
 20
-119.8080252478258
 30
0.0
 10
103.2308916408588
 20
-119.8080252478258
 30
0.0
 10
103.1861215341694
 20
-119.8527927478146
 30
0.0
 10
103.1861215341694
 20
-119.9082846922452
 30
0.0
 10
103.1861215341694
 20
-119.9633885811204
 30
0.0
 10
103.2308916408588
 20
-120.0081913588868
 30
0.0
 10
103.2860281982872
 20
-120.0081913588868
 30
0.0
 10
103.3411320857703
 20
-120.0081913588868
 30
0.0
 10
103.3859348624051
 20
-119.9633885811204
 30
0.0
 10
103.3859348624051
 20
-119.9082846922452
 30
0.0
  0
SPLINE
  5
68
330
53
100
AcDbEntity
  8
_U+30EC_U+30A4_U+30E4_U+30FC 1
 62
     7
420
 16777215
370
     9
100
AcDbSpline
210
0.0
220
0.0
230
1.0
 70
    11
 71
     3
 72
    17
 73
    13
 74
     0
 42
0.0000000001
 43
0.0000000001
 12
1.0
 22
0.0
 32
0.0
 13
1.0
 23
0.0
 33
0.0
 40
0.0
 40
0.0
 40
0.0
 40
0.0
 40
1.0
 40
1.0
 40
1.0
 40
2.0
 40
2.0
 40
2.0
 40
3.0
 40
3.0
 40
3.0
 40
4.0
 40
4.0
 40
4.0
 40
4.0
 10
107.3856939270294
 20
-124.9081335798842
 30
0.0
 10
107.3856939270294
 20
-124.853029691009
 30
0.0
 10
107.3408911503946
 20
-124.8082269132422
 30
0.0
 10
107.2857872629115
 20
-124.8082269132422
 30
0.0
 10
107.2306480976516
 20
-124.8082269132422
 30
0.0
 10
107.1858833065371
 20
-124.853029691009
 30
0.0
 10
107.1858833065371
 20
-124.9081335798842
 30
0.0
 10
107.1858833065371
 20
-124.9635902465369
 30
0.0
 10
107.2306480976516
 20
-125.0083930243036
 30
0.0
 10
107.2857872629115
 20
-125.0083930243036
 30
0.0
 10
107.3408911503946
 20
-125.0083930243036
 30
0.0
 10
107.3856939270294
 20
-124.9635902465369
 30
0.0
 10
107.3856939270294
 20
-124.9081335798842
 30
0.0
  0
SPLINE
  5
69
330
53
100
AcDbEntity
  8
_U+30EC_U+30A4_U+30E4_U+30FC 1
 62
     7
420
 16777215
370
     9
100
AcDbSpline
210
0.0
220
0.0
230
1.0
 70
    11
 71
     3
 72
    17
 73
    13
 74
     0
 42
0.0000000001
 43
0.0000000001
 12
1.0
 22
0.0
 32
0.0
 13
1.0
 23
0.0
 33
0.0
 40
0.0
 40
0.0
 40
0.0
 40
0.0
 40
1.0
 40
1.0
 40
1.0
 40
2.0
 40
2.0
 40
2.0
 40
3.0
 40
3.0
 40
3.0
 40
4.0
 40
4.0
 40
4.0
 40
4.0
 10
107.3856939270294
 20
-123.9080438579117
 30
0.0
 10
107.3856939270294
 20
-123.852904691259
 30
0.0
 10
107.3408911503946
 20
-123.8081019134926
 30
0.0
 10
107.2857872629115
 20
-123.8081019134926
 30
0.0
 10
107.2306480976516
 20
-123.8081019134926
 30
0.0
 10
107.1858833065371
 20
-123.852904691259
 30
0.0
 10
107.1858833065371
 20
-123.9080438579117
 30
0.0
 10
107.1858833065371
 20
-123.9635005245647
 30
0.0
 10
107.2306480976516
 20
-124.0079505245537
 30
0.0
 10
107.2857872629115
 20
-124.0079505245537
 30
0.0
 10
107.3408911503946
 20
-124.0079505245537
 30
0.0
 10
107.3856939270294
 20
-123.9635005245647
 30
0.0
 10
107.3856939270294
 20
-123.9080438579117
 30
0.0
  0
SPLINE
  5
6A
330
53
100
AcDbEntity
  8
_U+30EC_U+30A4_U+30E4_U+30FC 1
 62
     7
420
 16777215
370
     9
100
AcDbSpline
210
0.0
220
0.0
230
1.0
 70
    11
 71
     3
 72
    17
 73
    13
 74
     0
 42
0.0000000001
 43
0.0000000001
 12
1.0
 22
0.0
 32
0.0
 13
1.0
 23
0.0
 33
0.0
 40
0.0
 40
0.0
 40
0.0
 40
0.0
 40
1.0
 40
1.0
 40
1.0
 40
2.0
 40
2.0
 40
2.0
 40
3.0
 40
3.0
 40
3.0
 40
4.0
 40
4.0
 40
4.0
 40
4.0
 10
107.3856939270294
 20
-134.6077938552368
 30
0.0
 10
107.3856939270294
 20
-134.5526899663618
 30
0.0
 10
107.3408911503946
 20
-134.5078871885951
 30
0.0
 10
107.2857872629115
 20
-134.5078871885951
 30
0.0
 10
107.2306480976516
 20
-134.5078871885951
 30
0.0
 10
107.1858833065371
 20
-134.5526899663618
 30
0.0
 10
107.1858833065371
 20
-134.6077938552368
 30
0.0
 10
107.1858833065371
 20
-134.6636032996672
 30
0.0
 10
107.2306480976516
 20
-134.7084060774339
 30
0.0
 10
107.2857872629115
 20
-134.7084060774339
 30
0.0
 10
107.3408911503946
 20
-134.7084060774339
 30
0.0
 10
107.3856939270294
 20
-134.6636032996672
 30
0.0
 10
107.3856939270294
 20
-134.6077938552368
 30
0.0
  0
SPLINE
  5
6B
330
53
100
AcDbEntity
  8
_U+30EC_U+30A4_U+30E4_U+30FC 1
 62
     7
420
 16777215
370
     9
100
AcDbSpline
210
0.0
220
0.0
230
1.0
 70
    11
 71
     3
 72
    17
 73
    13
 74
     0
 42
0.0000000001
 43
0.0000000001
 12
1.0
 22
0.0
 32
0.0
 13
1.0
 23
0.0
 33
0.0
 40
0.0
 40
0.0
 40
0.0
 40
0.0
 40
1.0
 40
1.0
 40
1.0
 40
2.0
 40
2.0
 40
2.0
 40
3.0
 40
3.0
 40
3.0
 40
4.0
 40
4.0
 40
4.0
 40
4.0
 10
83.38594009486965
 20
-139.6080307984311
 30
0.0
 10
83.38594009486965
 20
-139.5528916317786
 30
0.0
 10
83.34117259601177
 20
-139.5081241317894
 30
0.0
 10
83.28568065298305
 20
-139.5081241317894
 30
0.0
 10
83.23057676549998
 20
-139.5081241317894
 30
0.0
 10
83.18577398886521
 20
-139.5528916317786
 30
0.0
 10
83.18577398886521
 20
-139.6080307984311
 30
0.0
 10
83.18577398886521
 20
-139.6631346873066
 30
0.0
 10
83.23057676549998
 20
-139.7079374650727
 30
0.0
 10
83.28568065298305
 20
-139.7079374650727
 30
0.0
 10
83.34117259601177
 20
-139.7079374650727
 30
0.0
 10
83.38594009486965
 20
-139.6631346873066
 30
0.0
 10
83.38594009486965
 20
-139.6080307984311
 30
0.0
  0
SPLINE
  5
6C
330
53
100
AcDbEntity
  8
_U+30EC_U+30A4_U+30E4_U+30FC 1
 62
     7
420
 16777215
370
     9
100
AcDbSpline
210
0.0
220
0.0
230
1.0
 70
    11
 71
     3
 72
    17
 73
    13
 74
     0
 42
0.0000000001
 43
0.0000000001
 12
1.0
 22
0.0
 32
0.0
 13
1.0
 23
0.0
 33
0.0
 40
0.0
 40
0.0
 40
0.0
 40
0.0
 40
1.0
 40
1.0
 40
1.0
 40
2.0
 40
2.0
 40
2.0
 40
3.0
 40
3.0
 40
3.0
 40
4.0
 40
4.0
 40
4.0
 40
4.0
 10
91.38598739077145
 20
-139.6080307984311
 30
0.0
 10
91.38598739077145
 20
-139.5528916317786
 30
0.0
 10
91.34136100302108
 20
-139.5081241317894
 30
0.0
 10
91.286257115538
 20
-139.5081241317894
 30
0.0
 10
91.23111795027805
 20
-139.5081241317894
 30
0.0
 10
91.18635275498112
 20
-139.5528916317786
 30
0.0
 10
91.18635275498112
 20
-139.6080307984311
 30
0.0
 10
91.18635275498112
 20
-139.6631346873066
 30
0.0
 10
91.23111795027805
 20
-139.7079374650727
 30
0.0
 10
91.286257115538
 20
-139.7079374650727
 30
0.0
 10
91.34136100302108
 20
-139.7079374650727
 30
0.0
 10
91.38598739077145
 20
-139.6631346873066
 30
0.0
 10
91.38598739077145
 20
-139.6080307984311
 30
0.0
  0
SPLINE
  5
6D
330
53
100
AcDbEntity
  8
_U+30EC_U+30A4_U+30E4_U+30FC 1
 62
     7
420
 16777215
370
     9
100
AcDbSpline
210
0.0
220
0.0
230
1.0
 70
    11
 71
     3
 72
    17
 73
    13
 74
     0
 42
0.0000000001
 43
0.0000000001
 12
1.0
 22
0.0
 32
0.0
 13
1.0
 23
0.0
 33
0.0
 40
0.0
 40
0.0
 40
0.0
 40
0.0
 40
1.0
 40
1.0
 40
1.0
 40
2.0
 40
2.0
 40
2.0
 40
3.0
 40
3.0
 40
3.0
 40
4.0
 40
4.0
 40
4.0
 40
4.0
 10
73.38931173879378
 20
-139.6080307984311
 30
0.0
 10
73.38931173879378
 20
-139.5528916317786
 30
0.0
 10
73.3445442399359
 20
-139.5081241317894
 30
0.0
 10
73.28940507467595
 20
-139.5081241317894
 30
0.0
 10
73.23430118719288
 20
-139.5081241317894
 30
0.0
 10
73.18949841055812
 20
-139.5528916317786
 30
0.0
 10
73.18949841055812
 20
-139.6080307984311
 30
0.0
 10
73.18949841055812
 20
-139.6631346873066
 30
0.0
 10
73.23430118719288
 20
-139.7079374650727
 30
0.0
 10
73.28940507467595
 20
-139.7079374650727
 30
0.0
 10
73.3445442399359
 20
-139.7079374650727
 30
0.0
 10
73.38931173879378
 20
-139.6631346873066
 30
0.0
 10
73.38931173879378
 20
-139.6080307984311
 30
0.0
  0
INSERT
  5
6F
330
53
100
AcDbEntity
  8
_U+30EC_U+30A4_U+30E4_U+30FC 1
100
AcDbBlockReference
  2
block 4
 10
0.0
 20
0.0
 30
0.0
  0
POLYLINE
  5
88
330
53
100
AcDbEntity
  8
_U+30EC_U+30A4_U+30E4_U+30FC 1
 62
     7
420
 16777215
370
     9
100
AcDb2dPolyline
 66
     1
 10
0.0
 20
0.0
 30
0.0
  0
VERTEX
  5
89
330
88
100
AcDbEntity
  8
_U+30EC_U+30A4_U+30E4_U+30FC 1
 62
     7
420
 16777215
370
     9
100
AcDbVertex
100
AcDb2dVertex
 10
73.28665340807949
 20
-119.9082846922452
 30
0.0
  0
VERTEX
  5
8A
330
88
100
AcDbEntity
  8
_U+30EC_U+30A4_U+30E4_U+30FC 1
 62
     7
420
 16777215
370
     9
100
AcDbVertex
100
AcDb2dVertex
 10
103.2860281982872
 20
-119.9082846922452
 30
0.0
  0
SEQEND
  5
8B
330
88
100
AcDbEntity
  8
_U+30EC_U+30A4_U+30E4_U+30FC 1
 62
     7
420
 16777215
370
     9
  0
POLYLINE
  5
8C
330
53
100
AcDbEntity
  8
_U+30EC_U+30A4_U+30E4_U+30FC 1
 62
     7
420
 16777215
370
     9
100
AcDb2dPolyline
 66
     1
 10
0.0
 20
0.0
 30
0.0
  0
VERTEX
  5
8D
330
8C
100
AcDbEntity
  8
_U+30EC_U+30A4_U+30E4_U+30FC 1
 62
     7
420
 16777215
370
     9
100
AcDbVertex
100
AcDb2dVertex
 10
73.27494118615607
 20
-121.3682908029914
 30
0.0
  0
VERTEX
  5
8E
330
8C
100
AcDbEntity
  8
_U+30EC_U+30A4_U+30E4_U+30FC 1
 62
     7
420
 16777215
370
     9
100
AcDbVertex
100
AcDb2dVertex
 10
73.27494118615607
 20
-118.9081596924952
 30
0.0
  0
SEQEND
  5
8F
330
8C
100
AcDbEntity
  8
_U+30EC_U+30A4_U+30E4_U+30FC 1
 62
     7
420
 16777215
370
     9
  0
POLYLINE
  5
90
330
53
100
AcDbEntity
  8
_U+30EC_U+30A4_U+30E4_U+30FC 1
 62
     7
420
 16777215
370
     9
100
AcDb2dPolyline
 66
     1
 10
0.0
 20
0.0
 30
0.0
  0
VERTEX
  5
91
330
90
100
AcDbEntity
  8
_U+30EC_U+30A4_U+30E4_U+30FC 1
 62
     7
420
 16777215
370
     9
100
AcDbVertex
100
AcDb2dVertex
 10
103.2860281982872
 20
-121.3682908029914
 30
0.0
  0
VERTEX
  5
92
330
90
100
AcDbEntity
  8
_U+30EC_U+30A4_U+30E4_U+30FC 1
 62
     7
420
 16777215
370
     9
100
AcDbVertex
100
AcDb2dVertex
 10
103.2860281982872
 20
-118.9081596924952
 30
0.0
  0
SEQEND
  5
93
330
90
100
AcDbEntity
  8
_U+30EC_U+30A4_U+30E4_U+30FC 1
 62
     7
420
 16777215
370
     9
  0
INSERT
  5
95
330
53
100
AcDbEntity
  8
_U+30EC_U+30A4_U+30E4_U+30FC 1
100
AcDbBlockReference
  2
block 6
 10
0.0
 20
0.0
 30
0.0
  0
POLYLINE
  5
9D
330
53
100
AcDbEntity
  8
_U+30EC_U+30A4_U+30E4_U+30FC 1
 62
     7
420
 16777215
370
     9
100
AcDb2dPolyline
 66
     1
 10
0.0
 20
0.0
 30
0.0
  0
VERTEX
  5
9E
330
9D
100
AcDbEntity
  8
_U+30EC_U+30A4_U+30E4_U+30FC 1
 62
     7
420
 16777215
370
     9
100
AcDbVertex
100
AcDb2dVertex
 10
83.28568065298305
 20
-139.6080307984311
 30
0.0
  0
VERTEX
  5
9F
330
9D
100
AcDbEntity
  8
_U+30EC_U+30A4_U+30E4_U+30FC 1
 62
     7
420
 16777215
370
     9
100
AcDbVertex
100
AcDb2dVertex
 10
73.2863006303107
 20
-139.6080307984311
 30
0.0
  0
SEQEND
  5
A0
330
9D
100
AcDbEntity
  8
_U+30EC_U+30A4_U+30E4_U+30FC 1
 62
     7
420
 16777215
370
     9
  0
POLYLINE
  5
A1
330
53
100
AcDbEntity
  8
_U+30EC_U+30A4_U+30E4_U+30FC 1
 62
     7
420
 16777215
370
     9
100
AcDb2dPolyline
 66
     1
 10
0.0
 20
0.0
 30
0.0
  0
VERTEX
  5
A2
330
A1
100
AcDbEntity
  8
_U+30EC_U+30A4_U+30E4_U+30FC 1
 62
     7
420
 16777215
370
     9
100
AcDbVertex
100
AcDb2dVertex
 10
83.28568065298305
 20
-138.1479894099074
 30
0.0
  0
VERTEX
  5
A3
330
A1
100
AcDbEntity
  8
_U+30EC_U+30A4_U+30E4_U+30FC 1
 62
     7
420
 16777215
370
     9
100
AcDbVertex
100
AcDb2dVertex
 10
83.28568065298305
 20
-140.608473298181
 30
0.0
  0
SEQEND
  5
A4
330
A1
100
AcDbEntity
  8
_U+30EC_U+30A4_U+30E4_U+30FC 1
 62
     7
420
 16777215
370
     9
  0
POLYLINE
  5
A5
330
53
100
AcDbEntity
  8
_U+30EC_U+30A4_U+30E4_U+30FC 1
 62
     7
420
 16777215
370
     9
100
AcDb2dPolyline
 66
     1
 10
0.0
 20
0.0
 30
0.0
  0
VERTEX
  5
A6
330
A5
100
AcDbEntity
  8
_U+30EC_U+30A4_U+30E4_U+30FC 1
 62
     7
420
 16777215
370
     9
100
AcDbVertex
100
AcDb2dVertex
 10
73.28940507467595
 20
-127.4482041348045
 30
0.0
  0
VERTEX
  5
A7
330
A5
100
AcDbEntity
  8
_U+30EC_U+30A4_U+30E4_U+30FC 1
 62
     7
420
 16777215
370
     9
100
AcDbVertex
100
AcDb2dVertex
 10
73.28940507467595
 20
-140.608473298181
 30
0.0
  0
SEQEND
  5
A8
330
A5
100
AcDbEntity
  8
_U+30EC_U+30A4_U+30E4_U+30FC 1
 62
     7
420
 16777215
370
     9
  0
INSERT
  5
AA
330
53
100
AcDbEntity
  8
_U+30EC_U+30A4_U+30E4_U+30FC 1
100
AcDbBlockReference
  2
block 7
 10
0.0
 20
0.0
 30
0.0
  0
INSERT
  5
B3
330
53
100
AcDbEntity
  8
_U+30EC_U+30A4_U+30E4_U+30FC 1
100
AcDbBlockReference
  2
block 8
 10
0.0
 20
0.0
 30
0.0
  0
INSERT
  5
CB
330
53
100
AcDbEntity
  8
_U+30EC_U+30A4_U+30E4_U+30FC 1
100
AcDbBlockReference
  2
block 10
 10
0.0
 20
0.0
 30
0.0
  0
ENDBLK
  5
56
330
53
100
AcDbEntity
  8
0
100
AcDbBlockEnd
  0
BLOCK
  5
70
330
6E
100
AcDbEntity
  8
0
100
AcDbBlockBegin
  2
block 4
 70
     0
 10
0.0
 20
0.0
 30
0.0
  3
block 4
  1

  0
POLYLINE
  5
72
330
6E
100
AcDbEntity
  8
_U+30EC_U+30A4_U+30E4_U+30FC 1
 62
     7
420
 16777215
370
     9
100
AcDb2dPolyline
 66
     1
 10
0.0
 20
0.0
 30
0.0
  0
VERTEX
  5
73
330
72
100
AcDbEntity
  8
_U+30EC_U+30A4_U+30E4_U+30FC 1
 62
     7
420
 16777215
370
     9
100
AcDbVertex
100
AcDb2dVertex
 10
107.2857872629115
 20
-123.9080438579117
 30
0.0
  0
VERTEX
  5
74
330
72
100
AcDbEntity
  8
_U+30EC_U+30A4_U+30E4_U+30FC 1
 62
     7
420
 16777215
370
     9
100
AcDbVertex
100
AcDb2dVertex
 10
107.2857872629115
 20
-120.1380488588545
 30
0.0
  0
SEQEND
  5
75
330
72
100
AcDbEntity
  8
_U+30EC_U+30A4_U+30E4_U+30FC 1
 62
     7
420
 16777215
370
     9
  0
POLYLINE
  5
76
330
6E
100
AcDbEntity
  8
_U+30EC_U+30A4_U+30E4_U+30FC 1
 62
     7
420
 16777215
370
     9
100
AcDb2dPolyline
 66
     1
 10
0.0
 20
0.0
 30
0.0
  0
VERTEX
  5
77
330
76
100
AcDbEntity
  8
_U+30EC_U+30A4_U+30E4_U+30FC 1
 62
     7
420
 16777215
370
     9
100
AcDbVertex
100
AcDb2dVertex
 10
107.2857872629115
 20
-124.9081335798842
 30
0.0
  0
VERTEX
  5
78
330
76
100
AcDbEntity
  8
_U+30EC_U+30A4_U+30E4_U+30FC 1
 62
     7
420
 16777215
370
     9
100
AcDbVertex
100
AcDb2dVertex
 10
107.2857872629115
 20
-123.9080438579117
 30
0.0
  0
SEQEND
  5
79
330
76
100
AcDbEntity
  8
_U+30EC_U+30A4_U+30E4_U+30FC 1
 62
     7
420
 16777215
370
     9
  0
POLYLINE
  5
7A
330
6E
100
AcDbEntity
  8
_U+30EC_U+30A4_U+30E4_U+30FC 1
 62
     7
420
 16777215
370
     9
100
AcDb2dPolyline
 66
     1
 10
0.0
 20
0.0
 30
0.0
  0
VERTEX
  5
7B
330
7A
100
AcDbEntity
  8
_U+30EC_U+30A4_U+30E4_U+30FC 1
 62
     7
420
 16777215
370
     9
100
AcDbVertex
100
AcDb2dVertex
 10
105.8257459112714
 20
-124.9081335798842
 30
0.0
  0
VERTEX
  5
7C
330
7A
100
AcDbEntity
  8
_U+30EC_U+30A4_U+30E4_U+30FC 1
 62
     7
420
 16777215
370
     9
100
AcDbVertex
100
AcDb2dVertex
 10
108.2862297373881
 20
-124.9081335798842
 30
0.0
  0
SEQEND
  5
7D
330
7A
100
AcDbEntity
  8
_U+30EC_U+30A4_U+30E4_U+30FC 1
 62
     7
420
 16777215
370
     9
  0
POLYLINE
  5
7E
330
6E
100
AcDbEntity
  8
_U+30EC_U+30A4_U+30E4_U+30FC 1
 62
     7
420
 16777215
370
     9
100
AcDb2dPolyline
 66
     1
 10
0.0
 20
0.0
 30
0.0
  0
VERTEX
  5
7F
330
7E
100
AcDbEntity
  8
_U+30EC_U+30A4_U+30E4_U+30FC 1
 62
     7
420
 16777215
370
     9
100
AcDbVertex
100
AcDb2dVertex
 10
105.8257459112714
 20
-123.9080438579117
 30
0.0
  0
VERTEX
  5
80
330
7E
100
AcDbEntity
  8
_U+30EC_U+30A4_U+30E4_U+30FC 1
 62
     7
420
 16777215
370
     9
100
AcDbVertex
100
AcDb2dVertex
 10
108.2862297373881
 20
-123.9080438579117
 30
0.0
  0
SEQEND
  5
81
330
7E
100
AcDbEntity
  8
_U+30EC_U+30A4_U+30E4_U+30FC 1
 62
     7
420
 16777215
370
     9
  0
INSERT
  5
83
330
6E
100
AcDbEntity
  8
_U+30EC_U+30A4_U+30E4_U+30FC 1
100
AcDbBlockReference
  2
block 5
 10
0.0
 20
0.0
 30
0.0
  0
ENDBLK
  5
71
330
6E
100
AcDbEntity
  8
0
100
AcDbBlockEnd
  0
BLOCK
  5
84
330
82
100
AcDbEntity
  8
0
100
AcDbBlockBegin
  2
block 5
 70
     0
 10
0.0
 20
0.0
 30
0.0
  3
block 5
  1

  0
SPLINE
  5
86
330
82
100
AcDbEntity
  8
_U+30EC_U+30A4_U+30E4_U+30FC 1
370
     0
100
AcDbSpline
210
0.0
220
0.0
230
1.0
 70
    11
 71
     3
 72
    26
 73
    22
 74
     0
 42
0.0000000001
 43
0.0000000001
 12
1.0
 22
0.0
 32
0.0
 13
1.0
 23
0.0
 33
0.0
 40
0.0
 40
0.0
 40
0.0
 40
0.0
 40
1.0
 40
1.0
 40
1.0
 40
2.0
 40
2.0
 40
2.0
 40
3.0
 40
3.0
 40
3.0
 40
4.0
 40
4.0
 40
4.0
 40
5.0
 40
5.0
 40
5.0
 40
6.0
 40
6.0
 40
6.0
 40
7.0
 40
7.0
 40
7.0
 40
7.0
 10
106.1699191357839
 20
-124.5026502509924
 30
0.0
 10
106.1699191357839
 20
-124.5026502509924
 30
0.0
 10
105.0657660327613
 20
-124.5026502509924
 30
0.0
 10
105.0657660327613
 20
-124.5026502509924
 30
0.0
 10
105.0657660327613
 20
-124.5026502509924
 30
0.0
 10
105.0657660327613
 20
-124.8326903984793
 30
0.0
 10
105.0657660327613
 20
-124.8326903984793
 30
0.0
 10
105.0657660327613
 20
-124.8326903984793
 30
0.0
 10
104.9176269268956
 20
-124.8326903984793
 30
0.0
 10
104.9176269268956
 20
-124.8326903984793
 30
0.0
 10
104.902813016309
 20
-124.5005831937012
 30
0.0
 10
104.7398599998567
 20
-124.4540744046504
 30
0.0
 10
104.6254828297464
 20
-124.4244465834772
 30
0.0
 10
104.6254828297464
 20
-124.4244465834772
 30
0.0
 10
104.6254828297464
 20
-124.2783745349026
 30
0.0
 10
104.6254828297464
 20
-124.2783745349026
 30
0.0
 10
104.6254828297464
 20
-124.2783745349026
 30
0.0
 10
106.1699191357839
 20
-124.2783745349026
 30
0.0
 10
106.1699191357839
 20
-124.2783745349026
 30
0.0
 10
106.1699191357839
 20
-124.2783745349026
 30
0.0
 10
106.1699191357839
 20
-124.5026502509924
 30
0.0
 10
106.1699191357839
 20
-124.5026502509924
 30
0.0
  0
HATCH
  5
87
330
82
100
AcDbEntity
  8
_U+30EC_U+30A4_U+30E4_U+30FC 1
 62
     7
420
 16777215
100
AcDbHatch
 10
0.0
 20
0.0
 30
0.0
210
0.0
220
0.0
230
1.0
  2
SOLID
 70
     1
 71
     0
 91
        1
 92
        1
 93
        1
 72
     4
 94
        3
 73
     0
 74
     1
 95
       26
 96
       22
 40
0.0
 40
0.0
 40
0.0
 40
0.0
 40
1.0
 40
1.0
 40
1.0
 40
2.0
 40
2.0
 40
2.0
 40
3.0
 40
3.0
 40
3.0
 40
4.0
 40
4.0
 40
4.0
 40
5.0
 40
5.0
 40
5.0
 40
6.0
 40
6.0
 40
6.0
 40
7.0
 40
7.0
 40
7.0
 40
7.0
 10
106.1699191357839
 20
-124.5026502509924
 10
106.1699191357839
 20
-124.5026502509924
 10
105.0657660327613
 20
-124.5026502509924
 10
105.0657660327613
 20
-124.5026502509924
 10
105.0657660327613
 20
-124.5026502509924
 10
105.0657660327613
 20
-124.8326903984793
 10
105.0657660327613
 20
-124.8326903984793
 10
105.0657660327613
 20
-124.8326903984793
 10
104.9176269268956
 20
-124.8326903984793
 10
104.9176269268956
 20
-124.8326903984793
 10
104.902813016309
 20
-124.5005831937012
 10
104.7398599998567
 20
-124.4540744046504
 10
104.6254828297464
 20
-124.4244465834772
 10
104.6254828297464
 20
-124.4244465834772
 10
104.6254828297464
 20
-124.2783745349026
 10
104.6254828297464
 20
-124.2783745349026
 10
104.6254828297464
 20
-124.2783745349026
 10
106.1699191357839
 20
-124.2783745349026
 10
106.1699191357839
 20
-124.2783745349026
 10
106.1699191357839
 20
-124.2783745349026
 10
106.1699191357839
 20
-124.5026502509924
 10
106.1699191357839
 20
-124.5026502509924
 97
        0
 97
        0
 75
     2
 76
     1
 98
        0
  0
ENDBLK
  5
85
330
82
100
AcDbEntity
  8
0
100
AcDbBlockEnd
  0
BLOCK
  5
96
330
94
100
AcDbEntity
  8
0
100
AcDbBlockBegin
  2
block 6
 70
     0
 10
0.0
 20
0.0
 30
0.0
  3
block 6
  1

  0
SPLINE
  5
98
330
94
100
AcDbEntity
  8
_U+30EC_U+30A4_U+30E4_U+30FC 1
370
     0
100
AcDbSpline
210
0.0
220
0.0
230
1.0
 70
    11
 71
     3
 72
    62
 73
    58
 74
     0
 42
0.0000000001
 43
0.0000000001
 12
1.0
 22
0.0
 32
0.0
 13
1.0
 23
0.0
 33
0.0
 40
0.0
 40
0.0
 40
0.0
 40
0.0
 40
1.0
 40
1.0
 40
1.0
 40
2.0
 40
2.0
 40
2.0
 40
3.0
 40
3.0
 40
3.0
 40
4.0
 40
4.0
 40
4.0
 40
5.0
 40
5.0
 40
5.0
 40
6.0
 40
6.0
 40
6.0
 40
7.0
 40
7.0
 40
7.0
 40
8.0
 40
8.0
 40
8.0
 40
9.0
 40
9.0
 40
9.0
 40
10.0
 40
10.0
 40
10.0
 40
11.0
 40
11.0
 40
11.0
 40
12.0
 40
12.0
 40
12.0
 40
13.0
 40
13.0
 40
13.0
 40
14.0
 40
14.0
 40
14.0
 40
15.0
 40
15.0
 40
15.0
 40
16.0
 40
16.0
 40
16.0
 40
17.0
 40
17.0
 40
17.0
 40
18.0
 40
18.0
 40
18.0
 40
19.0
 40
19.0
 40
19.0
 40
19.0
 10
87.68939342425821
 20
-119.3126139024635
 30
0.0
 10
87.59413653409105
 20
-119.3126139024635
 30
0.0
 10
87.376234244649
 20
-119.2914265652292
 30
0.0
 10
87.25152178808295
 20
-119.1052191542515
 30
0.0
 10
87.17745223515008
 20
-118.9930812962066
 30
0.0
 10
87.17314586579353
 20
-118.8936902914571
 30
0.0
 10
87.16901175121123
 20
-118.8091131972943
 30
0.0
 10
87.16901175121123
 20
-118.8091131972943
 30
0.0
 10
87.38898109794442
 20
-118.8091131972943
 30
0.0
 10
87.38898109794442
 20
-118.8091131972943
 30
0.0
 10
87.39104815523558
 20
-118.8831827502271
 30
0.0
 10
87.40172795123985
 20
-119.1179660075469
 30
0.0
 10
87.68525930967591
 20
-119.1179660075469
 30
0.0
 10
87.82271861953738
 20
-119.1179660075469
 30
0.0
 10
87.97499183998542
 20
-119.0482028239706
 30
0.0
 10
87.97499183998542
 20
-118.8196207385243
 30
0.0
 10
87.97499183998542
 20
-118.7033487658971
 30
0.0
 10
87.93692353487342
 20
-118.6546006647808
 30
0.0
 10
87.90522865640911
 20
-118.6229057863165
 30
0.0
 10
87.83115910347624
 20
-118.5488362333836
 30
0.0
 10
87.7147148760748
 20
-118.5362616348625
 30
0.0
 10
87.65976560308506
 20
-118.5362616348625
 30
0.0
 10
87.6408175779162
 20
-118.5362616348625
 30
0.0
 10
87.60481633009533
 20
-118.5383286921536
 30
0.0
 10
87.57725556621332
 20
-118.5424628067359
 30
0.0
 10
87.57725556621332
 20
-118.5424628067359
 30
0.0
 10
87.57725556621332
 20
-118.3478149118193
 30
0.0
 10
87.57725556621332
 20
-118.3478149118193
 30
0.0
 10
87.61532387132534
 20
-118.354188338467
 30
0.0
 10
87.6576985457939
 20
-118.3564276505324
 30
0.0
 10
87.66407197244162
 20
-118.3564276505324
 30
0.0
 10
87.72952878666138
 20
-118.3564276505324
 30
0.0
 10
87.92848305093455
 20
-118.3352403132981
 30
0.0
 10
87.92848305093455
 20
-118.098217743913
 30
0.0
 10
87.92848305093455
 20
-117.9206230716483
 30
0.0
 10
87.79722491294653
 20
-117.8655015438843
 30
0.0
 10
87.68732636696706
 20
-117.8655015438843
 30
0.0
 10
87.42291528847413
 20
-117.8655015438843
 30
0.0
 10
87.41447480453527
 20
-118.098217743913
 30
0.0
 10
87.41016843517872
 20
-118.1702202395547
 30
0.0
 10
87.41016843517872
 20
-118.1702202395547
 30
0.0
 10
87.20708005632324
 20
-118.1702202395547
 30
0.0
 10
87.20708005632324
 20
-118.1702202395547
 30
0.0
 10
87.21552054026209
 20
-118.0453355282144
 30
0.0
 10
87.2430813041441
 20
-117.6687865916766
 30
0.0
 10
87.69990096548823
 20
-117.6687865916766
 30
0.0
 10
87.92417668157799
 20
-117.6687865916766
 30
0.0
 10
88.16533336554548
 20
-117.795738360308
 30
0.0
 10
88.16533336554548
 20
-118.0918443172652
 30
0.0
 10
88.16533336554548
 20
-118.278051728243
 30
0.0
 10
88.07024873015258
 20
-118.3605617651147
 30
0.0
 10
87.97068547062887
 20
-118.4218844647522
 30
0.0
 10
88.03218042504056
 20
-118.4494452286342
 30
0.0
 10
88.21408146666177
 20
-118.5298882082148
 30
0.0
 10
88.21408146666177
 20
-118.8070461400031
 30
0.0
 10
88.21408146666177
 20
-119.1455267714289
 30
0.0
 10
87.96655135604657
 20
-119.3126139024635
 30
0.0
 10
87.68939342425821
 20
-119.3126139024635
 30
0.0
  0
HATCH
  5
99
330
94
100
AcDbEntity
  8
_U+30EC_U+30A4_U+30E4_U+30FC 1
 62
     7
420
 16777215
100
AcDbHatch
 10
0.0
 20
0.0
 30
0.0
210
0.0
220
0.0
230
1.0
  2
SOLID
 70
     1
 71
     0
 91
        1
 92
        1
 93
        1
 72
     4
 94
        3
 73
     0
 74
     1
 95
       62
 96
       58
 40
0.0
 40
0.0
 40
0.0
 40
0.0
 40
1.0
 40
1.0
 40
1.0
 40
2.0
 40
2.0
 40
2.0
 40
3.0
 40
3.0
 40
3.0
 40
4.0
 40
4.0
 40
4.0
 40
5.0
 40
5.0
 40
5.0
 40
6.0
 40
6.0
 40
6.0
 40
7.0
 40
7.0
 40
7.0
 40
8.0
 40
8.0
 40
8.0
 40
9.0
 40
9.0
 40
9.0
 40
10.0
 40
10.0
 40
10.0
 40
11.0
 40
11.0
 40
11.0
 40
12.0
 40
12.0
 40
12.0
 40
13.0
 40
13.0
 40
13.0
 40
14.0
 40
14.0
 40
14.0
 40
15.0
 40
15.0
 40
15.0
 40
16.0
 40
16.0
 40
16.0
 40
17.0
 40
17.0
 40
17.0
 40
18.0
 40
18.0
 40
18.0
 40
19.0
 40
19.0
 40
19.0
 40
19.0
 10
87.68939342425821
 20
-119.3126139024635
 10
87.59413653409105
 20
-119.3126139024635
 10
87.376234244649
 20
-119.2914265652292
 10
87.25152178808295
 20
-119.1052191542515
 10
87.17745223515008
 20
-118.9930812962066
 10
87.17314586579353
 20
-118.8936902914571
 10
87.16901175121123
 20
-118.8091131972943
 10
87.16901175121123
 20
-118.8091131972943
 10
87.38898109794442
 20
-118.8091131972943
 10
87.38898109794442
 20
-118.8091131972943
 10
87.39104815523558
 20
-118.8831827502271
 10
87.40172795123985
 20
-119.1179660075469
 10
87.68525930967591
 20
-119.1179660075469
 10
87.82271861953738
 20
-119.1179660075469
 10
87.97499183998542
 20
-119.0482028239706
 10
87.97499183998542
 20
-118.8196207385243
 10
87.97499183998542
 20
-118.7033487658971
 10
87.93692353487342
 20
-118.6546006647808
 10
87.90522865640911
 20
-118.6229057863165
 10
87.83115910347624
 20
-118.5488362333836
 10
87.7147148760748
 20
-118.5362616348625
 10
87.65976560308506
 20
-118.5362616348625
 10
87.6408175779162
 20
-118.5362616348625
 10
87.60481633009533
 20
-118.5383286921536
 10
87.57725556621332
 20
-118.5424628067359
 10
87.57725556621332
 20
-118.5424628067359
 10
87.57725556621332
 20
-118.3478149118193
 10
87.57725556621332
 20
-118.3478149118193
 10
87.61532387132534
 20
-118.354188338467
 10
87.6576985457939
 20
-118.3564276505324
 10
87.66407197244162
 20
-118.3564276505324
 10
87.72952878666138
 20
-118.3564276505324
 10
87.92848305093455
 20
-118.3352403132981
 10
87.92848305093455
 20
-118.098217743913
 10
87.92848305093455
 20
-117.9206230716483
 10
87.79722491294653
 20
-117.8655015438843
 10
87.68732636696706
 20
-117.8655015438843
 10
87.42291528847413
 20
-117.8655015438843
 10
87.41447480453527
 20
-118.098217743913
 10
87.41016843517872
 20
-118.1702202395547
 10
87.41016843517872
 20
-118.1702202395547
 10
87.20708005632324
 20
-118.1702202395547
 10
87.20708005632324
 20
-118.1702202395547
 10
87.21552054026209
 20
-118.0453355282144
 10
87.2430813041441
 20
-117.6687865916766
 10
87.69990096548823
 20
-117.6687865916766
 10
87.92417668157799
 20
-117.6687865916766
 10
88.16533336554548
 20
-117.795738360308
 10
88.16533336554548
 20
-118.0918443172652
 10
88.16533336554548
 20
-118.278051728243
 10
88.07024873015258
 20
-118.3605617651147
 10
87.97068547062887
 20
-118.4218844647522
 10
88.03218042504056
 20
-118.4494452286342
 10
88.21408146666177
 20
-118.5298882082148
 10
88.21408146666177
 20
-118.8070461400031
 10
88.21408146666177
 20
-119.1455267714289
 10
87.96655135604657
 20
-119.3126139024635
 10
87.68939342425821
 20
-119.3126139024635
 97
        0
 97
        0
 75
     2
 76
     1
 98
        0
  0
SPLINE
  5
9A
330
94
100
AcDbEntity
  8
_U+30EC_U+30A4_U+30E4_U+30FC 1
370
     0
100
AcDbSpline
210
0.0
220
0.0
230
1.0
 70
    11
 71
     3
 72
    29
 73
    25
 74
     0
 42
0.0000000001
 43
0.0000000001
 12
1.0
 22
0.0
 32
0.0
 13
1.0
 23
0.0
 33
0.0
 40
0.0
 40
0.0
 40
0.0
 40
0.0
 40
1.0
 40
1.0
 40
1.0
 40
2.0
 40
2.0
 40
2.0
 40
3.0
 40
3.0
 40
3.0
 40
4.0
 40
4.0
 40
4.0
 40
5.0
 40
5.0
 40
5.0
 40
6.0
 40
6.0
 40
6.0
 40
7.0
 40
7.0
 40
7.0
 40
8.0
 40
8.0
 40
8.0
 40
8.0
 10
89.27241479973051
 20
-119.0840318170172
 30
0.0
 10
89.1645833110422
 20
-119.2934936225204
 30
0.0
 10
88.99112275335986
 20
-119.3126139024635
 30
0.0
 10
88.87467852595842
 20
-119.3126139024635
 30
0.0
 10
88.71396482157151
 20
-119.3126139024635
 30
0.0
 10
88.57219914235348
 20
-119.2661051134126
 30
0.0
 10
88.47694225218632
 20
-119.0840318170172
 30
0.0
 10
88.37341713285457
 20
-118.8893839221006
 30
0.0
 10
88.35429685291143
 20
-118.6525336074896
 30
0.0
 10
88.35429685291143
 20
-118.4895805910373
 30
0.0
 10
88.35429685291143
 20
-118.3457478545282
 30
0.0
 10
88.37117782078916
 20
-118.0940836293307
 30
0.0
 10
88.47694225218632
 20
-117.8951293650575
 30
0.0
 10
88.58494599564891
 20
-117.692040986202
 30
0.0
 10
88.74565970003582
 20
-117.6687865916766
 30
0.0
 10
88.87467852595842
 20
-117.6687865916766
 30
0.0
 10
89.03332517305417
 20
-117.6687865916766
 30
0.0
 10
89.17715790956335
 20
-117.7132283234363
 30
0.0
 10
89.27241479973051
 20
-117.8951293650575
 30
0.0
 10
89.37180580447998
 20
-118.0877102026829
 30
0.0
 10
89.3950601990054
 20
-118.316120033355
 30
0.0
 10
89.3950601990054
 20
-118.4895805910373
 30
0.0
 10
89.3950601990054
 20
-118.6609740914285
 30
0.0
 10
89.37404511654537
 20
-118.891623234166
 30
0.0
 10
89.27241479973051
 20
-119.0840318170172
 30
0.0
  0
SPLINE
  5
9B
330
94
100
AcDbEntity
  8
_U+30EC_U+30A4_U+30E4_U+30FC 1
370
     0
100
AcDbSpline
210
0.0
220
0.0
230
1.0
 70
    11
 71
     3
 72
    17
 73
    13
 74
     0
 42
0.0000000001
 43
0.0000000001
 12
1.0
 22
0.0
 32
0.0
 13
1.0
 23
0.0
 33
0.0
 40
0.0
 40
0.0
 40
0.0
 40
0.0
 40
1.0
 40
1.0
 40
1.0
 40
2.0
 40
2.0
 40
2.0
 40
3.0
 40
3.0
 40
3.0
 40
4.0
 40
4.0
 40
4.0
 40
4.0
 10
88.87467852595842
 20
-117.861367429302
 30
0.0
 10
88.62508135805207
 20
-117.861367429302
 30
0.0
 10
88.5785725690012
 20
-118.1448987877381
 30
0.0
 10
88.5785725690012
 20
-118.4895805910373
 30
0.0
 10
88.5785725690012
 20
-118.8091131972943
 30
0.0
 10
88.61457381682206
 20
-119.1179660075469
 30
0.0
 10
88.87467852595842
 20
-119.1179660075469
 30
0.0
 10
89.12220863657362
 20
-119.1179660075469
 30
0.0
 10
89.1709567376899
 20
-118.836501706402
 30
0.0
 10
89.1709567376899
 20
-118.4895805910373
 30
0.0
 10
89.1709567376899
 20
-118.1702202395547
 30
0.0
 10
89.1328884325779
 20
-117.861367429302
 30
0.0
 10
88.87467852595842
 20
-117.861367429302
 30
0.0
  0
HATCH
  5
9C
330
94
100
AcDbEntity
  8
_U+30EC_U+30A4_U+30E4_U+30FC 1
 62
     7
420
 16777215
100
AcDbHatch
 10
0.0
 20
0.0
 30
0.0
210
0.0
220
0.0
230
1.0
  2
SOLID
 70
     1
 71
     0
 91
        2
 92
        1
 93
        1
 72
     4
 94
        3
 73
     0
 74
     1
 95
       29
 96
       25
 40
0.0
 40
0.0
 40
0.0
 40
0.0
 40
1.0
 40
1.0
 40
1.0
 40
2.0
 40
2.0
 40
2.0
 40
3.0
 40
3.0
 40
3.0
 40
4.0
 40
4.0
 40
4.0
 40
5.0
 40
5.0
 40
5.0
 40
6.0
 40
6.0
 40
6.0
 40
7.0
 40
7.0
 40
7.0
 40
8.0
 40
8.0
 40
8.0
 40
8.0
 10
89.27241479973051
 20
-119.0840318170172
 10
89.1645833110422
 20
-119.2934936225204
 10
88.99112275335986
 20
-119.3126139024635
 10
88.87467852595842
 20
-119.3126139024635
 10
88.71396482157151
 20
-119.3126139024635
 10
88.57219914235348
 20
-119.2661051134126
 10
88.47694225218632
 20
-119.0840318170172
 10
88.37341713285457
 20
-118.8893839221006
 10
88.35429685291143
 20
-118.6525336074896
 10
88.35429685291143
 20
-118.4895805910373
 10
88.35429685291143
 20
-118.3457478545282
 10
88.37117782078916
 20
-118.0940836293307
 10
88.47694225218632
 20
-117.8951293650575
 10
88.58494599564891
 20
-117.692040986202
 10
88.74565970003582
 20
-117.6687865916766
 10
88.87467852595842
 20
-117.6687865916766
 10
89.03332517305417
 20
-117.6687865916766
 10
89.17715790956335
 20
-117.7132283234363
 10
89.27241479973051
 20
-117.8951293650575
 10
89.37180580447998
 20
-118.0877102026829
 10
89.3950601990054
 20
-118.316120033355
 10
89.3950601990054
 20
-118.4895805910373
 10
89.3950601990054
 20
-118.6609740914285
 10
89.37404511654537
 20
-118.891623234166
 10
89.27241479973051
 20
-119.0840318170172
 97
        0
 97
        0
 92
        1
 93
        1
 72
     4
 94
        3
 73
     0
 74
     1
 95
       17
 96
       13
 40
0.0
 40
0.0
 40
0.0
 40
0.0
 40
1.0
 40
1.0
 40
1.0
 40
2.0
 40
2.0
 40
2.0
 40
3.0
 40
3.0
 40
3.0
 40
4.0
 40
4.0
 40
4.0
 40
4.0
 10
88.87467852595842
 20
-117.861367429302
 10
88.62508135805207
 20
-117.861367429302
 10
88.5785725690012
 20
-118.1448987877381
 10
88.5785725690012
 20
-118.4895805910373
 10
88.5785725690012
 20
-118.8091131972943
 10
88.61457381682206
 20
-119.1179660075469
 10
88.87467852595842
 20
-119.1179660075469
 10
89.12220863657362
 20
-119.1179660075469
 10
89.1709567376899
 20
-118.836501706402
 10
89.1709567376899
 20
-118.4895805910373
 10
89.1709567376899
 20
-118.1702202395547
 10
89.1328884325779
 20
-117.861367429302
 10
88.87467852595842
 20
-117.861367429302
 97
        0
 97
        0
 75
     2
 76
     1
 98
        0
  0
ENDBLK
  5
97
330
94
100
AcDbEntity
  8
0
100
AcDbBlockEnd
  0
BLOCK
  5
AB
330
A9
100
AcDbEntity
  8
0
100
AcDbBlockBegin
  2
block 7
 70
     0
 10
0.0
 20
0.0
 30
0.0
  3
block 7
  1

  0
SPLINE
  5
AD
330
A9
100
AcDbEntity
  8
_U+30EC_U+30A4_U+30E4_U+30FC 1
370
     0
100
AcDbSpline
210
0.0
220
0.0
230
1.0
 70
    11
 71
     3
 72
    26
 73
    22
 74
     0
 42
0.0000000001
 43
0.0000000001
 12
1.0
 22
0.0
 32
0.0
 13
1.0
 23
0.0
 33
0.0
 40
0.0
 40
0.0
 40
0.0
 40
0.0
 40
1.0
 40
1.0
 40
1.0
 40
2.0
 40
2.0
 40
2.0
 40
3.0
 40
3.0
 40
3.0
 40
4.0
 40
4.0
 40
4.0
 40
5.0
 40
5.0
 40
5.0
 40
6.0
 40
6.0
 40
6.0
 40
7.0
 40
7.0
 40
7.0
 40
7.0
 10
77.65038518024018
 20
-138.9620605121345
 30
0.0
 10
77.65038518024018
 20
-138.9620605121345
 30
0.0
 10
77.65038518024018
 20
-137.8575628995634
 30
0.0
 10
77.65038518024018
 20
-137.8575628995634
 30
0.0
 10
77.65038518024018
 20
-137.8575628995634
 30
0.0
 10
77.32034503275325
 20
-137.8575628995634
 30
0.0
 10
77.32034503275325
 20
-137.8575628995634
 30
0.0
 10
77.32034503275325
 20
-137.8575628995634
 30
0.0
 10
77.32034503275325
 20
-137.7094237936977
 30
0.0
 10
77.32034503275325
 20
-137.7094237936977
 30
0.0
 10
77.65245223753134
 20
-137.6949543926596
 30
0.0
 10
77.69896102658221
 20
-137.5316568666588
 30
0.0
 10
77.72858884775536
 20
-137.417624206097
 30
0.0
 10
77.72858884775536
 20
-137.417624206097
 30
0.0
 10
77.87466089632996
 20
-137.417624206097
 30
0.0
 10
77.87466089632996
 20
-137.417624206097
 30
0.0
 10
77.87466089632996
 20
-137.417624206097
 30
0.0
 10
77.87466089632996
 20
-138.9620605121345
 30
0.0
 10
77.87466089632996
 20
-138.9620605121345
 30
0.0
 10
77.87466089632996
 20
-138.9620605121345
 30
0.0
 10
77.65038518024018
 20
-138.9620605121345
 30
0.0
 10
77.65038518024018
 20
-138.9620605121345
 30
0.0
  0
HATCH
  5
AE
330
A9
100
AcDbEntity
  8
_U+30EC_U+30A4_U+30E4_U+30FC 1
 62
     7
420
 16777215
100
AcDbHatch
 10
0.0
 20
0.0
 30
0.0
210
0.0
220
0.0
230
1.0
  2
SOLID
 70
     1
 71
     0
 91
        1
 92
        1
 93
        1
 72
     4
 94
        3
 73
     0
 74
     1
 95
       26
 96
       22
 40
0.0
 40
0.0
 40
0.0
 40
0.0
 40
1.0
 40
1.0
 40
1.0
 40
2.0
 40
2.0
 40
2.0
 40
3.0
 40
3.0
 40
3.0
 40
4.0
 40
4.0
 40
4.0
 40
5.0
 40
5.0
 40
5.0
 40
6.0
 40
6.0
 40
6.0
 40
7.0
 40
7.0
 40
7.0
 40
7.0
 10
77.65038518024018
 20
-138.9620605121345
 10
77.65038518024018
 20
-138.9620605121345
 10
77.65038518024018
 20
-137.8575628995634
 10
77.65038518024018
 20
-137.8575628995634
 10
77.65038518024018
 20
-137.8575628995634
 10
77.32034503275325
 20
-137.8575628995634
 10
77.32034503275325
 20
-137.8575628995634
 10
77.32034503275325
 20
-137.8575628995634
 10
77.32034503275325
 20
-137.7094237936977
 10
77.32034503275325
 20
-137.7094237936977
 10
77.65245223753134
 20
-137.6949543926596
 10
77.69896102658221
 20
-137.5316568666588
 10
77.72858884775536
 20
-137.417624206097
 10
77.72858884775536
 20
-137.417624206097
 10
77.87466089632996
 20
-137.417624206097
 10
77.87466089632996
 20
-137.417624206097
 10
77.87466089632996
 20
-137.417624206097
 10
77.87466089632996
 20
-138.9620605121345
 10
77.87466089632996
 20
-138.9620605121345
 10
77.87466089632996
 20
-138.9620605121345
 10
77.65038518024018
 20
-138.9620605121345
 10
77.65038518024018
 20
-138.9620605121345
 97
        0
 97
        0
 75
     2
 76
     1
 98
        0
  0
SPLINE
  5
AF
330
A9
100
AcDbEntity
  8
_U+30EC_U+30A4_U+30E4_U+30FC 1
370
     0
100
AcDbSpline
210
0.0
220
0.0
230
1.0
 70
    11
 71
     3
 72
    29
 73
    25
 74
     0
 42
0.0000000001
 43
0.0000000001
 12
1.0
 22
0.0
 32
0.0
 13
1.0
 23
0.0
 33
0.0
 40
0.0
 40
0.0
 40
0.0
 40
0.0
 40
1.0
 40
1.0
 40
1.0
 40
2.0
 40
2.0
 40
2.0
 40
3.0
 40
3.0
 40
3.0
 40
4.0
 40
4.0
 40
4.0
 40
5.0
 40
5.0
 40
5.0
 40
6.0
 40
6.0
 40
6.0
 40
7.0
 40
7.0
 40
7.0
 40
8.0
 40
8.0
 40
8.0
 40
8.0
 10
79.27354191811564
 20
-138.7842935850956
 30
0.0
 10
79.16571042942732
 20
-138.9937553905988
 30
0.0
 10
78.992249871745
 20
-139.0127034157677
 30
0.0
 10
78.87580564434356
 20
-139.0127034157677
 30
0.0
 10
78.71509193995665
 20
-139.0127034157677
 30
0.0
 10
78.57332626073861
 20
-138.9661946267168
 30
0.0
 10
78.47806937057146
 20
-138.7842935850956
 30
0.0
 10
78.3745442512397
 20
-138.5893011806305
 30
0.0
 10
78.35542397129656
 20
-138.3526231207938
 30
0.0
 10
78.35542397129656
 20
-138.1896701043415
 30
0.0
 10
78.35542397129656
 20
-138.045665113058
 30
0.0
 10
78.37230493917428
 20
-137.7941731426348
 30
0.0
 10
78.47806937057146
 20
-137.5950466235874
 30
0.0
 10
78.58607311403404
 20
-137.3921304995062
 30
0.0
 10
78.74678681842094
 20
-137.369048359755
 30
0.0
 10
78.87580564434356
 20
-137.369048359755
 30
0.0
 10
79.03445229143931
 20
-137.369048359755
 30
0.0
 10
79.17828502794849
 20
-137.4131455819662
 30
0.0
 10
79.27354191811564
 20
-137.5950466235874
 30
0.0
 10
79.3729329228651
 20
-137.7879719707613
 30
0.0
 10
79.39618731739054
 20
-138.0160372918849
 30
0.0
 10
79.39618731739054
 20
-138.1896701043415
 30
0.0
 10
79.39618731739054
 20
-138.3612358595069
 30
0.0
 10
79.37517223493052
 20
-138.5917127474701
 30
0.0
 10
79.27354191811564
 20
-138.7842935850956
 30
0.0
  0
SPLINE
  5
B0
330
A9
100
AcDbEntity
  8
_U+30EC_U+30A4_U+30E4_U+30FC 1
370
     0
100
AcDbSpline
210
0.0
220
0.0
230
1.0
 70
    11
 71
     3
 72
    17
 73
    13
 74
     0
 42
0.0000000001
 43
0.0000000001
 12
1.0
 22
0.0
 32
0.0
 13
1.0
 23
0.0
 33
0.0
 40
0.0
 40
0.0
 40
0.0
 40
0.0
 40
1.0
 40
1.0
 40
1.0
 40
2.0
 40
2.0
 40
2.0
 40
3.0
 40
3.0
 40
3.0
 40
4.0
 40
4.0
 40
4.0
 40
4.0
 10
78.87580564434356
 20
-137.5612846878319
 30
0.0
 10
78.6262084764372
 20
-137.5612846878319
 30
0.0
 10
78.57969968738632
 20
-137.8451605558165
 30
0.0
 10
78.57969968738632
 20
-138.1896701043415
 30
0.0
 10
78.57969968738632
 20
-138.5093749653727
 30
0.0
 10
78.61570093520719
 20
-138.8180555208511
 30
0.0
 10
78.87580564434356
 20
-138.8180555208511
 30
0.0
 10
79.12333575495876
 20
-138.8180555208511
 30
0.0
 10
79.17208385607503
 20
-138.5365912197061
 30
0.0
 10
79.17208385607503
 20
-138.1896701043415
 30
0.0
 10
79.17208385607503
 20
-137.8703097528588
 30
0.0
 10
79.13401555096303
 20
-137.5612846878319
 30
0.0
 10
78.87580564434356
 20
-137.5612846878319
 30
0.0
  0
HATCH
  5
B1
330
A9
100
AcDbEntity
  8
_U+30EC_U+30A4_U+30E4_U+30FC 1
 62
     7
420
 16777215
100
AcDbHatch
 10
0.0
 20
0.0
 30
0.0
210
0.0
220
0.0
230
1.0
  2
SOLID
 70
     1
 71
     0
 91
        2
 92
        1
 93
        1
 72
     4
 94
        3
 73
     0
 74
     1
 95
       29
 96
       25
 40
0.0
 40
0.0
 40
0.0
 40
0.0
 40
1.0
 40
1.0
 40
1.0
 40
2.0
 40
2.0
 40
2.0
 40
3.0
 40
3.0
 40
3.0
 40
4.0
 40
4.0
 40
4.0
 40
5.0
 40
5.0
 40
5.0
 40
6.0
 40
6.0
 40
6.0
 40
7.0
 40
7.0
 40
7.0
 40
8.0
 40
8.0
 40
8.0
 40
8.0
 10
79.27354191811564
 20
-138.7842935850956
 10
79.16571042942732
 20
-138.9937553905988
 10
78.992249871745
 20
-139.0127034157677
 10
78.87580564434356
 20
-139.0127034157677
 10
78.71509193995665
 20
-139.0127034157677
 10
78.57332626073861
 20
-138.9661946267168
 10
78.47806937057146
 20
-138.7842935850956
 10
78.3745442512397
 20
-138.5893011806305
 10
78.35542397129656
 20
-138.3526231207938
 10
78.35542397129656
 20
-138.1896701043415
 10
78.35542397129656
 20
-138.045665113058
 10
78.37230493917428
 20
-137.7941731426348
 10
78.47806937057146
 20
-137.5950466235874
 10
78.58607311403404
 20
-137.3921304995062
 10
78.74678681842094
 20
-137.369048359755
 10
78.87580564434356
 20
-137.369048359755
 10
79.03445229143931
 20
-137.369048359755
 10
79.17828502794849
 20
-137.4131455819662
 10
79.27354191811564
 20
-137.5950466235874
 10
79.3729329228651
 20
-137.7879719707613
 10
79.39618731739054
 20
-138.0160372918849
 10
79.39618731739054
 20
-138.1896701043415
 10
79.39618731739054
 20
-138.3612358595069
 10
79.37517223493052
 20
-138.5917127474701
 10
79.27354191811564
 20
-138.7842935850956
 97
        0
 97
        0
 92
        1
 93
        1
 72
     4
 94
        3
 73
     0
 74
     1
 95
       17
 96
       13
 40
0.0
 40
0.0
 40
0.0
 40
0.0
 40
1.0
 40
1.0
 40
1.0
 40
2.0
 40
2.0
 40
2.0
 40
3.0
 40
3.0
 40
3.0
 40
4.0
 40
4.0
 40
4.0
 40
4.0
 10
78.87580564434356
 20
-137.5612846878319
 10
78.6262084764372
 20
-137.5612846878319
 10
78.57969968738632
 20
-137.8451605558165
 10
78.57969968738632
 20
-138.1896701043415
 10
78.57969968738632
 20
-138.5093749653727
 10
78.61570093520719
 20
-138.8180555208511
 10
78.87580564434356
 20
-138.8180555208511
 10
79.12333575495876
 20
-138.8180555208511
 10
79.17208385607503
 20
-138.5365912197061
 10
79.17208385607503
 20
-138.1896701043415
 10
79.17208385607503
 20
-137.8703097528588
 10
79.13401555096303
 20
-137.5612846878319
 10
78.87580564434356
 20
-137.5612846878319
 97
        0
 97
        0
 75
     2
 76
     1
 98
        0
  0
ENDBLK
  5
AC
330
A9
100
AcDbEntity
  8
0
100
AcDbBlockEnd
  0
BLOCK
  5
B4
330
B2
100
AcDbEntity
  8
0
100
AcDbBlockBegin
  2
block 8
 70
     0
 10
0.0
 20
0.0
 30
0.0
  3
block 8
  1

  0
POLYLINE
  5
B6
330
B2
100
AcDbEntity
  8
_U+30EC_U+30A4_U+30E4_U+30FC 1
 62
     7
420
 16777215
370
     9
100
AcDb2dPolyline
 66
     1
 10
0.0
 20
0.0
 30
0.0
  0
VERTEX
  5
B7
330
B6
100
AcDbEntity
  8
_U+30EC_U+30A4_U+30E4_U+30FC 1
 62
     7
420
 16777215
370
     9
100
AcDbVertex
100
AcDb2dVertex
 10
83.28568065298305
 20
-139.6080307984311
 30
0.0
  0
VERTEX
  5
B8
330
B6
100
AcDbEntity
  8
_U+30EC_U+30A4_U+30E4_U+30FC 1
 62
     7
420
 16777215
370
     9
100
AcDbVertex
100
AcDb2dVertex
 10
91.286257115538
 20
-139.6080307984311
 30
0.0
  0
SEQEND
  5
B9
330
B6
100
AcDbEntity
  8
_U+30EC_U+30A4_U+30E4_U+30FC 1
 62
     7
420
 16777215
370
     9
  0
POLYLINE
  5
BA
330
B2
100
AcDbEntity
  8
_U+30EC_U+30A4_U+30E4_U+30FC 1
 62
     7
420
 16777215
370
     9
100
AcDb2dPolyline
 66
     1
 10
0.0
 20
0.0
 30
0.0
  0
VERTEX
  5
BB
330
BA
100
AcDbEntity
  8
_U+30EC_U+30A4_U+30E4_U+30FC 1
 62
     7
420
 16777215
370
     9
100
AcDbVertex
100
AcDb2dVertex
 10
83.28568065298305
 20
-138.1479894099074
 30
0.0
  0
VERTEX
  5
BC
330
BA
100
AcDbEntity
  8
_U+30EC_U+30A4_U+30E4_U+30FC 1
 62
     7
420
 16777215
370
     9
100
AcDbVertex
100
AcDb2dVertex
 10
83.28568065298305
 20
-140.608473298181
 30
0.0
  0
SEQEND
  5
BD
330
BA
100
AcDbEntity
  8
_U+30EC_U+30A4_U+30E4_U+30FC 1
 62
     7
420
 16777215
370
     9
  0
POLYLINE
  5
BE
330
B2
100
AcDbEntity
  8
_U+30EC_U+30A4_U+30E4_U+30FC 1
 62
     7
420
 16777215
370
     9
100
AcDb2dPolyline
 66
     1
 10
0.0
 20
0.0
 30
0.0
  0
VERTEX
  5
BF
330
BE
100
AcDbEntity
  8
_U+30EC_U+30A4_U+30E4_U+30FC 1
 62
     7
420
 16777215
370
     9
100
AcDbVertex
100
AcDb2dVertex
 10
91.286257115538
 20
-138.1479894099074
 30
0.0
  0
VERTEX
  5
C0
330
BE
100
AcDbEntity
  8
_U+30EC_U+30A4_U+30E4_U+30FC 1
 62
     7
420
 16777215
370
     9
100
AcDbVertex
100
AcDb2dVertex
 10
91.286257115538
 20
-140.608473298181
 30
0.0
  0
SEQEND
  5
C1
330
BE
100
AcDbEntity
  8
_U+30EC_U+30A4_U+30E4_U+30FC 1
 62
     7
420
 16777215
370
     9
  0
INSERT
  5
C3
330
B2
100
AcDbEntity
  8
_U+30EC_U+30A4_U+30E4_U+30FC 1
100
AcDbBlockReference
  2
block 9
 10
0.0
 20
0.0
 30
0.0
  0
ENDBLK
  5
B5
330
B2
100
AcDbEntity
  8
0
100
AcDbBlockEnd
  0
BLOCK
  5
C4
330
C2
100
AcDbEntity
  8
0
100
AcDbBlockBegin
  2
block 9
 70
     0
 10
0.0
 20
0.0
 30
0.0
  3
block 9
  1

  0
SPLINE
  5
C6
330
C2
100
AcDbEntity
  8
_U+30EC_U+30A4_U+30E4_U+30FC 1
370
     0
100
AcDbSpline
210
0.0
220
0.0
230
1.0
 70
    11
 71
     3
 72
    29
 73
    25
 74
     0
 42
0.0000000001
 43
0.0000000001
 12
1.0
 22
0.0
 32
0.0
 13
1.0
 23
0.0
 33
0.0
 40
0.0
 40
0.0
 40
0.0
 40
0.0
 40
1.0
 40
1.0
 40
1.0
 40
2.0
 40
2.0
 40
2.0
 40
3.0
 40
3.0
 40
3.0
 40
4.0
 40
4.0
 40
4.0
 40
5.0
 40
5.0
 40
5.0
 40
6.0
 40
6.0
 40
6.0
 40
7.0
 40
7.0
 40
7.0
 40
8.0
 40
8.0
 40
8.0
 40
8.0
 10
87.28493921428988
 20
-139.0127034157677
 30
0.0
 10
87.01846107850581
 20
-139.0127034157677
 30
0.0
 10
86.7645575412429
 20
-138.8752441059062
 30
0.0
 10
86.7645575412429
 20
-138.5259114237019
 30
0.0
 10
86.7645575412429
 20
-138.2702853386963
 30
0.0
 10
86.90632322046092
 20
-138.1748561937549
 30
0.0
 10
87.0120876518581
 20
-138.1135334941175
 30
0.0
 10
86.88720294051778
 20
-138.0542778517712
 30
0.0
 10
86.81106633029377
 20
-137.9402451912094
 30
0.0
 10
86.81106633029377
 20
-137.7793592320482
 30
0.0
 10
86.81106633029377
 20
-137.5040961027768
 30
0.0
 10
87.01002059456694
 20
-137.369048359755
 30
0.0
 10
87.28493921428988
 20
-137.369048359755
 30
0.0
 10
87.56847057272594
 20
-137.369048359755
 30
0.0
 10
87.758812098286
 20
-137.5127088414899
 30
0.0
 10
87.758812098286
 20
-137.7793592320482
 30
0.0
 10
87.758812098286
 20
-137.9402451912094
 30
0.0
 10
87.68060843077082
 20
-138.0542778517712
 30
0.0
 10
87.55572371943052
 20
-138.1135334941175
 30
0.0
 10
87.64460718294997
 20
-138.1641763977506
 30
0.0
 10
87.80325383004572
 20
-138.259605542692
 30
0.0
 10
87.80325383004572
 20
-138.5217773091196
 30
0.0
 10
87.80325383004572
 20
-138.8962591883662
 30
0.0
 10
87.52402884096622
 20
-139.0127034157677
 30
0.0
 10
87.28493921428988
 20
-139.0127034157677
 30
0.0
  0
SPLINE
  5
C7
330
C2
100
AcDbEntity
  8
_U+30EC_U+30A4_U+30E4_U+30FC 1
370
     0
100
AcDbSpline
210
0.0
220
0.0
230
1.0
 70
    11
 71
     3
 72
    17
 73
    13
 74
     0
 42
0.0000000001
 43
0.0000000001
 12
1.0
 22
0.0
 32
0.0
 13
1.0
 23
0.0
 33
0.0
 40
0.0
 40
0.0
 40
0.0
 40
0.0
 40
1.0
 40
1.0
 40
1.0
 40
2.0
 40
2.0
 40
2.0
 40
3.0
 40
3.0
 40
3.0
 40
4.0
 40
4.0
 40
4.0
 40
4.0
 10
87.28493921428988
 20
-138.2213649828058
 30
0.0
 10
87.1411064777807
 20
-138.2213649828058
 30
0.0
 10
86.98883325733266
 20
-138.3081813890341
 30
0.0
 10
86.98883325733266
 20
-138.5114420226638
 30
0.0
 10
86.98883325733266
 20
-138.7164252040362
 30
0.0
 10
87.11578502596412
 20
-138.8180555208511
 30
0.0
 10
87.28493921428988
 20
-138.8180555208511
 30
0.0
 10
87.47114662526764
 20
-138.8180555208511
 30
0.0
 10
87.58121742602137
 20
-138.6954101215761
 30
0.0
 10
87.58121742602137
 20
-138.5176431945373
 30
0.0
 10
87.58121742602137
 20
-138.2954345357387
 30
0.0
 10
87.41826440956905
 20
-138.2213649828058
 30
0.0
 10
87.28493921428988
 20
-138.2213649828058
 30
0.0
  0
SPLINE
  5
C8
330
C2
100
AcDbEntity
  8
_U+30EC_U+30A4_U+30E4_U+30FC 1
370
     0
100
AcDbSpline
210
0.0
220
0.0
230
1.0
 70
    11
 71
     3
 72
    17
 73
    13
 74
     0
 42
0.0000000001
 43
0.0000000001
 12
1.0
 22
0.0
 32
0.0
 13
1.0
 23
0.0
 33
0.0
 40
0.0
 40
0.0
 40
0.0
 40
0.0
 40
1.0
 40
1.0
 40
1.0
 40
2.0
 40
2.0
 40
2.0
 40
3.0
 40
3.0
 40
3.0
 40
4.0
 40
4.0
 40
4.0
 40
4.0
 10
87.28493921428988
 20
-137.5612846878319
 30
0.0
 10
87.11991914054641
 20
-137.5612846878319
 30
0.0
 10
87.03534204638353
 20
-137.6563693232248
 30
0.0
 10
87.03534204638353
 20
-137.7921060853436
 30
0.0
 10
87.03534204638353
 20
-137.9147514846185
 30
0.0
 10
87.10734454202525
 20
-138.0332627693111
 30
0.0
 10
87.28493921428988
 20
-138.0332627693111
 30
0.0
 10
87.46270614132877
 20
-138.0332627693111
 30
0.0
 10
87.53453638219624
 20
-137.9147514846185
 30
0.0
 10
87.53453638219624
 20
-137.7921060853436
 30
0.0
 10
87.53453638219624
 20
-137.6563693232248
 30
0.0
 10
87.4478922307422
 20
-137.5612846878319
 30
0.0
 10
87.28493921428988
 20
-137.5612846878319
 30
0.0
  0
HATCH
  5
C9
330
C2
100
AcDbEntity
  8
_U+30EC_U+30A4_U+30E4_U+30FC 1
 62
     7
420
 16777215
100
AcDbHatch
 10
0.0
 20
0.0
 30
0.0
210
0.0
220
0.0
230
1.0
  2
SOLID
 70
     1
 71
     0
 91
        3
 92
        1
 93
        1
 72
     4
 94
        3
 73
     0
 74
     1
 95
       29
 96
       25
 40
0.0
 40
0.0
 40
0.0
 40
0.0
 40
1.0
 40
1.0
 40
1.0
 40
2.0
 40
2.0
 40
2.0
 40
3.0
 40
3.0
 40
3.0
 40
4.0
 40
4.0
 40
4.0
 40
5.0
 40
5.0
 40
5.0
 40
6.0
 40
6.0
 40
6.0
 40
7.0
 40
7.0
 40
7.0
 40
8.0
 40
8.0
 40
8.0
 40
8.0
 10
87.28493921428988
 20
-139.0127034157677
 10
87.01846107850581
 20
-139.0127034157677
 10
86.7645575412429
 20
-138.8752441059062
 10
86.7645575412429
 20
-138.5259114237019
 10
86.7645575412429
 20
-138.2702853386963
 10
86.90632322046092
 20
-138.1748561937549
 10
87.0120876518581
 20
-138.1135334941175
 10
86.88720294051778
 20
-138.0542778517712
 10
86.81106633029377
 20
-137.9402451912094
 10
86.81106633029377
 20
-137.7793592320482
 10
86.81106633029377
 20
-137.5040961027768
 10
87.01002059456694
 20
-137.369048359755
 10
87.28493921428988
 20
-137.369048359755
 10
87.56847057272594
 20
-137.369048359755
 10
87.758812098286
 20
-137.5127088414899
 10
87.758812098286
 20
-137.7793592320482
 10
87.758812098286
 20
-137.9402451912094
 10
87.68060843077082
 20
-138.0542778517712
 10
87.55572371943052
 20
-138.1135334941175
 10
87.64460718294997
 20
-138.1641763977506
 10
87.80325383004572
 20
-138.259605542692
 10
87.80325383004572
 20
-138.5217773091196
 10
87.80325383004572
 20
-138.8962591883662
 10
87.52402884096622
 20
-139.0127034157677
 10
87.28493921428988
 20
-139.0127034157677
 97
        0
 97
        0
 92
        1
 93
        1
 72
     4
 94
        3
 73
     0
 74
     1
 95
       17
 96
       13
 40
0.0
 40
0.0
 40
0.0
 40
0.0
 40
1.0
 40
1.0
 40
1.0
 40
2.0
 40
2.0
 40
2.0
 40
3.0
 40
3.0
 40
3.0
 40
4.0
 40
4.0
 40
4.0
 40
4.0
 10
87.28493921428988
 20
-138.2213649828058
 10
87.1411064777807
 20
-138.2213649828058
 10
86.98883325733266
 20
-138.3081813890341
 10
86.98883325733266
 20
-138.5114420226638
 10
86.98883325733266
 20
-138.7164252040362
 10
87.11578502596412
 20
-138.8180555208511
 10
87.28493921428988
 20
-138.8180555208511
 10
87.47114662526764
 20
-138.8180555208511
 10
87.58121742602137
 20
-138.6954101215761
 10
87.58121742602137
 20
-138.5176431945373
 10
87.58121742602137
 20
-138.2954345357387
 10
87.41826440956905
 20
-138.2213649828058
 10
87.28493921428988
 20
-138.2213649828058
 97
        0
 97
        0
 92
        1
 93
        1
 72
     4
 94
        3
 73
     0
 74
     1
 95
       17
 96
       13
 40
0.0
 40
0.0
 40
0.0
 40
0.0
 40
1.0
 40
1.0
 40
1.0
 40
2.0
 40
2.0
 40
2.0
 40
3.0
 40
3.0
 40
3.0
 40
4.0
 40
4.0
 40
4.0
 40
4.0
 10
87.28493921428988
 20
-137.5612846878319
 10
87.11991914054641
 20
-137.5612846878319
 10
87.03534204638353
 20
-137.6563693232248
 10
87.03534204638353
 20
-137.7921060853436
 10
87.03534204638353
 20
-137.9147514846185
 10
87.10734454202525
 20
-138.0332627693111
 10
87.28493921428988
 20
-138.0332627693111
 10
87.46270614132877
 20
-138.0332627693111
 10
87.53453638219624
 20
-137.9147514846185
 10
87.53453638219624
 20
-137.7921060853436
 10
87.53453638219624
 20
-137.6563693232248
 10
87.4478922307422
 20
-137.5612846878319
 10
87.28493921428988
 20
-137.5612846878319
 97
        0
 97
        0
 75
     2
 76
     1
 98
        0
  0
ENDBLK
  5
C5
330
C2
100
AcDbEntity
  8
0
100
AcDbBlockEnd
  0
BLOCK
  5
CC
330
CA
100
AcDbEntity
  8
0
100
AcDbBlockBegin
  2
block 10
 70
     0
 10
0.0
 20
0.0
 30
0.0
  3
block 10
  1

  0
POLYLINE
  5
CE
330
CA
100
AcDbEntity
  8
_U+30EC_U+30A4_U+30E4_U+30FC 1
 62
     7
420
 16777215
370
     9
100
AcDb2dPolyline
 66
     1
 10
0.0
 20
0.0
 30
0.0
  0
VERTEX
  5
CF
330
CE
100
AcDbEntity
  8
_U+30EC_U+30A4_U+30E4_U+30FC 1
 62
     7
420
 16777215
370
     9
100
AcDbVertex
100
AcDb2dVertex
 10
107.2857872629115
 20
-134.6077938552368
 30
0.0
  0
VERTEX
  5
D0
330
CE
100
AcDbEntity
  8
_U+30EC_U+30A4_U+30E4_U+30FC 1
 62
     7
420
 16777215
370
     9
100
AcDbVertex
100
AcDb2dVertex
 10
107.2857872629115
 20
-124.9081335798842
 30
0.0
  0
SEQEND
  5
D1
330
CE
100
AcDbEntity
  8
_U+30EC_U+30A4_U+30E4_U+30FC 1
 62
     7
420
 16777215
370
     9
  0
POLYLINE
  5
D2
330
CA
100
AcDbEntity
  8
_U+30EC_U+30A4_U+30E4_U+30FC 1
 62
     7
420
 16777215
370
     9
100
AcDb2dPolyline
 66
     1
 10
0.0
 20
0.0
 30
0.0
  0
VERTEX
  5
D3
330
D2
100
AcDbEntity
  8
_U+30EC_U+30A4_U+30E4_U+30FC 1
 62
     7
420
 16777215
370
     9
100
AcDbVertex
100
AcDb2dVertex
 10
93.8257984396378
 20
-134.6077938552368
 30
0.0
  0
VERTEX
  5
D4
330
D2
100
AcDbEntity
  8
_U+30EC_U+30A4_U+30E4_U+30FC 1
 62
     7
420
 16777215
370
     9
100
AcDbVertex
100
AcDb2dVertex
 10
108.2862297373881
 20
-134.6077938552368
 30
0.0
  0
SEQEND
  5
D5
330
D2
100
AcDbEntity
  8
_U+30EC_U+30A4_U+30E4_U+30FC 1
 62
     7
420
 16777215
370
     9
  0
INSERT
  5
D7
330
CA
100
AcDbEntity
  8
_U+30EC_U+30A4_U+30E4_U+30FC 1
100
AcDbBlockReference
  2
block 11
 10
0.0
 20
0.0
 30
0.0
  0
ENDBLK
  5
CD
330
CA
100
AcDbEntity
  8
0
100
AcDbBlockEnd
  0
BLOCK
  5
D8
330
D6
100
AcDbEntity
  8
0
100
AcDbBlockBegin
  2
block 11
 70
     0
 10
0.0
 20
0.0
 30
0.0
  3
block 11
  1

  0
SPLINE
  5
DA
330
D6
100
AcDbEntity
  8
_U+30EC_U+30A4_U+30E4_U+30FC 1
370
     0
100
AcDbSpline
210
0.0
220
0.0
230
1.0
 70
    11
 71
     3
 72
    32
 73
    28
 74
     0
 42
0.0000000001
 43
0.0000000001
 12
1.0
 22
0.0
 32
0.0
 13
1.0
 23
0.0
 33
0.0
 40
0.0
 40
0.0
 40
0.0
 40
0.0
 40
1.0
 40
1.0
 40
1.0
 40
2.0
 40
2.0
 40
2.0
 40
3.0
 40
3.0
 40
3.0
 40
4.0
 40
4.0
 40
4.0
 40
5.0
 40
5.0
 40
5.0
 40
6.0
 40
6.0
 40
6.0
 40
7.0
 40
7.0
 40
7.0
 40
8.0
 40
8.0
 40
8.0
 40
9.0
 40
9.0
 40
9.0
 40
9.0
 10
106.6904730636052
 20
-130.6635145072647
 30
0.0
 10
106.6904730636052
 20
-130.8368028101727
 30
0.0
 10
106.6208821348031
 20
-131.0824381182711
 30
0.0
 10
106.288774930025
 20
-131.1203341686088
 30
0.0
 10
106.288774930025
 20
-131.1203341686088
 30
0.0
 10
106.288774930025
 20
-130.9067382485233
 30
0.0
 10
106.288774930025
 20
-130.9067382485233
 30
0.0
 10
106.3480305723713
 20
-130.896058452519
 30
0.0
 10
106.4958251686886
 20
-130.8643635740547
 30
0.0
 10
106.4958251686886
 20
-130.6614474499735
 30
0.0
 10
106.4958251686886
 20
-130.3693033528243
 30
0.0
 10
106.1657850212016
 20
-130.3314073024866
 30
0.0
 10
105.9608018398292
 20
-130.3186604491912
 30
0.0
 10
106.0410725646356
 20
-130.4096109700018
 30
0.0
 10
106.0982611496907
 20
-130.4771348415127
 30
0.0
 10
106.0982611496907
 20
-130.6590358831339
 30
0.0
 10
106.0982611496907
 20
-130.8388698674639
 30
0.0
 10
105.9924967182936
 20
-131.1416937606174
 30
0.0
 10
105.5863199605826
 20
-131.1416937606174
 30
0.0
 10
105.2669596090999
 20
-131.1416937606174
 30
0.0
 10
105.0468180075925
 20
-130.9425672415699
 30
0.0
 10
105.0468180075925
 20
-130.6252739473784
 30
0.0
 10
105.0468180075925
 20
-130.1112657009791
 30
0.0
 10
105.6011338711692
 20
-130.1005859049748
 30
0.0
 10
105.8147297912546
 20
-130.1005859049748
 30
0.0
 10
106.0452066792179
 20
-130.1005859049748
 30
0.0
 10
106.6904730636052
 20
-130.1198784396923
 30
0.0
 10
106.6904730636052
 20
-130.6635145072647
 30
0.0
  0
SPLINE
  5
DB
330
D6
100
AcDbEntity
  8
_U+30EC_U+30A4_U+30E4_U+30FC 1
370
     0
100
AcDbSpline
210
0.0
220
0.0
230
1.0
 70
    11
 71
     3
 72
    17
 73
    13
 74
     0
 42
0.0000000001
 43
0.0000000001
 12
1.0
 22
0.0
 32
0.0
 13
1.0
 23
0.0
 33
0.0
 40
0.0
 40
0.0
 40
0.0
 40
0.0
 40
1.0
 40
1.0
 40
1.0
 40
2.0
 40
2.0
 40
2.0
 40
3.0
 40
3.0
 40
3.0
 40
4.0
 40
4.0
 40
4.0
 40
4.0
 10
105.2393988452179
 20
-130.6232068900873
 30
0.0
 10
105.2393988452179
 20
-130.7417181747799
 30
0.0
 10
105.2965874302731
 20
-130.9174180445276
 30
0.0
 10
105.5821858460003
 20
-130.9174180445276
 30
0.0
 10
105.8085286193812
 20
-130.9174180445276
 30
0.0
 10
105.9036132547741
 20
-130.7775471678264
 30
0.0
 10
105.9036132547741
 20
-130.6421549152561
 30
0.0
 10
105.9036132547741
 20
-130.3799831488286
 30
0.0
 10
105.6941514492709
 20
-130.3417425889423
 30
0.0
 10
105.5777072218695
 20
-130.3417425889423
 30
0.0
 10
105.4023518616703
 20
-130.3417425889423
 30
0.0
 10
105.2393988452179
 20
-130.4371717338838
 30
0.0
 10
105.2393988452179
 20
-130.6232068900873
 30
0.0
  0
HATCH
  5
DC
330
D6
100
AcDbEntity
  8
_U+30EC_U+30A4_U+30E4_U+30FC 1
 62
     7
420
 16777215
100
AcDbHatch
 10
0.0
 20
0.0
 30
0.0
210
0.0
220
0.0
230
1.0
  2
SOLID
 70
     1
 71
     0
 91
        2
 92
        1
 93
        1
 72
     4
 94
        3
 73
     0
 74
     1
 95
       32
 96
       28
 40
0.0
 40
0.0
 40
0.0
 40
0.0
 40
1.0
 40
1.0
 40
1.0
 40
2.0
 40
2.0
 40
2.0
 40
3.0
 40
3.0
 40
3.0
 40
4.0
 40
4.0
 40
4.0
 40
5.0
 40
5.0
 40
5.0
 40
6.0
 40
6.0
 40
6.0
 40
7.0
 40
7.0
 40
7.0
 40
8.0
 40
8.0
 40
8.0
 40
9.0
 40
9.0
 40
9.0
 40
9.0
 10
106.6904730636052
 20
-130.6635145072647
 10
106.6904730636052
 20
-130.8368028101727
 10
106.6208821348031
 20
-131.0824381182711
 10
106.288774930025
 20
-131.1203341686088
 10
106.288774930025
 20
-131.1203341686088
 10
106.288774930025
 20
-130.9067382485233
 10
106.288774930025
 20
-130.9067382485233
 10
106.3480305723713
 20
-130.896058452519
 10
106.4958251686886
 20
-130.8643635740547
 10
106.4958251686886
 20
-130.6614474499735
 10
106.4958251686886
 20
-130.3693033528243
 10
106.1657850212016
 20
-130.3314073024866
 10
105.9608018398292
 20
-130.3186604491912
 10
106.0410725646356
 20
-130.4096109700018
 10
106.0982611496907
 20
-130.4771348415127
 10
106.0982611496907
 20
-130.6590358831339
 10
106.0982611496907
 20
-130.8388698674639
 10
105.9924967182936
 20
-131.1416937606174
 10
105.5863199605826
 20
-131.1416937606174
 10
105.2669596090999
 20
-131.1416937606174
 10
105.0468180075925
 20
-130.9425672415699
 10
105.0468180075925
 20
-130.6252739473784
 10
105.0468180075925
 20
-130.1112657009791
 10
105.6011338711692
 20
-130.1005859049748
 10
105.8147297912546
 20
-130.1005859049748
 10
106.0452066792179
 20
-130.1005859049748
 10
106.6904730636052
 20
-130.1198784396923
 10
106.6904730636052
 20
-130.6635145072647
 97
        0
 97
        0
 92
        1
 93
        1
 72
     4
 94
        3
 73
     0
 74
     1
 95
       17
 96
       13
 40
0.0
 40
0.0
 40
0.0
 40
0.0
 40
1.0
 40
1.0
 40
1.0
 40
2.0
 40
2.0
 40
2.0
 40
3.0
 40
3.0
 40
3.0
 40
4.0
 40
4.0
 40
4.0
 40
4.0
 10
105.2393988452179
 20
-130.6232068900873
 10
105.2393988452179
 20
-130.7417181747799
 10
105.2965874302731
 20
-130.9174180445276
 10
105.5821858460003
 20
-130.9174180445276
 10
105.8085286193812
 20
-130.9174180445276
 10
105.9036132547741
 20
-130.7775471678264
 10
105.9036132547741
 20
-130.6421549152561
 10
105.9036132547741
 20
-130.3799831488286
 10
105.6941514492709
 20
-130.3417425889423
 10
105.5777072218695
 20
-130.3417425889423
 10
105.4023518616703
 20
-130.3417425889423
 10
105.2393988452179
 20
-130.4371717338838
 10
105.2393988452179
 20
-130.6232068900873
 97
        0
 97
        0
 75
     2
 76
     1
 98
        0
  0
POLYLINE
  5
DD
330
D6
100
AcDbEntity
  8
_U+30EC_U+30A4_U+30E4_U+30FC 1
370
     0
100
AcDb2dPolyline
 66
     1
 10
0.0
 20
0.0
 30
0.0
  0
VERTEX
  5
DE
330
DD
100
AcDbEntity
  8
_U+30EC_U+30A4_U+30E4_U+30FC 1
370
     0
100
AcDbVertex
100
AcDb2dVertex
 10
106.639830159972
 20
-129.8842339085012
 30
0.0
  0
VERTEX
  5
DF
330
DD
100
AcDbEntity
  8
_U+30EC_U+30A4_U+30E4_U+30FC 1
370
     0
100
AcDbVertex
100
AcDb2dVertex
 10
106.3879936800002
 20
-129.8842339085012
 30
0.0
  0
VERTEX
  5
E0
330
DD
100
AcDbEntity
  8
_U+30EC_U+30A4_U+30E4_U+30FC 1
370
     0
100
AcDbVertex
100
AcDb2dVertex
 10
106.3879936800002
 20
-129.6323974285294
 30
0.0
  0
VERTEX
  5
E1
330
DD
100
AcDbEntity
  8
_U+30EC_U+30A4_U+30E4_U+30FC 1
370
     0
100
AcDbVertex
100
AcDb2dVertex
 10
106.639830159972
 20
-129.6323974285294
 30
0.0
  0
VERTEX
  5
E2
330
DD
100
AcDbEntity
  8
_U+30EC_U+30A4_U+30E4_U+30FC 1
370
     0
100
AcDbVertex
100
AcDb2dVertex
 10
106.639830159972
 20
-129.8842339085012
 30
0.0
  0
SEQEND
  5
E3
330
DD
100
AcDbEntity
  8
_U+30EC_U+30A4_U+30E4_U+30FC 1
370
     0
  0
HATCH
  5
E4
330
D6
100
AcDbEntity
  8
_U+30EC_U+30A4_U+30E4_U+30FC 1
 62
     7
420
 16777215
100
AcDbHatch
 10
0.0
 20
0.0
 30
0.0
210
0.0
220
0.0
230
1.0
  2
SOLID
 70
     1
 71
     0
 91
        1
 92
        1
 93
        4
 72
     1
 10
106.639830159972
 20
-129.8842339085012
 11
106.3879936800002
 21
-129.8842339085012
 72
     1
 10
106.3879936800002
 20
-129.8842339085012
 11
106.3879936800002
 21
-129.6323974285294
 72
     1
 10
106.3879936800002
 20
-129.6323974285294
 11
106.639830159972
 21
-129.6323974285294
 72
     1
 10
106.639830159972
 20
-129.6323974285294
 11
106.639830159972
 21
-129.8842339085012
 97
        0
 75
     2
 76
     1
 98
        0
  0
SPLINE
  5
E5
330
D6
100
AcDbEntity
  8
_U+30EC_U+30A4_U+30E4_U+30FC 1
370
     0
100
AcDbSpline
210
0.0
220
0.0
230
1.0
 70
    11
 71
     3
 72
    26
 73
    22
 74
     0
 42
0.0000000001
 43
0.0000000001
 12
1.0
 22
0.0
 32
0.0
 13
1.0
 23
0.0
 33
0.0
 40
0.0
 40
0.0
 40
0.0
 40
0.0
 40
1.0
 40
1.0
 40
1.0
 40
2.0
 40
2.0
 40
2.0
 40
3.0
 40
3.0
 40
3.0
 40
4.0
 40
4.0
 40
4.0
 40
5.0
 40
5.0
 40
5.0
 40
6.0
 40
6.0
 40
6.0
 40
7.0
 40
7.0
 40
7.0
 40
7.0
 10
106.639830159972
 20
-128.985063986851
 30
0.0
 10
106.639830159972
 20
-128.985063986851
 30
0.0
 10
106.639830159972
 20
-129.2220865562361
 30
0.0
 10
106.639830159972
 20
-129.2220865562361
 30
0.0
 10
106.3308050949451
 20
-129.1965928496453
 30
0.0
 10
105.8126627339635
 20
-129.0040120120198
 30
0.0
 10
105.3069227167288
 20
-128.5978352543089
 30
0.0
 10
105.3069227167288
 20
-128.5978352543089
 30
0.0
 10
105.3069227167288
 20
-129.4356824763216
 30
0.0
 10
105.3069227167288
 20
-129.4356824763216
 30
0.0
 10
105.3069227167288
 20
-129.4356824763216
 30
0.0
 10
105.0953938539345
 20
-129.4356824763216
 30
0.0
 10
105.0953938539345
 20
-129.4356824763216
 30
0.0
 10
105.0953938539345
 20
-129.4356824763216
 30
0.0
 10
105.0953938539345
 20
-128.3608126849237
 30
0.0
 10
105.0953938539345
 20
-128.3608126849237
 30
0.0
 10
105.0953938539345
 20
-128.3608126849237
 30
0.0
 10
105.3069227167288
 20
-128.3608126849237
 30
0.0
 10
105.3069227167288
 20
-128.3608126849237
 30
0.0
 10
105.5969997565869
 20
-128.6846516605372
 30
0.0
 10
106.1892116705013
 20
-128.9513020510955
 30
0.0
 10
106.639830159972
 20
-128.985063986851
 30
0.0
  0
HATCH
  5
E6
330
D6
100
AcDbEntity
  8
_U+30EC_U+30A4_U+30E4_U+30FC 1
 62
     7
420
 16777215
100
AcDbHatch
 10
0.0
 20
0.0
 30
0.0
210
0.0
220
0.0
230
1.0
  2
SOLID
 70
     1
 71
     0
 91
        1
 92
        1
 93
        1
 72
     4
 94
        3
 73
     0
 74
     1
 95
       26
 96
       22
 40
0.0
 40
0.0
 40
0.0
 40
0.0
 40
1.0
 40
1.0
 40
1.0
 40
2.0
 40
2.0
 40
2.0
 40
3.0
 40
3.0
 40
3.0
 40
4.0
 40
4.0
 40
4.0
 40
5.0
 40
5.0
 40
5.0
 40
6.0
 40
6.0
 40
6.0
 40
7.0
 40
7.0
 40
7.0
 40
7.0
 10
106.639830159972
 20
-128.985063986851
 10
106.639830159972
 20
-128.985063986851
 10
106.639830159972
 20
-129.2220865562361
 10
106.639830159972
 20
-129.2220865562361
 10
106.3308050949451
 20
-129.1965928496453
 10
105.8126627339635
 20
-129.0040120120198
 10
105.3069227167288
 20
-128.5978352543089
 10
105.3069227167288
 20
-128.5978352543089
 10
105.3069227167288
 20
-129.4356824763216
 10
105.3069227167288
 20
-129.4356824763216
 10
105.3069227167288
 20
-129.4356824763216
 10
105.0953938539345
 20
-129.4356824763216
 10
105.0953938539345
 20
-129.4356824763216
 10
105.0953938539345
 20
-129.4356824763216
 10
105.0953938539345
 20
-128.3608126849237
 10
105.0953938539345
 20
-128.3608126849237
 10
105.0953938539345
 20
-128.3608126849237
 10
105.3069227167288
 20
-128.3608126849237
 10
105.3069227167288
 20
-128.3608126849237
 10
105.5969997565869
 20
-128.6846516605372
 10
106.1892116705013
 20
-128.9513020510955
 10
106.639830159972
 20
-128.985063986851
 97
        0
 97
        0
 75
     2
 76
     1
 98
        0
  0
ENDBLK
  5
D9
330
D6
100
AcDbEntity
  8
0
100
AcDbBlockEnd
  0
ENDSEC
  0
SECTION
  2
ENTITIES
  0
INSERT
  5
42
330
1F
100
AcDbEntity
  8
_U+30EC_U+30A4_U+30E4_U+30FC 1
100
AcDbBlockReference
  2
block 2
 10
0.0
 20
0.0
 30
0.0
  0
ENDSEC
  0
SECTION
  2
OBJECTS
  0
DICTIONARY
  5
C
330
0
100
AcDbDictionary
281
     1
  3
ACAD_GROUP
350
D
  3
ACAD_LAYOUT
350
1A
  3
ACAD_MATERIAL
350
3B
  3
ACAD_MLEADERSTYLE
350
E8
  3
ACAD_MLINESTYLE
350
17
  3
ACAD_PLOTSETTINGS
350
19
  3
ACAD_PLOTSTYLENAME
350
E
  3
ACAD_TABLESTYLE
350
E7
  3
ACAD_VISUALSTYLE
350
2A
  0
SUN
  5
3F
330
29
100
AcDbSun
 90
        1
290
     0
 63
     7
421
 16777215
 40
1.0
291
     1
 91
  2455826
 92
 54000000
292
     0
 70
     2
 71
   256
280
     1
  0
DICTIONARY
  5
D
102
{ACAD_REACTORS
330
C
102
}
330
C
100
AcDbDictionary
281
     1
  0
DICTIONARY
  5
1A
102
{ACAD_REACTORS
330
C
102
}
330
C
100
AcDbDictionary
281
     1
  3
Layout1
350
1E
  3
Layout2
350
26
  3
Model
350
22
  0
DICTIONARY
  5
3B
102
{ACAD_REACTORS
330
C
102
}
330
C
100
AcDbDictionary
281
     1
  3
ByBlock
350
3D
  3
ByLayer
350
3C
  3
Global
350
3E
  0
DICTIONARY
  5
E8
102
{ACAD_REACTORS
330
C
102
}
330
C
100
AcDbDictionary
281
     1
  0
DICTIONARY
  5
17
102
{ACAD_REACTORS
330
C
102
}
330
C
100
AcDbDictionary
281
     1
  3
Standard
350
18
  0
DICTIONARY
  5
19
102
{ACAD_REACTORS
330
C
102
}
330
C
100
AcDbDictionary
281
     1
  0
ACDBDICTIONARYWDFLT
  5
E
102
{ACAD_REACTORS
330
C
102
}
330
C
100
AcDbDictionary
281
     1
  3
Normal
350
F
100
AcDbDictionaryWithDefault
340
F
  0
DICTIONARY
  5
E7
102
{ACAD_REACTORS
330
C
102
}
330
C
100
AcDbDictionary
281
     1
  0
DICTIONARY
  5
2A
102
{ACAD_REACTORS
330
C
102
}
330
C
100
AcDbDictionary
281
     1
  3
2dWireframe
350
2F
  3
3D Hidden
350
31
  3
3dWireframe
350
30
  3
Basic
350
32
  3
Brighten
350
36
  3
ColorChange
350
3A
  3
Conceptual
350
34
  3
Dim
350
35
  3
Facepattern
350
39
  3
Flat
350
2B
  3
FlatWithEdges
350
2C
  3
Gouraud
350
2D
  3
GouraudWithEdges
350
2E
  3
Linepattern
350
38
  3
Realistic
350
33
  3
Thicken
350
37
  0
LAYOUT
  5
1E
102
{ACAD_REACTORS
330
1A
102
}
330
1A
100
AcDbPlotSettings
  1

  2
none_device
  4

  6

 40
0.0
 41
0.0
 42
0.0
 43
0.0
 44
0.0
 45
0.0
 46
0.0
 47
0.0
 48
0.0
 49
0.0
140
0.0
141
0.0
142
1.0
143
1.0
 70
   688
 72
     0
 73
     0
 74
     5
  7

 75
    16
 76
     0
 77
     2
 78
   300
147
1.0
148
0.0
149
0.0
100
AcDbLayout
  1
Layout1
 70
     1
 71
     1
 10
0.0
 20
0.0
 11
12.0
 21
9.0
 12
0.0
 22
0.0
 32
0.0
 14
1.000000000000000E+20
 24
1.000000000000000E+20
 34
1.000000000000000E+20
 15
-1.000000000000000E+20
 25
-1.000000000000000E+20
 35
-1.000000000000000E+20
146
0.0
 13
0.0
 23
0.0
 33
0.0
 16
1.0
 26
0.0
 36
0.0
 17
0.0
 27
1.0
 37
0.0
 76
     0
330
1B
  0
LAYOUT
  5
26
102
{ACAD_REACTORS
330
1A
102
}
330
1A
100
AcDbPlotSettings
  1

  2
none_device
  4

  6

 40
0.0
 41
0.0
 42
0.0
 43
0.0
 44
0.0
 45
0.0
 46
0.0
 47
0.0
 48
0.0
 49
0.0
140
0.0
141
0.0
142
1.0
143
1.0
 70
   688
 72
     0
 73
     0
 74
     5
  7

 75
    16
 76
     0
 77
     2
 78
   300
147
1.0
148
0.0
149
0.0
100
AcDbLayout
  1
Layout2
 70
     1
 71
     2
 10
0.0
 20
0.0
 11
0.0
 21
0.0
 12
0.0
 22
0.0
 32
0.0
 14
0.0
 24
0.0
 34
0.0
 15
0.0
 25
0.0
 35
0.0
146
0.0
 13
0.0
 23
0.0
 33
0.0
 16
1.0
 26
0.0
 36
0.0
 17
0.0
 27
1.0
 37
0.0
 76
     0
330
23
  0
LAYOUT
  5
22
102
{ACAD_REACTORS
330
1A
102
}
330
1A
100
AcDbPlotSettings
  1

  2
none_device
  4

  6

 40
0.0
 41
0.0
 42
0.0
 43
0.0
 44
0.0
 45
0.0
 46
0.0
 47
0.0
 48
0.0
 49
0.0
140
0.0
141
0.0
142
1.0
143
1.0
 70
  1712
 72
     0
 73
     0
 74
     0
  7

 75
     0
 76
     0
 77
     2
 78
   300
147
1.0
148
0.0
149
0.0
100
AcDbLayout
  1
Model
 70
     1
 71
     0
 10
0.0
 20
0.0
 11
12.0
 21
9.0
 12
0.0
 22
0.0
 32
0.0
 14
1.000000000000000E+20
 24
1.000000000000000E+20
 34
1.000000000000000E+20
 15
-1.000000000000000E+20
 25
-1.000000000000000E+20
 35
-1.000000000000000E+20
146
0.0
 13
0.0
 23
0.0
 33
0.0
 16
1.0
 26
0.0
 36
0.0
 17
0.0
 27
1.0
 37
0.0
 76
     0
330
1F
331
29
  0
MATERIAL
  5
3D
102
{ACAD_REACTORS
330
3B
102
}
330
3B
100
AcDbMaterial
  1
ByBlock
 72
     1
 94
      127
  0
MATERIAL
  5
3C
102
{ACAD_REACTORS
330
3B
102
}
330
3B
100
AcDbMaterial
  1
ByLayer
 72
     1
 94
      127
  0
MATERIAL
  5
3E
102
{ACAD_REACTORS
330
3B
102
}
330
3B
100
AcDbMaterial
  1
Global
 72
     1
 94
      127
  0
MLINESTYLE
  5
18
102
{ACAD_REACTORS
330
17
102
}
330
17
100
AcDbMlineStyle
  2
Standard
 70
     0
  3

 62
   256
 51
90.0
 52
90.0
 71
     2
 49
0.5
 62
   256
  6
BYLAYER
 49
-0.5
 62
   256
  6
BYLAYER
  0
ACDBPLACEHOLDER
  5
F
102
{ACAD_REACTORS
330
E
102
}
330
E
  0
VISUALSTYLE
  5
2F
102
{ACAD_REACTORS
330
2A
102
}
330
2A
100
AcDbVisualStyle
  2
2dWireframe
 70
     4
177
     2
291
     0
 71
     0
176
     1
 72
     2
176
     1
 73
     0
176
     1
 90
        0
176
     1
 40
-0.6
176
     1
 41
-30.0
176
     1
 62
     5
 63
     7
421
 16777215
176
     1
 74
     1
176
     1
 91
        4
176
     1
 64
     7
176
     1
 65
   257
176
     1
 75
     1
176
     1
175
     1
176
     1
 42
1.0
176
     1
 92
        0
176
     1
 66
   257
176
     1
 43
1.0
176
     1
 76
     1
176
     1
 77
     6
176
     1
 78
     2
176
     1
 67
     7
176
     1
 79
     5
176
     1
170
     0
176
     1
171
     0
176
     1
290
     0
176
     1
 93
        1
176
     1
 44
0.0
176
     1
173
     0
176
     1
  0
VISUALSTYLE
  5
31
102
{ACAD_REACTORS
330
2A
102
}
330
2A
100
AcDbVisualStyle
  2
3D Hidden
 70
     6
177
     2
291
     0
 71
     1
176
     1
 72
     2
176
     1
 73
     2
176
     1
 90
        0
176
     1
 40
-0.6
176
     1
 41
-30.0
176
     1
 62
     5
 63
     7
421
 16777215
176
     1
 74
     2
176
     1
 91
        2
176
     1
 64
     7
176
     1
 65
   257
176
     1
 75
     2
176
     1
175
     1
176
     1
 42
40.0
176
     1
 92
        0
176
     1
 66
   257
176
     1
 43
1.0
176
     1
 76
     1
176
     1
 77
     6
176
     1
 78
     2
176
     1
 67
     7
176
     1
 79
     3
176
     1
170
     0
176
     1
171
     0
176
     1
290
     0
176
     1
 93
        1
176
     1
 44
0.0
176
     1
173
     0
176
     1
  0
VISUALSTYLE
  5
30
102
{ACAD_REACTORS
330
2A
102
}
330
2A
100
AcDbVisualStyle
  2
3dWireframe
 70
     5
177
     2
291
     0
 71
     0
176
     1
 72
     2
176
     1
 73
     0
176
     1
 90
        0
176
     1
 40
-0.6
176
     1
 41
-30.0
176
     1
 62
     5
 63
     7
421
 16777215
176
     1
 74
     1
176
     1
 91
        4
176
     1
 64
     7
176
     1
 65
   257
176
     1
 75
     1
176
     1
175
     1
176
     1
 42
1.0
176
     1
 92
        0
176
     1
 66
   257
176
     1
 43
1.0
176
     1
 76
     1
176
     1
 77
     6
176
     1
 78
     2
176
     1
 67
     7
176
     1
 79
     5
176
     1
170
     0
176
     1
171
     0
176
     1
290
     0
176
     1
 93
        1
176
     1
 44
0.0
176
     1
173
     0
176
     1
  0
VISUALSTYLE
  5
32
102
{ACAD_REACTORS
330
2A
102
}
330
2A
100
AcDbVisualStyle
  2
Basic
 70
     7
177
     2
291
     1
 71
     1
176
     1
 72
     0
176
     1
 73
     1
176
     1
 90
        0
176
     1
 40
-0.6
176
     1
 41
-30.0
176
     1
 62
     5
 63
     7
421
 16777215
176
     1
 74
     0
176
     1
 91
        4
176
     1
 64
     7
176
     1
 65
   257
176
     1
 75
     1
176
     1
175
     1
176
     1
 42
1.0
176
     1
 92
        8
176
     1
 66
     7
176
     1
 43
1.0
176
     1
 76
     1
176
     1
 77
     6
176
     1
 78
     2
176
     1
 67
     7
176
     1
 79
     5
176
     1
170
     0
176
     1
171
     0
176
     1
290
     0
176
     1
 93
        1
176
     1
 44
0.0
176
     1
173
     0
176
     1
  0
VISUALSTYLE
  5
36
102
{ACAD_REACTORS
330
2A
102
}
330
2A
100
AcDbVisualStyle
  2
Brighten
 70
    12
177
     2
291
     1
 71
     2
176
     1
 72
     2
176
     1
 73
     0
176
     1
 90
        0
176
     1
 40
-0.6
176
     1
 41
-30.0
176
     1
 62
     5
 63
     7
421
 16777215
176
     1
 74
     1
176
     1
 91
        4
176
     1
 64
     7
176
     1
 65
   257
176
     1
 75
     1
176
     1
175
     1
176
     1
 42
1.0
176
     1
 92
        8
176
     1
 66
     7
176
     1
 43
1.0
176
     1
 76
     1
176
     1
 77
     6
176
     1
 78
     2
176
     1
 67
     7
176
     1
 79
     5
176
     1
170
     0
176
     1
171
     0
176
     1
290
     0
176
     1
 93
        1
176
     1
 44
50.0
176
     1
173
     0
176
     1
  0
VISUALSTYLE
  5
3A
102
{ACAD_REACTORS
330
2A
102
}
330
2A
100
AcDbVisualStyle
  2
ColorChange
 70
    16
177
     2
291
     1
 71
     2
176
     1
 72
     2
176
     1
 73
     3
176
     1
 90
        0
176
     1
 40
-0.6
176
     1
 41
-30.0
176
     1
 62
     5
 63
     8
421
  8421504
176
     1
 74
     1
176
     1
 91
        4
176
     1
 64
     7
176
     1
 65
   257
176
     1
 75
     1
176
     1
175
     1
176
     1
 42
1.0
176
     1
 92
        8
176
     1
 66
     8
424
  8421504
176
     1
 43
1.0
176
     1
 76
     1
176
     1
 77
     6
176
     1
 78
     2
176
     1
 67
     7
176
     1
 79
     5
176
     1
170
     0
176
     1
171
     0
176
     1
290
     0
176
     1
 93
        1
176
     1
 44
0.0
176
     1
173
     0
176
     1
  0
VISUALSTYLE
  5
34
102
{ACAD_REACTORS
330
2A
102
}
330
2A
100
AcDbVisualStyle
  2
Conceptual
 70
     9
177
     2
291
     0
 71
     3
176
     1
 72
     2
176
     1
 73
     0
176
     1
 90
        0
176
     1
 40
-0.6
176
     1
 41
-30.0
176
     1
 62
     5
 63
     7
421
 16777215
176
     1
 74
     2
176
     1
 91
        2
176
     1
 64
     7
176
     1
 65
   257
176
     1
 75
     1
176
     1
175
     1
176
     1
 42
40.0
176
     1
 92
        8
176
     1
 66
     7
176
     1
 43
1.0
176
     1
 76
     1
176
     1
 77
     6
176
     1
 78
     2
176
     1
 67
     7
176
     1
 79
     3
176
     1
170
     0
176
     1
171
     0
176
     1
290
     0
176
     1
 93
        1
176
     1
 44
0.0
176
     1
173
     0
176
     1
  0
VISUALSTYLE
  5
35
102
{ACAD_REACTORS
330
2A
102
}
330
2A
100
AcDbVisualStyle
  2
Dim
 70
    11
177
     2
291
     1
 71
     2
176
     1
 72
     2
176
     1
 73
     0
176
     1
 90
        0
176
     1
 40
-0.6
176
     1
 41
-30.0
176
     1
 62
     5
 63
     7
421
 16777215
176
     1
 74
     1
176
     1
 91
        4
176
     1
 64
     7
176
     1
 65
   257
176
     1
 75
     1
176
     1
175
     1
176
     1
 42
1.0
176
     1
 92
        8
176
     1
 66
     7
176
     1
 43
1.0
176
     1
 76
     1
176
     1
 77
     6
176
     1
 78
     2
176
     1
 67
     7
176
     1
 79
     5
176
     1
170
     0
176
     1
171
     0
176
     1
290
     0
176
     1
 93
        1
176
     1
 44
-50.0
176
     1
173
     0
176
     1
  0
VISUALSTYLE
  5
39
102
{ACAD_REACTORS
330
2A
102
}
330
2A
100
AcDbVisualStyle
  2
Facepattern
 70
    15
177
     2
291
     1
 71
     2
176
     1
 72
     2
176
     1
 73
     0
176
     1
 90
        0
176
     1
 40
-0.6
176
     1
 41
-30.0
176
     1
 62
     5
 63
     7
421
 16777215
176
     1
 74
     1
176
     1
 91
        4
176
     1
 64
     7
176
     1
 65
   257
176
     1
 75
     1
176
     1
175
     1
176
     1
 42
1.0
176
     1
 92
        8
176
     1
 66
     7
176
     1
 43
1.0
176
     1
 76
     1
176
     1
 77
     6
176
     1
 78
     2
176
     1
 67
     7
176
     1
 79
     5
176
     1
170
     0
176
     1
171
     0
176
     1
290
     0
176
     1
 93
        1
176
     1
 44
0.0
176
     1
173
     0
176
     1
  0
VISUALSTYLE
  5
2B
102
{ACAD_REACTORS
330
2A
102
}
330
2A
100
AcDbVisualStyle
  2
Flat
 70
     0
177
     2
291
     1
 71
     2
176
     1
 72
     1
176
     1
 73
     1
176
     1
 90
        2
176
     1
 40
-0.6
176
     1
 41
30.0
176
     1
 62
     5
 63
     7
421
 16777215
176
     1
 74
     0
176
     1
 91
        4
176
     1
 64
     7
176
     1
 65
   257
176
     1
 75
     1
176
     1
175
     1
176
     1
 42
1.0
176
     1
 92
        8
176
     1
 66
     7
176
     1
 43
1.0
176
     1
 76
     1
176
     1
 77
     6
176
     1
 78
     2
176
     1
 67
     7
176
     1
 79
     5
176
     1
170
     0
176
     1
171
     0
176
     1
290
     0
176
     1
 93
       13
176
     1
 44
0.0
176
     1
173
     0
176
     1
  0
VISUALSTYLE
  5
2C
102
{ACAD_REACTORS
330
2A
102
}
330
2A
100
AcDbVisualStyle
  2
FlatWithEdges
 70
     1
177
     2
291
     1
 71
     2
176
     1
 72
     1
176
     1
 73
     1
176
     1
 90
        2
176
     1
 40
-0.6
176
     1
 41
30.0
176
     1
 62
     5
 63
     7
421
 16777215
176
     1
 74
     1
176
     1
 91
        4
176
     1
 64
     7
176
     1
 65
   257
176
     1
 75
     1
176
     1
175
     1
176
     1
 42
1.0
176
     1
 92
        0
176
     1
 66
   257
176
     1
 43
1.0
176
     1
 76
     1
176
     1
 77
     6
176
     1
 78
     2
176
     1
 67
     7
176
     1
 79
     5
176
     1
170
     0
176
     1
171
     0
176
     1
290
     0
176
     1
 93
       13
176
     1
 44
0.0
176
     1
173
     0
176
     1
  0
VISUALSTYLE
  5
2D
102
{ACAD_REACTORS
330
2A
102
}
330
2A
100
AcDbVisualStyle
  2
Gouraud
 70
     2
177
     2
291
     1
 71
     2
176
     1
 72
     2
176
     1
 73
     1
176
     1
 90
        2
176
     1
 40
-0.6
176
     1
 41
30.0
176
     1
 62
     5
 63
     7
421
 16777215
176
     1
 74
     0
176
     1
 91
        4
176
     1
 64
     7
176
     1
 65
   257
176
     1
 75
     1
176
     1
175
     1
176
     1
 42
1.0
176
     1
 92
        0
176
     1
 66
     7
176
     1
 43
1.0
176
     1
 76
     1
176
     1
 77
     6
176
     1
 78
     2
176
     1
 67
     7
176
     1
 79
     5
176
     1
170
     0
176
     1
171
     0
176
     1
290
     0
176
     1
 93
       13
176
     1
 44
0.0
176
     1
173
     0
176
     1
  0
VISUALSTYLE
  5
2E
102
{ACAD_REACTORS
330
2A
102
}
330
2A
100
AcDbVisualStyle
  2
GouraudWithEdges
 70
     3
177
     2
291
     1
 71
     2
176
     1
 72
     2
176
     1
 73
     1
176
     1
 90
        2
176
     1
 40
-0.6
176
     1
 41
30.0
176
     1
 62
     5
 63
     7
421
 16777215
176
     1
 74
     1
176
     1
 91
        4
176
     1
 64
     7
176
     1
 65
   257
176
     1
 75
     1
176
     1
175
     1
176
     1
 42
1.0
176
     1
 92
        0
176
     1
 66
   257
176
     1
 43
1.0
176
     1
 76
     1
176
     1
 77
     6
176
     1
 78
     2
176
     1
 67
     7
176
     1
 79
     5
176
     1
170
     0
176
     1
171
     0
176
     1
290
     0
176
     1
 93
       13
176
     1
 44
0.0
176
     1
173
     0
176
     1
  0
VISUALSTYLE
  5
38
102
{ACAD_REACTORS
330
2A
102
}
330
2A
100
AcDbVisualStyle
  2
Linepattern
 70
    14
177
     2
291
     1
 71
     2
176
     1
 72
     2
176
     1
 73
     0
176
     1
 90
        0
176
     1
 40
-0.6
176
     1
 41
-30.0
176
     1
 62
     5
 63
     7
421
 16777215
176
     1
 74
     1
176
     1
 91
        4
176
     1
 64
     7
176
     1
 65
   257
176
     1
 75
     7
176
     1
175
     7
176
     1
 42
1.0
176
     1
 92
        8
176
     1
 66
     7
176
     1
 43
1.0
176
     1
 76
     1
176
     1
 77
     6
176
     1
 78
     2
176
     1
 67
     7
176
     1
 79
     5
176
     1
170
     0
176
     1
171
     0
176
     1
290
     0
176
     1
 93
        1
176
     1
 44
0.0
176
     1
173
     0
176
     1
  0
VISUALSTYLE
  5
33
102
{ACAD_REACTORS
330
2A
102
}
330
2A
100
AcDbVisualStyle
  2
Realistic
 70
     8
177
     2
291
     0
 71
     2
176
     1
 72
     2
176
     1
 73
     0
176
     1
 90
        0
176
     1
 40
-0.6
176
     1
 41
-30.0
176
     1
 62
     5
 63
     7
421
 16777215
176
     1
 74
     1
176
     1
 91
        0
176
     1
 64
     7
176
     1
 65
   257
176
     1
 75
     1
176
     1
175
     1
176
     1
 42
1.0
176
     1
 92
        8
176
     1
 66
     8
424
  7895160
176
     1
 43
1.0
176
     1
 76
     1
176
     1
 77
     6
176
     1
 78
     2
176
     1
 67
     7
176
     1
 79
     5
176
     1
170
     0
176
     1
171
     0
176
     1
290
     0
176
     1
 93
       13
176
     1
 44
0.0
176
     1
173
     0
176
     1
  0
VISUALSTYLE
  5
37
102
{ACAD_REACTORS
330
2A
102
}
330
2A
100
AcDbVisualStyle
  2
Thicken
 70
    13
177
     2
291
     1
 71
     2
176
     1
 72
     2
176
     1
 73
     0
176
     1
 90
        0
176
     1
 40
-0.6
176
     1
 41
-30.0
176
     1
 62
     5
 63
     7
421
 16777215
176
     1
 74
     1
176
     1
 91
        4
176
     1
 64
     7
176
     1
 65
   257
176
     1
 75
     1
176
     1
175
     1
176
     1
 42
1.0
176
     1
 92
       12
176
     1
 66
     7
176
     1
 43
1.0
176
     1
 76
     1
176
     1
 77
     6
176
     1
 78
     2
176
     1
 67
     7
176
     1
 79
     5
176
     1
170
     0
176
     1
171
     0
176
     1
290
     0
176
     1
 93
        1
176
     1
 44
0.0
176
     1
173
     0
176
     1
  0
ENDSEC
  0
EOF
