  0
SECTION
  2
HEADER
  9
$ACADVER
  1
AC1024
  9
$ACADMAINTVER
 70
     6
  9
$DWGCODEPAGE
  3
UNDEFINED
  9
$INSBASE
 10
0.0
 20
0.0
 30
0.0
  9
$EXTMIN
 10
1.000000000000000E+20
 20
1.000000000000000E+20
 30
1.000000000000000E+20
  9
$EXTMAX
 10
-1.000000000000000E+20
 20
-1.000000000000000E+20
 30
-1.000000000000000E+20
  9
$LIMMIN
 10
0.0
 20
0.0
  9
$LIMMAX
 10
12.0
 20
9.0
  9
$ORTHOMODE
 70
     0
  9
$REGENMODE
 70
     1
  9
$FILLMODE
 70
     1
  9
$QTEXTMODE
 70
     0
  9
$MIRRTEXT
 70
     1
  9
$LTSCALE
 40
1.0
  9
$ATTMODE
 70
     1
  9
$TEXTSIZE
 40
0.2
  9
$TRACEWID
 40
0.05
  9
$TEXTSTYLE
  7
Standard
  9
$CLAYER
  8
0
  9
$CELTYPE
  6
ByLayer
  9
$CECOLOR
 62
   256
  9
$CELTSCALE
 40
1.0
  9
$DISPSILH
 70
     0
  9
$DIMSCALE
 40
1.0
  9
$DIMASZ
 40
0.18
  9
$DIMEXO
 40
0.0625
  9
$DIMDLI
 40
0.38
  9
$DIMRND
 40
0.0
  9
$DIMDLE
 40
0.0
  9
$DIMEXE
 40
0.18
  9
$DIMTP
 40
0.0
  9
$DIMTM
 40
0.0
  9
$DIMTXT
 40
0.18
  9
$DIMCEN
 40
0.09
  9
$DIMTSZ
 40
0.0
  9
$DIMTOL
 70
     0
  9
$DIMLIM
 70
     0
  9
$DIMTIH
 70
     1
  9
$DIMTOH
 70
     1
  9
$DIMSE1
 70
     0
  9
$DIMSE2
 70
     0
  9
$DIMTAD
 70
     0
  9
$DIMZIN
 70
     0
  9
$DIMBLK
  1

  9
$DIMASO
 70
     1
  9
$DIMSHO
 70
     1
  9
$DIMPOST
  1

  9
$DIMAPOST
  1

  9
$DIMALT
 70
     0
  9
$DIMALTD
 70
     2
  9
$DIMALTF
 40
25.4
  9
$DIMLFAC
 40
1.0
  9
$DIMTOFL
 70
     0
  9
$DIMTVP
 40
0.0
  9
$DIMTIX
 70
     0
  9
$DIMSOXD
 70
     0
  9
$DIMSAH
 70
     0
  9
$DIMBLK1
  1

  9
$DIMBLK2
  1

  9
$DIMSTYLE
  2
Standard
  9
$DIMCLRD
 70
     0
  9
$DIMCLRE
 70
     0
  9
$DIMCLRT
 70
     0
  9
$DIMTFAC
 40
1.0
  9
$DIMGAP
 40
0.09
  9
$DIMJUST
 70
     0
  9
$DIMSD1
 70
     0
  9
$DIMSD2
 70
     0
  9
$DIMTOLJ
 70
     1
  9
$DIMTZIN
 70
     0
  9
$DIMALTZ
 70
     0
  9
$DIMALTTZ
 70
     0
  9
$DIMUPT
 70
     0
  9
$DIMDEC
 70
     4
  9
$DIMTDEC
 70
     4
  9
$DIMALTU
 70
     2
  9
$DIMALTTD
 70
     2
  9
$DIMTXSTY
  7
Standard
  9
$DIMAUNIT
 70
     0
  9
$DIMADEC
 70
     0
  9
$DIMALTRND
 40
0.0
  9
$DIMAZIN
 70
     0
  9
$DIMDSEP
 70
    46
  9
$DIMATFIT
 70
     3
  9
$DIMFRAC
 70
     0
  9
$DIMLDRBLK
  1

  9
$DIMLUNIT
 70
     2
  9
$DIMLWD
 70
    -2
  9
$DIMLWE
 70
    -2
  9
$DIMTMOVE
 70
     0
  9
$DIMFXL
 40
1.0
  9
$DIMFXLON
 70
     0
  9
$DIMJOGANG
 40
0.7853981633974483
  9
$DIMTFILL
 70
     0
  9
$DIMTFILLCLR
 70
     0
  9
$DIMARCSYM
 70
     0
  9
$DIMLTYPE
  6

  9
$DIMLTEX1
  6

  9
$DIMLTEX2
  6

  9
$DIMTXTDIRECTION
 70
     0
  9
$LUNITS
 70
     2
  9
$LUPREC
 70
     4
  9
$SKETCHINC
 40
0.1
  9
$FILLETRAD
 40
0.5
  9
$AUNITS
 70
     0
  9
$AUPREC
 70
     0
  9
$MENU
  1
.
  9
$ELEVATION
 40
0.0
  9
$PELEVATION
 40
0.0
  9
$THICKNESS
 40
0.0
  9
$LIMCHECK
 70
     0
  9
$CHAMFERA
 40
0.5
  9
$CHAMFERB
 40
0.5
  9
$CHAMFERC
 40
1.0
  9
$CHAMFERD
 40
0.0
  9
$SKPOLY
 70
     0
  9
$TDCREATE
 40
2457917.614259259
  9
$TDUCREATE
 40
2457917.239259259
  9
$TDUPDATE
 40
2457917.614259259
  9
$TDUUPDATE
 40
2457917.239259259
  9
$TDINDWG
 40
0.0000000116
  9
$TDUSRTIMER
 40
0.0000000116
  9
$USRTIMER
 70
     1
  9
$ANGBASE
 50
0.0
  9
$ANGDIR
 70
     0
  9
$PDMODE
 70
     0
  9
$PDSIZE
 40
0.0
  9
$PLINEWID
 40
0.0
  9
$SPLFRAME
 70
     0
  9
$SPLINETYPE
 70
     6
  9
$SPLINESEGS
 70
     8
  9
$HANDSEED
  5
E0
  9
$SURFTAB1
 70
     6
  9
$SURFTAB2
 70
     6
  9
$SURFTYPE
 70
     6
  9
$SURFU
 70
     6
  9
$SURFV
 70
     6
  9
$UCSBASE
  2

  9
$UCSNAME
  2

  9
$UCSORG
 10
0.0
 20
0.0
 30
0.0
  9
$UCSXDIR
 10
1.0
 20
0.0
 30
0.0
  9
$UCSYDIR
 10
0.0
 20
1.0
 30
0.0
  9
$UCSORTHOREF
  2

  9
$UCSORTHOVIEW
 70
     0
  9
$UCSORGTOP
 10
0.0
 20
0.0
 30
0.0
  9
$UCSORGBOTTOM
 10
0.0
 20
0.0
 30
0.0
  9
$UCSORGLEFT
 10
0.0
 20
0.0
 30
0.0
  9
$UCSORGRIGHT
 10
0.0
 20
0.0
 30
0.0
  9
$UCSORGFRONT
 10
0.0
 20
0.0
 30
0.0
  9
$UCSORGBACK
 10
0.0
 20
0.0
 30
0.0
  9
$PUCSBASE
  2

  9
$PUCSNAME
  2

  9
$PUCSORG
 10
0.0
 20
0.0
 30
0.0
  9
$PUCSXDIR
 10
1.0
 20
0.0
 30
0.0
  9
$PUCSYDIR
 10
0.0
 20
1.0
 30
0.0
  9
$PUCSORTHOREF
  2

  9
$PUCSORTHOVIEW
 70
     0
  9
$PUCSORGTOP
 10
0.0
 20
0.0
 30
0.0
  9
$PUCSORGBOTTOM
 10
0.0
 20
0.0
 30
0.0
  9
$PUCSORGLEFT
 10
0.0
 20
0.0
 30
0.0
  9
$PUCSORGRIGHT
 10
0.0
 20
0.0
 30
0.0
  9
$PUCSORGFRONT
 10
0.0
 20
0.0
 30
0.0
  9
$PUCSORGBACK
 10
0.0
 20
0.0
 30
0.0
  9
$USERI1
 70
     0
  9
$USERI2
 70
     0
  9
$USERI3
 70
     0
  9
$USERI4
 70
     0
  9
$USERI5
 70
     0
  9
$USERR1
 40
0.0
  9
$USERR2
 40
0.0
  9
$USERR3
 40
0.0
  9
$USERR4
 40
0.0
  9
$USERR5
 40
0.0
  9
$WORLDVIEW
 70
     1
  9
$SHADEDGE
 70
     3
  9
$SHADEDIF
 70
    70
  9
$TILEMODE
 70
     1
  9
$MAXACTVP
 70
    64
  9
$PINSBASE
 10
0.0
 20
0.0
 30
0.0
  9
$PLIMCHECK
 70
     0
  9
$PEXTMIN
 10
1.000000000000000E+20
 20
1.000000000000000E+20
 30
1.000000000000000E+20
  9
$PEXTMAX
 10
-1.000000000000000E+20
 20
-1.000000000000000E+20
 30
-1.000000000000000E+20
  9
$PLIMMIN
 10
0.0
 20
0.0
  9
$PLIMMAX
 10
12.0
 20
9.0
  9
$UNITMODE
 70
     0
  9
$VISRETAIN
 70
     1
  9
$PLINEGEN
 70
     0
  9
$PSLTSCALE
 70
     1
  9
$TREEDEPTH
 70
  3020
  9
$CMLSTYLE
  2
Standard
  9
$CMLJUST
 70
     0
  9
$CMLSCALE
 40
1.0
  9
$PROXYGRAPHICS
 70
     1
  9
$MEASUREMENT
 70
     0
  9
$CELWEIGHT
370
    -1
  9
$ENDCAPS
280
     0
  9
$JOINSTYLE
280
     0
  9
$LWDISPLAY
290
     1
  9
$INSUNITS
 70
     1
  9
$HYPERLINKBASE
  1

  9
$STYLESHEET
  1

  9
$XEDIT
290
     1
  9
$CEPSNTYPE
380
     0
  9
$PSTYLEMODE
290
     1
  9
$FINGERPRINTGUID
  2
{4998E457-9378-F33D-94CB-E0BF632B696C}
  9
$VERSIONGUID
  2
{FAEB1C32-E019-11D5-929B-00C0DF256EC4}
  9
$EXTNAMES
290
     1
  9
$PSVPSCALE
 40
0.0
  9
$OLESTARTUP
290
     0
  9
$SORTENTS
280
   127
  9
$INDEXCTL
280
     0
  9
$HIDETEXT
280
     1
  9
$XCLIPFRAME
280
     2
  9
$HALOGAP
280
     0
  9
$OBSCOLOR
 70
   257
  9
$OBSLTYPE
280
     0
  9
$INTERSECTIONDISPLAY
280
     0
  9
$INTERSECTIONCOLOR
 70
   257
  9
$DIMASSOC
280
     2
  9
$PROJECTNAME
  1

  9
$CAMERADISPLAY
290
     0
  9
$LENSLENGTH
 40
50.0
  9
$CAMERAHEIGHT
 40
0.0
  9
$STEPSPERSEC
 40
2.0
  9
$STEPSIZE
 40
6.0
  9
$3DDWFPREC
 40
2.0
  9
$PSOLWIDTH
 40
0.25
  9
$PSOLHEIGHT
 40
4.0
  9
$LOFTANG1
 40
1.570796326794897
  9
$LOFTANG2
 40
1.570796326794897
  9
$LOFTMAG1
 40
0.0
  9
$LOFTMAG2
 40
0.0
  9
$LOFTPARAM
 70
     7
  9
$LOFTNORMALS
280
     1
  9
$LATITUDE
 40
37.795
  9
$LONGITUDE
 40
-122.394
  9
$NORTHDIRECTION
 40
0.0
  9
$TIMEZONE
 70
 -8000
  9
$LIGHTGLYPHDISPLAY
280
     1
  9
$TILEMODELIGHTSYNCH
280
     1
  9
$CMATERIAL
347
3C
  9
$SOLIDHIST
280
     1
  9
$SHOWHIST
280
     1
  9
$DWFFRAME
280
     2
  9
$DGNFRAME
280
     2
  9
$REALWORLDSCALE
290
     1
  9
$INTERFERECOLOR
 62
   256
  9
$CSHADOW
280
     0
  9
$SHADOWPLANELOCATION
 40
0.0
  0
ENDSEC
  0
SECTION
  2
CLASSES
  0
CLASS
  1
ACDBDICTIONARYWDFLT
  2
AcDbDictionaryWithDefault
  3
ObjectDBX Classes
 90
        0
 91
        4
280
     0
281
     0
  0
CLASS
  1
VISUALSTYLE
  2
AcDbVisualStyle
  3
ObjectDBX Classes
 90
     4095
 91
        4
280
     0
281
     0
  0
CLASS
  1
MATERIAL
  2
AcDbMaterial
  3
ObjectDBX Classes
 90
     1153
 91
        4
280
     0
281
     0
  0
CLASS
  1
SUN
  2
AcDbSun
  3
SCENEOE
 90
     1024
 91
        4
280
     0
281
     0
  0
ENDSEC
  0
SECTION
  2
TABLES
  0
TABLE
  2
VPORT
  5
8
330
0
100
AcDbSymbolTable
 70
     1
  0
VPORT
  5
29
330
8
100
AcDbSymbolTableRecord
100
AcDbViewportTableRecord
  2
*Active
 70
     0
 10
0.0
 20
0.0
 11
1.0
 21
1.0
 12
0.0
 22
0.0
 13
0.0
 23
0.0
 14
0.5
 24
0.5
 15
0.5
 25
0.5
 16
0.0
 26
0.0
 36
1.0
 17
91.00082462281999
 27
-128.4993055234307
 37
0.0
 40
256.9986110468615
 41
0.7081814508812795
 42
50.0
 43
0.0
 44
0.0
 50
0.0
 51
0.0
 71
     0
 72
   100
 73
     1
 74
     3
 75
     0
 76
     0
 77
     0
 78
     0
281
     0
 65
     1
110
0.0
120
0.0
130
0.0
111
1.0
121
0.0
131
0.0
112
0.0
122
1.0
132
0.0
 79
     0
146
0.0
 60
     3
 61
     5
292
     1
282
     1
141
0.0
142
0.0
 63
   250
361
3F
  0
ENDTAB
  0
TABLE
  2
LTYPE
  5
5
330
0
100
AcDbSymbolTable
 70
     1
  0
LTYPE
  5
14
330
5
100
AcDbSymbolTableRecord
100
AcDbLinetypeTableRecord
  2
ByBlock
 70
     0
  3

 72
    65
 73
     0
 40
0.0
  0
LTYPE
  5
15
330
5
100
AcDbSymbolTableRecord
100
AcDbLinetypeTableRecord
  2
ByLayer
 70
     0
  3

 72
    65
 73
     0
 40
0.0
  0
LTYPE
  5
16
330
5
100
AcDbSymbolTableRecord
100
AcDbLinetypeTableRecord
  2
Continuous
 70
     0
  3
Solid line
 72
    65
 73
     0
 40
0.0
  0
ENDTAB
  0
TABLE
  2
LAYER
  5
2
330
0
100
AcDbSymbolTable
 70
     2
  0
LAYER
  5
10
330
2
100
AcDbSymbolTableRecord
100
AcDbLayerTableRecord
  2
0
 70
     0
 62
     7
  6
Continuous
370
    -3
390
F
347
3E
  0
LAYER
  5
40
330
2
100
AcDbSymbolTableRecord
100
AcDbLayerTableRecord
  2
_U+30EC_U+30A4_U+30E4_U+30FC 1
 70
     0
 62
     7
  6
Continuous
370
    -3
390
F
347
3E
  0
ENDTAB
  0
TABLE
  2
STYLE
  5
3
330
0
100
AcDbSymbolTable
 70
     1
  0
STYLE
  5
11
330
3
100
AcDbSymbolTableRecord
100
AcDbTextStyleTableRecord
  2
Standard
 70
     0
 40
0.0
 41
1.0
 50
0.0
 71
     0
 42
0.2
  3
txt
  4

  0
ENDTAB
  0
TABLE
  2
VIEW
  5
6
330
0
100
AcDbSymbolTable
 70
     0
  0
ENDTAB
  0
TABLE
  2
UCS
  5
7
330
0
100
AcDbSymbolTable
 70
     0
  0
ENDTAB
  0
TABLE
  2
APPID
  5
9
330
0
100
AcDbSymbolTable
 70
     1
  0
APPID
  5
12
330
9
100
AcDbSymbolTableRecord
100
AcDbRegAppTableRecord
  2
ACAD
 70
     0
  0
ENDTAB
  0
TABLE
  2
DIMSTYLE
  5
A
330
0
100
AcDbSymbolTable
 70
     1
100
AcDbDimStyleTable
  0
DIMSTYLE
105
27
330
A
100
AcDbSymbolTableRecord
100
AcDbDimStyleTableRecord
  2
Standard
 70
     0
178
     0
340
11
  0
ENDTAB
  0
TABLE
  2
BLOCK_RECORD
  5
1
330
0
100
AcDbSymbolTable
 70
     9
  0
BLOCK_RECORD
  5
1F
330
1
100
AcDbSymbolTableRecord
100
AcDbBlockTableRecord
  2
*Model_Space
340
22
 70
     0
280
     1
281
     0
  0
BLOCK_RECORD
  5
1B
330
1
100
AcDbSymbolTableRecord
100
AcDbBlockTableRecord
  2
*Paper_Space
340
1E
 70
     0
280
     1
281
     0
  0
BLOCK_RECORD
  5
23
330
1
100
AcDbSymbolTableRecord
100
AcDbBlockTableRecord
  2
*Paper_Space0
340
26
 70
     0
280
     1
281
     0
  0
BLOCK_RECORD
  5
66
330
1
100
AcDbSymbolTableRecord
100
AcDbBlockTableRecord
  2
block 2
340
0
102
{BLKREFS
331
67
102
}
 70
     0
280
     1
281
     0
  0
BLOCK_RECORD
  5
7A
330
1
100
AcDbSymbolTableRecord
100
AcDbBlockTableRecord
  2
block 3
340
0
102
{BLKREFS
331
7B
102
}
 70
     0
280
     1
281
     0
  0
BLOCK_RECORD
  5
8C
330
1
100
AcDbSymbolTableRecord
100
AcDbBlockTableRecord
  2
block 4
340
0
102
{BLKREFS
331
8D
102
}
 70
     0
280
     1
281
     0
  0
BLOCK_RECORD
  5
A0
330
1
100
AcDbSymbolTableRecord
100
AcDbBlockTableRecord
  2
block 5
340
0
102
{BLKREFS
331
A1
102
}
 70
     0
280
     1
281
     0
  0
BLOCK_RECORD
  5
A8
330
1
100
AcDbSymbolTableRecord
100
AcDbBlockTableRecord
  2
block 6
340
0
102
{BLKREFS
331
A9
102
}
 70
     0
280
     1
281
     0
  0
BLOCK_RECORD
  5
B8
330
1
100
AcDbSymbolTableRecord
100
AcDbBlockTableRecord
  2
block 7
340
0
102
{BLKREFS
331
B9
102
}
 70
     0
280
     1
281
     0
  0
BLOCK_RECORD
  5
C0
330
1
100
AcDbSymbolTableRecord
100
AcDbBlockTableRecord
  2
block 8
340
0
102
{BLKREFS
331
C1
102
}
 70
     0
280
     1
281
     0
  0
BLOCK_RECORD
  5
CC
330
1
100
AcDbSymbolTableRecord
100
AcDbBlockTableRecord
  2
block 9
340
0
102
{BLKREFS
331
CD
102
}
 70
     0
280
     1
281
     0
  0
ENDTAB
  0
ENDSEC
  0
SECTION
  2
BLOCKS
  0
BLOCK
  5
20
330
1F
100
AcDbEntity
  8
0
100
AcDbBlockBegin
  2
*Model_Space
 70
     0
 10
0.0
 20
0.0
 30
0.0
  3
*Model_Space
  1

  0
ENDBLK
  5
21
330
1F
100
AcDbEntity
  8
0
100
AcDbBlockEnd
  0
BLOCK
  5
1C
330
1B
100
AcDbEntity
 67
     1
  8
0
100
AcDbBlockBegin
  2
*Paper_Space
 70
     0
 10
0.0
 20
0.0
 30
0.0
  3
*Paper_Space
  1

  0
ENDBLK
  5
1D
330
1B
100
AcDbEntity
 67
     1
  8
0
100
AcDbBlockEnd
  0
BLOCK
  5
24
330
23
100
AcDbEntity
  8
0
100
AcDbBlockBegin
  2
*Paper_Space0
 70
     0
 10
0.0
 20
0.0
 30
0.0
  3
*Paper_Space0
  1

  0
ENDBLK
  5
25
330
23
100
AcDbEntity
  8
0
100
AcDbBlockEnd
  0
BLOCK
  5
68
330
66
100
AcDbEntity
  8
0
100
AcDbBlockBegin
  2
block 2
 70
     0
 10
0.0
 20
0.0
 30
0.0
  3
block 2
  1

  0
POLYLINE
  5
6A
330
66
100
AcDbEntity
  8
_U+30EC_U+30A4_U+30E4_U+30FC 1
 62
     7
420
 16777215
370
     9
100
AcDb2dPolyline
 66
     1
 10
0.0
 20
0.0
 30
0.0
  0
VERTEX
  5
6B
330
6A
100
AcDbEntity
  8
_U+30EC_U+30A4_U+30E4_U+30FC 1
 62
     7
420
 16777215
370
     9
100
AcDbVertex
100
AcDb2dVertex
 10
109.7404149780665
 20
-122.3198383027534
 30
0.0
  0
VERTEX
  5
6C
330
6A
100
AcDbEntity
  8
_U+30EC_U+30A4_U+30E4_U+30FC 1
 62
     7
420
 16777215
370
     9
100
AcDbVertex
100
AcDb2dVertex
 10
109.7404149780665
 20
-118.549525803696
 30
0.0
  0
SEQEND
  5
6D
330
6A
100
AcDbEntity
  8
_U+30EC_U+30A4_U+30E4_U+30FC 1
 62
     7
420
 16777215
370
     9
  0
POLYLINE
  5
6E
330
66
100
AcDbEntity
  8
_U+30EC_U+30A4_U+30E4_U+30FC 1
 62
     7
420
 16777215
370
     9
100
AcDb2dPolyline
 66
     1
 10
0.0
 20
0.0
 30
0.0
  0
VERTEX
  5
6F
330
6E
100
AcDbEntity
  8
_U+30EC_U+30A4_U+30E4_U+30FC 1
 62
     7
420
 16777215
370
     9
100
AcDbVertex
100
AcDb2dVertex
 10
109.7404149780665
 20
-123.3196105247256
 30
0.0
  0
VERTEX
  5
70
330
6E
100
AcDbEntity
  8
_U+30EC_U+30A4_U+30E4_U+30FC 1
 62
     7
420
 16777215
370
     9
100
AcDbVertex
100
AcDb2dVertex
 10
109.7404149780665
 20
-122.3198383027534
 30
0.0
  0
SEQEND
  5
71
330
6E
100
AcDbEntity
  8
_U+30EC_U+30A4_U+30E4_U+30FC 1
 62
     7
420
 16777215
370
     9
  0
POLYLINE
  5
72
330
66
100
AcDbEntity
  8
_U+30EC_U+30A4_U+30E4_U+30FC 1
 62
     7
420
 16777215
370
     9
100
AcDb2dPolyline
 66
     1
 10
0.0
 20
0.0
 30
0.0
  0
VERTEX
  5
73
330
72
100
AcDbEntity
  8
_U+30EC_U+30A4_U+30E4_U+30FC 1
 62
     7
420
 16777215
370
     9
100
AcDbVertex
100
AcDb2dVertex
 10
108.2803736264264
 20
-123.3196105247256
 30
0.0
  0
VERTEX
  5
74
330
72
100
AcDbEntity
  8
_U+30EC_U+30A4_U+30E4_U+30FC 1
 62
     7
420
 16777215
370
     9
100
AcDbVertex
100
AcDb2dVertex
 10
110.7401871747824
 20
-123.3196105247256
 30
0.0
  0
SEQEND
  5
75
330
72
100
AcDbEntity
  8
_U+30EC_U+30A4_U+30E4_U+30FC 1
 62
     7
420
 16777215
370
     9
  0
POLYLINE
  5
76
330
66
100
AcDbEntity
  8
_U+30EC_U+30A4_U+30E4_U+30FC 1
 62
     7
420
 16777215
370
     9
100
AcDb2dPolyline
 66
     1
 10
0.0
 20
0.0
 30
0.0
  0
VERTEX
  5
77
330
76
100
AcDbEntity
  8
_U+30EC_U+30A4_U+30E4_U+30FC 1
 62
     7
420
 16777215
370
     9
100
AcDbVertex
100
AcDb2dVertex
 10
108.2803736264264
 20
-122.3198383027534
 30
0.0
  0
VERTEX
  5
78
330
76
100
AcDbEntity
  8
_U+30EC_U+30A4_U+30E4_U+30FC 1
 62
     7
420
 16777215
370
     9
100
AcDbVertex
100
AcDb2dVertex
 10
110.7401871747824
 20
-122.3198383027534
 30
0.0
  0
SEQEND
  5
79
330
76
100
AcDbEntity
  8
_U+30EC_U+30A4_U+30E4_U+30FC 1
 62
     7
420
 16777215
370
     9
  0
INSERT
  5
7B
330
66
100
AcDbEntity
  8
_U+30EC_U+30A4_U+30E4_U+30FC 1
100
AcDbBlockReference
  2
block 3
 10
0.0
 20
0.0
 30
0.0
  0
ENDBLK
  5
69
330
66
100
AcDbEntity
  8
0
100
AcDbBlockEnd
  0
BLOCK
  5
7C
330
7A
100
AcDbEntity
  8
0
100
AcDbBlockBegin
  2
block 3
 70
     0
 10
0.0
 20
0.0
 30
0.0
  3
block 3
  1

  0
SPLINE
  5
7E
330
7A
100
AcDbEntity
  8
_U+30EC_U+30A4_U+30E4_U+30FC 1
370
     0
100
AcDbSpline
210
0.0
220
0.0
230
1.0
 70
    11
 71
     3
 72
    26
 73
    22
 74
     0
 42
0.0000000001
 43
0.0000000001
 12
1.0
 22
0.0
 32
0.0
 13
1.0
 23
0.0
 33
0.0
 40
0.0
 40
0.0
 40
0.0
 40
0.0
 40
1.0
 40
1.0
 40
1.0
 40
2.0
 40
2.0
 40
2.0
 40
3.0
 40
3.0
 40
3.0
 40
4.0
 40
4.0
 40
4.0
 40
5.0
 40
5.0
 40
5.0
 40
6.0
 40
6.0
 40
6.0
 40
7.0
 40
7.0
 40
7.0
 40
7.0
 10
108.7406493868773
 20
-122.9792290274149
 30
0.0
 10
108.7406493868773
 20
-122.9792290274149
 30
0.0
 10
107.6364962838548
 20
-122.9792290274149
 30
0.0
 10
107.6364962838548
 20
-122.9792290274149
 30
0.0
 10
107.6364962838548
 20
-122.9792290274149
 30
0.0
 10
107.6364962838548
 20
-123.3092691749019
 30
0.0
 10
107.6364962838548
 20
-123.3092691749019
 30
0.0
 10
107.6364962838548
 20
-123.3092691749019
 30
0.0
 10
107.488357177989
 20
-123.3092691749019
 30
0.0
 10
107.488357177989
 20
-123.3092691749019
 30
0.0
 10
107.4735432674024
 20
-122.9771619701238
 30
0.0
 10
107.3105902509501
 20
-122.9306531810729
 30
0.0
 10
107.1962130808398
 20
-122.9010253598997
 30
0.0
 10
107.1962130808398
 20
-122.9010253598997
 30
0.0
 10
107.1962130808398
 20
-122.7549533113252
 30
0.0
 10
107.1962130808398
 20
-122.7549533113252
 30
0.0
 10
107.1962130808398
 20
-122.7549533113252
 30
0.0
 10
108.7406493868773
 20
-122.7549533113252
 30
0.0
 10
108.7406493868773
 20
-122.7549533113252
 30
0.0
 10
108.7406493868773
 20
-122.7549533113252
 30
0.0
 10
108.7406493868773
 20
-122.9792290274149
 30
0.0
 10
108.7406493868773
 20
-122.9792290274149
 30
0.0
  0
HATCH
  5
7F
330
7A
100
AcDbEntity
  8
_U+30EC_U+30A4_U+30E4_U+30FC 1
 62
     7
420
 16777215
100
AcDbHatch
 10
0.0
 20
0.0
 30
0.0
210
0.0
220
0.0
230
1.0
  2
SOLID
 70
     1
 71
     0
 91
        1
 92
        1
 93
        1
 72
     4
 94
        3
 73
     0
 74
     1
 95
       26
 96
       22
 40
0.0
 40
0.0
 40
0.0
 40
0.0
 40
1.0
 40
1.0
 40
1.0
 40
2.0
 40
2.0
 40
2.0
 40
3.0
 40
3.0
 40
3.0
 40
4.0
 40
4.0
 40
4.0
 40
5.0
 40
5.0
 40
5.0
 40
6.0
 40
6.0
 40
6.0
 40
7.0
 40
7.0
 40
7.0
 40
7.0
 10
108.7406493868773
 20
-122.9792290274149
 10
108.7406493868773
 20
-122.9792290274149
 10
107.6364962838548
 20
-122.9792290274149
 10
107.6364962838548
 20
-122.9792290274149
 10
107.6364962838548
 20
-122.9792290274149
 10
107.6364962838548
 20
-123.3092691749019
 10
107.6364962838548
 20
-123.3092691749019
 10
107.6364962838548
 20
-123.3092691749019
 10
107.488357177989
 20
-123.3092691749019
 10
107.488357177989
 20
-123.3092691749019
 10
107.4735432674024
 20
-122.9771619701238
 10
107.3105902509501
 20
-122.9306531810729
 10
107.1962130808398
 20
-122.9010253598997
 10
107.1962130808398
 20
-122.9010253598997
 10
107.1962130808398
 20
-122.7549533113252
 10
107.1962130808398
 20
-122.7549533113252
 10
107.1962130808398
 20
-122.7549533113252
 10
108.7406493868773
 20
-122.7549533113252
 10
108.7406493868773
 20
-122.7549533113252
 10
108.7406493868773
 20
-122.7549533113252
 10
108.7406493868773
 20
-122.9792290274149
 10
108.7406493868773
 20
-122.9792290274149
 97
        0
 97
        0
 75
     2
 76
     1
 98
        0
  0
ENDBLK
  5
7D
330
7A
100
AcDbEntity
  8
0
100
AcDbBlockEnd
  0
BLOCK
  5
8E
330
8C
100
AcDbEntity
  8
0
100
AcDbBlockBegin
  2
block 4
 70
     0
 10
0.0
 20
0.0
 30
0.0
  3
block 4
  1

  0
SPLINE
  5
90
330
8C
100
AcDbEntity
  8
_U+30EC_U+30A4_U+30E4_U+30FC 1
370
     0
100
AcDbSpline
210
0.0
220
0.0
230
1.0
 70
    11
 71
     3
 72
    62
 73
    58
 74
     0
 42
0.0000000001
 43
0.0000000001
 12
1.0
 22
0.0
 32
0.0
 13
1.0
 23
0.0
 33
0.0
 40
0.0
 40
0.0
 40
0.0
 40
0.0
 40
1.0
 40
1.0
 40
1.0
 40
2.0
 40
2.0
 40
2.0
 40
3.0
 40
3.0
 40
3.0
 40
4.0
 40
4.0
 40
4.0
 40
5.0
 40
5.0
 40
5.0
 40
6.0
 40
6.0
 40
6.0
 40
7.0
 40
7.0
 40
7.0
 40
8.0
 40
8.0
 40
8.0
 40
9.0
 40
9.0
 40
9.0
 40
10.0
 40
10.0
 40
10.0
 40
11.0
 40
11.0
 40
11.0
 40
12.0
 40
12.0
 40
12.0
 40
13.0
 40
13.0
 40
13.0
 40
14.0
 40
14.0
 40
14.0
 40
15.0
 40
15.0
 40
15.0
 40
16.0
 40
16.0
 40
16.0
 40
17.0
 40
17.0
 40
17.0
 40
18.0
 40
18.0
 40
18.0
 40
19.0
 40
19.0
 40
19.0
 40
19.0
 10
87.64254012565881
 20
-117.7245971385376
 30
0.0
 10
87.54728323549166
 20
-117.7245971385376
 30
0.0
 10
87.3293809460496
 20
-117.7034098013033
 30
0.0
 10
87.20466848948355
 20
-117.5172023903256
 30
0.0
 10
87.13059893655068
 20
-117.4050645322807
 30
0.0
 10
87.12629256719413
 20
-117.3056735275312
 30
0.0
 10
87.12215845261183
 20
-117.2210964333683
 30
0.0
 10
87.12215845261183
 20
-117.2210964333683
 30
0.0
 10
87.34212779934502
 20
-117.2210964333683
 30
0.0
 10
87.34212779934502
 20
-117.2210964333683
 30
0.0
 10
87.34419485663618
 20
-117.2951659863012
 30
0.0
 10
87.35487465264045
 20
-117.529949243621
 30
0.0
 10
87.63840601107651
 20
-117.529949243621
 30
0.0
 10
87.77586532093798
 20
-117.529949243621
 30
0.0
 10
87.92813854138602
 20
-117.4601860600447
 30
0.0
 10
87.92813854138602
 20
-117.2316039745984
 30
0.0
 10
87.92813854138602
 20
-117.1153320019712
 30
0.0
 10
87.89007023627401
 20
-117.0665839008549
 30
0.0
 10
87.85837535780972
 20
-117.0348890223906
 30
0.0
 10
87.78430580487685
 20
-116.9608194694577
 30
0.0
 10
87.6678615774754
 20
-116.9482448709365
 30
0.0
 10
87.61291230448566
 20
-116.9482448709365
 30
0.0
 10
87.5939642793168
 20
-116.9482448709365
 30
0.0
 10
87.55796303149593
 20
-116.9503119282277
 30
0.0
 10
87.53040226761394
 20
-116.95444604281
 30
0.0
 10
87.53040226761394
 20
-116.95444604281
 30
0.0
 10
87.53040226761394
 20
-116.7597981478934
 30
0.0
 10
87.53040226761394
 20
-116.7597981478934
 30
0.0
 10
87.56847057272594
 20
-116.7661715745411
 30
0.0
 10
87.61084524719452
 20
-116.7684108866065
 30
0.0
 10
87.61721867384223
 20
-116.7684108866065
 30
0.0
 10
87.68267548806197
 20
-116.7684108866065
 30
0.0
 10
87.88162975233516
 20
-116.7472235493722
 30
0.0
 10
87.88162975233516
 20
-116.510200979987
 30
0.0
 10
87.88162975233516
 20
-116.3326063077224
 30
0.0
 10
87.75037161434713
 20
-116.2774847799584
 30
0.0
 10
87.64047306836767
 20
-116.2774847799584
 30
0.0
 10
87.37606198987474
 20
-116.2774847799584
 30
0.0
 10
87.36762150593587
 20
-116.510200979987
 30
0.0
 10
87.36331513657932
 20
-116.5822034756288
 30
0.0
 10
87.36331513657932
 20
-116.5822034756288
 30
0.0
 10
87.16022675772383
 20
-116.5822034756288
 30
0.0
 10
87.16022675772383
 20
-116.5822034756288
 30
0.0
 10
87.1686672416627
 20
-116.4573187642885
 30
0.0
 10
87.1962280055447
 20
-116.0807698277506
 30
0.0
 10
87.65304766688882
 20
-116.0807698277506
 30
0.0
 10
87.87732338297859
 20
-116.0807698277506
 30
0.0
 10
88.11848006694608
 20
-116.2077215963821
 30
0.0
 10
88.11848006694608
 20
-116.5038275533393
 30
0.0
 10
88.11848006694608
 20
-116.6900349643171
 30
0.0
 10
88.02339543155318
 20
-116.7725450011888
 30
0.0
 10
87.92383217202946
 20
-116.8338677008263
 30
0.0
 10
87.98532712644118
 20
-116.8614284647083
 30
0.0
 10
88.16722816806237
 20
-116.9418714442889
 30
0.0
 10
88.16722816806237
 20
-117.2190293760772
 30
0.0
 10
88.16722816806237
 20
-117.557510007503
 30
0.0
 10
87.91969805744716
 20
-117.7245971385376
 30
0.0
 10
87.64254012565881
 20
-117.7245971385376
 30
0.0
  0
HATCH
  5
91
330
8C
100
AcDbEntity
  8
_U+30EC_U+30A4_U+30E4_U+30FC 1
 62
     7
420
 16777215
100
AcDbHatch
 10
0.0
 20
0.0
 30
0.0
210
0.0
220
0.0
230
1.0
  2
SOLID
 70
     1
 71
     0
 91
        1
 92
        1
 93
        1
 72
     4
 94
        3
 73
     0
 74
     1
 95
       62
 96
       58
 40
0.0
 40
0.0
 40
0.0
 40
0.0
 40
1.0
 40
1.0
 40
1.0
 40
2.0
 40
2.0
 40
2.0
 40
3.0
 40
3.0
 40
3.0
 40
4.0
 40
4.0
 40
4.0
 40
5.0
 40
5.0
 40
5.0
 40
6.0
 40
6.0
 40
6.0
 40
7.0
 40
7.0
 40
7.0
 40
8.0
 40
8.0
 40
8.0
 40
9.0
 40
9.0
 40
9.0
 40
10.0
 40
10.0
 40
10.0
 40
11.0
 40
11.0
 40
11.0
 40
12.0
 40
12.0
 40
12.0
 40
13.0
 40
13.0
 40
13.0
 40
14.0
 40
14.0
 40
14.0
 40
15.0
 40
15.0
 40
15.0
 40
16.0
 40
16.0
 40
16.0
 40
17.0
 40
17.0
 40
17.0
 40
18.0
 40
18.0
 40
18.0
 40
19.0
 40
19.0
 40
19.0
 40
19.0
 10
87.64254012565881
 20
-117.7245971385376
 10
87.54728323549166
 20
-117.7245971385376
 10
87.3293809460496
 20
-117.7034098013033
 10
87.20466848948355
 20
-117.5172023903256
 10
87.13059893655068
 20
-117.4050645322807
 10
87.12629256719413
 20
-117.3056735275312
 10
87.12215845261183
 20
-117.2210964333683
 10
87.12215845261183
 20
-117.2210964333683
 10
87.34212779934502
 20
-117.2210964333683
 10
87.34212779934502
 20
-117.2210964333683
 10
87.34419485663618
 20
-117.2951659863012
 10
87.35487465264045
 20
-117.529949243621
 10
87.63840601107651
 20
-117.529949243621
 10
87.77586532093798
 20
-117.529949243621
 10
87.92813854138602
 20
-117.4601860600447
 10
87.92813854138602
 20
-117.2316039745984
 10
87.92813854138602
 20
-117.1153320019712
 10
87.89007023627401
 20
-117.0665839008549
 10
87.85837535780972
 20
-117.0348890223906
 10
87.78430580487685
 20
-116.9608194694577
 10
87.6678615774754
 20
-116.9482448709365
 10
87.61291230448566
 20
-116.9482448709365
 10
87.5939642793168
 20
-116.9482448709365
 10
87.55796303149593
 20
-116.9503119282277
 10
87.53040226761394
 20
-116.95444604281
 10
87.53040226761394
 20
-116.95444604281
 10
87.53040226761394
 20
-116.7597981478934
 10
87.53040226761394
 20
-116.7597981478934
 10
87.56847057272594
 20
-116.7661715745411
 10
87.61084524719452
 20
-116.7684108866065
 10
87.61721867384223
 20
-116.7684108866065
 10
87.68267548806197
 20
-116.7684108866065
 10
87.88162975233516
 20
-116.7472235493722
 10
87.88162975233516
 20
-116.510200979987
 10
87.88162975233516
 20
-116.3326063077224
 10
87.75037161434713
 20
-116.2774847799584
 10
87.64047306836767
 20
-116.2774847799584
 10
87.37606198987474
 20
-116.2774847799584
 10
87.36762150593587
 20
-116.510200979987
 10
87.36331513657932
 20
-116.5822034756288
 10
87.36331513657932
 20
-116.5822034756288
 10
87.16022675772383
 20
-116.5822034756288
 10
87.16022675772383
 20
-116.5822034756288
 10
87.1686672416627
 20
-116.4573187642885
 10
87.1962280055447
 20
-116.0807698277506
 10
87.65304766688882
 20
-116.0807698277506
 10
87.87732338297859
 20
-116.0807698277506
 10
88.11848006694608
 20
-116.2077215963821
 10
88.11848006694608
 20
-116.5038275533393
 10
88.11848006694608
 20
-116.6900349643171
 10
88.02339543155318
 20
-116.7725450011888
 10
87.92383217202946
 20
-116.8338677008263
 10
87.98532712644118
 20
-116.8614284647083
 10
88.16722816806237
 20
-116.9418714442889
 10
88.16722816806237
 20
-117.2190293760772
 10
88.16722816806237
 20
-117.557510007503
 10
87.91969805744716
 20
-117.7245971385376
 10
87.64254012565881
 20
-117.7245971385376
 97
        0
 97
        0
 75
     2
 76
     1
 98
        0
  0
SPLINE
  5
92
330
8C
100
AcDbEntity
  8
_U+30EC_U+30A4_U+30E4_U+30FC 1
370
     0
100
AcDbSpline
210
0.0
220
0.0
230
1.0
 70
    11
 71
     3
 72
    53
 73
    49
 74
     0
 42
0.0000000001
 43
0.0000000001
 12
1.0
 22
0.0
 32
0.0
 13
1.0
 23
0.0
 33
0.0
 40
0.0
 40
0.0
 40
0.0
 40
0.0
 40
1.0
 40
1.0
 40
1.0
 40
2.0
 40
2.0
 40
2.0
 40
3.0
 40
3.0
 40
3.0
 40
4.0
 40
4.0
 40
4.0
 40
5.0
 40
5.0
 40
5.0
 40
6.0
 40
6.0
 40
6.0
 40
7.0
 40
7.0
 40
7.0
 40
8.0
 40
8.0
 40
8.0
 40
9.0
 40
9.0
 40
9.0
 40
10.0
 40
10.0
 40
10.0
 40
11.0
 40
11.0
 40
11.0
 40
12.0
 40
12.0
 40
12.0
 40
13.0
 40
13.0
 40
13.0
 40
14.0
 40
14.0
 40
14.0
 40
15.0
 40
15.0
 40
15.0
 40
16.0
 40
16.0
 40
16.0
 40
16.0
 10
88.80887720219015
 20
-117.7245971385376
 30
0.0
 10
88.73050127990071
 20
-117.7245971385376
 30
0.0
 10
88.6290432178601
 20
-117.7075439158856
 30
0.0
 10
88.52741290104524
 20
-117.644154158957
 30
0.0
 10
88.3539523433629
 20
-117.5340833582033
 30
0.0
 10
88.33276500612862
 20
-117.4029974749895
 30
0.0
 10
88.31381698095974
 20
-117.2951659863012
 30
0.0
 10
88.31381698095974
 20
-117.2951659863012
 30
0.0
 10
88.5358533849841
 20
-117.2951659863012
 30
0.0
 10
88.5358533849841
 20
-117.2951659863012
 30
0.0
 10
88.5909749127481
 20
-117.4939479958001
 30
0.0
 10
88.71792668137955
 20
-117.5235758169733
 30
0.0
 10
88.81094425948129
 20
-117.5235758169733
 30
0.0
 10
88.95064288140817
 20
-117.5235758169733
 30
0.0
 10
89.10291610185622
 20
-117.4241848122238
 30
0.0
 10
89.10291610185622
 20
-117.1914686121952
 30
0.0
 10
89.10291610185622
 20
-116.9354980176411
 30
0.0
 10
88.92308211752618
 20
-116.8657348340648
 30
0.0
 10
88.80250377554243
 20
-116.8657348340648
 30
0.0
 10
88.77080889707814
 20
-116.8657348340648
 30
0.0
 10
88.6290432178601
 20
-116.8657348340648
 30
0.0
 10
88.54015975434066
 20
-116.9947536599874
 30
0.0
 10
88.54015975434066
 20
-116.9947536599874
 30
0.0
 10
88.36463213936717
 20
-116.9756333800443
 30
0.0
 10
88.36463213936717
 20
-116.9756333800443
 30
0.0
 10
88.36463213936717
 20
-116.9756333800443
 30
0.0
 10
88.48521048135092
 20
-116.1295179288669
 30
0.0
 10
88.48521048135092
 20
-116.1295179288669
 30
0.0
 10
88.48521048135092
 20
-116.1295179288669
 30
0.0
 10
89.26362980624313
 20
-116.1295179288669
 30
0.0
 10
89.26362980624313
 20
-116.1295179288669
 30
0.0
 10
89.26362980624313
 20
-116.1295179288669
 30
0.0
 10
89.26362980624313
 20
-116.3241658237835
 30
0.0
 10
89.26362980624313
 20
-116.3241658237835
 30
0.0
 10
89.26362980624313
 20
-116.3241658237835
 30
0.0
 10
88.64799124302898
 20
-116.3241658237835
 30
0.0
 10
88.64799124302898
 20
-116.3241658237835
 30
0.0
 10
88.64799124302898
 20
-116.3241658237835
 30
0.0
 10
88.58253442880923
 20
-116.7472235493722
 30
0.0
 10
88.58253442880923
 20
-116.7472235493722
 30
0.0
 10
88.64385712844668
 20
-116.7132893588425
 30
0.0
 10
88.72636716531841
 20
-116.6731539964394
 30
0.0
 10
88.84470619523674
 20
-116.6731539964394
 30
0.0
 10
89.09860973249965
 20
-116.6731539964394
 30
0.0
 10
89.33563230188484
 20
-116.8593614074171
 30
0.0
 10
89.33563230188484
 20
-117.1723483322521
 30
0.0
 10
89.33563230188484
 20
-117.4898138812178
 30
0.0
 10
89.11135658579508
 20
-117.7245971385376
 30
0.0
 10
88.80887720219015
 20
-117.7245971385376
 30
0.0
  0
HATCH
  5
93
330
8C
100
AcDbEntity
  8
_U+30EC_U+30A4_U+30E4_U+30FC 1
 62
     7
420
 16777215
100
AcDbHatch
 10
0.0
 20
0.0
 30
0.0
210
0.0
220
0.0
230
1.0
  2
SOLID
 70
     1
 71
     0
 91
        1
 92
        1
 93
        1
 72
     4
 94
        3
 73
     0
 74
     1
 95
       53
 96
       49
 40
0.0
 40
0.0
 40
0.0
 40
0.0
 40
1.0
 40
1.0
 40
1.0
 40
2.0
 40
2.0
 40
2.0
 40
3.0
 40
3.0
 40
3.0
 40
4.0
 40
4.0
 40
4.0
 40
5.0
 40
5.0
 40
5.0
 40
6.0
 40
6.0
 40
6.0
 40
7.0
 40
7.0
 40
7.0
 40
8.0
 40
8.0
 40
8.0
 40
9.0
 40
9.0
 40
9.0
 40
10.0
 40
10.0
 40
10.0
 40
11.0
 40
11.0
 40
11.0
 40
12.0
 40
12.0
 40
12.0
 40
13.0
 40
13.0
 40
13.0
 40
14.0
 40
14.0
 40
14.0
 40
15.0
 40
15.0
 40
15.0
 40
16.0
 40
16.0
 40
16.0
 40
16.0
 10
88.80887720219015
 20
-117.7245971385376
 10
88.73050127990071
 20
-117.7245971385376
 10
88.6290432178601
 20
-117.7075439158856
 10
88.52741290104524
 20
-117.644154158957
 10
88.3539523433629
 20
-117.5340833582033
 10
88.33276500612862
 20
-117.4029974749895
 10
88.31381698095974
 20
-117.2951659863012
 10
88.31381698095974
 20
-117.2951659863012
 10
88.5358533849841
 20
-117.2951659863012
 10
88.5358533849841
 20
-117.2951659863012
 10
88.5909749127481
 20
-117.4939479958001
 10
88.71792668137955
 20
-117.5235758169733
 10
88.81094425948129
 20
-117.5235758169733
 10
88.95064288140817
 20
-117.5235758169733
 10
89.10291610185622
 20
-117.4241848122238
 10
89.10291610185622
 20
-117.1914686121952
 10
89.10291610185622
 20
-116.9354980176411
 10
88.92308211752618
 20
-116.8657348340648
 10
88.80250377554243
 20
-116.8657348340648
 10
88.77080889707814
 20
-116.8657348340648
 10
88.6290432178601
 20
-116.8657348340648
 10
88.54015975434066
 20
-116.9947536599874
 10
88.54015975434066
 20
-116.9947536599874
 10
88.36463213936717
 20
-116.9756333800443
 10
88.36463213936717
 20
-116.9756333800443
 10
88.36463213936717
 20
-116.9756333800443
 10
88.48521048135092
 20
-116.1295179288669
 10
88.48521048135092
 20
-116.1295179288669
 10
88.48521048135092
 20
-116.1295179288669
 10
89.26362980624313
 20
-116.1295179288669
 10
89.26362980624313
 20
-116.1295179288669
 10
89.26362980624313
 20
-116.1295179288669
 10
89.26362980624313
 20
-116.3241658237835
 10
89.26362980624313
 20
-116.3241658237835
 10
89.26362980624313
 20
-116.3241658237835
 10
88.64799124302898
 20
-116.3241658237835
 10
88.64799124302898
 20
-116.3241658237835
 10
88.64799124302898
 20
-116.3241658237835
 10
88.58253442880923
 20
-116.7472235493722
 10
88.58253442880923
 20
-116.7472235493722
 10
88.64385712844668
 20
-116.7132893588425
 10
88.72636716531841
 20
-116.6731539964394
 10
88.84470619523674
 20
-116.6731539964394
 10
89.09860973249965
 20
-116.6731539964394
 10
89.33563230188484
 20
-116.8593614074171
 10
89.33563230188484
 20
-117.1723483322521
 10
89.33563230188484
 20
-117.4898138812178
 10
89.11135658579508
 20
-117.7245971385376
 10
88.80887720219015
 20
-117.7245971385376
 97
        0
 97
        0
 75
     2
 76
     1
 98
        0
  0
ENDBLK
  5
8F
330
8C
100
AcDbEntity
  8
0
100
AcDbBlockEnd
  0
BLOCK
  5
A2
330
A0
100
AcDbEntity
  8
0
100
AcDbBlockBegin
  2
block 5
 70
     0
 10
0.0
 20
0.0
 30
0.0
  3
block 5
  1

  0
SPLINE
  5
A4
330
A0
100
AcDbEntity
  8
_U+30EC_U+30A4_U+30E4_U+30FC 1
370
     0
100
AcDbSpline
210
0.0
220
0.0
230
1.0
 70
    11
 71
     3
 72
    26
 73
    22
 74
     0
 42
0.0000000001
 43
0.0000000001
 12
1.0
 22
0.0
 32
0.0
 13
1.0
 23
0.0
 33
0.0
 40
0.0
 40
0.0
 40
0.0
 40
0.0
 40
1.0
 40
1.0
 40
1.0
 40
2.0
 40
2.0
 40
2.0
 40
3.0
 40
3.0
 40
3.0
 40
4.0
 40
4.0
 40
4.0
 40
5.0
 40
5.0
 40
5.0
 40
6.0
 40
6.0
 40
6.0
 40
7.0
 40
7.0
 40
7.0
 40
7.0
 10
77.60232609822096
 20
-140.3738606419899
 30
0.0
 10
77.60232609822096
 20
-140.3738606419899
 30
0.0
 10
77.60232609822096
 20
-139.2697075389673
 30
0.0
 10
77.60232609822096
 20
-139.2697075389673
 30
0.0
 10
77.60232609822096
 20
-139.2697075389673
 30
0.0
 10
77.27228595073402
 20
-139.2697075389673
 30
0.0
 10
77.27228595073402
 20
-139.2697075389673
 30
0.0
 10
77.27228595073402
 20
-139.2697075389673
 30
0.0
 10
77.27228595073402
 20
-139.1215684331016
 30
0.0
 10
77.27228595073402
 20
-139.1215684331016
 30
0.0
 10
77.6043931555121
 20
-139.106754522515
 30
0.0
 10
77.65090194456297
 20
-138.9438015060627
 30
0.0
 10
77.68052976573613
 20
-138.8294243359524
 30
0.0
 10
77.68052976573613
 20
-138.8294243359524
 30
0.0
 10
77.82660181431072
 20
-138.8294243359524
 30
0.0
 10
77.82660181431072
 20
-138.8294243359524
 30
0.0
 10
77.82660181431072
 20
-138.8294243359524
 30
0.0
 10
77.82660181431072
 20
-140.3738606419899
 30
0.0
 10
77.82660181431072
 20
-140.3738606419899
 30
0.0
 10
77.82660181431072
 20
-140.3738606419899
 30
0.0
 10
77.60232609822096
 20
-140.3738606419899
 30
0.0
 10
77.60232609822096
 20
-140.3738606419899
 30
0.0
  0
HATCH
  5
A5
330
A0
100
AcDbEntity
  8
_U+30EC_U+30A4_U+30E4_U+30FC 1
 62
     7
420
 16777215
100
AcDbHatch
 10
0.0
 20
0.0
 30
0.0
210
0.0
220
0.0
230
1.0
  2
SOLID
 70
     1
 71
     0
 91
        1
 92
        1
 93
        1
 72
     4
 94
        3
 73
     0
 74
     1
 95
       26
 96
       22
 40
0.0
 40
0.0
 40
0.0
 40
0.0
 40
1.0
 40
1.0
 40
1.0
 40
2.0
 40
2.0
 40
2.0
 40
3.0
 40
3.0
 40
3.0
 40
4.0
 40
4.0
 40
4.0
 40
5.0
 40
5.0
 40
5.0
 40
6.0
 40
6.0
 40
6.0
 40
7.0
 40
7.0
 40
7.0
 40
7.0
 10
77.60232609822096
 20
-140.3738606419899
 10
77.60232609822096
 20
-140.3738606419899
 10
77.60232609822096
 20
-139.2697075389673
 10
77.60232609822096
 20
-139.2697075389673
 10
77.60232609822096
 20
-139.2697075389673
 10
77.27228595073402
 20
-139.2697075389673
 10
77.27228595073402
 20
-139.2697075389673
 10
77.27228595073402
 20
-139.2697075389673
 10
77.27228595073402
 20
-139.1215684331016
 10
77.27228595073402
 20
-139.1215684331016
 10
77.6043931555121
 20
-139.106754522515
 10
77.65090194456297
 20
-138.9438015060627
 10
77.68052976573613
 20
-138.8294243359524
 10
77.68052976573613
 20
-138.8294243359524
 10
77.82660181431072
 20
-138.8294243359524
 10
77.82660181431072
 20
-138.8294243359524
 10
77.82660181431072
 20
-138.8294243359524
 10
77.82660181431072
 20
-140.3738606419899
 10
77.82660181431072
 20
-140.3738606419899
 10
77.82660181431072
 20
-140.3738606419899
 10
77.60232609822096
 20
-140.3738606419899
 10
77.60232609822096
 20
-140.3738606419899
 97
        0
 97
        0
 75
     2
 76
     1
 98
        0
  0
SPLINE
  5
A6
330
A0
100
AcDbEntity
  8
_U+30EC_U+30A4_U+30E4_U+30FC 1
370
     0
100
AcDbSpline
210
0.0
220
0.0
230
1.0
 70
    11
 71
     3
 72
    53
 73
    49
 74
     0
 42
0.0000000001
 43
0.0000000001
 12
1.0
 22
0.0
 32
0.0
 13
1.0
 23
0.0
 33
0.0
 40
0.0
 40
0.0
 40
0.0
 40
0.0
 40
1.0
 40
1.0
 40
1.0
 40
2.0
 40
2.0
 40
2.0
 40
3.0
 40
3.0
 40
3.0
 40
4.0
 40
4.0
 40
4.0
 40
5.0
 40
5.0
 40
5.0
 40
6.0
 40
6.0
 40
6.0
 40
7.0
 40
7.0
 40
7.0
 40
8.0
 40
8.0
 40
8.0
 40
9.0
 40
9.0
 40
9.0
 40
10.0
 40
10.0
 40
10.0
 40
11.0
 40
11.0
 40
11.0
 40
12.0
 40
12.0
 40
12.0
 40
13.0
 40
13.0
 40
13.0
 40
14.0
 40
14.0
 40
14.0
 40
15.0
 40
15.0
 40
15.0
 40
16.0
 40
16.0
 40
16.0
 40
16.0
 10
78.80879853715544
 20
-140.4245035456231
 30
0.0
 10
78.73042261486601
 20
-140.4245035456231
 30
0.0
 10
78.62896455282541
 20
-140.4076225777453
 30
0.0
 10
78.52733423601053
 20
-140.3442328208167
 30
0.0
 10
78.3538736783282
 20
-140.2343342748373
 30
0.0
 10
78.33268634109392
 20
-140.1030761368492
 30
0.0
 10
78.31373831592504
 20
-139.9952446481609
 30
0.0
 10
78.31373831592504
 20
-139.9952446481609
 30
0.0
 10
78.53577471994939
 20
-139.9952446481609
 30
0.0
 10
78.53577471994939
 20
-139.9952446481609
 30
0.0
 10
78.59089624771339
 20
-140.1940266576598
 30
0.0
 10
78.71784801634485
 20
-140.223654478833
 30
0.0
 10
78.8108655944466
 20
-140.223654478833
 30
0.0
 10
78.95056421637348
 20
-140.223654478833
 30
0.0
 10
79.10283743682152
 20
-140.1240912193093
 30
0.0
 10
79.10283743682152
 20
-139.8915472740549
 30
0.0
 10
79.10283743682152
 20
-139.6355766795008
 30
0.0
 10
78.92300345249147
 20
-139.5656412411503
 30
0.0
 10
78.80242511050773
 20
-139.5656412411503
 30
0.0
 10
78.77073023204343
 20
-139.5656412411503
 30
0.0
 10
78.62896455282541
 20
-139.5656412411503
 30
0.0
 10
78.54008108930596
 20
-139.6948323218471
 30
0.0
 10
78.54008108930596
 20
-139.6948323218471
 30
0.0
 10
78.36455347433248
 20
-139.6758842966782
 30
0.0
 10
78.36455347433248
 20
-139.6758842966782
 30
0.0
 10
78.36455347433248
 20
-139.6758842966782
 30
0.0
 10
78.48513181631623
 20
-138.8294243359524
 30
0.0
 10
78.48513181631623
 20
-138.8294243359524
 30
0.0
 10
78.48513181631623
 20
-138.8294243359524
 30
0.0
 10
79.26355114120842
 20
-138.8294243359524
 30
0.0
 10
79.26355114120842
 20
-138.8294243359524
 30
0.0
 10
79.26355114120842
 20
-138.8294243359524
 30
0.0
 10
79.26355114120842
 20
-139.024072230869
 30
0.0
 10
79.26355114120842
 20
-139.024072230869
 30
0.0
 10
79.26355114120842
 20
-139.024072230869
 30
0.0
 10
78.64791257799428
 20
-139.024072230869
 30
0.0
 10
78.64791257799428
 20
-139.024072230869
 30
0.0
 10
78.64791257799428
 20
-139.024072230869
 30
0.0
 10
78.58245576377453
 20
-139.4471299564577
 30
0.0
 10
78.58245576377453
 20
-139.4471299564577
 30
0.0
 10
78.64377846341198
 20
-139.4133680207022
 30
0.0
 10
78.72628850028372
 20
-139.3730604035248
 30
0.0
 10
78.84462753020205
 20
-139.3730604035248
 30
0.0
 10
79.09853106746496
 20
-139.3730604035248
 30
0.0
 10
79.33555363685014
 20
-139.5594400692768
 30
0.0
 10
79.33555363685014
 20
-139.872599248886
 30
0.0
 10
79.33555363685014
 20
-140.1898925430775
 30
0.0
 10
79.11127792076037
 20
-140.4245035456231
 30
0.0
 10
78.80879853715544
 20
-140.4245035456231
 30
0.0
  0
HATCH
  5
A7
330
A0
100
AcDbEntity
  8
_U+30EC_U+30A4_U+30E4_U+30FC 1
 62
     7
420
 16777215
100
AcDbHatch
 10
0.0
 20
0.0
 30
0.0
210
0.0
220
0.0
230
1.0
  2
SOLID
 70
     1
 71
     0
 91
        1
 92
        1
 93
        1
 72
     4
 94
        3
 73
     0
 74
     1
 95
       53
 96
       49
 40
0.0
 40
0.0
 40
0.0
 40
0.0
 40
1.0
 40
1.0
 40
1.0
 40
2.0
 40
2.0
 40
2.0
 40
3.0
 40
3.0
 40
3.0
 40
4.0
 40
4.0
 40
4.0
 40
5.0
 40
5.0
 40
5.0
 40
6.0
 40
6.0
 40
6.0
 40
7.0
 40
7.0
 40
7.0
 40
8.0
 40
8.0
 40
8.0
 40
9.0
 40
9.0
 40
9.0
 40
10.0
 40
10.0
 40
10.0
 40
11.0
 40
11.0
 40
11.0
 40
12.0
 40
12.0
 40
12.0
 40
13.0
 40
13.0
 40
13.0
 40
14.0
 40
14.0
 40
14.0
 40
15.0
 40
15.0
 40
15.0
 40
16.0
 40
16.0
 40
16.0
 40
16.0
 10
78.80879853715544
 20
-140.4245035456231
 10
78.73042261486601
 20
-140.4245035456231
 10
78.62896455282541
 20
-140.4076225777453
 10
78.52733423601053
 20
-140.3442328208167
 10
78.3538736783282
 20
-140.2343342748373
 10
78.33268634109392
 20
-140.1030761368492
 10
78.31373831592504
 20
-139.9952446481609
 10
78.31373831592504
 20
-139.9952446481609
 10
78.53577471994939
 20
-139.9952446481609
 10
78.53577471994939
 20
-139.9952446481609
 10
78.59089624771339
 20
-140.1940266576598
 10
78.71784801634485
 20
-140.223654478833
 10
78.8108655944466
 20
-140.223654478833
 10
78.95056421637348
 20
-140.223654478833
 10
79.10283743682152
 20
-140.1240912193093
 10
79.10283743682152
 20
-139.8915472740549
 10
79.10283743682152
 20
-139.6355766795008
 10
78.92300345249147
 20
-139.5656412411503
 10
78.80242511050773
 20
-139.5656412411503
 10
78.77073023204343
 20
-139.5656412411503
 10
78.62896455282541
 20
-139.5656412411503
 10
78.54008108930596
 20
-139.6948323218471
 10
78.54008108930596
 20
-139.6948323218471
 10
78.36455347433248
 20
-139.6758842966782
 10
78.36455347433248
 20
-139.6758842966782
 10
78.36455347433248
 20
-139.6758842966782
 10
78.48513181631623
 20
-138.8294243359524
 10
78.48513181631623
 20
-138.8294243359524
 10
78.48513181631623
 20
-138.8294243359524
 10
79.26355114120842
 20
-138.8294243359524
 10
79.26355114120842
 20
-138.8294243359524
 10
79.26355114120842
 20
-138.8294243359524
 10
79.26355114120842
 20
-139.024072230869
 10
79.26355114120842
 20
-139.024072230869
 10
79.26355114120842
 20
-139.024072230869
 10
78.64791257799428
 20
-139.024072230869
 10
78.64791257799428
 20
-139.024072230869
 10
78.64791257799428
 20
-139.024072230869
 10
78.58245576377453
 20
-139.4471299564577
 10
78.58245576377453
 20
-139.4471299564577
 10
78.64377846341198
 20
-139.4133680207022
 10
78.72628850028372
 20
-139.3730604035248
 10
78.84462753020205
 20
-139.3730604035248
 10
79.09853106746496
 20
-139.3730604035248
 10
79.33555363685014
 20
-139.5594400692768
 10
79.33555363685014
 20
-139.872599248886
 10
79.33555363685014
 20
-140.1898925430775
 10
79.11127792076037
 20
-140.4245035456231
 10
78.80879853715544
 20
-140.4245035456231
 97
        0
 97
        0
 75
     2
 76
     1
 98
        0
  0
ENDBLK
  5
A3
330
A0
100
AcDbEntity
  8
0
100
AcDbBlockEnd
  0
BLOCK
  5
AA
330
A8
100
AcDbEntity
  8
0
100
AcDbBlockBegin
  2
block 6
 70
     0
 10
0.0
 20
0.0
 30
0.0
  3
block 6
  1

  0
POLYLINE
  5
AC
330
A8
100
AcDbEntity
  8
_U+30EC_U+30A4_U+30E4_U+30FC 1
 62
     7
420
 16777215
370
     9
100
AcDb2dPolyline
 66
     1
 10
0.0
 20
0.0
 30
0.0
  0
VERTEX
  5
AD
330
AC
100
AcDbEntity
  8
_U+30EC_U+30A4_U+30E4_U+30FC 1
 62
     7
420
 16777215
370
     9
100
AcDbVertex
100
AcDb2dVertex
 10
85.74016942300929
 20
-141.0198121869674
 30
0.0
  0
VERTEX
  5
AE
330
AC
100
AcDbEntity
  8
_U+30EC_U+30A4_U+30E4_U+30FC 1
 62
     7
420
 16777215
370
     9
100
AcDbVertex
100
AcDb2dVertex
 10
93.74000288627107
 20
-141.0198121869674
 30
0.0
  0
SEQEND
  5
AF
330
AC
100
AcDbEntity
  8
_U+30EC_U+30A4_U+30E4_U+30FC 1
 62
     7
420
 16777215
370
     9
  0
POLYLINE
  5
B0
330
A8
100
AcDbEntity
  8
_U+30EC_U+30A4_U+30E4_U+30FC 1
 62
     7
420
 16777215
370
     9
100
AcDb2dPolyline
 66
     1
 10
0.0
 20
0.0
 30
0.0
  0
VERTEX
  5
B1
330
B0
100
AcDbEntity
  8
_U+30EC_U+30A4_U+30E4_U+30FC 1
 62
     7
420
 16777215
370
     9
100
AcDbVertex
100
AcDb2dVertex
 10
85.74016942300929
 20
-139.5597707984437
 30
0.0
  0
VERTEX
  5
B2
330
B0
100
AcDbEntity
  8
_U+30EC_U+30A4_U+30E4_U+30FC 1
 62
     7
420
 16777215
370
     9
100
AcDbVertex
100
AcDb2dVertex
 10
85.74016942300929
 20
-142.0195844089393
 30
0.0
  0
SEQEND
  5
B3
330
B0
100
AcDbEntity
  8
_U+30EC_U+30A4_U+30E4_U+30FC 1
 62
     7
420
 16777215
370
     9
  0
POLYLINE
  5
B4
330
A8
100
AcDbEntity
  8
_U+30EC_U+30A4_U+30E4_U+30FC 1
 62
     7
420
 16777215
370
     9
100
AcDb2dPolyline
 66
     1
 10
0.0
 20
0.0
 30
0.0
  0
VERTEX
  5
B5
330
B4
100
AcDbEntity
  8
_U+30EC_U+30A4_U+30E4_U+30FC 1
 62
     7
420
 16777215
370
     9
100
AcDbVertex
100
AcDb2dVertex
 10
93.74000288627107
 20
-139.5597707984437
 30
0.0
  0
VERTEX
  5
B6
330
B4
100
AcDbEntity
  8
_U+30EC_U+30A4_U+30E4_U+30FC 1
 62
     7
420
 16777215
370
     9
100
AcDbVertex
100
AcDb2dVertex
 10
93.74000288627107
 20
-142.0195844089393
 30
0.0
  0
SEQEND
  5
B7
330
B4
100
AcDbEntity
  8
_U+30EC_U+30A4_U+30E4_U+30FC 1
 62
     7
420
 16777215
370
     9
  0
INSERT
  5
B9
330
A8
100
AcDbEntity
  8
_U+30EC_U+30A4_U+30E4_U+30FC 1
100
AcDbBlockReference
  2
block 7
 10
0.0
 20
0.0
 30
0.0
  0
ENDBLK
  5
AB
330
A8
100
AcDbEntity
  8
0
100
AcDbBlockEnd
  0
BLOCK
  5
BA
330
B8
100
AcDbEntity
  8
0
100
AcDbBlockBegin
  2
block 7
 70
     0
 10
0.0
 20
0.0
 30
0.0
  3
block 7
  1

  0
SPLINE
  5
BC
330
B8
100
AcDbEntity
  8
_U+30EC_U+30A4_U+30E4_U+30FC 1
370
     0
100
AcDbSpline
210
0.0
220
0.0
230
1.0
 70
    11
 71
     3
 72
    29
 73
    25
 74
     0
 42
0.0000000001
 43
0.0000000001
 12
1.0
 22
0.0
 32
0.0
 13
1.0
 23
0.0
 33
0.0
 40
0.0
 40
0.0
 40
0.0
 40
0.0
 40
1.0
 40
1.0
 40
1.0
 40
2.0
 40
2.0
 40
2.0
 40
3.0
 40
3.0
 40
3.0
 40
4.0
 40
4.0
 40
4.0
 40
5.0
 40
5.0
 40
5.0
 40
6.0
 40
6.0
 40
6.0
 40
7.0
 40
7.0
 40
7.0
 40
8.0
 40
8.0
 40
8.0
 40
8.0
 10
89.7390529832076
 20
-140.4245035456231
 30
0.0
 10
89.47257484742353
 20
-140.4245035456231
 30
0.0
 10
89.21867131016062
 20
-140.2870442357616
 30
0.0
 10
89.21867131016062
 20
-139.9380560631058
 30
0.0
 10
89.21867131016062
 20
-139.6820854685517
 30
0.0
 10
89.36043698937864
 20
-139.5870008331588
 30
0.0
 10
89.46620142077582
 20
-139.5256781335214
 30
0.0
 10
89.3413167094355
 20
-139.4664224911751
 30
0.0
 10
89.26518009921149
 20
-139.3520453210648
 30
0.0
 10
89.26518009921149
 20
-139.1911593619036
 30
0.0
 10
89.26518009921149
 20
-138.9162407421807
 30
0.0
 10
89.46413436348466
 20
-138.7808484896103
 30
0.0
 10
89.7390529832076
 20
-138.7808484896103
 30
0.0
 10
90.02258434164366
 20
-138.7808484896103
 30
0.0
 10
90.21292586720372
 20
-138.9248534808938
 30
0.0
 10
90.21292586720372
 20
-139.1911593619036
 30
0.0
 10
90.21292586720372
 20
-139.3520453210648
 30
0.0
 10
90.13472219968854
 20
-139.4664224911751
 30
0.0
 10
90.00983748834824
 20
-139.5256781335214
 30
0.0
 10
90.09872095186769
 20
-139.5763210371545
 30
0.0
 10
90.25736759896344
 20
-139.6714056725474
 30
0.0
 10
90.25736759896344
 20
-139.9339219485235
 30
0.0
 10
90.25736759896344
 20
-140.3084038277701
 30
0.0
 10
89.97814260988395
 20
-140.4245035456231
 30
0.0
 10
89.7390529832076
 20
-140.4245035456231
 30
0.0
  0
SPLINE
  5
BD
330
B8
100
AcDbEntity
  8
_U+30EC_U+30A4_U+30E4_U+30FC 1
370
     0
100
AcDbSpline
210
0.0
220
0.0
230
1.0
 70
    11
 71
     3
 72
    17
 73
    13
 74
     0
 42
0.0000000001
 43
0.0000000001
 12
1.0
 22
0.0
 32
0.0
 13
1.0
 23
0.0
 33
0.0
 40
0.0
 40
0.0
 40
0.0
 40
0.0
 40
1.0
 40
1.0
 40
1.0
 40
2.0
 40
2.0
 40
2.0
 40
3.0
 40
3.0
 40
3.0
 40
4.0
 40
4.0
 40
4.0
 40
4.0
 10
89.7390529832076
 20
-139.6335096222097
 30
0.0
 10
89.59522024669842
 20
-139.6335096222097
 30
0.0
 10
89.44294702625038
 20
-139.720326028438
 30
0.0
 10
89.44294702625038
 20
-139.9232421525192
 30
0.0
 10
89.44294702625038
 20
-140.1285698434401
 30
0.0
 10
89.56989879488184
 20
-140.2298556507064
 30
0.0
 10
89.7390529832076
 20
-140.2298556507064
 30
0.0
 10
89.92526039418536
 20
-140.2298556507064
 30
0.0
 10
90.03533119493909
 20
-140.1072102514315
 30
0.0
 10
90.03533119493909
 20
-139.9294433243927
 30
0.0
 10
90.03533119493909
 20
-139.7075791751426
 30
0.0
 10
89.87237817848677
 20
-139.6335096222097
 30
0.0
 10
89.7390529832076
 20
-139.6335096222097
 30
0.0
  0
SPLINE
  5
BE
330
B8
100
AcDbEntity
  8
_U+30EC_U+30A4_U+30E4_U+30FC 1
370
     0
100
AcDbSpline
210
0.0
220
0.0
230
1.0
 70
    11
 71
     3
 72
    17
 73
    13
 74
     0
 42
0.0000000001
 43
0.0000000001
 12
1.0
 22
0.0
 32
0.0
 13
1.0
 23
0.0
 33
0.0
 40
0.0
 40
0.0
 40
0.0
 40
0.0
 40
1.0
 40
1.0
 40
1.0
 40
2.0
 40
2.0
 40
2.0
 40
3.0
 40
3.0
 40
3.0
 40
4.0
 40
4.0
 40
4.0
 40
4.0
 10
89.7390529832076
 20
-138.9734293272358
 30
0.0
 10
89.57403290946414
 20
-138.9734293272358
 30
0.0
 10
89.48945581530126
 20
-139.0685139626287
 30
0.0
 10
89.48945581530126
 20
-139.203906215199
 30
0.0
 10
89.48945581530126
 20
-139.3265516144739
 30
0.0
 10
89.56145831094297
 20
-139.4450628991665
 30
0.0
 10
89.7390529832076
 20
-139.4450628991665
 30
0.0
 10
89.91681991024649
 20
-139.4450628991665
 30
0.0
 10
89.98865015111396
 20
-139.3265516144739
 30
0.0
 10
89.98865015111396
 20
-139.203906215199
 30
0.0
 10
89.98865015111396
 20
-139.0685139626287
 30
0.0
 10
89.90200599965992
 20
-138.9734293272358
 30
0.0
 10
89.7390529832076
 20
-138.9734293272358
 30
0.0
  0
HATCH
  5
BF
330
B8
100
AcDbEntity
  8
_U+30EC_U+30A4_U+30E4_U+30FC 1
 62
     7
420
 16777215
100
AcDbHatch
 10
0.0
 20
0.0
 30
0.0
210
0.0
220
0.0
230
1.0
  2
SOLID
 70
     1
 71
     0
 91
        3
 92
        1
 93
        1
 72
     4
 94
        3
 73
     0
 74
     1
 95
       29
 96
       25
 40
0.0
 40
0.0
 40
0.0
 40
0.0
 40
1.0
 40
1.0
 40
1.0
 40
2.0
 40
2.0
 40
2.0
 40
3.0
 40
3.0
 40
3.0
 40
4.0
 40
4.0
 40
4.0
 40
5.0
 40
5.0
 40
5.0
 40
6.0
 40
6.0
 40
6.0
 40
7.0
 40
7.0
 40
7.0
 40
8.0
 40
8.0
 40
8.0
 40
8.0
 10
89.7390529832076
 20
-140.4245035456231
 10
89.47257484742353
 20
-140.4245035456231
 10
89.21867131016062
 20
-140.2870442357616
 10
89.21867131016062
 20
-139.9380560631058
 10
89.21867131016062
 20
-139.6820854685517
 10
89.36043698937864
 20
-139.5870008331588
 10
89.46620142077582
 20
-139.5256781335214
 10
89.3413167094355
 20
-139.4664224911751
 10
89.26518009921149
 20
-139.3520453210648
 10
89.26518009921149
 20
-139.1911593619036
 10
89.26518009921149
 20
-138.9162407421807
 10
89.46413436348466
 20
-138.7808484896103
 10
89.7390529832076
 20
-138.7808484896103
 10
90.02258434164366
 20
-138.7808484896103
 10
90.21292586720372
 20
-138.9248534808938
 10
90.21292586720372
 20
-139.1911593619036
 10
90.21292586720372
 20
-139.3520453210648
 10
90.13472219968854
 20
-139.4664224911751
 10
90.00983748834824
 20
-139.5256781335214
 10
90.09872095186769
 20
-139.5763210371545
 10
90.25736759896344
 20
-139.6714056725474
 10
90.25736759896344
 20
-139.9339219485235
 10
90.25736759896344
 20
-140.3084038277701
 10
89.97814260988395
 20
-140.4245035456231
 10
89.7390529832076
 20
-140.4245035456231
 97
        0
 97
        0
 92
        1
 93
        1
 72
     4
 94
        3
 73
     0
 74
     1
 95
       17
 96
       13
 40
0.0
 40
0.0
 40
0.0
 40
0.0
 40
1.0
 40
1.0
 40
1.0
 40
2.0
 40
2.0
 40
2.0
 40
3.0
 40
3.0
 40
3.0
 40
4.0
 40
4.0
 40
4.0
 40
4.0
 10
89.7390529832076
 20
-139.6335096222097
 10
89.59522024669842
 20
-139.6335096222097
 10
89.44294702625038
 20
-139.720326028438
 10
89.44294702625038
 20
-139.9232421525192
 10
89.44294702625038
 20
-140.1285698434401
 10
89.56989879488184
 20
-140.2298556507064
 10
89.7390529832076
 20
-140.2298556507064
 10
89.92526039418536
 20
-140.2298556507064
 10
90.03533119493909
 20
-140.1072102514315
 10
90.03533119493909
 20
-139.9294433243927
 10
90.03533119493909
 20
-139.7075791751426
 10
89.87237817848677
 20
-139.6335096222097
 10
89.7390529832076
 20
-139.6335096222097
 97
        0
 97
        0
 92
        1
 93
        1
 72
     4
 94
        3
 73
     0
 74
     1
 95
       17
 96
       13
 40
0.0
 40
0.0
 40
0.0
 40
0.0
 40
1.0
 40
1.0
 40
1.0
 40
2.0
 40
2.0
 40
2.0
 40
3.0
 40
3.0
 40
3.0
 40
4.0
 40
4.0
 40
4.0
 40
4.0
 10
89.7390529832076
 20
-138.9734293272358
 10
89.57403290946414
 20
-138.9734293272358
 10
89.48945581530126
 20
-139.0685139626287
 10
89.48945581530126
 20
-139.203906215199
 10
89.48945581530126
 20
-139.3265516144739
 10
89.56145831094297
 20
-139.4450628991665
 10
89.7390529832076
 20
-139.4450628991665
 10
89.91681991024649
 20
-139.4450628991665
 10
89.98865015111396
 20
-139.3265516144739
 10
89.98865015111396
 20
-139.203906215199
 10
89.98865015111396
 20
-139.0685139626287
 10
89.90200599965992
 20
-138.9734293272358
 10
89.7390529832076
 20
-138.9734293272358
 97
        0
 97
        0
 75
     2
 76
     1
 98
        0
  0
ENDBLK
  5
BB
330
B8
100
AcDbEntity
  8
0
100
AcDbBlockEnd
  0
BLOCK
  5
C2
330
C0
100
AcDbEntity
  8
0
100
AcDbBlockBegin
  2
block 8
 70
     0
 10
0.0
 20
0.0
 30
0.0
  3
block 8
  1

  0
POLYLINE
  5
C4
330
C0
100
AcDbEntity
  8
_U+30EC_U+30A4_U+30E4_U+30FC 1
 62
     7
420
 16777215
370
     9
100
AcDb2dPolyline
 66
     1
 10
0.0
 20
0.0
 30
0.0
  0
VERTEX
  5
C5
330
C4
100
AcDbEntity
  8
_U+30EC_U+30A4_U+30E4_U+30FC 1
 62
     7
420
 16777215
370
     9
100
AcDbVertex
100
AcDb2dVertex
 10
109.7404149780665
 20
-136.0196105215506
 30
0.0
  0
VERTEX
  5
C6
330
C4
100
AcDbEntity
  8
_U+30EC_U+30A4_U+30E4_U+30FC 1
 62
     7
420
 16777215
370
     9
100
AcDbVertex
100
AcDb2dVertex
 10
109.7404149780665
 20
-123.3196105247256
 30
0.0
  0
SEQEND
  5
C7
330
C4
100
AcDbEntity
  8
_U+30EC_U+30A4_U+30E4_U+30FC 1
 62
     7
420
 16777215
370
     9
  0
POLYLINE
  5
C8
330
C0
100
AcDbEntity
  8
_U+30EC_U+30A4_U+30E4_U+30FC 1
 62
     7
420
 16777215
370
     9
100
AcDb2dPolyline
 66
     1
 10
0.0
 20
0.0
 30
0.0
  0
VERTEX
  5
C9
330
C8
100
AcDbEntity
  8
_U+30EC_U+30A4_U+30E4_U+30FC 1
 62
     7
420
 16777215
370
     9
100
AcDbVertex
100
AcDb2dVertex
 10
96.27972059925524
 20
-136.0196105215506
 30
0.0
  0
VERTEX
  5
CA
330
C8
100
AcDbEntity
  8
_U+30EC_U+30A4_U+30E4_U+30FC 1
 62
     7
420
 16777215
370
     9
100
AcDbVertex
100
AcDb2dVertex
 10
110.7401871747824
 20
-136.0196105215506
 30
0.0
  0
SEQEND
  5
CB
330
C8
100
AcDbEntity
  8
_U+30EC_U+30A4_U+30E4_U+30FC 1
 62
     7
420
 16777215
370
     9
  0
INSERT
  5
CD
330
C0
100
AcDbEntity
  8
_U+30EC_U+30A4_U+30E4_U+30FC 1
100
AcDbBlockReference
  2
block 9
 10
0.0
 20
0.0
 30
0.0
  0
ENDBLK
  5
C3
330
C0
100
AcDbEntity
  8
0
100
AcDbBlockEnd
  0
BLOCK
  5
CE
330
CC
100
AcDbEntity
  8
0
100
AcDbBlockBegin
  2
block 9
 70
     0
 10
0.0
 20
0.0
 30
0.0
  3
block 9
  1

  0
SPLINE
  5
D0
330
CC
100
AcDbEntity
  8
_U+30EC_U+30A4_U+30E4_U+30FC 1
370
     0
100
AcDbSpline
210
0.0
220
0.0
230
1.0
 70
    11
 71
     3
 72
    26
 73
    22
 74
     0
 42
0.0000000001
 43
0.0000000001
 12
1.0
 22
0.0
 32
0.0
 13
1.0
 23
0.0
 33
0.0
 40
0.0
 40
0.0
 40
0.0
 40
0.0
 40
1.0
 40
1.0
 40
1.0
 40
2.0
 40
2.0
 40
2.0
 40
3.0
 40
3.0
 40
3.0
 40
4.0
 40
4.0
 40
4.0
 40
5.0
 40
5.0
 40
5.0
 40
6.0
 40
6.0
 40
6.0
 40
7.0
 40
7.0
 40
7.0
 40
7.0
 10
109.0934271645669
 20
-131.1699435435964
 30
0.0
 10
109.0934271645669
 20
-131.1699435435964
 30
0.0
 10
107.9892740615444
 20
-131.1699435435964
 30
0.0
 10
107.9892740615444
 20
-131.1699435435964
 30
0.0
 10
107.9892740615444
 20
-131.1699435435964
 30
0.0
 10
107.9892740615444
 20
-131.4999836910833
 30
0.0
 10
107.9892740615444
 20
-131.4999836910833
 30
0.0
 10
107.9892740615444
 20
-131.4999836910833
 30
0.0
 10
107.8411349556786
 20
-131.4999836910833
 30
0.0
 10
107.8411349556786
 20
-131.4999836910833
 30
0.0
 10
107.826321045092
 20
-131.1678764863053
 30
0.0
 10
107.6633680286397
 20
-131.1213676972544
 30
0.0
 10
107.5489908585294
 20
-131.0917398760812
 30
0.0
 10
107.5489908585294
 20
-131.0917398760812
 30
0.0
 10
107.5489908585294
 20
-130.9456678275066
 30
0.0
 10
107.5489908585294
 20
-130.9456678275066
 30
0.0
 10
107.5489908585294
 20
-130.9456678275066
 30
0.0
 10
109.0934271645669
 20
-130.9456678275066
 30
0.0
 10
109.0934271645669
 20
-130.9456678275066
 30
0.0
 10
109.0934271645669
 20
-130.9456678275066
 30
0.0
 10
109.0934271645669
 20
-131.1699435435964
 30
0.0
 10
109.0934271645669
 20
-131.1699435435964
 30
0.0
  0
HATCH
  5
D1
330
CC
100
AcDbEntity
  8
_U+30EC_U+30A4_U+30E4_U+30FC 1
 62
     7
420
 16777215
100
AcDbHatch
 10
0.0
 20
0.0
 30
0.0
210
0.0
220
0.0
230
1.0
  2
SOLID
 70
     1
 71
     0
 91
        1
 92
        1
 93
        1
 72
     4
 94
        3
 73
     0
 74
     1
 95
       26
 96
       22
 40
0.0
 40
0.0
 40
0.0
 40
0.0
 40
1.0
 40
1.0
 40
1.0
 40
2.0
 40
2.0
 40
2.0
 40
3.0
 40
3.0
 40
3.0
 40
4.0
 40
4.0
 40
4.0
 40
5.0
 40
5.0
 40
5.0
 40
6.0
 40
6.0
 40
6.0
 40
7.0
 40
7.0
 40
7.0
 40
7.0
 10
109.0934271645669
 20
-131.1699435435964
 10
109.0934271645669
 20
-131.1699435435964
 10
107.9892740615444
 20
-131.1699435435964
 10
107.9892740615444
 20
-131.1699435435964
 10
107.9892740615444
 20
-131.1699435435964
 10
107.9892740615444
 20
-131.4999836910833
 10
107.9892740615444
 20
-131.4999836910833
 10
107.9892740615444
 20
-131.4999836910833
 10
107.8411349556786
 20
-131.4999836910833
 10
107.8411349556786
 20
-131.4999836910833
 10
107.826321045092
 20
-131.1678764863053
 10
107.6633680286397
 20
-131.1213676972544
 10
107.5489908585294
 20
-131.0917398760812
 10
107.5489908585294
 20
-131.0917398760812
 10
107.5489908585294
 20
-130.9456678275066
 10
107.5489908585294
 20
-130.9456678275066
 10
107.5489908585294
 20
-130.9456678275066
 10
109.0934271645669
 20
-130.9456678275066
 10
109.0934271645669
 20
-130.9456678275066
 10
109.0934271645669
 20
-130.9456678275066
 10
109.0934271645669
 20
-131.1699435435964
 10
109.0934271645669
 20
-131.1699435435964
 97
        0
 97
        0
 75
     2
 76
     1
 98
        0
  0
SPLINE
  5
D2
330
CC
100
AcDbEntity
  8
_U+30EC_U+30A4_U+30E4_U+30FC 1
370
     0
100
AcDbSpline
210
0.0
220
0.0
230
1.0
 70
    11
 71
     3
 72
    44
 73
    40
 74
     0
 42
0.0000000001
 43
0.0000000001
 12
1.0
 22
0.0
 32
0.0
 13
1.0
 23
0.0
 33
0.0
 40
0.0
 40
0.0
 40
0.0
 40
0.0
 40
1.0
 40
1.0
 40
1.0
 40
2.0
 40
2.0
 40
2.0
 40
3.0
 40
3.0
 40
3.0
 40
4.0
 40
4.0
 40
4.0
 40
5.0
 40
5.0
 40
5.0
 40
6.0
 40
6.0
 40
6.0
 40
7.0
 40
7.0
 40
7.0
 40
8.0
 40
8.0
 40
8.0
 40
9.0
 40
9.0
 40
9.0
 40
10.0
 40
10.0
 40
10.0
 40
11.0
 40
11.0
 40
11.0
 40
12.0
 40
12.0
 40
12.0
 40
13.0
 40
13.0
 40
13.0
 40
13.0
 10
108.5115505371082
 20
-129.8515055013913
 30
0.0
 10
108.6703694389782
 20
-130.0692355360591
 30
0.0
 10
108.7444389919111
 20
-130.1622531141608
 30
0.0
 10
108.888099473646
 20
-130.2111734700514
 30
0.0
 10
108.888099473646
 20
-130.2111734700514
 30
0.0
 10
108.888099473646
 20
-129.4325818903849
 30
0.0
 10
108.888099473646
 20
-129.4325818903849
 30
0.0
 10
108.888099473646
 20
-129.4325818903849
 30
0.0
 10
109.0934271645669
 20
-129.4325818903849
 30
0.0
 10
109.0934271645669
 20
-129.4325818903849
 30
0.0
 10
109.0934271645669
 20
-129.4325818903849
 30
0.0
 10
109.0934271645669
 20
-130.4605983831835
 30
0.0
 10
109.0934271645669
 20
-130.4605983831835
 30
0.0
 10
108.735826253198
 20
-130.4289035047192
 30
0.0
 10
108.6576225856828
 20
-130.3634466904994
 30
0.0
 10
108.3592773166602
 20
-129.9782850152485
 30
0.0
 10
108.1604953071613
 20
-129.7223144206944
 30
0.0
 10
108.0926269261018
 20
-129.6568576064747
 30
0.0
 10
107.9551676162404
 20
-129.6568576064747
 30
0.0
 10
107.8366563315478
 20
-129.6568576064747
 30
0.0
 10
107.7057427031083
 20
-129.7288601021164
 30
0.0
 10
107.7057427031083
 20
-129.9255750543242
 30
0.0
 10
107.7057427031083
 20
-130.1856797634605
 30
0.0
 10
107.9362195910715
 20
-130.1942925021737
 30
0.0
 10
108.052663818473
 20
-130.198426616756
 30
0.0
 10
108.052663818473
 20
-130.198426616756
 30
0.0
 10
108.052663818473
 20
-130.4227023328457
 30
0.0
 10
108.052663818473
 20
-130.4227023328457
 30
0.0
 10
107.9255397950672
 20
-130.4140895941326
 30
0.0
 10
107.8135741917966
 20
-130.4034097981283
 30
0.0
 10
107.695062907104
 20
-130.323139073322
 30
0.0
 10
107.5341769479429
 20
-130.2132405273425
 30
0.0
 10
107.5004150121874
 20
-130.0268608615905
 30
0.0
 10
107.5004150121874
 20
-129.9107611437376
 30
0.0
 10
107.5004150121874
 20
-129.633430957175
 30
0.0
 10
107.6843831110997
 20
-129.426036208963
 30
0.0
 10
107.9572346735315
 20
-129.426036208963
 30
0.0
 10
108.1859890137521
 20
-129.426036208963
 30
0.0
 10
108.2852077637273
 20
-129.5424804363644
 30
0.0
 10
108.5115505371082
 20
-129.8515055013913
 30
0.0
  0
HATCH
  5
D3
330
CC
100
AcDbEntity
  8
_U+30EC_U+30A4_U+30E4_U+30FC 1
 62
     7
420
 16777215
100
AcDbHatch
 10
0.0
 20
0.0
 30
0.0
210
0.0
220
0.0
230
1.0
  2
SOLID
 70
     1
 71
     0
 91
        1
 92
        1
 93
        1
 72
     4
 94
        3
 73
     0
 74
     1
 95
       44
 96
       40
 40
0.0
 40
0.0
 40
0.0
 40
0.0
 40
1.0
 40
1.0
 40
1.0
 40
2.0
 40
2.0
 40
2.0
 40
3.0
 40
3.0
 40
3.0
 40
4.0
 40
4.0
 40
4.0
 40
5.0
 40
5.0
 40
5.0
 40
6.0
 40
6.0
 40
6.0
 40
7.0
 40
7.0
 40
7.0
 40
8.0
 40
8.0
 40
8.0
 40
9.0
 40
9.0
 40
9.0
 40
10.0
 40
10.0
 40
10.0
 40
11.0
 40
11.0
 40
11.0
 40
12.0
 40
12.0
 40
12.0
 40
13.0
 40
13.0
 40
13.0
 40
13.0
 10
108.5115505371082
 20
-129.8515055013913
 10
108.6703694389782
 20
-130.0692355360591
 10
108.7444389919111
 20
-130.1622531141608
 10
108.888099473646
 20
-130.2111734700514
 10
108.888099473646
 20
-130.2111734700514
 10
108.888099473646
 20
-129.4325818903849
 10
108.888099473646
 20
-129.4325818903849
 10
108.888099473646
 20
-129.4325818903849
 10
109.0934271645669
 20
-129.4325818903849
 10
109.0934271645669
 20
-129.4325818903849
 10
109.0934271645669
 20
-129.4325818903849
 10
109.0934271645669
 20
-130.4605983831835
 10
109.0934271645669
 20
-130.4605983831835
 10
108.735826253198
 20
-130.4289035047192
 10
108.6576225856828
 20
-130.3634466904994
 10
108.3592773166602
 20
-129.9782850152485
 10
108.1604953071613
 20
-129.7223144206944
 10
108.0926269261018
 20
-129.6568576064747
 10
107.9551676162404
 20
-129.6568576064747
 10
107.8366563315478
 20
-129.6568576064747
 10
107.7057427031083
 20
-129.7288601021164
 10
107.7057427031083
 20
-129.9255750543242
 10
107.7057427031083
 20
-130.1856797634605
 10
107.9362195910715
 20
-130.1942925021737
 10
108.052663818473
 20
-130.198426616756
 10
108.052663818473
 20
-130.198426616756
 10
108.052663818473
 20
-130.4227023328457
 10
108.052663818473
 20
-130.4227023328457
 10
107.9255397950672
 20
-130.4140895941326
 10
107.8135741917966
 20
-130.4034097981283
 10
107.695062907104
 20
-130.323139073322
 10
107.5341769479429
 20
-130.2132405273425
 10
107.5004150121874
 20
-130.0268608615905
 10
107.5004150121874
 20
-129.9107611437376
 10
107.5004150121874
 20
-129.633430957175
 10
107.6843831110997
 20
-129.426036208963
 10
107.9572346735315
 20
-129.426036208963
 10
108.1859890137521
 20
-129.426036208963
 10
108.2852077637273
 20
-129.5424804363644
 10
108.5115505371082
 20
-129.8515055013913
 97
        0
 97
        0
 75
     2
 76
     1
 98
        0
  0
POLYLINE
  5
D4
330
CC
100
AcDbEntity
  8
_U+30EC_U+30A4_U+30E4_U+30FC 1
370
     0
100
AcDb2dPolyline
 66
     1
 10
0.0
 20
0.0
 30
0.0
  0
VERTEX
  5
D5
330
D4
100
AcDbEntity
  8
_U+30EC_U+30A4_U+30E4_U+30FC 1
370
     0
100
AcDbVertex
100
AcDb2dVertex
 10
109.0934271645669
 20
-129.2076171551981
 30
0.0
  0
VERTEX
  5
D6
330
D4
100
AcDbEntity
  8
_U+30EC_U+30A4_U+30E4_U+30FC 1
370
     0
100
AcDbVertex
100
AcDb2dVertex
 10
108.8415906845952
 20
-129.2076171551981
 30
0.0
  0
VERTEX
  5
D7
330
D4
100
AcDbEntity
  8
_U+30EC_U+30A4_U+30E4_U+30FC 1
370
     0
100
AcDbVertex
100
AcDb2dVertex
 10
108.8415906845952
 20
-128.9557806752264
 30
0.0
  0
VERTEX
  5
D8
330
D4
100
AcDbEntity
  8
_U+30EC_U+30A4_U+30E4_U+30FC 1
370
     0
100
AcDbVertex
100
AcDb2dVertex
 10
109.0934271645669
 20
-128.9557806752264
 30
0.0
  0
VERTEX
  5
D9
330
D4
100
AcDbEntity
  8
_U+30EC_U+30A4_U+30E4_U+30FC 1
370
     0
100
AcDbVertex
100
AcDb2dVertex
 10
109.0934271645669
 20
-129.2076171551981
 30
0.0
  0
SEQEND
  5
DA
330
D4
100
AcDbEntity
  8
_U+30EC_U+30A4_U+30E4_U+30FC 1
370
     0
  0
HATCH
  5
DB
330
CC
100
AcDbEntity
  8
_U+30EC_U+30A4_U+30E4_U+30FC 1
 62
     7
420
 16777215
100
AcDbHatch
 10
0.0
 20
0.0
 30
0.0
210
0.0
220
0.0
230
1.0
  2
SOLID
 70
     1
 71
     0
 91
        1
 92
        1
 93
        4
 72
     1
 10
109.0934271645669
 20
-129.2076171551981
 11
108.8415906845952
 21
-129.2076171551981
 72
     1
 10
108.8415906845952
 20
-129.2076171551981
 11
108.8415906845952
 21
-128.9557806752264
 72
     1
 10
108.8415906845952
 20
-128.9557806752264
 11
109.0934271645669
 21
-128.9557806752264
 72
     1
 10
109.0934271645669
 20
-128.9557806752264
 11
109.0934271645669
 21
-129.2076171551981
 97
        0
 75
     2
 76
     1
 98
        0
  0
SPLINE
  5
DC
330
CC
100
AcDbEntity
  8
_U+30EC_U+30A4_U+30E4_U+30FC 1
370
     0
100
AcDbSpline
210
0.0
220
0.0
230
1.0
 70
    11
 71
     3
 72
    26
 73
    22
 74
     0
 42
0.0000000001
 43
0.0000000001
 12
1.0
 22
0.0
 32
0.0
 13
1.0
 23
0.0
 33
0.0
 40
0.0
 40
0.0
 40
0.0
 40
0.0
 40
1.0
 40
1.0
 40
1.0
 40
2.0
 40
2.0
 40
2.0
 40
3.0
 40
3.0
 40
3.0
 40
4.0
 40
4.0
 40
4.0
 40
5.0
 40
5.0
 40
5.0
 40
6.0
 40
6.0
 40
6.0
 40
7.0
 40
7.0
 40
7.0
 40
7.0
 10
109.0934271645669
 20
-128.3084472335479
 30
0.0
 10
109.0934271645669
 20
-128.3084472335479
 30
0.0
 10
109.0934271645669
 20
-128.5454698029331
 30
0.0
 10
109.0934271645669
 20
-128.5454698029331
 30
0.0
 10
108.78440209954
 20
-128.5199760963422
 30
0.0
 10
108.2662597385584
 20
-128.3273952587168
 30
0.0
 10
107.7605197213238
 20
-127.9212185010058
 30
0.0
 10
107.7605197213238
 20
-127.9212185010058
 30
0.0
 10
107.7605197213238
 20
-128.7590657230186
 30
0.0
 10
107.7605197213238
 20
-128.7590657230186
 30
0.0
 10
107.7605197213238
 20
-128.7590657230186
 30
0.0
 10
107.5489908585294
 20
-128.7590657230186
 30
0.0
 10
107.5489908585294
 20
-128.7590657230186
 30
0.0
 10
107.5489908585294
 20
-128.7590657230186
 30
0.0
 10
107.5489908585294
 20
-127.6841959316206
 30
0.0
 10
107.5489908585294
 20
-127.6841959316206
 30
0.0
 10
107.5489908585294
 20
-127.6841959316206
 30
0.0
 10
107.7605197213238
 20
-127.6841959316206
 30
0.0
 10
107.7605197213238
 20
-127.6841959316206
 30
0.0
 10
108.0505967611818
 20
-128.0080349072341
 30
0.0
 10
108.6428086750962
 20
-128.2746852977924
 30
0.0
 10
109.0934271645669
 20
-128.3084472335479
 30
0.0
  0
HATCH
  5
DD
330
CC
100
AcDbEntity
  8
_U+30EC_U+30A4_U+30E4_U+30FC 1
 62
     7
420
 16777215
100
AcDbHatch
 10
0.0
 20
0.0
 30
0.0
210
0.0
220
0.0
230
1.0
  2
SOLID
 70
     1
 71
     0
 91
        1
 92
        1
 93
        1
 72
     4
 94
        3
 73
     0
 74
     1
 95
       26
 96
       22
 40
0.0
 40
0.0
 40
0.0
 40
0.0
 40
1.0
 40
1.0
 40
1.0
 40
2.0
 40
2.0
 40
2.0
 40
3.0
 40
3.0
 40
3.0
 40
4.0
 40
4.0
 40
4.0
 40
5.0
 40
5.0
 40
5.0
 40
6.0
 40
6.0
 40
6.0
 40
7.0
 40
7.0
 40
7.0
 40
7.0
 10
109.0934271645669
 20
-128.3084472335479
 10
109.0934271645669
 20
-128.3084472335479
 10
109.0934271645669
 20
-128.5454698029331
 10
109.0934271645669
 20
-128.5454698029331
 10
108.78440209954
 20
-128.5199760963422
 10
108.2662597385584
 20
-128.3273952587168
 10
107.7605197213238
 20
-127.9212185010058
 10
107.7605197213238
 20
-127.9212185010058
 10
107.7605197213238
 20
-128.7590657230186
 10
107.7605197213238
 20
-128.7590657230186
 10
107.7605197213238
 20
-128.7590657230186
 10
107.5489908585294
 20
-128.7590657230186
 10
107.5489908585294
 20
-128.7590657230186
 10
107.5489908585294
 20
-128.7590657230186
 10
107.5489908585294
 20
-127.6841959316206
 10
107.5489908585294
 20
-127.6841959316206
 10
107.5489908585294
 20
-127.6841959316206
 10
107.7605197213238
 20
-127.6841959316206
 10
107.7605197213238
 20
-127.6841959316206
 10
108.0505967611818
 20
-128.0080349072341
 10
108.6428086750962
 20
-128.2746852977924
 10
109.0934271645669
 20
-128.3084472335479
 97
        0
 97
        0
 75
     2
 76
     1
 98
        0
  0
ENDBLK
  5
CF
330
CC
100
AcDbEntity
  8
0
100
AcDbBlockEnd
  0
ENDSEC
  0
SECTION
  2
ENTITIES
  0
POLYLINE
  5
41
330
1F
100
AcDbEntity
  8
_U+30EC_U+30A4_U+30E4_U+30FC 1
370
     0
100
AcDb2dPolyline
 66
     1
 10
0.0
 20
0.0
 30
0.0
  0
VERTEX
  5
42
330
41
100
AcDbEntity
  8
_U+30EC_U+30A4_U+30E4_U+30FC 1
370
     0
100
AcDbVertex
100
AcDb2dVertex
 10
70.77706291654891
 20
-123.3196105247256
 30
0.0
  0
VERTEX
  5
43
330
41
100
AcDbEntity
  8
_U+30EC_U+30A4_U+30E4_U+30FC 1
370
     0
100
AcDbVertex
100
AcDb2dVertex
 10
85.74016942300929
 20
-123.3196105247256
 30
0.0
  0
VERTEX
  5
44
330
41
100
AcDbEntity
  8
_U+30EC_U+30A4_U+30E4_U+30FC 1
370
     0
100
AcDbVertex
100
AcDb2dVertex
 10
85.74016942300929
 20
-137.0200530213005
 30
0.0
  0
VERTEX
  5
45
330
41
100
AcDbEntity
  8
_U+30EC_U+30A4_U+30E4_U+30FC 1
370
     0
100
AcDbVertex
100
AcDb2dVertex
 10
93.74000288627107
 20
-137.0200530213005
 30
0.0
  0
VERTEX
  5
46
330
41
100
AcDbEntity
  8
_U+30EC_U+30A4_U+30E4_U+30FC 1
370
     0
100
AcDbVertex
100
AcDb2dVertex
 10
93.74000288627107
 20
-136.0196105215506
 30
0.0
  0
VERTEX
  5
47
330
41
100
AcDbEntity
  8
_U+30EC_U+30A4_U+30E4_U+30FC 1
370
     0
100
AcDbVertex
100
AcDb2dVertex
 10
86.64035028962051
 20
-136.0196105215506
 30
0.0
  0
VERTEX
  5
48
330
41
100
AcDbEntity
  8
_U+30EC_U+30A4_U+30E4_U+30FC 1
370
     0
100
AcDbVertex
100
AcDb2dVertex
 10
86.64035028962051
 20
-123.3196105247256
 30
0.0
  0
VERTEX
  5
49
330
41
100
AcDbEntity
  8
_U+30EC_U+30A4_U+30E4_U+30FC 1
370
     0
100
AcDbVertex
100
AcDb2dVertex
 10
105.7399856356816
 20
-123.3196105247256
 30
0.0
  0
VERTEX
  5
4A
330
41
100
AcDbEntity
  8
_U+30EC_U+30A4_U+30E4_U+30FC 1
370
     0
100
AcDbVertex
100
AcDb2dVertex
 10
105.7399856356816
 20
-122.3198383027534
 30
0.0
  0
VERTEX
  5
4B
330
41
100
AcDbEntity
  8
_U+30EC_U+30A4_U+30E4_U+30FC 1
370
     0
100
AcDbVertex
100
AcDb2dVertex
 10
70.77706291654891
 20
-122.3198383027534
 30
0.0
  0
VERTEX
  5
4C
330
41
100
AcDbEntity
  8
_U+30EC_U+30A4_U+30E4_U+30FC 1
370
     0
100
AcDbVertex
100
AcDb2dVertex
 10
70.77706291654891
 20
-123.3196105247256
 30
0.0
  0
SEQEND
  5
4E
330
41
100
AcDbEntity
  8
_U+30EC_U+30A4_U+30E4_U+30FC 1
370
     0
  0
HATCH
  5
4D
330
1F
100
AcDbEntity
  8
_U+30EC_U+30A4_U+30E4_U+30FC 1
 62
   253
420
 11711154
100
AcDbHatch
 10
0.0
 20
0.0
 30
0.0
210
0.0
220
0.0
230
1.0
  2
SOLID
 70
     1
 71
     0
 91
        1
 92
        1
 93
       10
 72
     1
 10
70.77706291654891
 20
-123.3196105247256
 11
85.74016942300929
 21
-123.3196105247256
 72
     1
 10
85.74016942300929
 20
-123.3196105247256
 11
85.74016942300929
 21
-137.0200530213005
 72
     1
 10
85.74016942300929
 20
-137.0200530213005
 11
93.74000288627107
 21
-137.0200530213005
 72
     1
 10
93.74000288627107
 20
-137.0200530213005
 11
93.74000288627107
 21
-136.0196105215506
 72
     1
 10
93.74000288627107
 20
-136.0196105215506
 11
86.64035028962051
 21
-136.0196105215506
 72
     1
 10
86.64035028962051
 20
-136.0196105215506
 11
86.64035028962051
 21
-123.3196105247256
 72
     1
 10
86.64035028962051
 20
-123.3196105247256
 11
105.7399856356816
 21
-123.3196105247256
 72
     1
 10
105.7399856356816
 20
-123.3196105247256
 11
105.7399856356816
 21
-122.3198383027534
 72
     1
 10
105.7399856356816
 20
-122.3198383027534
 11
70.77706291654891
 21
-122.3198383027534
 72
     1
 10
70.77706291654891
 20
-122.3198383027534
 11
70.77706291654891
 21
-123.3196105247256
 97
        0
 75
     2
 76
     1
 98
        0
  0
POLYLINE
  5
4F
330
1F
100
AcDbEntity
  8
_U+30EC_U+30A4_U+30E4_U+30FC 1
 62
     7
420
 16777215
370
    25
100
AcDb2dPolyline
 66
     1
 10
0.0
 20
0.0
 30
0.0
  0
VERTEX
  5
50
330
4F
100
AcDbEntity
  8
_U+30EC_U+30A4_U+30E4_U+30FC 1
 62
     7
420
 16777215
370
    25
100
AcDbVertex
100
AcDb2dVertex
 10
93.74000288627107
 20
-137.0200530213005
 30
0.0
  0
VERTEX
  5
51
330
4F
100
AcDbEntity
  8
_U+30EC_U+30A4_U+30E4_U+30FC 1
 62
     7
420
 16777215
370
    25
100
AcDbVertex
100
AcDb2dVertex
 10
85.74016942300929
 20
-137.0200530213005
 30
0.0
  0
VERTEX
  5
52
330
4F
100
AcDbEntity
  8
_U+30EC_U+30A4_U+30E4_U+30FC 1
 62
     7
420
 16777215
370
    25
100
AcDbVertex
100
AcDb2dVertex
 10
85.74016942300929
 20
-123.3196105247256
 30
0.0
  0
VERTEX
  5
53
330
4F
100
AcDbEntity
  8
_U+30EC_U+30A4_U+30E4_U+30FC 1
 62
     7
420
 16777215
370
    25
100
AcDbVertex
100
AcDb2dVertex
 10
70.74019763971165
 20
-123.3196105247256
 30
0.0
  0
VERTEX
  5
54
330
4F
100
AcDbEntity
  8
_U+30EC_U+30A4_U+30E4_U+30FC 1
 62
     7
420
 16777215
370
    25
100
AcDbVertex
100
AcDb2dVertex
 10
70.71437430703712
 20
-123.3196105247256
 30
0.0
  0
VERTEX
  5
55
330
4F
100
AcDbEntity
  8
_U+30EC_U+30A4_U+30E4_U+30FC 1
 62
     7
420
 16777215
370
    25
100
AcDbVertex
100
AcDb2dVertex
 10
70.71437430703712
 20
-122.3198383027534
 30
0.0
  0
VERTEX
  5
56
330
4F
100
AcDbEntity
  8
_U+30EC_U+30A4_U+30E4_U+30FC 1
 62
     7
420
 16777215
370
    25
100
AcDbVertex
100
AcDb2dVertex
 10
70.73988013971974
 20
-122.3198383027534
 30
0.0
  0
VERTEX
  5
57
330
4F
100
AcDbEntity
  8
_U+30EC_U+30A4_U+30E4_U+30FC 1
 62
     7
420
 16777215
370
    25
100
AcDbVertex
100
AcDb2dVertex
 10
105.7399856356816
 20
-122.3198383027534
 30
0.0
  0
VERTEX
  5
58
330
4F
100
AcDbEntity
  8
_U+30EC_U+30A4_U+30E4_U+30FC 1
 62
     7
420
 16777215
370
    25
100
AcDbVertex
100
AcDb2dVertex
 10
105.7399856356816
 20
-123.3196105247256
 30
0.0
  0
VERTEX
  5
59
330
4F
100
AcDbEntity
  8
_U+30EC_U+30A4_U+30E4_U+30FC 1
 62
     7
420
 16777215
370
    25
100
AcDbVertex
100
AcDb2dVertex
 10
86.64035028962051
 20
-123.3196105247256
 30
0.0
  0
VERTEX
  5
5A
330
4F
100
AcDbEntity
  8
_U+30EC_U+30A4_U+30E4_U+30FC 1
 62
     7
420
 16777215
370
    25
100
AcDbVertex
100
AcDb2dVertex
 10
86.64035028962051
 20
-136.0196105215506
 30
0.0
  0
VERTEX
  5
5B
330
4F
100
AcDbEntity
  8
_U+30EC_U+30A4_U+30E4_U+30FC 1
 62
     7
420
 16777215
370
    25
100
AcDbVertex
100
AcDb2dVertex
 10
93.74000288627107
 20
-136.0196105215506
 30
0.0
  0
VERTEX
  5
5C
330
4F
100
AcDbEntity
  8
_U+30EC_U+30A4_U+30E4_U+30FC 1
 62
     7
420
 16777215
370
    25
100
AcDbVertex
100
AcDb2dVertex
 10
93.74000288627107
 20
-137.0200530213005
 30
0.0
  0
SEQEND
  5
5D
330
4F
100
AcDbEntity
  8
_U+30EC_U+30A4_U+30E4_U+30FC 1
 62
     7
420
 16777215
370
    25
  0
SPLINE
  5
5E
330
1F
100
AcDbEntity
  8
_U+30EC_U+30A4_U+30E4_U+30FC 1
 62
     7
420
 16777215
370
     9
100
AcDbSpline
210
0.0
220
0.0
230
1.0
 70
    11
 71
     3
 72
    17
 73
    13
 74
     0
 42
0.0000000001
 43
0.0000000001
 12
1.0
 22
0.0
 32
0.0
 13
1.0
 23
0.0
 33
0.0
 40
0.0
 40
0.0
 40
0.0
 40
0.0
 40
1.0
 40
1.0
 40
1.0
 40
2.0
 40
2.0
 40
2.0
 40
3.0
 40
3.0
 40
3.0
 40
4.0
 40
4.0
 40
4.0
 40
4.0
 10
70.81392819338618
 20
-118.3194088593092
 30
0.0
 10
70.81392819338618
 20
-118.2642696926561
 30
0.0
 10
70.7691606945283
 20
-118.2195021926672
 30
0.0
 10
70.71402152926835
 20
-118.2195021926672
 30
0.0
 10
70.6589194267796
 20
-118.2195021926672
 30
0.0
 10
70.6141166490132
 20
-118.2642696926561
 30
0.0
 10
70.6141166490132
 20
-118.3194088593092
 30
0.0
 10
70.6141166490132
 20
-118.3745127481841
 30
0.0
 10
70.6589194267796
 20
-118.4193155259508
 30
0.0
 10
70.71402152926835
 20
-118.4193155259508
 30
0.0
 10
70.7691606945283
 20
-118.4193155259508
 30
0.0
 10
70.81392819338618
 20
-118.3745127481841
 30
0.0
 10
70.81392819338618
 20
-118.3194088593092
 30
0.0
  0
SPLINE
  5
5F
330
1F
100
AcDbEntity
  8
_U+30EC_U+30A4_U+30E4_U+30FC 1
 62
     7
420
 16777215
370
     9
100
AcDbSpline
210
0.0
220
0.0
230
1.0
 70
    11
 71
     3
 72
    17
 73
    13
 74
     0
 42
0.0000000001
 43
0.0000000001
 12
1.0
 22
0.0
 32
0.0
 13
1.0
 23
0.0
 33
0.0
 40
0.0
 40
0.0
 40
0.0
 40
0.0
 40
1.0
 40
1.0
 40
1.0
 40
2.0
 40
2.0
 40
2.0
 40
3.0
 40
3.0
 40
3.0
 40
4.0
 40
4.0
 40
4.0
 40
4.0
 10
105.8398922997994
 20
-118.3194088593092
 30
0.0
 10
105.8398922997994
 20
-118.2642696926561
 30
0.0
 10
105.7957950787022
 20
-118.2195021926672
 30
0.0
 10
105.7399856356816
 20
-118.2195021926672
 30
0.0
 10
105.6848464704216
 20
-118.2195021926672
 30
0.0
 10
105.6400436937868
 20
-118.2642696926561
 30
0.0
 10
105.6400436937868
 20
-118.3194088593092
 30
0.0
 10
105.6400436937868
 20
-118.3745127481841
 30
0.0
 10
105.6848464704216
 20
-118.4193155259508
 30
0.0
 10
105.7399856356816
 20
-118.4193155259508
 30
0.0
 10
105.7957950787022
 20
-118.4193155259508
 30
0.0
 10
105.8398922997994
 20
-118.3745127481841
 30
0.0
 10
105.8398922997994
 20
-118.3194088593092
 30
0.0
  0
SPLINE
  5
60
330
1F
100
AcDbEntity
  8
_U+30EC_U+30A4_U+30E4_U+30FC 1
 62
     7
420
 16777215
370
     9
100
AcDbSpline
210
0.0
220
0.0
230
1.0
 70
    11
 71
     3
 72
    17
 73
    13
 74
     0
 42
0.0000000001
 43
0.0000000001
 12
1.0
 22
0.0
 32
0.0
 13
1.0
 23
0.0
 33
0.0
 40
0.0
 40
0.0
 40
0.0
 40
0.0
 40
1.0
 40
1.0
 40
1.0
 40
2.0
 40
2.0
 40
2.0
 40
3.0
 40
3.0
 40
3.0
 40
4.0
 40
4.0
 40
4.0
 40
4.0
 10
109.8403216421844
 20
-123.3196105247256
 30
0.0
 10
109.8403216421844
 20
-123.2644713580729
 30
0.0
 10
109.7955188655496
 20
-123.219703858084
 30
0.0
 10
109.7404149780665
 20
-123.219703858084
 30
0.0
 10
109.6852758128066
 20
-123.219703858084
 30
0.0
 10
109.6405110837008
 20
-123.2644713580729
 30
0.0
 10
109.6405110837008
 20
-123.3196105247256
 30
0.0
 10
109.6405110837008
 20
-123.3747144136009
 30
0.0
 10
109.6852758128066
 20
-123.4195171913673
 30
0.0
 10
109.7404149780665
 20
-123.4195171913673
 30
0.0
 10
109.7955188655496
 20
-123.4195171913673
 30
0.0
 10
109.8403216421844
 20
-123.3747144136009
 30
0.0
 10
109.8403216421844
 20
-123.3196105247256
 30
0.0
  0
SPLINE
  5
61
330
1F
100
AcDbEntity
  8
_U+30EC_U+30A4_U+30E4_U+30FC 1
 62
     7
420
 16777215
370
     9
100
AcDbSpline
210
0.0
220
0.0
230
1.0
 70
    11
 71
     3
 72
    17
 73
    13
 74
     0
 42
0.0000000001
 43
0.0000000001
 12
1.0
 22
0.0
 32
0.0
 13
1.0
 23
0.0
 33
0.0
 40
0.0
 40
0.0
 40
0.0
 40
0.0
 40
1.0
 40
1.0
 40
1.0
 40
2.0
 40
2.0
 40
2.0
 40
3.0
 40
3.0
 40
3.0
 40
4.0
 40
4.0
 40
4.0
 40
4.0
 10
109.8403216421844
 20
-122.3198383027534
 30
0.0
 10
109.8403216421844
 20
-122.264028858323
 30
0.0
 10
109.7955188655496
 20
-122.2192260805562
 30
0.0
 10
109.7404149780665
 20
-122.2192260805562
 30
0.0
 10
109.6852758128066
 20
-122.2192260805562
 30
0.0
 10
109.6405110837008
 20
-122.264028858323
 30
0.0
 10
109.6405110837008
 20
-122.3198383027534
 30
0.0
 10
109.6405110837008
 20
-122.3749421916286
 30
0.0
 10
109.6852758128066
 20
-122.419744969395
 30
0.0
 10
109.7404149780665
 20
-122.419744969395
 30
0.0
 10
109.7955188655496
 20
-122.419744969395
 30
0.0
 10
109.8403216421844
 20
-122.3749421916286
 30
0.0
 10
109.8403216421844
 20
-122.3198383027534
 30
0.0
  0
SPLINE
  5
62
330
1F
100
AcDbEntity
  8
_U+30EC_U+30A4_U+30E4_U+30FC 1
 62
     7
420
 16777215
370
     9
100
AcDbSpline
210
0.0
220
0.0
230
1.0
 70
    11
 71
     3
 72
    17
 73
    13
 74
     0
 42
0.0000000001
 43
0.0000000001
 12
1.0
 22
0.0
 32
0.0
 13
1.0
 23
0.0
 33
0.0
 40
0.0
 40
0.0
 40
0.0
 40
0.0
 40
1.0
 40
1.0
 40
1.0
 40
2.0
 40
2.0
 40
2.0
 40
3.0
 40
3.0
 40
3.0
 40
4.0
 40
4.0
 40
4.0
 40
4.0
 10
109.8403216421844
 20
-136.0196105215506
 30
0.0
 10
109.8403216421844
 20
-135.9644713548975
 30
0.0
 10
109.7955188655496
 20
-135.919703854909
 30
0.0
 10
109.7404149780665
 20
-135.919703854909
 30
0.0
 10
109.6852758128066
 20
-135.919703854909
 30
0.0
 10
109.6405110837008
 20
-135.9644713548975
 30
0.0
 10
109.6405110837008
 20
-136.0196105215506
 30
0.0
 10
109.6405110837008
 20
-136.0747144104255
 30
0.0
 10
109.6852758128066
 20
-136.1195171881923
 30
0.0
 10
109.7404149780665
 20
-136.1195171881923
 30
0.0
 10
109.7955188655496
 20
-136.1195171881923
 30
0.0
 10
109.8403216421844
 20
-136.0747144104255
 30
0.0
 10
109.8403216421844
 20
-136.0196105215506
 30
0.0
  0
SPLINE
  5
63
330
1F
100
AcDbEntity
  8
_U+30EC_U+30A4_U+30E4_U+30FC 1
 62
     7
420
 16777215
370
     9
100
AcDbSpline
210
0.0
220
0.0
230
1.0
 70
    11
 71
     3
 72
    17
 73
    13
 74
     0
 42
0.0000000001
 43
0.0000000001
 12
1.0
 22
0.0
 32
0.0
 13
1.0
 23
0.0
 33
0.0
 40
0.0
 40
0.0
 40
0.0
 40
0.0
 40
1.0
 40
1.0
 40
1.0
 40
2.0
 40
2.0
 40
2.0
 40
3.0
 40
3.0
 40
3.0
 40
4.0
 40
4.0
 40
4.0
 40
4.0
 10
85.84039142114028
 20
-141.0198121869674
 30
0.0
 10
85.84039142114028
 20
-140.9647082980919
 30
0.0
 10
85.79562392228239
 20
-140.9199055203258
 30
0.0
 10
85.74016942300929
 20
-140.9199055203258
 30
0.0
 10
85.68502809177059
 20
-140.9199055203258
 30
0.0
 10
85.64026059291271
 20
-140.9647082980919
 30
0.0
 10
85.64026059291271
 20
-141.0198121869674
 30
0.0
 10
85.64026059291271
 20
-141.0749513536198
 30
0.0
 10
85.68502809177059
 20
-141.119718853609
 30
0.0
 10
85.74016942300929
 20
-141.119718853609
 30
0.0
 10
85.79562392228239
 20
-141.119718853609
 30
0.0
 10
85.84039142114028
 20
-141.0749513536198
 30
0.0
 10
85.84039142114028
 20
-141.0198121869674
 30
0.0
  0
SPLINE
  5
64
330
1F
100
AcDbEntity
  8
_U+30EC_U+30A4_U+30E4_U+30FC 1
 62
     7
420
 16777215
370
     9
100
AcDbSpline
210
0.0
220
0.0
230
1.0
 70
    11
 71
     3
 72
    17
 73
    13
 74
     0
 42
0.0000000001
 43
0.0000000001
 12
1.0
 22
0.0
 32
0.0
 13
1.0
 23
0.0
 33
0.0
 40
0.0
 40
0.0
 40
0.0
 40
0.0
 40
1.0
 40
1.0
 40
1.0
 40
2.0
 40
2.0
 40
2.0
 40
3.0
 40
3.0
 40
3.0
 40
4.0
 40
4.0
 40
4.0
 40
4.0
 10
93.8399095503889
 20
-141.0198121869674
 30
0.0
 10
93.8399095503889
 20
-140.9647082980919
 30
0.0
 10
93.79514442099574
 20
-140.9199055203258
 30
0.0
 10
93.74000288627107
 20
-140.9199055203258
 30
0.0
 10
93.684898998788
 20
-140.9199055203258
 30
0.0
 10
93.64009622215323
 20
-140.9647082980919
 30
0.0
 10
93.64009622215323
 20
-141.0198121869674
 30
0.0
 10
93.64009622215323
 20
-141.0749513536198
 30
0.0
 10
93.684898998788
 20
-141.119718853609
 30
0.0
 10
93.74000288627107
 20
-141.119718853609
 30
0.0
 10
93.79514442099574
 20
-141.119718853609
 30
0.0
 10
93.8399095503889
 20
-141.0749513536198
 30
0.0
 10
93.8399095503889
 20
-141.0198121869674
 30
0.0
  0
SPLINE
  5
65
330
1F
100
AcDbEntity
  8
_U+30EC_U+30A4_U+30E4_U+30FC 1
 62
     7
420
 16777215
370
     9
100
AcDbSpline
210
0.0
220
0.0
230
1.0
 70
    11
 71
     3
 72
    17
 73
    13
 74
     0
 42
0.0000000001
 43
0.0000000001
 12
1.0
 22
0.0
 32
0.0
 13
1.0
 23
0.0
 33
0.0
 40
0.0
 40
0.0
 40
0.0
 40
0.0
 40
1.0
 40
1.0
 40
1.0
 40
2.0
 40
2.0
 40
2.0
 40
3.0
 40
3.0
 40
3.0
 40
4.0
 40
4.0
 40
4.0
 40
4.0
 10
70.87284208077205
 20
-141.0198121869674
 30
0.0
 10
70.87284208077205
 20
-140.9647082980919
 30
0.0
 10
70.82807458191417
 20
-140.9199055203258
 30
0.0
 10
70.77293541665422
 20
-140.9199055203258
 30
0.0
 10
70.71783331565389
 20
-140.9199055203258
 30
0.0
 10
70.67303053788717
 20
-140.9647082980919
 30
0.0
 10
70.67303053788717
 20
-141.0198121869674
 30
0.0
 10
70.67303053788717
 20
-141.0749513536198
 30
0.0
 10
70.71783331565389
 20
-141.119718853609
 30
0.0
 10
70.77293541665422
 20
-141.119718853609
 30
0.0
 10
70.82807458191417
 20
-141.119718853609
 30
0.0
 10
70.87284208077205
 20
-141.0749513536198
 30
0.0
 10
70.87284208077205
 20
-141.0198121869674
 30
0.0
  0
INSERT
  5
67
330
1F
100
AcDbEntity
  8
_U+30EC_U+30A4_U+30E4_U+30FC 1
100
AcDbBlockReference
  2
block 2
 10
0.0
 20
0.0
 30
0.0
  0
POLYLINE
  5
80
330
1F
100
AcDbEntity
  8
_U+30EC_U+30A4_U+30E4_U+30FC 1
 62
     7
420
 16777215
370
     9
100
AcDb2dPolyline
 66
     1
 10
0.0
 20
0.0
 30
0.0
  0
VERTEX
  5
81
330
80
100
AcDbEntity
  8
_U+30EC_U+30A4_U+30E4_U+30FC 1
 62
     7
420
 16777215
370
     9
100
AcDbVertex
100
AcDb2dVertex
 10
70.73988013971974
 20
-118.3194088593092
 30
0.0
  0
VERTEX
  5
82
330
80
100
AcDbEntity
  8
_U+30EC_U+30A4_U+30E4_U+30FC 1
 62
     7
420
 16777215
370
     9
100
AcDbVertex
100
AcDb2dVertex
 10
105.7399856356816
 20
-118.3194088593092
 30
0.0
  0
SEQEND
  5
83
330
80
100
AcDbEntity
  8
_U+30EC_U+30A4_U+30E4_U+30FC 1
 62
     7
420
 16777215
370
     9
  0
POLYLINE
  5
84
330
1F
100
AcDbEntity
  8
_U+30EC_U+30A4_U+30E4_U+30FC 1
 62
     7
420
 16777215
370
     9
100
AcDb2dPolyline
 66
     1
 10
0.0
 20
0.0
 30
0.0
  0
VERTEX
  5
85
330
84
100
AcDbEntity
  8
_U+30EC_U+30A4_U+30E4_U+30FC 1
 62
     7
420
 16777215
370
     9
100
AcDbVertex
100
AcDb2dVertex
 10
70.71402152926835
 20
-119.779414970055
 30
0.0
  0
VERTEX
  5
86
330
84
100
AcDbEntity
  8
_U+30EC_U+30A4_U+30E4_U+30FC 1
 62
     7
420
 16777215
370
     9
100
AcDbVertex
100
AcDb2dVertex
 10
70.71402152926835
 20
-117.3196366373366
 30
0.0
  0
SEQEND
  5
87
330
84
100
AcDbEntity
  8
_U+30EC_U+30A4_U+30E4_U+30FC 1
 62
     7
420
 16777215
370
     9
  0
POLYLINE
  5
88
330
1F
100
AcDbEntity
  8
_U+30EC_U+30A4_U+30E4_U+30FC 1
 62
     7
420
 16777215
370
     9
100
AcDb2dPolyline
 66
     1
 10
0.0
 20
0.0
 30
0.0
  0
VERTEX
  5
89
330
88
100
AcDbEntity
  8
_U+30EC_U+30A4_U+30E4_U+30FC 1
 62
     7
420
 16777215
370
     9
100
AcDbVertex
100
AcDb2dVertex
 10
105.7399856356816
 20
-119.779414970055
 30
0.0
  0
VERTEX
  5
8A
330
88
100
AcDbEntity
  8
_U+30EC_U+30A4_U+30E4_U+30FC 1
 62
     7
420
 16777215
370
     9
100
AcDbVertex
100
AcDb2dVertex
 10
105.7399856356816
 20
-117.3196366373366
 30
0.0
  0
SEQEND
  5
8B
330
88
100
AcDbEntity
  8
_U+30EC_U+30A4_U+30E4_U+30FC 1
 62
     7
420
 16777215
370
     9
  0
INSERT
  5
8D
330
1F
100
AcDbEntity
  8
_U+30EC_U+30A4_U+30E4_U+30FC 1
100
AcDbBlockReference
  2
block 4
 10
0.0
 20
0.0
 30
0.0
  0
POLYLINE
  5
94
330
1F
100
AcDbEntity
  8
_U+30EC_U+30A4_U+30E4_U+30FC 1
 62
     7
420
 16777215
370
     9
100
AcDb2dPolyline
 66
     1
 10
0.0
 20
0.0
 30
0.0
  0
VERTEX
  5
95
330
94
100
AcDbEntity
  8
_U+30EC_U+30A4_U+30E4_U+30FC 1
 62
     7
420
 16777215
370
     9
100
AcDbVertex
100
AcDb2dVertex
 10
85.74016942300929
 20
-141.0198121869674
 30
0.0
  0
VERTEX
  5
96
330
94
100
AcDbEntity
  8
_U+30EC_U+30A4_U+30E4_U+30FC 1
 62
     7
420
 16777215
370
     9
100
AcDbVertex
100
AcDb2dVertex
 10
70.74019763971165
 20
-141.0198121869674
 30
0.0
  0
SEQEND
  5
97
330
94
100
AcDbEntity
  8
_U+30EC_U+30A4_U+30E4_U+30FC 1
 62
     7
420
 16777215
370
     9
  0
POLYLINE
  5
98
330
1F
100
AcDbEntity
  8
_U+30EC_U+30A4_U+30E4_U+30FC 1
 62
     7
420
 16777215
370
     9
100
AcDb2dPolyline
 66
     1
 10
0.0
 20
0.0
 30
0.0
  0
VERTEX
  5
99
330
98
100
AcDbEntity
  8
_U+30EC_U+30A4_U+30E4_U+30FC 1
 62
     7
420
 16777215
370
     9
100
AcDbVertex
100
AcDb2dVertex
 10
85.74016942300929
 20
-139.5597707984437
 30
0.0
  0
VERTEX
  5
9A
330
98
100
AcDbEntity
  8
_U+30EC_U+30A4_U+30E4_U+30FC 1
 62
     7
420
 16777215
370
     9
100
AcDbVertex
100
AcDb2dVertex
 10
85.74016942300929
 20
-142.0195844089393
 30
0.0
  0
SEQEND
  5
9B
330
98
100
AcDbEntity
  8
_U+30EC_U+30A4_U+30E4_U+30FC 1
 62
     7
420
 16777215
370
     9
  0
POLYLINE
  5
9C
330
1F
100
AcDbEntity
  8
_U+30EC_U+30A4_U+30E4_U+30FC 1
 62
     7
420
 16777215
370
     9
100
AcDb2dPolyline
 66
     1
 10
0.0
 20
0.0
 30
0.0
  0
VERTEX
  5
9D
330
9C
100
AcDbEntity
  8
_U+30EC_U+30A4_U+30E4_U+30FC 1
 62
     7
420
 16777215
370
     9
100
AcDbVertex
100
AcDb2dVertex
 10
70.77293541665422
 20
-125.8593283018685
 30
0.0
  0
VERTEX
  5
9E
330
9C
100
AcDbEntity
  8
_U+30EC_U+30A4_U+30E4_U+30FC 1
 62
     7
420
 16777215
370
     9
100
AcDbVertex
100
AcDb2dVertex
 10
70.77293541665422
 20
-142.0195844089393
 30
0.0
  0
SEQEND
  5
9F
330
9C
100
AcDbEntity
  8
_U+30EC_U+30A4_U+30E4_U+30FC 1
 62
     7
420
 16777215
370
     9
  0
INSERT
  5
A1
330
1F
100
AcDbEntity
  8
_U+30EC_U+30A4_U+30E4_U+30FC 1
100
AcDbBlockReference
  2
block 5
 10
0.0
 20
0.0
 30
0.0
  0
INSERT
  5
A9
330
1F
100
AcDbEntity
  8
_U+30EC_U+30A4_U+30E4_U+30FC 1
100
AcDbBlockReference
  2
block 6
 10
0.0
 20
0.0
 30
0.0
  0
INSERT
  5
C1
330
1F
100
AcDbEntity
  8
_U+30EC_U+30A4_U+30E4_U+30FC 1
100
AcDbBlockReference
  2
block 8
 10
0.0
 20
0.0
 30
0.0
  0
ENDSEC
  0
SECTION
  2
OBJECTS
  0
DICTIONARY
  5
C
330
0
100
AcDbDictionary
281
     1
  3
ACAD_GROUP
350
D
  3
ACAD_LAYOUT
350
1A
  3
ACAD_MATERIAL
350
3B
  3
ACAD_MLEADERSTYLE
350
DF
  3
ACAD_MLINESTYLE
350
17
  3
ACAD_PLOTSETTINGS
350
19
  3
ACAD_PLOTSTYLENAME
350
E
  3
ACAD_TABLESTYLE
350
DE
  3
ACAD_VISUALSTYLE
350
2A
  0
SUN
  5
3F
330
29
100
AcDbSun
 90
        1
290
     0
 63
     7
421
 16777215
 40
1.0
291
     1
 91
  2455826
 92
 54000000
292
     0
 70
     2
 71
   256
280
     1
  0
DICTIONARY
  5
D
102
{ACAD_REACTORS
330
C
102
}
330
C
100
AcDbDictionary
281
     1
  0
DICTIONARY
  5
1A
102
{ACAD_REACTORS
330
C
102
}
330
C
100
AcDbDictionary
281
     1
  3
Layout1
350
1E
  3
Layout2
350
26
  3
Model
350
22
  0
DICTIONARY
  5
3B
102
{ACAD_REACTORS
330
C
102
}
330
C
100
AcDbDictionary
281
     1
  3
ByBlock
350
3D
  3
ByLayer
350
3C
  3
Global
350
3E
  0
DICTIONARY
  5
DF
102
{ACAD_REACTORS
330
C
102
}
330
C
100
AcDbDictionary
281
     1
  0
DICTIONARY
  5
17
102
{ACAD_REACTORS
330
C
102
}
330
C
100
AcDbDictionary
281
     1
  3
Standard
350
18
  0
DICTIONARY
  5
19
102
{ACAD_REACTORS
330
C
102
}
330
C
100
AcDbDictionary
281
     1
  0
ACDBDICTIONARYWDFLT
  5
E
102
{ACAD_REACTORS
330
C
102
}
330
C
100
AcDbDictionary
281
     1
  3
Normal
350
F
100
AcDbDictionaryWithDefault
340
F
  0
DICTIONARY
  5
DE
102
{ACAD_REACTORS
330
C
102
}
330
C
100
AcDbDictionary
281
     1
  0
DICTIONARY
  5
2A
102
{ACAD_REACTORS
330
C
102
}
330
C
100
AcDbDictionary
281
     1
  3
2dWireframe
350
2F
  3
3D Hidden
350
31
  3
3dWireframe
350
30
  3
Basic
350
32
  3
Brighten
350
36
  3
ColorChange
350
3A
  3
Conceptual
350
34
  3
Dim
350
35
  3
Facepattern
350
39
  3
Flat
350
2B
  3
FlatWithEdges
350
2C
  3
Gouraud
350
2D
  3
GouraudWithEdges
350
2E
  3
Linepattern
350
38
  3
Realistic
350
33
  3
Thicken
350
37
  0
LAYOUT
  5
1E
102
{ACAD_REACTORS
330
1A
102
}
330
1A
100
AcDbPlotSettings
  1

  2
none_device
  4

  6

 40
0.0
 41
0.0
 42
0.0
 43
0.0
 44
0.0
 45
0.0
 46
0.0
 47
0.0
 48
0.0
 49
0.0
140
0.0
141
0.0
142
1.0
143
1.0
 70
   688
 72
     0
 73
     0
 74
     5
  7

 75
    16
 76
     0
 77
     2
 78
   300
147
1.0
148
0.0
149
0.0
100
AcDbLayout
  1
Layout1
 70
     1
 71
     1
 10
0.0
 20
0.0
 11
12.0
 21
9.0
 12
0.0
 22
0.0
 32
0.0
 14
1.000000000000000E+20
 24
1.000000000000000E+20
 34
1.000000000000000E+20
 15
-1.000000000000000E+20
 25
-1.000000000000000E+20
 35
-1.000000000000000E+20
146
0.0
 13
0.0
 23
0.0
 33
0.0
 16
1.0
 26
0.0
 36
0.0
 17
0.0
 27
1.0
 37
0.0
 76
     0
330
1B
  0
LAYOUT
  5
26
102
{ACAD_REACTORS
330
1A
102
}
330
1A
100
AcDbPlotSettings
  1

  2
none_device
  4

  6

 40
0.0
 41
0.0
 42
0.0
 43
0.0
 44
0.0
 45
0.0
 46
0.0
 47
0.0
 48
0.0
 49
0.0
140
0.0
141
0.0
142
1.0
143
1.0
 70
   688
 72
     0
 73
     0
 74
     5
  7

 75
    16
 76
     0
 77
     2
 78
   300
147
1.0
148
0.0
149
0.0
100
AcDbLayout
  1
Layout2
 70
     1
 71
     2
 10
0.0
 20
0.0
 11
0.0
 21
0.0
 12
0.0
 22
0.0
 32
0.0
 14
0.0
 24
0.0
 34
0.0
 15
0.0
 25
0.0
 35
0.0
146
0.0
 13
0.0
 23
0.0
 33
0.0
 16
1.0
 26
0.0
 36
0.0
 17
0.0
 27
1.0
 37
0.0
 76
     0
330
23
  0
LAYOUT
  5
22
102
{ACAD_REACTORS
330
1A
102
}
330
1A
100
AcDbPlotSettings
  1

  2
none_device
  4

  6

 40
0.0
 41
0.0
 42
0.0
 43
0.0
 44
0.0
 45
0.0
 46
0.0
 47
0.0
 48
0.0
 49
0.0
140
0.0
141
0.0
142
1.0
143
1.0
 70
  1712
 72
     0
 73
     0
 74
     0
  7

 75
     0
 76
     0
 77
     2
 78
   300
147
1.0
148
0.0
149
0.0
100
AcDbLayout
  1
Model
 70
     1
 71
     0
 10
0.0
 20
0.0
 11
12.0
 21
9.0
 12
0.0
 22
0.0
 32
0.0
 14
1.000000000000000E+20
 24
1.000000000000000E+20
 34
1.000000000000000E+20
 15
-1.000000000000000E+20
 25
-1.000000000000000E+20
 35
-1.000000000000000E+20
146
0.0
 13
0.0
 23
0.0
 33
0.0
 16
1.0
 26
0.0
 36
0.0
 17
0.0
 27
1.0
 37
0.0
 76
     0
330
1F
331
29
  0
MATERIAL
  5
3D
102
{ACAD_REACTORS
330
3B
102
}
330
3B
100
AcDbMaterial
  1
ByBlock
 72
     1
 94
      127
  0
MATERIAL
  5
3C
102
{ACAD_REACTORS
330
3B
102
}
330
3B
100
AcDbMaterial
  1
ByLayer
 72
     1
 94
      127
  0
MATERIAL
  5
3E
102
{ACAD_REACTORS
330
3B
102
}
330
3B
100
AcDbMaterial
  1
Global
 72
     1
 94
      127
  0
MLINESTYLE
  5
18
102
{ACAD_REACTORS
330
17
102
}
330
17
100
AcDbMlineStyle
  2
Standard
 70
     0
  3

 62
   256
 51
90.0
 52
90.0
 71
     2
 49
0.5
 62
   256
  6
BYLAYER
 49
-0.5
 62
   256
  6
BYLAYER
  0
ACDBPLACEHOLDER
  5
F
102
{ACAD_REACTORS
330
E
102
}
330
E
  0
VISUALSTYLE
  5
2F
102
{ACAD_REACTORS
330
2A
102
}
330
2A
100
AcDbVisualStyle
  2
2dWireframe
 70
     4
177
     2
291
     0
 71
     0
176
     1
 72
     2
176
     1
 73
     0
176
     1
 90
        0
176
     1
 40
-0.6
176
     1
 41
-30.0
176
     1
 62
     5
 63
     7
421
 16777215
176
     1
 74
     1
176
     1
 91
        4
176
     1
 64
     7
176
     1
 65
   257
176
     1
 75
     1
176
     1
175
     1
176
     1
 42
1.0
176
     1
 92
        0
176
     1
 66
   257
176
     1
 43
1.0
176
     1
 76
     1
176
     1
 77
     6
176
     1
 78
     2
176
     1
 67
     7
176
     1
 79
     5
176
     1
170
     0
176
     1
171
     0
176
     1
290
     0
176
     1
 93
        1
176
     1
 44
0.0
176
     1
173
     0
176
     1
  0
VISUALSTYLE
  5
31
102
{ACAD_REACTORS
330
2A
102
}
330
2A
100
AcDbVisualStyle
  2
3D Hidden
 70
     6
177
     2
291
     0
 71
     1
176
     1
 72
     2
176
     1
 73
     2
176
     1
 90
        0
176
     1
 40
-0.6
176
     1
 41
-30.0
176
     1
 62
     5
 63
     7
421
 16777215
176
     1
 74
     2
176
     1
 91
        2
176
     1
 64
     7
176
     1
 65
   257
176
     1
 75
     2
176
     1
175
     1
176
     1
 42
40.0
176
     1
 92
        0
176
     1
 66
   257
176
     1
 43
1.0
176
     1
 76
     1
176
     1
 77
     6
176
     1
 78
     2
176
     1
 67
     7
176
     1
 79
     3
176
     1
170
     0
176
     1
171
     0
176
     1
290
     0
176
     1
 93
        1
176
     1
 44
0.0
176
     1
173
     0
176
     1
  0
VISUALSTYLE
  5
30
102
{ACAD_REACTORS
330
2A
102
}
330
2A
100
AcDbVisualStyle
  2
3dWireframe
 70
     5
177
     2
291
     0
 71
     0
176
     1
 72
     2
176
     1
 73
     0
176
     1
 90
        0
176
     1
 40
-0.6
176
     1
 41
-30.0
176
     1
 62
     5
 63
     7
421
 16777215
176
     1
 74
     1
176
     1
 91
        4
176
     1
 64
     7
176
     1
 65
   257
176
     1
 75
     1
176
     1
175
     1
176
     1
 42
1.0
176
     1
 92
        0
176
     1
 66
   257
176
     1
 43
1.0
176
     1
 76
     1
176
     1
 77
     6
176
     1
 78
     2
176
     1
 67
     7
176
     1
 79
     5
176
     1
170
     0
176
     1
171
     0
176
     1
290
     0
176
     1
 93
        1
176
     1
 44
0.0
176
     1
173
     0
176
     1
  0
VISUALSTYLE
  5
32
102
{ACAD_REACTORS
330
2A
102
}
330
2A
100
AcDbVisualStyle
  2
Basic
 70
     7
177
     2
291
     1
 71
     1
176
     1
 72
     0
176
     1
 73
     1
176
     1
 90
        0
176
     1
 40
-0.6
176
     1
 41
-30.0
176
     1
 62
     5
 63
     7
421
 16777215
176
     1
 74
     0
176
     1
 91
        4
176
     1
 64
     7
176
     1
 65
   257
176
     1
 75
     1
176
     1
175
     1
176
     1
 42
1.0
176
     1
 92
        8
176
     1
 66
     7
176
     1
 43
1.0
176
     1
 76
     1
176
     1
 77
     6
176
     1
 78
     2
176
     1
 67
     7
176
     1
 79
     5
176
     1
170
     0
176
     1
171
     0
176
     1
290
     0
176
     1
 93
        1
176
     1
 44
0.0
176
     1
173
     0
176
     1
  0
VISUALSTYLE
  5
36
102
{ACAD_REACTORS
330
2A
102
}
330
2A
100
AcDbVisualStyle
  2
Brighten
 70
    12
177
     2
291
     1
 71
     2
176
     1
 72
     2
176
     1
 73
     0
176
     1
 90
        0
176
     1
 40
-0.6
176
     1
 41
-30.0
176
     1
 62
     5
 63
     7
421
 16777215
176
     1
 74
     1
176
     1
 91
        4
176
     1
 64
     7
176
     1
 65
   257
176
     1
 75
     1
176
     1
175
     1
176
     1
 42
1.0
176
     1
 92
        8
176
     1
 66
     7
176
     1
 43
1.0
176
     1
 76
     1
176
     1
 77
     6
176
     1
 78
     2
176
     1
 67
     7
176
     1
 79
     5
176
     1
170
     0
176
     1
171
     0
176
     1
290
     0
176
     1
 93
        1
176
     1
 44
50.0
176
     1
173
     0
176
     1
  0
VISUALSTYLE
  5
3A
102
{ACAD_REACTORS
330
2A
102
}
330
2A
100
AcDbVisualStyle
  2
ColorChange
 70
    16
177
     2
291
     1
 71
     2
176
     1
 72
     2
176
     1
 73
     3
176
     1
 90
        0
176
     1
 40
-0.6
176
     1
 41
-30.0
176
     1
 62
     5
 63
     8
421
  8421504
176
     1
 74
     1
176
     1
 91
        4
176
     1
 64
     7
176
     1
 65
   257
176
     1
 75
     1
176
     1
175
     1
176
     1
 42
1.0
176
     1
 92
        8
176
     1
 66
     8
424
  8421504
176
     1
 43
1.0
176
     1
 76
     1
176
     1
 77
     6
176
     1
 78
     2
176
     1
 67
     7
176
     1
 79
     5
176
     1
170
     0
176
     1
171
     0
176
     1
290
     0
176
     1
 93
        1
176
     1
 44
0.0
176
     1
173
     0
176
     1
  0
VISUALSTYLE
  5
34
102
{ACAD_REACTORS
330
2A
102
}
330
2A
100
AcDbVisualStyle
  2
Conceptual
 70
     9
177
     2
291
     0
 71
     3
176
     1
 72
     2
176
     1
 73
     0
176
     1
 90
        0
176
     1
 40
-0.6
176
     1
 41
-30.0
176
     1
 62
     5
 63
     7
421
 16777215
176
     1
 74
     2
176
     1
 91
        2
176
     1
 64
     7
176
     1
 65
   257
176
     1
 75
     1
176
     1
175
     1
176
     1
 42
40.0
176
     1
 92
        8
176
     1
 66
     7
176
     1
 43
1.0
176
     1
 76
     1
176
     1
 77
     6
176
     1
 78
     2
176
     1
 67
     7
176
     1
 79
     3
176
     1
170
     0
176
     1
171
     0
176
     1
290
     0
176
     1
 93
        1
176
     1
 44
0.0
176
     1
173
     0
176
     1
  0
VISUALSTYLE
  5
35
102
{ACAD_REACTORS
330
2A
102
}
330
2A
100
AcDbVisualStyle
  2
Dim
 70
    11
177
     2
291
     1
 71
     2
176
     1
 72
     2
176
     1
 73
     0
176
     1
 90
        0
176
     1
 40
-0.6
176
     1
 41
-30.0
176
     1
 62
     5
 63
     7
421
 16777215
176
     1
 74
     1
176
     1
 91
        4
176
     1
 64
     7
176
     1
 65
   257
176
     1
 75
     1
176
     1
175
     1
176
     1
 42
1.0
176
     1
 92
        8
176
     1
 66
     7
176
     1
 43
1.0
176
     1
 76
     1
176
     1
 77
     6
176
     1
 78
     2
176
     1
 67
     7
176
     1
 79
     5
176
     1
170
     0
176
     1
171
     0
176
     1
290
     0
176
     1
 93
        1
176
     1
 44
-50.0
176
     1
173
     0
176
     1
  0
VISUALSTYLE
  5
39
102
{ACAD_REACTORS
330
2A
102
}
330
2A
100
AcDbVisualStyle
  2
Facepattern
 70
    15
177
     2
291
     1
 71
     2
176
     1
 72
     2
176
     1
 73
     0
176
     1
 90
        0
176
     1
 40
-0.6
176
     1
 41
-30.0
176
     1
 62
     5
 63
     7
421
 16777215
176
     1
 74
     1
176
     1
 91
        4
176
     1
 64
     7
176
     1
 65
   257
176
     1
 75
     1
176
     1
175
     1
176
     1
 42
1.0
176
     1
 92
        8
176
     1
 66
     7
176
     1
 43
1.0
176
     1
 76
     1
176
     1
 77
     6
176
     1
 78
     2
176
     1
 67
     7
176
     1
 79
     5
176
     1
170
     0
176
     1
171
     0
176
     1
290
     0
176
     1
 93
        1
176
     1
 44
0.0
176
     1
173
     0
176
     1
  0
VISUALSTYLE
  5
2B
102
{ACAD_REACTORS
330
2A
102
}
330
2A
100
AcDbVisualStyle
  2
Flat
 70
     0
177
     2
291
     1
 71
     2
176
     1
 72
     1
176
     1
 73
     1
176
     1
 90
        2
176
     1
 40
-0.6
176
     1
 41
30.0
176
     1
 62
     5
 63
     7
421
 16777215
176
     1
 74
     0
176
     1
 91
        4
176
     1
 64
     7
176
     1
 65
   257
176
     1
 75
     1
176
     1
175
     1
176
     1
 42
1.0
176
     1
 92
        8
176
     1
 66
     7
176
     1
 43
1.0
176
     1
 76
     1
176
     1
 77
     6
176
     1
 78
     2
176
     1
 67
     7
176
     1
 79
     5
176
     1
170
     0
176
     1
171
     0
176
     1
290
     0
176
     1
 93
       13
176
     1
 44
0.0
176
     1
173
     0
176
     1
  0
VISUALSTYLE
  5
2C
102
{ACAD_REACTORS
330
2A
102
}
330
2A
100
AcDbVisualStyle
  2
FlatWithEdges
 70
     1
177
     2
291
     1
 71
     2
176
     1
 72
     1
176
     1
 73
     1
176
     1
 90
        2
176
     1
 40
-0.6
176
     1
 41
30.0
176
     1
 62
     5
 63
     7
421
 16777215
176
     1
 74
     1
176
     1
 91
        4
176
     1
 64
     7
176
     1
 65
   257
176
     1
 75
     1
176
     1
175
     1
176
     1
 42
1.0
176
     1
 92
        0
176
     1
 66
   257
176
     1
 43
1.0
176
     1
 76
     1
176
     1
 77
     6
176
     1
 78
     2
176
     1
 67
     7
176
     1
 79
     5
176
     1
170
     0
176
     1
171
     0
176
     1
290
     0
176
     1
 93
       13
176
     1
 44
0.0
176
     1
173
     0
176
     1
  0
VISUALSTYLE
  5
2D
102
{ACAD_REACTORS
330
2A
102
}
330
2A
100
AcDbVisualStyle
  2
Gouraud
 70
     2
177
     2
291
     1
 71
     2
176
     1
 72
     2
176
     1
 73
     1
176
     1
 90
        2
176
     1
 40
-0.6
176
     1
 41
30.0
176
     1
 62
     5
 63
     7
421
 16777215
176
     1
 74
     0
176
     1
 91
        4
176
     1
 64
     7
176
     1
 65
   257
176
     1
 75
     1
176
     1
175
     1
176
     1
 42
1.0
176
     1
 92
        0
176
     1
 66
     7
176
     1
 43
1.0
176
     1
 76
     1
176
     1
 77
     6
176
     1
 78
     2
176
     1
 67
     7
176
     1
 79
     5
176
     1
170
     0
176
     1
171
     0
176
     1
290
     0
176
     1
 93
       13
176
     1
 44
0.0
176
     1
173
     0
176
     1
  0
VISUALSTYLE
  5
2E
102
{ACAD_REACTORS
330
2A
102
}
330
2A
100
AcDbVisualStyle
  2
GouraudWithEdges
 70
     3
177
     2
291
     1
 71
     2
176
     1
 72
     2
176
     1
 73
     1
176
     1
 90
        2
176
     1
 40
-0.6
176
     1
 41
30.0
176
     1
 62
     5
 63
     7
421
 16777215
176
     1
 74
     1
176
     1
 91
        4
176
     1
 64
     7
176
     1
 65
   257
176
     1
 75
     1
176
     1
175
     1
176
     1
 42
1.0
176
     1
 92
        0
176
     1
 66
   257
176
     1
 43
1.0
176
     1
 76
     1
176
     1
 77
     6
176
     1
 78
     2
176
     1
 67
     7
176
     1
 79
     5
176
     1
170
     0
176
     1
171
     0
176
     1
290
     0
176
     1
 93
       13
176
     1
 44
0.0
176
     1
173
     0
176
     1
  0
VISUALSTYLE
  5
38
102
{ACAD_REACTORS
330
2A
102
}
330
2A
100
AcDbVisualStyle
  2
Linepattern
 70
    14
177
     2
291
     1
 71
     2
176
     1
 72
     2
176
     1
 73
     0
176
     1
 90
        0
176
     1
 40
-0.6
176
     1
 41
-30.0
176
     1
 62
     5
 63
     7
421
 16777215
176
     1
 74
     1
176
     1
 91
        4
176
     1
 64
     7
176
     1
 65
   257
176
     1
 75
     7
176
     1
175
     7
176
     1
 42
1.0
176
     1
 92
        8
176
     1
 66
     7
176
     1
 43
1.0
176
     1
 76
     1
176
     1
 77
     6
176
     1
 78
     2
176
     1
 67
     7
176
     1
 79
     5
176
     1
170
     0
176
     1
171
     0
176
     1
290
     0
176
     1
 93
        1
176
     1
 44
0.0
176
     1
173
     0
176
     1
  0
VISUALSTYLE
  5
33
102
{ACAD_REACTORS
330
2A
102
}
330
2A
100
AcDbVisualStyle
  2
Realistic
 70
     8
177
     2
291
     0
 71
     2
176
     1
 72
     2
176
     1
 73
     0
176
     1
 90
        0
176
     1
 40
-0.6
176
     1
 41
-30.0
176
     1
 62
     5
 63
     7
421
 16777215
176
     1
 74
     1
176
     1
 91
        0
176
     1
 64
     7
176
     1
 65
   257
176
     1
 75
     1
176
     1
175
     1
176
     1
 42
1.0
176
     1
 92
        8
176
     1
 66
     8
424
  7895160
176
     1
 43
1.0
176
     1
 76
     1
176
     1
 77
     6
176
     1
 78
     2
176
     1
 67
     7
176
     1
 79
     5
176
     1
170
     0
176
     1
171
     0
176
     1
290
     0
176
     1
 93
       13
176
     1
 44
0.0
176
     1
173
     0
176
     1
  0
VISUALSTYLE
  5
37
102
{ACAD_REACTORS
330
2A
102
}
330
2A
100
AcDbVisualStyle
  2
Thicken
 70
    13
177
     2
291
     1
 71
     2
176
     1
 72
     2
176
     1
 73
     0
176
     1
 90
        0
176
     1
 40
-0.6
176
     1
 41
-30.0
176
     1
 62
     5
 63
     7
421
 16777215
176
     1
 74
     1
176
     1
 91
        4
176
     1
 64
     7
176
     1
 65
   257
176
     1
 75
     1
176
     1
175
     1
176
     1
 42
1.0
176
     1
 92
       12
176
     1
 66
     7
176
     1
 43
1.0
176
     1
 76
     1
176
     1
 77
     6
176
     1
 78
     2
176
     1
 67
     7
176
     1
 79
     5
176
     1
170
     0
176
     1
171
     0
176
     1
290
     0
176
     1
 93
        1
176
     1
 44
0.0
176
     1
173
     0
176
     1
  0
ENDSEC
  0
EOF
