  0
SECTION
  2
HEADER
  9
$ACADVER
  1
AC1024
  9
$ACADMAINTVER
 70
     6
  9
$DWGCODEPAGE
  3
UNDEFINED
  9
$INSBASE
 10
0.0
 20
0.0
 30
0.0
  9
$EXTMIN
 10
1.000000000000000E+20
 20
1.000000000000000E+20
 30
1.000000000000000E+20
  9
$EXTMAX
 10
-1.000000000000000E+20
 20
-1.000000000000000E+20
 30
-1.000000000000000E+20
  9
$LIMMIN
 10
0.0
 20
0.0
  9
$LIMMAX
 10
12.0
 20
9.0
  9
$ORTHOMODE
 70
     0
  9
$REGENMODE
 70
     1
  9
$FILLMODE
 70
     1
  9
$QTEXTMODE
 70
     0
  9
$MIRRTEXT
 70
     1
  9
$LTSCALE
 40
1.0
  9
$ATTMODE
 70
     1
  9
$TEXTSIZE
 40
0.2
  9
$TRACEWID
 40
0.05
  9
$TEXTSTYLE
  7
Standard
  9
$CLAYER
  8
0
  9
$CELTYPE
  6
ByLayer
  9
$CECOLOR
 62
   256
  9
$CELTSCALE
 40
1.0
  9
$DISPSILH
 70
     0
  9
$DIMSCALE
 40
1.0
  9
$DIMASZ
 40
0.18
  9
$DIMEXO
 40
0.0625
  9
$DIMDLI
 40
0.38
  9
$DIMRND
 40
0.0
  9
$DIMDLE
 40
0.0
  9
$DIMEXE
 40
0.18
  9
$DIMTP
 40
0.0
  9
$DIMTM
 40
0.0
  9
$DIMTXT
 40
0.18
  9
$DIMCEN
 40
0.09
  9
$DIMTSZ
 40
0.0
  9
$DIMTOL
 70
     0
  9
$DIMLIM
 70
     0
  9
$DIMTIH
 70
     1
  9
$DIMTOH
 70
     1
  9
$DIMSE1
 70
     0
  9
$DIMSE2
 70
     0
  9
$DIMTAD
 70
     0
  9
$DIMZIN
 70
     0
  9
$DIMBLK
  1

  9
$DIMASO
 70
     1
  9
$DIMSHO
 70
     1
  9
$DIMPOST
  1

  9
$DIMAPOST
  1

  9
$DIMALT
 70
     0
  9
$DIMALTD
 70
     2
  9
$DIMALTF
 40
25.4
  9
$DIMLFAC
 40
1.0
  9
$DIMTOFL
 70
     0
  9
$DIMTVP
 40
0.0
  9
$DIMTIX
 70
     0
  9
$DIMSOXD
 70
     0
  9
$DIMSAH
 70
     0
  9
$DIMBLK1
  1

  9
$DIMBLK2
  1

  9
$DIMSTYLE
  2
Standard
  9
$DIMCLRD
 70
     0
  9
$DIMCLRE
 70
     0
  9
$DIMCLRT
 70
     0
  9
$DIMTFAC
 40
1.0
  9
$DIMGAP
 40
0.09
  9
$DIMJUST
 70
     0
  9
$DIMSD1
 70
     0
  9
$DIMSD2
 70
     0
  9
$DIMTOLJ
 70
     1
  9
$DIMTZIN
 70
     0
  9
$DIMALTZ
 70
     0
  9
$DIMALTTZ
 70
     0
  9
$DIMUPT
 70
     0
  9
$DIMDEC
 70
     4
  9
$DIMTDEC
 70
     4
  9
$DIMALTU
 70
     2
  9
$DIMALTTD
 70
     2
  9
$DIMTXSTY
  7
Standard
  9
$DIMAUNIT
 70
     0
  9
$DIMADEC
 70
     0
  9
$DIMALTRND
 40
0.0
  9
$DIMAZIN
 70
     0
  9
$DIMDSEP
 70
    46
  9
$DIMATFIT
 70
     3
  9
$DIMFRAC
 70
     0
  9
$DIMLDRBLK
  1

  9
$DIMLUNIT
 70
     2
  9
$DIMLWD
 70
    -2
  9
$DIMLWE
 70
    -2
  9
$DIMTMOVE
 70
     0
  9
$DIMFXL
 40
1.0
  9
$DIMFXLON
 70
     0
  9
$DIMJOGANG
 40
0.7853981633974483
  9
$DIMTFILL
 70
     0
  9
$DIMTFILLCLR
 70
     0
  9
$DIMARCSYM
 70
     0
  9
$DIMLTYPE
  6

  9
$DIMLTEX1
  6

  9
$DIMLTEX2
  6

  9
$DIMTXTDIRECTION
 70
     0
  9
$LUNITS
 70
     2
  9
$LUPREC
 70
     4
  9
$SKETCHINC
 40
0.1
  9
$FILLETRAD
 40
0.5
  9
$AUNITS
 70
     0
  9
$AUPREC
 70
     0
  9
$MENU
  1
.
  9
$ELEVATION
 40
0.0
  9
$PELEVATION
 40
0.0
  9
$THICKNESS
 40
0.0
  9
$LIMCHECK
 70
     0
  9
$CHAMFERA
 40
0.5
  9
$CHAMFERB
 40
0.5
  9
$CHAMFERC
 40
1.0
  9
$CHAMFERD
 40
0.0
  9
$SKPOLY
 70
     0
  9
$TDCREATE
 40
2457917.614224526
  9
$TDUCREATE
 40
2457917.239224537
  9
$TDUPDATE
 40
2457917.614224526
  9
$TDUUPDATE
 40
2457917.239224537
  9
$TDINDWG
 40
0.0000000116
  9
$TDUSRTIMER
 40
0.0000000116
  9
$USRTIMER
 70
     1
  9
$ANGBASE
 50
0.0
  9
$ANGDIR
 70
     0
  9
$PDMODE
 70
     0
  9
$PDSIZE
 40
0.0
  9
$PLINEWID
 40
0.0
  9
$SPLFRAME
 70
     0
  9
$SPLINETYPE
 70
     6
  9
$SPLINESEGS
 70
     8
  9
$HANDSEED
  5
DF
  9
$SURFTAB1
 70
     6
  9
$SURFTAB2
 70
     6
  9
$SURFTYPE
 70
     6
  9
$SURFU
 70
     6
  9
$SURFV
 70
     6
  9
$UCSBASE
  2

  9
$UCSNAME
  2

  9
$UCSORG
 10
0.0
 20
0.0
 30
0.0
  9
$UCSXDIR
 10
1.0
 20
0.0
 30
0.0
  9
$UCSYDIR
 10
0.0
 20
1.0
 30
0.0
  9
$UCSORTHOREF
  2

  9
$UCSORTHOVIEW
 70
     0
  9
$UCSORGTOP
 10
0.0
 20
0.0
 30
0.0
  9
$UCSORGBOTTOM
 10
0.0
 20
0.0
 30
0.0
  9
$UCSORGLEFT
 10
0.0
 20
0.0
 30
0.0
  9
$UCSORGRIGHT
 10
0.0
 20
0.0
 30
0.0
  9
$UCSORGFRONT
 10
0.0
 20
0.0
 30
0.0
  9
$UCSORGBACK
 10
0.0
 20
0.0
 30
0.0
  9
$PUCSBASE
  2

  9
$PUCSNAME
  2

  9
$PUCSORG
 10
0.0
 20
0.0
 30
0.0
  9
$PUCSXDIR
 10
1.0
 20
0.0
 30
0.0
  9
$PUCSYDIR
 10
0.0
 20
1.0
 30
0.0
  9
$PUCSORTHOREF
  2

  9
$PUCSORTHOVIEW
 70
     0
  9
$PUCSORGTOP
 10
0.0
 20
0.0
 30
0.0
  9
$PUCSORGBOTTOM
 10
0.0
 20
0.0
 30
0.0
  9
$PUCSORGLEFT
 10
0.0
 20
0.0
 30
0.0
  9
$PUCSORGRIGHT
 10
0.0
 20
0.0
 30
0.0
  9
$PUCSORGFRONT
 10
0.0
 20
0.0
 30
0.0
  9
$PUCSORGBACK
 10
0.0
 20
0.0
 30
0.0
  9
$USERI1
 70
     0
  9
$USERI2
 70
     0
  9
$USERI3
 70
     0
  9
$USERI4
 70
     0
  9
$USERI5
 70
     0
  9
$USERR1
 40
0.0
  9
$USERR2
 40
0.0
  9
$USERR3
 40
0.0
  9
$USERR4
 40
0.0
  9
$USERR5
 40
0.0
  9
$WORLDVIEW
 70
     1
  9
$SHADEDGE
 70
     3
  9
$SHADEDIF
 70
    70
  9
$TILEMODE
 70
     1
  9
$MAXACTVP
 70
    64
  9
$PINSBASE
 10
0.0
 20
0.0
 30
0.0
  9
$PLIMCHECK
 70
     0
  9
$PEXTMIN
 10
1.000000000000000E+20
 20
1.000000000000000E+20
 30
1.000000000000000E+20
  9
$PEXTMAX
 10
-1.000000000000000E+20
 20
-1.000000000000000E+20
 30
-1.000000000000000E+20
  9
$PLIMMIN
 10
0.0
 20
0.0
  9
$PLIMMAX
 10
12.0
 20
9.0
  9
$UNITMODE
 70
     0
  9
$VISRETAIN
 70
     1
  9
$PLINEGEN
 70
     0
  9
$PSLTSCALE
 70
     1
  9
$TREEDEPTH
 70
  3020
  9
$CMLSTYLE
  2
Standard
  9
$CMLJUST
 70
     0
  9
$CMLSCALE
 40
1.0
  9
$PROXYGRAPHICS
 70
     1
  9
$MEASUREMENT
 70
     0
  9
$CELWEIGHT
370
    -1
  9
$ENDCAPS
280
     0
  9
$JOINSTYLE
280
     0
  9
$LWDISPLAY
290
     1
  9
$INSUNITS
 70
     1
  9
$HYPERLINKBASE
  1

  9
$STYLESHEET
  1

  9
$XEDIT
290
     1
  9
$CEPSNTYPE
380
     0
  9
$PSTYLEMODE
290
     1
  9
$FINGERPRINTGUID
  2
{23F66AF5-DA46-3B62-1471-944BB65079C1}
  9
$VERSIONGUID
  2
{FAEB1C32-E019-11D5-929B-00C0DF256EC4}
  9
$EXTNAMES
290
     1
  9
$PSVPSCALE
 40
0.0
  9
$OLESTARTUP
290
     0
  9
$SORTENTS
280
   127
  9
$INDEXCTL
280
     0
  9
$HIDETEXT
280
     1
  9
$XCLIPFRAME
280
     2
  9
$HALOGAP
280
     0
  9
$OBSCOLOR
 70
   257
  9
$OBSLTYPE
280
     0
  9
$INTERSECTIONDISPLAY
280
     0
  9
$INTERSECTIONCOLOR
 70
   257
  9
$DIMASSOC
280
     2
  9
$PROJECTNAME
  1

  9
$CAMERADISPLAY
290
     0
  9
$LENSLENGTH
 40
50.0
  9
$CAMERAHEIGHT
 40
0.0
  9
$STEPSPERSEC
 40
2.0
  9
$STEPSIZE
 40
6.0
  9
$3DDWFPREC
 40
2.0
  9
$PSOLWIDTH
 40
0.25
  9
$PSOLHEIGHT
 40
4.0
  9
$LOFTANG1
 40
1.570796326794897
  9
$LOFTANG2
 40
1.570796326794897
  9
$LOFTMAG1
 40
0.0
  9
$LOFTMAG2
 40
0.0
  9
$LOFTPARAM
 70
     7
  9
$LOFTNORMALS
280
     1
  9
$LATITUDE
 40
37.795
  9
$LONGITUDE
 40
-122.394
  9
$NORTHDIRECTION
 40
0.0
  9
$TIMEZONE
 70
 -8000
  9
$LIGHTGLYPHDISPLAY
280
     1
  9
$TILEMODELIGHTSYNCH
280
     1
  9
$CMATERIAL
347
3C
  9
$SOLIDHIST
280
     1
  9
$SHOWHIST
280
     1
  9
$DWFFRAME
280
     2
  9
$DGNFRAME
280
     2
  9
$REALWORLDSCALE
290
     1
  9
$INTERFERECOLOR
 62
   256
  9
$CSHADOW
280
     0
  9
$SHADOWPLANELOCATION
 40
0.0
  0
ENDSEC
  0
SECTION
  2
CLASSES
  0
CLASS
  1
ACDBDICTIONARYWDFLT
  2
AcDbDictionaryWithDefault
  3
ObjectDBX Classes
 90
        0
 91
        4
280
     0
281
     0
  0
CLASS
  1
VISUALSTYLE
  2
AcDbVisualStyle
  3
ObjectDBX Classes
 90
     4095
 91
        4
280
     0
281
     0
  0
CLASS
  1
MATERIAL
  2
AcDbMaterial
  3
ObjectDBX Classes
 90
     1153
 91
        4
280
     0
281
     0
  0
CLASS
  1
SUN
  2
AcDbSun
  3
SCENEOE
 90
     1024
 91
        4
280
     0
281
     0
  0
ENDSEC
  0
SECTION
  2
TABLES
  0
TABLE
  2
VPORT
  5
8
330
0
100
AcDbSymbolTable
 70
     1
  0
VPORT
  5
29
330
8
100
AcDbSymbolTableRecord
100
AcDbViewportTableRecord
  2
*Active
 70
     0
 10
0.0
 20
0.0
 11
1.0
 21
1.0
 12
0.0
 22
0.0
 13
0.0
 23
0.0
 14
0.5
 24
0.5
 15
0.5
 25
0.5
 16
0.0
 26
0.0
 36
1.0
 17
91.00082462281999
 27
-128.4993055234307
 37
0.0
 40
256.9986110468615
 41
0.7081814508812795
 42
50.0
 43
0.0
 44
0.0
 50
0.0
 51
0.0
 71
     0
 72
   100
 73
     1
 74
     3
 75
     0
 76
     0
 77
     0
 78
     0
281
     0
 65
     1
110
0.0
120
0.0
130
0.0
111
1.0
121
0.0
131
0.0
112
0.0
122
1.0
132
0.0
 79
     0
146
0.0
 60
     3
 61
     5
292
     1
282
     1
141
0.0
142
0.0
 63
   250
361
3F
  0
ENDTAB
  0
TABLE
  2
LTYPE
  5
5
330
0
100
AcDbSymbolTable
 70
     1
  0
LTYPE
  5
14
330
5
100
AcDbSymbolTableRecord
100
AcDbLinetypeTableRecord
  2
ByBlock
 70
     0
  3

 72
    65
 73
     0
 40
0.0
  0
LTYPE
  5
15
330
5
100
AcDbSymbolTableRecord
100
AcDbLinetypeTableRecord
  2
ByLayer
 70
     0
  3

 72
    65
 73
     0
 40
0.0
  0
LTYPE
  5
16
330
5
100
AcDbSymbolTableRecord
100
AcDbLinetypeTableRecord
  2
Continuous
 70
     0
  3
Solid line
 72
    65
 73
     0
 40
0.0
  0
ENDTAB
  0
TABLE
  2
LAYER
  5
2
330
0
100
AcDbSymbolTable
 70
     2
  0
LAYER
  5
10
330
2
100
AcDbSymbolTableRecord
100
AcDbLayerTableRecord
  2
0
 70
     0
 62
     7
  6
Continuous
370
    -3
390
F
347
3E
  0
LAYER
  5
40
330
2
100
AcDbSymbolTableRecord
100
AcDbLayerTableRecord
  2
_U+30EC_U+30A4_U+30E4_U+30FC 1
 70
     0
 62
     7
  6
Continuous
370
    -3
390
F
347
3E
  0
ENDTAB
  0
TABLE
  2
STYLE
  5
3
330
0
100
AcDbSymbolTable
 70
     1
  0
STYLE
  5
11
330
3
100
AcDbSymbolTableRecord
100
AcDbTextStyleTableRecord
  2
Standard
 70
     0
 40
0.0
 41
1.0
 50
0.0
 71
     0
 42
0.2
  3
txt
  4

  0
ENDTAB
  0
TABLE
  2
VIEW
  5
6
330
0
100
AcDbSymbolTable
 70
     0
  0
ENDTAB
  0
TABLE
  2
UCS
  5
7
330
0
100
AcDbSymbolTable
 70
     0
  0
ENDTAB
  0
TABLE
  2
APPID
  5
9
330
0
100
AcDbSymbolTable
 70
     1
  0
APPID
  5
12
330
9
100
AcDbSymbolTableRecord
100
AcDbRegAppTableRecord
  2
ACAD
 70
     0
  0
ENDTAB
  0
TABLE
  2
DIMSTYLE
  5
A
330
0
100
AcDbSymbolTable
 70
     1
100
AcDbDimStyleTable
  0
DIMSTYLE
105
27
330
A
100
AcDbSymbolTableRecord
100
AcDbDimStyleTableRecord
  2
Standard
 70
     0
178
     0
340
11
  0
ENDTAB
  0
TABLE
  2
BLOCK_RECORD
  5
1
330
0
100
AcDbSymbolTable
 70
     9
  0
BLOCK_RECORD
  5
1F
330
1
100
AcDbSymbolTableRecord
100
AcDbBlockTableRecord
  2
*Model_Space
340
22
 70
     0
280
     1
281
     0
  0
BLOCK_RECORD
  5
1B
330
1
100
AcDbSymbolTableRecord
100
AcDbBlockTableRecord
  2
*Paper_Space
340
1E
 70
     0
280
     1
281
     0
  0
BLOCK_RECORD
  5
23
330
1
100
AcDbSymbolTableRecord
100
AcDbBlockTableRecord
  2
*Paper_Space0
340
26
 70
     0
280
     1
281
     0
  0
BLOCK_RECORD
  5
66
330
1
100
AcDbSymbolTableRecord
100
AcDbBlockTableRecord
  2
block 2
340
0
102
{BLKREFS
331
67
102
}
 70
     0
280
     1
281
     0
  0
BLOCK_RECORD
  5
7A
330
1
100
AcDbSymbolTableRecord
100
AcDbBlockTableRecord
  2
block 3
340
0
102
{BLKREFS
331
7B
102
}
 70
     0
280
     1
281
     0
  0
BLOCK_RECORD
  5
80
330
1
100
AcDbSymbolTableRecord
100
AcDbBlockTableRecord
  2
block 4
340
0
102
{BLKREFS
331
81
102
}
 70
     0
280
     1
281
     0
  0
BLOCK_RECORD
  5
8C
330
1
100
AcDbSymbolTableRecord
100
AcDbBlockTableRecord
  2
block 5
340
0
102
{BLKREFS
331
8D
102
}
 70
     0
280
     1
281
     0
  0
BLOCK_RECORD
  5
A9
330
1
100
AcDbSymbolTableRecord
100
AcDbBlockTableRecord
  2
block 6
340
0
102
{BLKREFS
331
AA
102
}
 70
     0
280
     1
281
     0
  0
BLOCK_RECORD
  5
BD
330
1
100
AcDbSymbolTableRecord
100
AcDbBlockTableRecord
  2
block 7
340
0
102
{BLKREFS
331
BE
102
}
 70
     0
280
     1
281
     0
  0
BLOCK_RECORD
  5
C5
330
1
100
AcDbSymbolTableRecord
100
AcDbBlockTableRecord
  2
block 8
340
0
102
{BLKREFS
331
C6
102
}
 70
     0
280
     1
281
     0
  0
BLOCK_RECORD
  5
D5
330
1
100
AcDbSymbolTableRecord
100
AcDbBlockTableRecord
  2
block 9
340
0
102
{BLKREFS
331
D6
102
}
 70
     0
280
     1
281
     0
  0
ENDTAB
  0
ENDSEC
  0
SECTION
  2
BLOCKS
  0
BLOCK
  5
20
330
1F
100
AcDbEntity
  8
0
100
AcDbBlockBegin
  2
*Model_Space
 70
     0
 10
0.0
 20
0.0
 30
0.0
  3
*Model_Space
  1

  0
ENDBLK
  5
21
330
1F
100
AcDbEntity
  8
0
100
AcDbBlockEnd
  0
BLOCK
  5
1C
330
1B
100
AcDbEntity
 67
     1
  8
0
100
AcDbBlockBegin
  2
*Paper_Space
 70
     0
 10
0.0
 20
0.0
 30
0.0
  3
*Paper_Space
  1

  0
ENDBLK
  5
1D
330
1B
100
AcDbEntity
 67
     1
  8
0
100
AcDbBlockEnd
  0
BLOCK
  5
24
330
23
100
AcDbEntity
  8
0
100
AcDbBlockBegin
  2
*Paper_Space0
 70
     0
 10
0.0
 20
0.0
 30
0.0
  3
*Paper_Space0
  1

  0
ENDBLK
  5
25
330
23
100
AcDbEntity
  8
0
100
AcDbBlockEnd
  0
BLOCK
  5
68
330
66
100
AcDbEntity
  8
0
100
AcDbBlockBegin
  2
block 2
 70
     0
 10
0.0
 20
0.0
 30
0.0
  3
block 2
  1

  0
POLYLINE
  5
6A
330
66
100
AcDbEntity
  8
_U+30EC_U+30A4_U+30E4_U+30FC 1
 62
     7
420
 16777215
370
     9
100
AcDb2dPolyline
 66
     1
 10
0.0
 20
0.0
 30
0.0
  0
VERTEX
  5
6B
330
6A
100
AcDbEntity
  8
_U+30EC_U+30A4_U+30E4_U+30FC 1
 62
     7
420
 16777215
370
     9
100
AcDbVertex
100
AcDb2dVertex
 10
109.8654746970982
 20
-125.6443455241444
 30
0.0
  0
VERTEX
  5
6C
330
6A
100
AcDbEntity
  8
_U+30EC_U+30A4_U+30E4_U+30FC 1
 62
     7
420
 16777215
370
     9
100
AcDbVertex
100
AcDb2dVertex
 10
109.8654746970982
 20
-121.8740330250869
 30
0.0
  0
SEQEND
  5
6D
330
6A
100
AcDbEntity
  8
_U+30EC_U+30A4_U+30E4_U+30FC 1
 62
     7
420
 16777215
370
     9
  0
POLYLINE
  5
6E
330
66
100
AcDbEntity
  8
_U+30EC_U+30A4_U+30E4_U+30FC 1
 62
     7
420
 16777215
370
     9
100
AcDb2dPolyline
 66
     1
 10
0.0
 20
0.0
 30
0.0
  0
VERTEX
  5
6F
330
6E
100
AcDbEntity
  8
_U+30EC_U+30A4_U+30E4_U+30FC 1
 62
     7
420
 16777215
370
     9
100
AcDbVertex
100
AcDb2dVertex
 10
109.8654746970982
 20
-126.6441177461169
 30
0.0
  0
VERTEX
  5
70
330
6E
100
AcDbEntity
  8
_U+30EC_U+30A4_U+30E4_U+30FC 1
 62
     7
420
 16777215
370
     9
100
AcDbVertex
100
AcDb2dVertex
 10
109.8654746970982
 20
-125.6443455241444
 30
0.0
  0
SEQEND
  5
71
330
6E
100
AcDbEntity
  8
_U+30EC_U+30A4_U+30E4_U+30FC 1
 62
     7
420
 16777215
370
     9
  0
POLYLINE
  5
72
330
66
100
AcDbEntity
  8
_U+30EC_U+30A4_U+30E4_U+30FC 1
 62
     7
420
 16777215
370
     9
100
AcDb2dPolyline
 66
     1
 10
0.0
 20
0.0
 30
0.0
  0
VERTEX
  5
73
330
72
100
AcDbEntity
  8
_U+30EC_U+30A4_U+30E4_U+30FC 1
 62
     7
420
 16777215
370
     9
100
AcDbVertex
100
AcDb2dVertex
 10
108.4054360840095
 20
-126.6441177461169
 30
0.0
  0
VERTEX
  5
74
330
72
100
AcDbEntity
  8
_U+30EC_U+30A4_U+30E4_U+30FC 1
 62
     7
420
 16777215
370
     9
100
AcDbVertex
100
AcDb2dVertex
 10
110.8659171715748
 20
-126.6441177461169
 30
0.0
  0
SEQEND
  5
75
330
72
100
AcDbEntity
  8
_U+30EC_U+30A4_U+30E4_U+30FC 1
 62
     7
420
 16777215
370
     9
  0
POLYLINE
  5
76
330
66
100
AcDbEntity
  8
_U+30EC_U+30A4_U+30E4_U+30FC 1
 62
     7
420
 16777215
370
     9
100
AcDb2dPolyline
 66
     1
 10
0.0
 20
0.0
 30
0.0
  0
VERTEX
  5
77
330
76
100
AcDbEntity
  8
_U+30EC_U+30A4_U+30E4_U+30FC 1
 62
     7
420
 16777215
370
     9
100
AcDbVertex
100
AcDb2dVertex
 10
108.4054360840095
 20
-125.6443455241444
 30
0.0
  0
VERTEX
  5
78
330
76
100
AcDbEntity
  8
_U+30EC_U+30A4_U+30E4_U+30FC 1
 62
     7
420
 16777215
370
     9
100
AcDbVertex
100
AcDb2dVertex
 10
110.8659171715748
 20
-125.6443455241444
 30
0.0
  0
SEQEND
  5
79
330
76
100
AcDbEntity
  8
_U+30EC_U+30A4_U+30E4_U+30FC 1
 62
     7
420
 16777215
370
     9
  0
INSERT
  5
7B
330
66
100
AcDbEntity
  8
_U+30EC_U+30A4_U+30E4_U+30FC 1
100
AcDbBlockReference
  2
block 3
 10
0.0
 20
0.0
 30
0.0
  0
ENDBLK
  5
69
330
66
100
AcDbEntity
  8
0
100
AcDbBlockEnd
  0
BLOCK
  5
7C
330
7A
100
AcDbEntity
  8
0
100
AcDbBlockBegin
  2
block 3
 70
     0
 10
0.0
 20
0.0
 30
0.0
  3
block 3
  1

  0
SPLINE
  5
7E
330
7A
100
AcDbEntity
  8
_U+30EC_U+30A4_U+30E4_U+30FC 1
370
     0
100
AcDbSpline
210
0.0
220
0.0
230
1.0
 70
    11
 71
     3
 72
    26
 73
    22
 74
     0
 42
0.0000000001
 43
0.0000000001
 12
1.0
 22
0.0
 32
0.0
 13
1.0
 23
0.0
 33
0.0
 40
0.0
 40
0.0
 40
0.0
 40
0.0
 40
1.0
 40
1.0
 40
1.0
 40
2.0
 40
2.0
 40
2.0
 40
3.0
 40
3.0
 40
3.0
 40
4.0
 40
4.0
 40
4.0
 40
5.0
 40
5.0
 40
5.0
 40
6.0
 40
6.0
 40
6.0
 40
7.0
 40
7.0
 40
7.0
 40
7.0
 10
108.7492621255905
 20
-126.303057151584
 30
0.0
 10
108.7492621255905
 20
-126.303057151584
 30
0.0
 10
107.6451090225679
 20
-126.303057151584
 30
0.0
 10
107.6451090225679
 20
-126.303057151584
 30
0.0
 10
107.6451090225679
 20
-126.303057151584
 30
0.0
 10
107.6451090225679
 20
-126.6330972990709
 30
0.0
 10
107.6451090225679
 20
-126.6330972990709
 30
0.0
 10
107.6451090225679
 20
-126.6330972990709
 30
0.0
 10
107.4969699167022
 20
-126.6330972990709
 30
0.0
 10
107.4969699167022
 20
-126.6330972990709
 30
0.0
 10
107.4821560061156
 20
-126.3009900942928
 30
0.0
 10
107.3192029896633
 20
-126.2544813052419
 30
0.0
 10
107.204825819553
 20
-126.2248534840688
 30
0.0
 10
107.204825819553
 20
-126.2248534840688
 30
0.0
 10
107.204825819553
 20
-126.0787814354942
 30
0.0
 10
107.204825819553
 20
-126.0787814354942
 30
0.0
 10
107.204825819553
 20
-126.0787814354942
 30
0.0
 10
108.7492621255905
 20
-126.0787814354942
 30
0.0
 10
108.7492621255905
 20
-126.0787814354942
 30
0.0
 10
108.7492621255905
 20
-126.0787814354942
 30
0.0
 10
108.7492621255905
 20
-126.303057151584
 30
0.0
 10
108.7492621255905
 20
-126.303057151584
 30
0.0
  0
HATCH
  5
7F
330
7A
100
AcDbEntity
  8
_U+30EC_U+30A4_U+30E4_U+30FC 1
 62
     7
420
 16777215
100
AcDbHatch
 10
0.0
 20
0.0
 30
0.0
210
0.0
220
0.0
230
1.0
  2
SOLID
 70
     1
 71
     0
 91
        1
 92
        1
 93
        1
 72
     4
 94
        3
 73
     0
 74
     1
 95
       26
 96
       22
 40
0.0
 40
0.0
 40
0.0
 40
0.0
 40
1.0
 40
1.0
 40
1.0
 40
2.0
 40
2.0
 40
2.0
 40
3.0
 40
3.0
 40
3.0
 40
4.0
 40
4.0
 40
4.0
 40
5.0
 40
5.0
 40
5.0
 40
6.0
 40
6.0
 40
6.0
 40
7.0
 40
7.0
 40
7.0
 40
7.0
 10
108.7492621255905
 20
-126.303057151584
 10
108.7492621255905
 20
-126.303057151584
 10
107.6451090225679
 20
-126.303057151584
 10
107.6451090225679
 20
-126.303057151584
 10
107.6451090225679
 20
-126.303057151584
 10
107.6451090225679
 20
-126.6330972990709
 10
107.6451090225679
 20
-126.6330972990709
 10
107.6451090225679
 20
-126.6330972990709
 10
107.4969699167022
 20
-126.6330972990709
 10
107.4969699167022
 20
-126.6330972990709
 10
107.4821560061156
 20
-126.3009900942928
 10
107.3192029896633
 20
-126.2544813052419
 10
107.204825819553
 20
-126.2248534840688
 10
107.204825819553
 20
-126.2248534840688
 10
107.204825819553
 20
-126.0787814354942
 10
107.204825819553
 20
-126.0787814354942
 10
107.204825819553
 20
-126.0787814354942
 10
108.7492621255905
 20
-126.0787814354942
 10
108.7492621255905
 20
-126.0787814354942
 10
108.7492621255905
 20
-126.0787814354942
 10
108.7492621255905
 20
-126.303057151584
 10
108.7492621255905
 20
-126.303057151584
 97
        0
 97
        0
 75
     2
 76
     1
 98
        0
  0
ENDBLK
  5
7D
330
7A
100
AcDbEntity
  8
0
100
AcDbBlockEnd
  0
BLOCK
  5
82
330
80
100
AcDbEntity
  8
0
100
AcDbBlockBegin
  2
block 4
 70
     0
 10
0.0
 20
0.0
 30
0.0
  3
block 4
  1

  0
POLYLINE
  5
84
330
80
100
AcDbEntity
  8
_U+30EC_U+30A4_U+30E4_U+30FC 1
 62
     7
420
 16777215
370
     9
100
AcDb2dPolyline
 66
     1
 10
0.0
 20
0.0
 30
0.0
  0
VERTEX
  5
85
330
84
100
AcDbEntity
  8
_U+30EC_U+30A4_U+30E4_U+30FC 1
 62
     7
420
 16777215
370
     9
100
AcDbVertex
100
AcDb2dVertex
 10
109.8654746970982
 20
-126.6441177461169
 30
0.0
  0
VERTEX
  5
86
330
84
100
AcDbEntity
  8
_U+30EC_U+30A4_U+30E4_U+30FC 1
 62
     7
420
 16777215
370
     9
100
AcDbVertex
100
AcDb2dVertex
 10
109.8654746970982
 20
-132.8446105223444
 30
0.0
  0
SEQEND
  5
87
330
84
100
AcDbEntity
  8
_U+30EC_U+30A4_U+30E4_U+30FC 1
 62
     7
420
 16777215
370
     9
  0
POLYLINE
  5
88
330
80
100
AcDbEntity
  8
_U+30EC_U+30A4_U+30E4_U+30FC 1
 62
     7
420
 16777215
370
     9
100
AcDb2dPolyline
 66
     1
 10
0.0
 20
0.0
 30
0.0
  0
VERTEX
  5
89
330
88
100
AcDbEntity
  8
_U+30EC_U+30A4_U+30E4_U+30FC 1
 62
     7
420
 16777215
370
     9
100
AcDbVertex
100
AcDb2dVertex
 10
96.40548587382449
 20
-132.8446105223444
 30
0.0
  0
VERTEX
  5
8A
330
88
100
AcDbEntity
  8
_U+30EC_U+30A4_U+30E4_U+30FC 1
 62
     7
420
 16777215
370
     9
100
AcDbVertex
100
AcDb2dVertex
 10
110.8659171715748
 20
-132.8446105223444
 30
0.0
  0
SEQEND
  5
8B
330
88
100
AcDbEntity
  8
_U+30EC_U+30A4_U+30E4_U+30FC 1
 62
     7
420
 16777215
370
     9
  0
INSERT
  5
8D
330
80
100
AcDbEntity
  8
_U+30EC_U+30A4_U+30E4_U+30FC 1
100
AcDbBlockReference
  2
block 5
 10
0.0
 20
0.0
 30
0.0
  0
ENDBLK
  5
83
330
80
100
AcDbEntity
  8
0
100
AcDbBlockEnd
  0
BLOCK
  5
8E
330
8C
100
AcDbEntity
  8
0
100
AcDbBlockBegin
  2
block 5
 70
     0
 10
0.0
 20
0.0
 30
0.0
  3
block 5
  1

  0
SPLINE
  5
90
330
8C
100
AcDbEntity
  8
_U+30EC_U+30A4_U+30E4_U+30FC 1
370
     0
100
AcDbSpline
210
0.0
220
0.0
230
1.0
 70
    11
 71
     3
 72
    32
 73
    28
 74
     0
 42
0.0000000001
 43
0.0000000001
 12
1.0
 22
0.0
 32
0.0
 13
1.0
 23
0.0
 33
0.0
 40
0.0
 40
0.0
 40
0.0
 40
0.0
 40
1.0
 40
1.0
 40
1.0
 40
2.0
 40
2.0
 40
2.0
 40
3.0
 40
3.0
 40
3.0
 40
4.0
 40
4.0
 40
4.0
 40
5.0
 40
5.0
 40
5.0
 40
6.0
 40
6.0
 40
6.0
 40
7.0
 40
7.0
 40
7.0
 40
8.0
 40
8.0
 40
8.0
 40
9.0
 40
9.0
 40
9.0
 40
9.0
 10
109.2705050725088
 20
-130.6018472980787
 30
0.0
 10
109.2705050725088
 20
-131.1179226017691
 30
0.0
 10
108.7165337184806
 20
-131.1265353404823
 30
0.0
 10
108.5025932888466
 20
-131.1265353404823
 30
0.0
 10
108.2721164008834
 20
-131.1265353404823
 30
0.0
 10
107.6247829592049
 20
-131.1072428057649
 30
0.0
 10
107.6247829592049
 20
-130.5636067381924
 30
0.0
 10
107.6247829592049
 20
-130.3903184352844
 30
0.0
 10
107.6947183975555
 20
-130.1446831271861
 30
0.0
 10
108.0268256023336
 20
-130.1067870768483
 30
0.0
 10
108.0268256023336
 20
-130.1067870768483
 30
0.0
 10
108.0268256023336
 20
-130.3203829969338
 30
0.0
 10
108.0268256023336
 20
-130.3203829969338
 30
0.0
 10
107.9696370172784
 20
-130.3310627929381
 30
0.0
 10
107.8214979114127
 20
-130.3627576714024
 30
0.0
 10
107.8214979114127
 20
-130.5656737954836
 30
0.0
 10
107.8214979114127
 20
-130.8578178926328
 30
0.0
 10
108.1494710016085
 20
-130.8977810002617
 30
0.0
 10
108.3544541829808
 20
-130.9105278535571
 30
0.0
 10
108.2762505154657
 20
-130.8175102754554
 30
0.0
 10
108.2169948731194
 20
-130.7496418943959
 30
0.0
 10
108.2169948731194
 20
-130.5677408527747
 30
0.0
 10
108.2169948731194
 20
-130.3879068684447
 30
0.0
 10
108.3251708713562
 20
-130.0854274848398
 30
0.0
 10
108.7313476290672
 20
-130.0854274848398
 30
0.0
 10
109.0507079805498
 20
-130.0854274848398
 30
0.0
 10
109.2705050725088
 20
-130.2845540038872
 30
0.0
 10
109.2705050725088
 20
-130.6018472980787
 30
0.0
  0
SPLINE
  5
91
330
8C
100
AcDbEntity
  8
_U+30EC_U+30A4_U+30E4_U+30FC 1
370
     0
100
AcDbSpline
210
0.0
220
0.0
230
1.0
 70
    11
 71
     3
 72
    17
 73
    13
 74
     0
 42
0.0000000001
 43
0.0000000001
 12
1.0
 22
0.0
 32
0.0
 13
1.0
 23
0.0
 33
0.0
 40
0.0
 40
0.0
 40
0.0
 40
0.0
 40
1.0
 40
1.0
 40
1.0
 40
2.0
 40
2.0
 40
2.0
 40
3.0
 40
3.0
 40
3.0
 40
4.0
 40
4.0
 40
4.0
 40
4.0
 10
108.411642768036
 20
-130.584966330201
 30
0.0
 10
108.411642768036
 20
-130.8471380966285
 30
0.0
 10
108.6231716308303
 20
-130.8850341469662
 30
0.0
 10
108.7396158582318
 20
-130.8850341469662
 30
0.0
 10
108.9153157279795
 20
-130.8850341469662
 30
0.0
 10
109.0782687444318
 20
-130.7899495115734
 30
0.0
 10
109.0782687444318
 20
-130.605981412661
 30
0.0
 10
109.0782687444318
 20
-130.4854030706773
 30
0.0
 10
109.0190131020855
 20
-130.3097032009295
 30
0.0
 10
108.7334146863583
 20
-130.3097032009295
 30
0.0
 10
108.5091389702686
 20
-130.3097032009295
 30
0.0
 10
108.411642768036
 20
-130.4492295680821
 30
0.0
 10
108.411642768036
 20
-130.584966330201
 30
0.0
  0
HATCH
  5
92
330
8C
100
AcDbEntity
  8
_U+30EC_U+30A4_U+30E4_U+30FC 1
 62
     7
420
 16777215
100
AcDbHatch
 10
0.0
 20
0.0
 30
0.0
210
0.0
220
0.0
230
1.0
  2
SOLID
 70
     1
 71
     0
 91
        2
 92
        1
 93
        1
 72
     4
 94
        3
 73
     0
 74
     1
 95
       32
 96
       28
 40
0.0
 40
0.0
 40
0.0
 40
0.0
 40
1.0
 40
1.0
 40
1.0
 40
2.0
 40
2.0
 40
2.0
 40
3.0
 40
3.0
 40
3.0
 40
4.0
 40
4.0
 40
4.0
 40
5.0
 40
5.0
 40
5.0
 40
6.0
 40
6.0
 40
6.0
 40
7.0
 40
7.0
 40
7.0
 40
8.0
 40
8.0
 40
8.0
 40
9.0
 40
9.0
 40
9.0
 40
9.0
 10
109.2705050725088
 20
-130.6018472980787
 10
109.2705050725088
 20
-131.1179226017691
 10
108.7165337184806
 20
-131.1265353404823
 10
108.5025932888466
 20
-131.1265353404823
 10
108.2721164008834
 20
-131.1265353404823
 10
107.6247829592049
 20
-131.1072428057649
 10
107.6247829592049
 20
-130.5636067381924
 10
107.6247829592049
 20
-130.3903184352844
 10
107.6947183975555
 20
-130.1446831271861
 10
108.0268256023336
 20
-130.1067870768483
 10
108.0268256023336
 20
-130.1067870768483
 10
108.0268256023336
 20
-130.3203829969338
 10
108.0268256023336
 20
-130.3203829969338
 10
107.9696370172784
 20
-130.3310627929381
 10
107.8214979114127
 20
-130.3627576714024
 10
107.8214979114127
 20
-130.5656737954836
 10
107.8214979114127
 20
-130.8578178926328
 10
108.1494710016085
 20
-130.8977810002617
 10
108.3544541829808
 20
-130.9105278535571
 10
108.2762505154657
 20
-130.8175102754554
 10
108.2169948731194
 20
-130.7496418943959
 10
108.2169948731194
 20
-130.5677408527747
 10
108.2169948731194
 20
-130.3879068684447
 10
108.3251708713562
 20
-130.0854274848398
 10
108.7313476290672
 20
-130.0854274848398
 10
109.0507079805498
 20
-130.0854274848398
 10
109.2705050725088
 20
-130.2845540038872
 10
109.2705050725088
 20
-130.6018472980787
 97
        0
 97
        0
 92
        1
 93
        1
 72
     4
 94
        3
 73
     0
 74
     1
 95
       17
 96
       13
 40
0.0
 40
0.0
 40
0.0
 40
0.0
 40
1.0
 40
1.0
 40
1.0
 40
2.0
 40
2.0
 40
2.0
 40
3.0
 40
3.0
 40
3.0
 40
4.0
 40
4.0
 40
4.0
 40
4.0
 10
108.411642768036
 20
-130.584966330201
 10
108.411642768036
 20
-130.8471380966285
 10
108.6231716308303
 20
-130.8850341469662
 10
108.7396158582318
 20
-130.8850341469662
 10
108.9153157279795
 20
-130.8850341469662
 10
109.0782687444318
 20
-130.7899495115734
 10
109.0782687444318
 20
-130.605981412661
 10
109.0782687444318
 20
-130.4854030706773
 10
109.0190131020855
 20
-130.3097032009295
 10
108.7334146863583
 20
-130.3097032009295
 10
108.5091389702686
 20
-130.3097032009295
 10
108.411642768036
 20
-130.4492295680821
 10
108.411642768036
 20
-130.584966330201
 97
        0
 97
        0
 75
     2
 76
     1
 98
        0
  0
POLYLINE
  5
93
330
8C
100
AcDbEntity
  8
_U+30EC_U+30A4_U+30E4_U+30FC 1
370
     0
100
AcDb2dPolyline
 66
     1
 10
0.0
 20
0.0
 30
0.0
  0
VERTEX
  5
94
330
93
100
AcDbEntity
  8
_U+30EC_U+30A4_U+30E4_U+30FC 1
370
     0
100
AcDbVertex
100
AcDb2dVertex
 10
109.2198621688756
 20
-129.8690754883661
 30
0.0
  0
VERTEX
  5
95
330
93
100
AcDbEntity
  8
_U+30EC_U+30A4_U+30E4_U+30FC 1
370
     0
100
AcDbVertex
100
AcDb2dVertex
 10
108.9680256889038
 20
-129.8690754883661
 30
0.0
  0
VERTEX
  5
96
330
93
100
AcDbEntity
  8
_U+30EC_U+30A4_U+30E4_U+30FC 1
370
     0
100
AcDbVertex
100
AcDb2dVertex
 10
108.9680256889038
 20
-129.6172390083943
 30
0.0
  0
VERTEX
  5
97
330
93
100
AcDbEntity
  8
_U+30EC_U+30A4_U+30E4_U+30FC 1
370
     0
100
AcDbVertex
100
AcDb2dVertex
 10
109.2198621688756
 20
-129.6172390083943
 30
0.0
  0
VERTEX
  5
98
330
93
100
AcDbEntity
  8
_U+30EC_U+30A4_U+30E4_U+30FC 1
370
     0
100
AcDbVertex
100
AcDb2dVertex
 10
109.2198621688756
 20
-129.8690754883661
 30
0.0
  0
SEQEND
  5
99
330
93
100
AcDbEntity
  8
_U+30EC_U+30A4_U+30E4_U+30FC 1
370
     0
  0
HATCH
  5
9A
330
8C
100
AcDbEntity
  8
_U+30EC_U+30A4_U+30E4_U+30FC 1
 62
     7
420
 16777215
100
AcDbHatch
 10
0.0
 20
0.0
 30
0.0
210
0.0
220
0.0
230
1.0
  2
SOLID
 70
     1
 71
     0
 91
        1
 92
        1
 93
        4
 72
     1
 10
109.2198621688756
 20
-129.8690754883661
 11
108.9680256889038
 21
-129.8690754883661
 72
     1
 10
108.9680256889038
 20
-129.8690754883661
 11
108.9680256889038
 21
-129.6172390083943
 72
     1
 10
108.9680256889038
 20
-129.6172390083943
 11
109.2198621688756
 21
-129.6172390083943
 72
     1
 10
109.2198621688756
 20
-129.6172390083943
 11
109.2198621688756
 21
-129.8690754883661
 97
        0
 75
     2
 76
     1
 98
        0
  0
SPLINE
  5
9B
330
8C
100
AcDbEntity
  8
_U+30EC_U+30A4_U+30E4_U+30FC 1
370
     0
100
AcDbSpline
210
0.0
220
0.0
230
1.0
 70
    11
 71
     3
 72
    44
 73
    40
 74
     0
 42
0.0000000001
 43
0.0000000001
 12
1.0
 22
0.0
 32
0.0
 13
1.0
 23
0.0
 33
0.0
 40
0.0
 40
0.0
 40
0.0
 40
0.0
 40
1.0
 40
1.0
 40
1.0
 40
2.0
 40
2.0
 40
2.0
 40
3.0
 40
3.0
 40
3.0
 40
4.0
 40
4.0
 40
4.0
 40
5.0
 40
5.0
 40
5.0
 40
6.0
 40
6.0
 40
6.0
 40
7.0
 40
7.0
 40
7.0
 40
8.0
 40
8.0
 40
8.0
 40
9.0
 40
9.0
 40
9.0
 40
10.0
 40
10.0
 40
10.0
 40
11.0
 40
11.0
 40
11.0
 40
12.0
 40
12.0
 40
12.0
 40
13.0
 40
13.0
 40
13.0
 40
13.0
 10
108.6379855414169
 20
-128.7880045250947
 30
0.0
 10
108.7968044432869
 20
-129.0057345597625
 30
0.0
 10
108.8708739962198
 20
-129.0987521378642
 30
0.0
 10
109.0145344779547
 20
-129.1476724937548
 30
0.0
 10
109.0145344779547
 20
-129.1476724937548
 30
0.0
 10
109.0145344779547
 20
-128.3690809140883
 30
0.0
 10
109.0145344779547
 20
-128.3690809140883
 30
0.0
 10
109.0145344779547
 20
-128.3690809140883
 30
0.0
 10
109.2198621688756
 20
-128.3690809140883
 30
0.0
 10
109.2198621688756
 20
-128.3690809140883
 30
0.0
 10
109.2198621688756
 20
-128.3690809140883
 30
0.0
 10
109.2198621688756
 20
-129.3970974068868
 30
0.0
 10
109.2198621688756
 20
-129.3970974068868
 30
0.0
 10
108.8622612575067
 20
-129.3654025284225
 30
0.0
 10
108.7840575899915
 20
-129.2999457142028
 30
0.0
 10
108.4857123209689
 20
-128.9147840389519
 30
0.0
 10
108.2869303114699
 20
-128.6588134443978
 30
0.0
 10
108.2190619304105
 20
-128.5933566301781
 30
0.0
 10
108.081602620549
 20
-128.5933566301781
 30
0.0
 10
107.9630913358565
 20
-128.5933566301781
 30
0.0
 10
107.832177707417
 20
-128.6653591258198
 30
0.0
 10
107.832177707417
 20
-128.8620740780275
 30
0.0
 10
107.832177707417
 20
-129.1221787871639
 30
0.0
 10
108.0626545953802
 20
-129.1304470163285
 30
0.0
 10
108.1790988227816
 20
-129.1349256404593
 30
0.0
 10
108.1790988227816
 20
-129.1349256404593
 30
0.0
 10
108.1790988227816
 20
-129.3592013565491
 30
0.0
 10
108.1790988227816
 20
-129.3592013565491
 30
0.0
 10
108.0519747993759
 20
-129.350588617836
 30
0.0
 10
107.9400091961053
 20
-129.3399088218317
 30
0.0
 10
107.8214979114127
 20
-129.2596380970254
 30
0.0
 10
107.6606119522515
 20
-129.1497395510459
 30
0.0
 10
107.6268500164961
 20
-128.9633598852939
 30
0.0
 10
107.6268500164961
 20
-128.847260167441
 30
0.0
 10
107.6268500164961
 20
-128.5699299808784
 30
0.0
 10
107.8108181154084
 20
-128.3625352326663
 30
0.0
 10
108.0836696778402
 20
-128.3625352326663
 30
0.0
 10
108.3124240180608
 20
-128.3625352326663
 30
0.0
 10
108.411642768036
 20
-128.4789794600678
 30
0.0
 10
108.6379855414169
 20
-128.7880045250947
 30
0.0
  0
HATCH
  5
9C
330
8C
100
AcDbEntity
  8
_U+30EC_U+30A4_U+30E4_U+30FC 1
 62
     7
420
 16777215
100
AcDbHatch
 10
0.0
 20
0.0
 30
0.0
210
0.0
220
0.0
230
1.0
  2
SOLID
 70
     1
 71
     0
 91
        1
 92
        1
 93
        1
 72
     4
 94
        3
 73
     0
 74
     1
 95
       44
 96
       40
 40
0.0
 40
0.0
 40
0.0
 40
0.0
 40
1.0
 40
1.0
 40
1.0
 40
2.0
 40
2.0
 40
2.0
 40
3.0
 40
3.0
 40
3.0
 40
4.0
 40
4.0
 40
4.0
 40
5.0
 40
5.0
 40
5.0
 40
6.0
 40
6.0
 40
6.0
 40
7.0
 40
7.0
 40
7.0
 40
8.0
 40
8.0
 40
8.0
 40
9.0
 40
9.0
 40
9.0
 40
10.0
 40
10.0
 40
10.0
 40
11.0
 40
11.0
 40
11.0
 40
12.0
 40
12.0
 40
12.0
 40
13.0
 40
13.0
 40
13.0
 40
13.0
 10
108.6379855414169
 20
-128.7880045250947
 10
108.7968044432869
 20
-129.0057345597625
 10
108.8708739962198
 20
-129.0987521378642
 10
109.0145344779547
 20
-129.1476724937548
 10
109.0145344779547
 20
-129.1476724937548
 10
109.0145344779547
 20
-128.3690809140883
 10
109.0145344779547
 20
-128.3690809140883
 10
109.0145344779547
 20
-128.3690809140883
 10
109.2198621688756
 20
-128.3690809140883
 10
109.2198621688756
 20
-128.3690809140883
 10
109.2198621688756
 20
-128.3690809140883
 10
109.2198621688756
 20
-129.3970974068868
 10
109.2198621688756
 20
-129.3970974068868
 10
108.8622612575067
 20
-129.3654025284225
 10
108.7840575899915
 20
-129.2999457142028
 10
108.4857123209689
 20
-128.9147840389519
 10
108.2869303114699
 20
-128.6588134443978
 10
108.2190619304105
 20
-128.5933566301781
 10
108.081602620549
 20
-128.5933566301781
 10
107.9630913358565
 20
-128.5933566301781
 10
107.832177707417
 20
-128.6653591258198
 10
107.832177707417
 20
-128.8620740780275
 10
107.832177707417
 20
-129.1221787871639
 10
108.0626545953802
 20
-129.1304470163285
 10
108.1790988227816
 20
-129.1349256404593
 10
108.1790988227816
 20
-129.1349256404593
 10
108.1790988227816
 20
-129.3592013565491
 10
108.1790988227816
 20
-129.3592013565491
 10
108.0519747993759
 20
-129.350588617836
 10
107.9400091961053
 20
-129.3399088218317
 10
107.8214979114127
 20
-129.2596380970254
 10
107.6606119522515
 20
-129.1497395510459
 10
107.6268500164961
 20
-128.9633598852939
 10
107.6268500164961
 20
-128.847260167441
 10
107.6268500164961
 20
-128.5699299808784
 10
107.8108181154084
 20
-128.3625352326663
 10
108.0836696778402
 20
-128.3625352326663
 10
108.3124240180608
 20
-128.3625352326663
 10
108.411642768036
 20
-128.4789794600678
 10
108.6379855414169
 20
-128.7880045250947
 97
        0
 97
        0
 75
     2
 76
     1
 98
        0
  0
ENDBLK
  5
8F
330
8C
100
AcDbEntity
  8
0
100
AcDbBlockEnd
  0
BLOCK
  5
AB
330
A9
100
AcDbEntity
  8
0
100
AcDbBlockBegin
  2
block 6
 70
     0
 10
0.0
 20
0.0
 30
0.0
  3
block 6
  1

  0
SPLINE
  5
AD
330
A9
100
AcDbEntity
  8
_U+30EC_U+30A4_U+30E4_U+30FC 1
370
     0
100
AcDbSpline
210
0.0
220
0.0
230
1.0
 70
    11
 71
     3
 72
    62
 73
    58
 74
     0
 42
0.0000000001
 43
0.0000000001
 12
1.0
 22
0.0
 32
0.0
 13
1.0
 23
0.0
 33
0.0
 40
0.0
 40
0.0
 40
0.0
 40
0.0
 40
1.0
 40
1.0
 40
1.0
 40
2.0
 40
2.0
 40
2.0
 40
3.0
 40
3.0
 40
3.0
 40
4.0
 40
4.0
 40
4.0
 40
5.0
 40
5.0
 40
5.0
 40
6.0
 40
6.0
 40
6.0
 40
7.0
 40
7.0
 40
7.0
 40
8.0
 40
8.0
 40
8.0
 40
9.0
 40
9.0
 40
9.0
 40
10.0
 40
10.0
 40
10.0
 40
11.0
 40
11.0
 40
11.0
 40
12.0
 40
12.0
 40
12.0
 40
13.0
 40
13.0
 40
13.0
 40
14.0
 40
14.0
 40
14.0
 40
15.0
 40
15.0
 40
15.0
 40
16.0
 40
16.0
 40
16.0
 40
17.0
 40
17.0
 40
17.0
 40
18.0
 40
18.0
 40
18.0
 40
19.0
 40
19.0
 40
19.0
 40
19.0
 10
87.76863062041896
 20
-121.0491142818037
 30
0.0
 10
87.6733737302518
 20
-121.0491142818037
 30
0.0
 10
87.45547144080975
 20
-121.0279269445694
 30
0.0
 10
87.3307589842437
 20
-120.8417195335917
 30
0.0
 10
87.25668943131083
 20
-120.7295816755468
 30
0.0
 10
87.25238306195428
 20
-120.6301906707973
 30
0.0
 10
87.24824894737196
 20
-120.5456135766344
 30
0.0
 10
87.24824894737196
 20
-120.5456135766344
 30
0.0
 10
87.46821829410517
 20
-120.5456135766344
 30
0.0
 10
87.46821829410517
 20
-120.5456135766344
 30
0.0
 10
87.47028535139633
 20
-120.6196831295673
 30
0.0
 10
87.4809651474006
 20
-120.8544663868871
 30
0.0
 10
87.76449650583666
 20
-120.8544663868871
 30
0.0
 10
87.90195581569813
 20
-120.8544663868871
 30
0.0
 10
88.05422903614617
 20
-120.7847032033108
 30
0.0
 10
88.05422903614617
 20
-120.5561211178644
 30
0.0
 10
88.05422903614617
 20
-120.4398491452373
 30
0.0
 10
88.01616073103416
 20
-120.391101044121
 30
0.0
 10
87.98446585256985
 20
-120.3594061656567
 30
0.0
 10
87.91039629963699
 20
-120.2853366127238
 30
0.0
 10
87.79395207223554
 20
-120.2727620142027
 30
0.0
 10
87.73900279924581
 20
-120.2727620142027
 30
0.0
 10
87.72005477407693
 20
-120.2727620142027
 30
0.0
 10
87.68405352625608
 20
-120.2748290714938
 30
0.0
 10
87.65649276237407
 20
-120.2789631860761
 30
0.0
 10
87.65649276237407
 20
-120.2789631860761
 30
0.0
 10
87.65649276237407
 20
-120.0843152911595
 30
0.0
 10
87.65649276237407
 20
-120.0843152911595
 30
0.0
 10
87.69456106748609
 20
-120.0906887178072
 30
0.0
 10
87.73693574195465
 20
-120.0929280298726
 30
0.0
 10
87.74330916860237
 20
-120.0929280298726
 30
0.0
 10
87.80876598282212
 20
-120.0929280298726
 30
0.0
 10
88.00772024709529
 20
-120.0717406926383
 30
0.0
 10
88.00772024709529
 20
-119.8347181232531
 30
0.0
 10
88.00772024709529
 20
-119.6571234509885
 30
0.0
 10
87.87646210910728
 20
-119.6020019232245
 30
0.0
 10
87.7665635631278
 20
-119.6020019232245
 30
0.0
 10
87.50215248463488
 20
-119.6020019232245
 30
0.0
 10
87.49371200069602
 20
-119.8347181232531
 30
0.0
 10
87.48940563133945
 20
-119.9067206188949
 30
0.0
 10
87.48940563133945
 20
-119.9067206188949
 30
0.0
 10
87.28631725248398
 20
-119.9067206188949
 30
0.0
 10
87.28631725248398
 20
-119.9067206188949
 30
0.0
 10
87.29475773642284
 20
-119.7818359075546
 30
0.0
 10
87.32231850030485
 20
-119.4052869710167
 30
0.0
 10
87.77913816164897
 20
-119.4052869710167
 30
0.0
 10
88.00341387773874
 20
-119.4052869710167
 30
0.0
 10
88.24457056170623
 20
-119.5322387396482
 30
0.0
 10
88.24457056170623
 20
-119.8283446966054
 30
0.0
 10
88.24457056170623
 20
-120.0145521075832
 30
0.0
 10
88.14948592631333
 20
-120.0970621444549
 30
0.0
 10
88.04992266678961
 20
-120.1583848440924
 30
0.0
 10
88.11141762120131
 20
-120.1859456079743
 30
0.0
 10
88.29331866282251
 20
-120.2663885875549
 30
0.0
 10
88.29331866282251
 20
-120.5435465193433
 30
0.0
 10
88.29331866282251
 20
-120.8820271507691
 30
0.0
 10
88.04578855220731
 20
-121.0491142818037
 30
0.0
 10
87.76863062041896
 20
-121.0491142818037
 30
0.0
  0
HATCH
  5
AE
330
A9
100
AcDbEntity
  8
_U+30EC_U+30A4_U+30E4_U+30FC 1
 62
     7
420
 16777215
100
AcDbHatch
 10
0.0
 20
0.0
 30
0.0
210
0.0
220
0.0
230
1.0
  2
SOLID
 70
     1
 71
     0
 91
        1
 92
        1
 93
        1
 72
     4
 94
        3
 73
     0
 74
     1
 95
       62
 96
       58
 40
0.0
 40
0.0
 40
0.0
 40
0.0
 40
1.0
 40
1.0
 40
1.0
 40
2.0
 40
2.0
 40
2.0
 40
3.0
 40
3.0
 40
3.0
 40
4.0
 40
4.0
 40
4.0
 40
5.0
 40
5.0
 40
5.0
 40
6.0
 40
6.0
 40
6.0
 40
7.0
 40
7.0
 40
7.0
 40
8.0
 40
8.0
 40
8.0
 40
9.0
 40
9.0
 40
9.0
 40
10.0
 40
10.0
 40
10.0
 40
11.0
 40
11.0
 40
11.0
 40
12.0
 40
12.0
 40
12.0
 40
13.0
 40
13.0
 40
13.0
 40
14.0
 40
14.0
 40
14.0
 40
15.0
 40
15.0
 40
15.0
 40
16.0
 40
16.0
 40
16.0
 40
17.0
 40
17.0
 40
17.0
 40
18.0
 40
18.0
 40
18.0
 40
19.0
 40
19.0
 40
19.0
 40
19.0
 10
87.76863062041896
 20
-121.0491142818037
 10
87.6733737302518
 20
-121.0491142818037
 10
87.45547144080975
 20
-121.0279269445694
 10
87.3307589842437
 20
-120.8417195335917
 10
87.25668943131083
 20
-120.7295816755468
 10
87.25238306195428
 20
-120.6301906707973
 10
87.24824894737196
 20
-120.5456135766344
 10
87.24824894737196
 20
-120.5456135766344
 10
87.46821829410517
 20
-120.5456135766344
 10
87.46821829410517
 20
-120.5456135766344
 10
87.47028535139633
 20
-120.6196831295673
 10
87.4809651474006
 20
-120.8544663868871
 10
87.76449650583666
 20
-120.8544663868871
 10
87.90195581569813
 20
-120.8544663868871
 10
88.05422903614617
 20
-120.7847032033108
 10
88.05422903614617
 20
-120.5561211178644
 10
88.05422903614617
 20
-120.4398491452373
 10
88.01616073103416
 20
-120.391101044121
 10
87.98446585256985
 20
-120.3594061656567
 10
87.91039629963699
 20
-120.2853366127238
 10
87.79395207223554
 20
-120.2727620142027
 10
87.73900279924581
 20
-120.2727620142027
 10
87.72005477407693
 20
-120.2727620142027
 10
87.68405352625608
 20
-120.2748290714938
 10
87.65649276237407
 20
-120.2789631860761
 10
87.65649276237407
 20
-120.2789631860761
 10
87.65649276237407
 20
-120.0843152911595
 10
87.65649276237407
 20
-120.0843152911595
 10
87.69456106748609
 20
-120.0906887178072
 10
87.73693574195465
 20
-120.0929280298726
 10
87.74330916860237
 20
-120.0929280298726
 10
87.80876598282212
 20
-120.0929280298726
 10
88.00772024709529
 20
-120.0717406926383
 10
88.00772024709529
 20
-119.8347181232531
 10
88.00772024709529
 20
-119.6571234509885
 10
87.87646210910728
 20
-119.6020019232245
 10
87.7665635631278
 20
-119.6020019232245
 10
87.50215248463488
 20
-119.6020019232245
 10
87.49371200069602
 20
-119.8347181232531
 10
87.48940563133945
 20
-119.9067206188949
 10
87.48940563133945
 20
-119.9067206188949
 10
87.28631725248398
 20
-119.9067206188949
 10
87.28631725248398
 20
-119.9067206188949
 10
87.29475773642284
 20
-119.7818359075546
 10
87.32231850030485
 20
-119.4052869710167
 10
87.77913816164897
 20
-119.4052869710167
 10
88.00341387773874
 20
-119.4052869710167
 10
88.24457056170623
 20
-119.5322387396482
 10
88.24457056170623
 20
-119.8283446966054
 10
88.24457056170623
 20
-120.0145521075832
 10
88.14948592631333
 20
-120.0970621444549
 10
88.04992266678961
 20
-120.1583848440924
 10
88.11141762120131
 20
-120.1859456079743
 10
88.29331866282251
 20
-120.2663885875549
 10
88.29331866282251
 20
-120.5435465193433
 10
88.29331866282251
 20
-120.8820271507691
 10
88.04578855220731
 20
-121.0491142818037
 10
87.76863062041896
 20
-121.0491142818037
 97
        0
 97
        0
 75
     2
 76
     1
 98
        0
  0
SPLINE
  5
AF
330
A9
100
AcDbEntity
  8
_U+30EC_U+30A4_U+30E4_U+30FC 1
370
     0
100
AcDbSpline
210
0.0
220
0.0
230
1.0
 70
    11
 71
     3
 72
    53
 73
    49
 74
     0
 42
0.0000000001
 43
0.0000000001
 12
1.0
 22
0.0
 32
0.0
 13
1.0
 23
0.0
 33
0.0
 40
0.0
 40
0.0
 40
0.0
 40
0.0
 40
1.0
 40
1.0
 40
1.0
 40
2.0
 40
2.0
 40
2.0
 40
3.0
 40
3.0
 40
3.0
 40
4.0
 40
4.0
 40
4.0
 40
5.0
 40
5.0
 40
5.0
 40
6.0
 40
6.0
 40
6.0
 40
7.0
 40
7.0
 40
7.0
 40
8.0
 40
8.0
 40
8.0
 40
9.0
 40
9.0
 40
9.0
 40
10.0
 40
10.0
 40
10.0
 40
11.0
 40
11.0
 40
11.0
 40
12.0
 40
12.0
 40
12.0
 40
13.0
 40
13.0
 40
13.0
 40
14.0
 40
14.0
 40
14.0
 40
15.0
 40
15.0
 40
15.0
 40
16.0
 40
16.0
 40
16.0
 40
16.0
 10
88.9349676969503
 20
-121.0491142818037
 30
0.0
 10
88.85659177466086
 20
-121.0491142818037
 30
0.0
 10
88.75513371262025
 20
-121.0320610591517
 30
0.0
 10
88.65350339580537
 20
-120.9686713022231
 30
0.0
 10
88.48004283812305
 20
-120.8586005014694
 30
0.0
 10
88.45885550088876
 20
-120.7275146182556
 30
0.0
 10
88.43990747571989
 20
-120.6196831295673
 30
0.0
 10
88.43990747571989
 20
-120.6196831295673
 30
0.0
 10
88.66194387974424
 20
-120.6196831295673
 30
0.0
 10
88.66194387974424
 20
-120.6196831295673
 30
0.0
 10
88.71706540750824
 20
-120.8184651390662
 30
0.0
 10
88.8440171761397
 20
-120.8480929602394
 30
0.0
 10
88.93703475424144
 20
-120.8480929602394
 30
0.0
 10
89.07673337616832
 20
-120.8480929602394
 30
0.0
 10
89.22900659661636
 20
-120.7487019554899
 30
0.0
 10
89.22900659661636
 20
-120.5159857554613
 30
0.0
 10
89.22900659661636
 20
-120.2600151609072
 30
0.0
 10
89.04917261228633
 20
-120.1902519773309
 30
0.0
 10
88.92859427030258
 20
-120.1902519773309
 30
0.0
 10
88.89689939183828
 20
-120.1902519773309
 30
0.0
 10
88.75513371262025
 20
-120.1902519773309
 30
0.0
 10
88.6662502491008
 20
-120.3192708032535
 30
0.0
 10
88.6662502491008
 20
-120.3192708032535
 30
0.0
 10
88.49072263412732
 20
-120.3001505233104
 30
0.0
 10
88.49072263412732
 20
-120.3001505233104
 30
0.0
 10
88.49072263412732
 20
-120.3001505233104
 30
0.0
 10
88.61130097611107
 20
-119.454035072133
 30
0.0
 10
88.61130097611107
 20
-119.454035072133
 30
0.0
 10
88.61130097611107
 20
-119.454035072133
 30
0.0
 10
89.38972030100327
 20
-119.454035072133
 30
0.0
 10
89.38972030100327
 20
-119.454035072133
 30
0.0
 10
89.38972030100327
 20
-119.454035072133
 30
0.0
 10
89.38972030100327
 20
-119.6486829670496
 30
0.0
 10
89.38972030100327
 20
-119.6486829670496
 30
0.0
 10
89.38972030100327
 20
-119.6486829670496
 30
0.0
 10
88.77408173778912
 20
-119.6486829670496
 30
0.0
 10
88.77408173778912
 20
-119.6486829670496
 30
0.0
 10
88.77408173778912
 20
-119.6486829670496
 30
0.0
 10
88.70862492356937
 20
-120.0717406926383
 30
0.0
 10
88.70862492356937
 20
-120.0717406926383
 30
0.0
 10
88.76994762320682
 20
-120.0378065021086
 30
0.0
 10
88.85245766007856
 20
-119.9976711397054
 30
0.0
 10
88.97079668999689
 20
-119.9976711397054
 30
0.0
 10
89.2247002272598
 20
-119.9976711397054
 30
0.0
 10
89.46172279664499
 20
-120.1838785506832
 30
0.0
 10
89.46172279664499
 20
-120.4968654755181
 30
0.0
 10
89.46172279664499
 20
-120.8143310244839
 30
0.0
 10
89.23744708055523
 20
-121.0491142818037
 30
0.0
 10
88.9349676969503
 20
-121.0491142818037
 30
0.0
  0
HATCH
  5
B0
330
A9
100
AcDbEntity
  8
_U+30EC_U+30A4_U+30E4_U+30FC 1
 62
     7
420
 16777215
100
AcDbHatch
 10
0.0
 20
0.0
 30
0.0
210
0.0
220
0.0
230
1.0
  2
SOLID
 70
     1
 71
     0
 91
        1
 92
        1
 93
        1
 72
     4
 94
        3
 73
     0
 74
     1
 95
       53
 96
       49
 40
0.0
 40
0.0
 40
0.0
 40
0.0
 40
1.0
 40
1.0
 40
1.0
 40
2.0
 40
2.0
 40
2.0
 40
3.0
 40
3.0
 40
3.0
 40
4.0
 40
4.0
 40
4.0
 40
5.0
 40
5.0
 40
5.0
 40
6.0
 40
6.0
 40
6.0
 40
7.0
 40
7.0
 40
7.0
 40
8.0
 40
8.0
 40
8.0
 40
9.0
 40
9.0
 40
9.0
 40
10.0
 40
10.0
 40
10.0
 40
11.0
 40
11.0
 40
11.0
 40
12.0
 40
12.0
 40
12.0
 40
13.0
 40
13.0
 40
13.0
 40
14.0
 40
14.0
 40
14.0
 40
15.0
 40
15.0
 40
15.0
 40
16.0
 40
16.0
 40
16.0
 40
16.0
 10
88.9349676969503
 20
-121.0491142818037
 10
88.85659177466086
 20
-121.0491142818037
 10
88.75513371262025
 20
-121.0320610591517
 10
88.65350339580537
 20
-120.9686713022231
 10
88.48004283812305
 20
-120.8586005014694
 10
88.45885550088876
 20
-120.7275146182556
 10
88.43990747571989
 20
-120.6196831295673
 10
88.43990747571989
 20
-120.6196831295673
 10
88.66194387974424
 20
-120.6196831295673
 10
88.66194387974424
 20
-120.6196831295673
 10
88.71706540750824
 20
-120.8184651390662
 10
88.8440171761397
 20
-120.8480929602394
 10
88.93703475424144
 20
-120.8480929602394
 10
89.07673337616832
 20
-120.8480929602394
 10
89.22900659661636
 20
-120.7487019554899
 10
89.22900659661636
 20
-120.5159857554613
 10
89.22900659661636
 20
-120.2600151609072
 10
89.04917261228633
 20
-120.1902519773309
 10
88.92859427030258
 20
-120.1902519773309
 10
88.89689939183828
 20
-120.1902519773309
 10
88.75513371262025
 20
-120.1902519773309
 10
88.6662502491008
 20
-120.3192708032535
 10
88.6662502491008
 20
-120.3192708032535
 10
88.49072263412732
 20
-120.3001505233104
 10
88.49072263412732
 20
-120.3001505233104
 10
88.49072263412732
 20
-120.3001505233104
 10
88.61130097611107
 20
-119.454035072133
 10
88.61130097611107
 20
-119.454035072133
 10
88.61130097611107
 20
-119.454035072133
 10
89.38972030100327
 20
-119.454035072133
 10
89.38972030100327
 20
-119.454035072133
 10
89.38972030100327
 20
-119.454035072133
 10
89.38972030100327
 20
-119.6486829670496
 10
89.38972030100327
 20
-119.6486829670496
 10
89.38972030100327
 20
-119.6486829670496
 10
88.77408173778912
 20
-119.6486829670496
 10
88.77408173778912
 20
-119.6486829670496
 10
88.77408173778912
 20
-119.6486829670496
 10
88.70862492356937
 20
-120.0717406926383
 10
88.70862492356937
 20
-120.0717406926383
 10
88.76994762320682
 20
-120.0378065021086
 10
88.85245766007856
 20
-119.9976711397054
 10
88.97079668999689
 20
-119.9976711397054
 10
89.2247002272598
 20
-119.9976711397054
 10
89.46172279664499
 20
-120.1838785506832
 10
89.46172279664499
 20
-120.4968654755181
 10
89.46172279664499
 20
-120.8143310244839
 10
89.23744708055523
 20
-121.0491142818037
 10
88.9349676969503
 20
-121.0491142818037
 97
        0
 97
        0
 75
     2
 76
     1
 98
        0
  0
ENDBLK
  5
AC
330
A9
100
AcDbEntity
  8
0
100
AcDbBlockEnd
  0
BLOCK
  5
BF
330
BD
100
AcDbEntity
  8
0
100
AcDbBlockBegin
  2
block 7
 70
     0
 10
0.0
 20
0.0
 30
0.0
  3
block 7
  1

  0
SPLINE
  5
C1
330
BD
100
AcDbEntity
  8
_U+30EC_U+30A4_U+30E4_U+30FC 1
370
     0
100
AcDbSpline
210
0.0
220
0.0
230
1.0
 70
    11
 71
     3
 72
    26
 73
    22
 74
     0
 42
0.0000000001
 43
0.0000000001
 12
1.0
 22
0.0
 32
0.0
 13
1.0
 23
0.0
 33
0.0
 40
0.0
 40
0.0
 40
0.0
 40
0.0
 40
1.0
 40
1.0
 40
1.0
 40
2.0
 40
2.0
 40
2.0
 40
3.0
 40
3.0
 40
3.0
 40
4.0
 40
4.0
 40
4.0
 40
5.0
 40
5.0
 40
5.0
 40
6.0
 40
6.0
 40
6.0
 40
7.0
 40
7.0
 40
7.0
 40
7.0
 10
77.72807208343256
 20
-137.1985161332351
 30
0.0
 10
77.72807208343256
 20
-137.1985161332351
 30
0.0
 10
77.72807208343256
 20
-136.094018520664
 30
0.0
 10
77.72807208343256
 20
-136.094018520664
 30
0.0
 10
77.72807208343256
 20
-136.094018520664
 30
0.0
 10
77.39803193594564
 20
-136.094018520664
 30
0.0
 10
77.39803193594564
 20
-136.094018520664
 30
0.0
 10
77.39803193594564
 20
-136.094018520664
 30
0.0
 10
77.39803193594564
 20
-135.9462239243468
 30
0.0
 10
77.39803193594564
 20
-135.9462239243468
 30
0.0
 10
77.73013914072372
 20
-135.9314100137602
 30
0.0
 10
77.7766479297746
 20
-135.7684569973079
 30
0.0
 10
77.80627575094773
 20
-135.6540798271976
 30
0.0
 10
77.80627575094773
 20
-135.6540798271976
 30
0.0
 10
77.95234779952233
 20
-135.6540798271976
 30
0.0
 10
77.95234779952233
 20
-135.6540798271976
 30
0.0
 10
77.95234779952233
 20
-135.6540798271976
 30
0.0
 10
77.95234779952233
 20
-137.1985161332351
 30
0.0
 10
77.95234779952233
 20
-137.1985161332351
 30
0.0
 10
77.95234779952233
 20
-137.1985161332351
 30
0.0
 10
77.72807208343256
 20
-137.1985161332351
 30
0.0
 10
77.72807208343256
 20
-137.1985161332351
 30
0.0
  0
HATCH
  5
C2
330
BD
100
AcDbEntity
  8
_U+30EC_U+30A4_U+30E4_U+30FC 1
 62
     7
420
 16777215
100
AcDbHatch
 10
0.0
 20
0.0
 30
0.0
210
0.0
220
0.0
230
1.0
  2
SOLID
 70
     1
 71
     0
 91
        1
 92
        1
 93
        1
 72
     4
 94
        3
 73
     0
 74
     1
 95
       26
 96
       22
 40
0.0
 40
0.0
 40
0.0
 40
0.0
 40
1.0
 40
1.0
 40
1.0
 40
2.0
 40
2.0
 40
2.0
 40
3.0
 40
3.0
 40
3.0
 40
4.0
 40
4.0
 40
4.0
 40
5.0
 40
5.0
 40
5.0
 40
6.0
 40
6.0
 40
6.0
 40
7.0
 40
7.0
 40
7.0
 40
7.0
 10
77.72807208343256
 20
-137.1985161332351
 10
77.72807208343256
 20
-137.1985161332351
 10
77.72807208343256
 20
-136.094018520664
 10
77.72807208343256
 20
-136.094018520664
 10
77.72807208343256
 20
-136.094018520664
 10
77.39803193594564
 20
-136.094018520664
 10
77.39803193594564
 20
-136.094018520664
 10
77.39803193594564
 20
-136.094018520664
 10
77.39803193594564
 20
-135.9462239243468
 10
77.39803193594564
 20
-135.9462239243468
 10
77.73013914072372
 20
-135.9314100137602
 10
77.7766479297746
 20
-135.7684569973079
 10
77.80627575094773
 20
-135.6540798271976
 10
77.80627575094773
 20
-135.6540798271976
 10
77.95234779952233
 20
-135.6540798271976
 10
77.95234779952233
 20
-135.6540798271976
 10
77.95234779952233
 20
-135.6540798271976
 10
77.95234779952233
 20
-137.1985161332351
 10
77.95234779952233
 20
-137.1985161332351
 10
77.95234779952233
 20
-137.1985161332351
 10
77.72807208343256
 20
-137.1985161332351
 10
77.72807208343256
 20
-137.1985161332351
 97
        0
 97
        0
 75
     2
 76
     1
 98
        0
  0
SPLINE
  5
C3
330
BD
100
AcDbEntity
  8
_U+30EC_U+30A4_U+30E4_U+30FC 1
370
     0
100
AcDbSpline
210
0.0
220
0.0
230
1.0
 70
    11
 71
     3
 72
    53
 73
    49
 74
     0
 42
0.0000000001
 43
0.0000000001
 12
1.0
 22
0.0
 32
0.0
 13
1.0
 23
0.0
 33
0.0
 40
0.0
 40
0.0
 40
0.0
 40
0.0
 40
1.0
 40
1.0
 40
1.0
 40
2.0
 40
2.0
 40
2.0
 40
3.0
 40
3.0
 40
3.0
 40
4.0
 40
4.0
 40
4.0
 40
5.0
 40
5.0
 40
5.0
 40
6.0
 40
6.0
 40
6.0
 40
7.0
 40
7.0
 40
7.0
 40
8.0
 40
8.0
 40
8.0
 40
9.0
 40
9.0
 40
9.0
 40
10.0
 40
10.0
 40
10.0
 40
11.0
 40
11.0
 40
11.0
 40
12.0
 40
12.0
 40
12.0
 40
13.0
 40
13.0
 40
13.0
 40
14.0
 40
14.0
 40
14.0
 40
15.0
 40
15.0
 40
15.0
 40
16.0
 40
16.0
 40
16.0
 40
16.0
 10
78.93454452236706
 20
-137.2491590368683
 30
0.0
 10
78.85616860007762
 20
-137.2491590368683
 30
0.0
 10
78.75471053803702
 20
-137.2322780689906
 30
0.0
 10
78.65308022122215
 20
-137.1688883120619
 30
0.0
 10
78.47961966353982
 20
-137.058645256534
 30
0.0
 10
78.45843232630554
 20
-136.9277316280944
 30
0.0
 10
78.43948430113666
 20
-136.8199001394061
 30
0.0
 10
78.43948430113666
 20
-136.8199001394061
 30
0.0
 10
78.66152070516101
 20
-136.8199001394061
 30
0.0
 10
78.66152070516101
 20
-136.8199001394061
 30
0.0
 10
78.71664223292501
 20
-137.0186821489051
 30
0.0
 10
78.84359400155647
 20
-137.0483099700782
 30
0.0
 10
78.9366115796582
 20
-137.0483099700782
 30
0.0
 10
79.07631020158509
 20
-137.0483099700782
 30
0.0
 10
79.22858342203314
 20
-136.9487467105545
 30
0.0
 10
79.22858342203314
 20
-136.7162027653001
 30
0.0
 10
79.22858342203314
 20
-136.4602321707461
 30
0.0
 10
79.0487494377031
 20
-136.3902967323955
 30
0.0
 10
78.92817109571935
 20
-136.3902967323955
 30
0.0
 10
78.89647621725506
 20
-136.3902967323955
 30
0.0
 10
78.75471053803702
 20
-136.3902967323955
 30
0.0
 10
78.66582707451758
 20
-136.5194878130924
 30
0.0
 10
78.66582707451758
 20
-136.5194878130924
 30
0.0
 10
78.49029945954409
 20
-136.5001952783749
 30
0.0
 10
78.49029945954409
 20
-136.5001952783749
 30
0.0
 10
78.49029945954409
 20
-136.5001952783749
 30
0.0
 10
78.61087780152783
 20
-135.6540798271976
 30
0.0
 10
78.61087780152783
 20
-135.6540798271976
 30
0.0
 10
78.61087780152783
 20
-135.6540798271976
 30
0.0
 10
79.38929712642005
 20
-135.6540798271976
 30
0.0
 10
79.38929712642005
 20
-135.6540798271976
 30
0.0
 10
79.38929712642005
 20
-135.6540798271976
 30
0.0
 10
79.38929712642005
 20
-135.8487277221142
 30
0.0
 10
79.38929712642005
 20
-135.8487277221142
 30
0.0
 10
79.38929712642005
 20
-135.8487277221142
 30
0.0
 10
78.7736585632059
 20
-135.8487277221142
 30
0.0
 10
78.7736585632059
 20
-135.8487277221142
 30
0.0
 10
78.7736585632059
 20
-135.8487277221142
 30
0.0
 10
78.70820174898614
 20
-136.2717854477029
 30
0.0
 10
78.70820174898614
 20
-136.2717854477029
 30
0.0
 10
78.7695244486236
 20
-136.2380235119474
 30
0.0
 10
78.85203448549532
 20
-136.19771589477
 30
0.0
 10
78.97037351541366
 20
-136.19771589477
 30
0.0
 10
79.22427705267657
 20
-136.19771589477
 30
0.0
 10
79.46129962206176
 20
-136.384095560522
 30
0.0
 10
79.46129962206176
 20
-136.6969102305827
 30
0.0
 10
79.46129962206176
 20
-137.0145480343228
 30
0.0
 10
79.237023905972
 20
-137.2491590368683
 30
0.0
 10
78.93454452236706
 20
-137.2491590368683
 30
0.0
  0
HATCH
  5
C4
330
BD
100
AcDbEntity
  8
_U+30EC_U+30A4_U+30E4_U+30FC 1
 62
     7
420
 16777215
100
AcDbHatch
 10
0.0
 20
0.0
 30
0.0
210
0.0
220
0.0
230
1.0
  2
SOLID
 70
     1
 71
     0
 91
        1
 92
        1
 93
        1
 72
     4
 94
        3
 73
     0
 74
     1
 95
       53
 96
       49
 40
0.0
 40
0.0
 40
0.0
 40
0.0
 40
1.0
 40
1.0
 40
1.0
 40
2.0
 40
2.0
 40
2.0
 40
3.0
 40
3.0
 40
3.0
 40
4.0
 40
4.0
 40
4.0
 40
5.0
 40
5.0
 40
5.0
 40
6.0
 40
6.0
 40
6.0
 40
7.0
 40
7.0
 40
7.0
 40
8.0
 40
8.0
 40
8.0
 40
9.0
 40
9.0
 40
9.0
 40
10.0
 40
10.0
 40
10.0
 40
11.0
 40
11.0
 40
11.0
 40
12.0
 40
12.0
 40
12.0
 40
13.0
 40
13.0
 40
13.0
 40
14.0
 40
14.0
 40
14.0
 40
15.0
 40
15.0
 40
15.0
 40
16.0
 40
16.0
 40
16.0
 40
16.0
 10
78.93454452236706
 20
-137.2491590368683
 10
78.85616860007762
 20
-137.2491590368683
 10
78.75471053803702
 20
-137.2322780689906
 10
78.65308022122215
 20
-137.1688883120619
 10
78.47961966353982
 20
-137.058645256534
 10
78.45843232630554
 20
-136.9277316280944
 10
78.43948430113666
 20
-136.8199001394061
 10
78.43948430113666
 20
-136.8199001394061
 10
78.66152070516101
 20
-136.8199001394061
 10
78.66152070516101
 20
-136.8199001394061
 10
78.71664223292501
 20
-137.0186821489051
 10
78.84359400155647
 20
-137.0483099700782
 10
78.9366115796582
 20
-137.0483099700782
 10
79.07631020158509
 20
-137.0483099700782
 10
79.22858342203314
 20
-136.9487467105545
 10
79.22858342203314
 20
-136.7162027653001
 10
79.22858342203314
 20
-136.4602321707461
 10
79.0487494377031
 20
-136.3902967323955
 10
78.92817109571935
 20
-136.3902967323955
 10
78.89647621725506
 20
-136.3902967323955
 10
78.75471053803702
 20
-136.3902967323955
 10
78.66582707451758
 20
-136.5194878130924
 10
78.66582707451758
 20
-136.5194878130924
 10
78.49029945954409
 20
-136.5001952783749
 10
78.49029945954409
 20
-136.5001952783749
 10
78.49029945954409
 20
-136.5001952783749
 10
78.61087780152783
 20
-135.6540798271976
 10
78.61087780152783
 20
-135.6540798271976
 10
78.61087780152783
 20
-135.6540798271976
 10
79.38929712642005
 20
-135.6540798271976
 10
79.38929712642005
 20
-135.6540798271976
 10
79.38929712642005
 20
-135.6540798271976
 10
79.38929712642005
 20
-135.8487277221142
 10
79.38929712642005
 20
-135.8487277221142
 10
79.38929712642005
 20
-135.8487277221142
 10
78.7736585632059
 20
-135.8487277221142
 10
78.7736585632059
 20
-135.8487277221142
 10
78.7736585632059
 20
-135.8487277221142
 10
78.70820174898614
 20
-136.2717854477029
 10
78.70820174898614
 20
-136.2717854477029
 10
78.7695244486236
 20
-136.2380235119474
 10
78.85203448549532
 20
-136.19771589477
 10
78.97037351541366
 20
-136.19771589477
 10
79.22427705267657
 20
-136.19771589477
 10
79.46129962206176
 20
-136.384095560522
 10
79.46129962206176
 20
-136.6969102305827
 10
79.46129962206176
 20
-137.0145480343228
 10
79.237023905972
 20
-137.2491590368683
 10
78.93454452236706
 20
-137.2491590368683
 97
        0
 97
        0
 75
     2
 76
     1
 98
        0
  0
ENDBLK
  5
C0
330
BD
100
AcDbEntity
  8
0
100
AcDbBlockEnd
  0
BLOCK
  5
C7
330
C5
100
AcDbEntity
  8
0
100
AcDbBlockBegin
  2
block 8
 70
     0
 10
0.0
 20
0.0
 30
0.0
  3
block 8
  1

  0
POLYLINE
  5
C9
330
C5
100
AcDbEntity
  8
_U+30EC_U+30A4_U+30E4_U+30FC 1
 62
     7
420
 16777215
370
     9
100
AcDb2dPolyline
 66
     1
 10
0.0
 20
0.0
 30
0.0
  0
VERTEX
  5
CA
330
C9
100
AcDbEntity
  8
_U+30EC_U+30A4_U+30E4_U+30FC 1
 62
     7
420
 16777215
370
     9
100
AcDbVertex
100
AcDb2dVertex
 10
85.86536808716974
 20
-137.8441419099832
 30
0.0
  0
VERTEX
  5
CB
330
C9
100
AcDbEntity
  8
_U+30EC_U+30A4_U+30E4_U+30FC 1
 62
     7
420
 16777215
370
     9
100
AcDbVertex
100
AcDb2dVertex
 10
93.86506260530275
 20
-137.8441419099832
 30
0.0
  0
SEQEND
  5
CC
330
C9
100
AcDbEntity
  8
_U+30EC_U+30A4_U+30E4_U+30FC 1
 62
     7
420
 16777215
370
     9
  0
POLYLINE
  5
CD
330
C5
100
AcDbEntity
  8
_U+30EC_U+30A4_U+30E4_U+30FC 1
 62
     7
420
 16777215
370
     9
100
AcDb2dPolyline
 66
     1
 10
0.0
 20
0.0
 30
0.0
  0
VERTEX
  5
CE
330
CD
100
AcDbEntity
  8
_U+30EC_U+30A4_U+30E4_U+30FC 1
 62
     7
420
 16777215
370
     9
100
AcDbVertex
100
AcDb2dVertex
 10
85.86536808716974
 20
-136.3841005214595
 30
0.0
  0
VERTEX
  5
CF
330
CD
100
AcDbEntity
  8
_U+30EC_U+30A4_U+30E4_U+30FC 1
 62
     7
420
 16777215
370
     9
100
AcDbVertex
100
AcDb2dVertex
 10
85.86536808716974
 20
-138.8445844097331
 30
0.0
  0
SEQEND
  5
D0
330
CD
100
AcDbEntity
  8
_U+30EC_U+30A4_U+30E4_U+30FC 1
 62
     7
420
 16777215
370
     9
  0
POLYLINE
  5
D1
330
C5
100
AcDbEntity
  8
_U+30EC_U+30A4_U+30E4_U+30FC 1
 62
     7
420
 16777215
370
     9
100
AcDb2dPolyline
 66
     1
 10
0.0
 20
0.0
 30
0.0
  0
VERTEX
  5
D2
330
D1
100
AcDbEntity
  8
_U+30EC_U+30A4_U+30E4_U+30FC 1
 62
     7
420
 16777215
370
     9
100
AcDbVertex
100
AcDb2dVertex
 10
93.86506260530275
 20
-136.3841005214595
 30
0.0
  0
VERTEX
  5
D3
330
D1
100
AcDbEntity
  8
_U+30EC_U+30A4_U+30E4_U+30FC 1
 62
     7
420
 16777215
370
     9
100
AcDbVertex
100
AcDb2dVertex
 10
93.86506260530275
 20
-138.8445844097331
 30
0.0
  0
SEQEND
  5
D4
330
D1
100
AcDbEntity
  8
_U+30EC_U+30A4_U+30E4_U+30FC 1
 62
     7
420
 16777215
370
     9
  0
INSERT
  5
D6
330
C5
100
AcDbEntity
  8
_U+30EC_U+30A4_U+30E4_U+30FC 1
100
AcDbBlockReference
  2
block 9
 10
0.0
 20
0.0
 30
0.0
  0
ENDBLK
  5
C8
330
C5
100
AcDbEntity
  8
0
100
AcDbBlockEnd
  0
BLOCK
  5
D7
330
D5
100
AcDbEntity
  8
0
100
AcDbBlockBegin
  2
block 9
 70
     0
 10
0.0
 20
0.0
 30
0.0
  3
block 9
  1

  0
SPLINE
  5
D9
330
D5
100
AcDbEntity
  8
_U+30EC_U+30A4_U+30E4_U+30FC 1
370
     0
100
AcDbSpline
210
0.0
220
0.0
230
1.0
 70
    11
 71
     3
 72
    29
 73
    25
 74
     0
 42
0.0000000001
 43
0.0000000001
 12
1.0
 22
0.0
 32
0.0
 13
1.0
 23
0.0
 33
0.0
 40
0.0
 40
0.0
 40
0.0
 40
0.0
 40
1.0
 40
1.0
 40
1.0
 40
2.0
 40
2.0
 40
2.0
 40
3.0
 40
3.0
 40
3.0
 40
4.0
 40
4.0
 40
4.0
 40
5.0
 40
5.0
 40
5.0
 40
6.0
 40
6.0
 40
6.0
 40
7.0
 40
7.0
 40
7.0
 40
8.0
 40
8.0
 40
8.0
 40
8.0
 10
89.86548798751627
 20
-137.2491590368683
 30
0.0
 10
89.59900985173219
 20
-137.2491590368683
 30
0.0
 10
89.34510631446928
 20
-137.1116997270068
 30
0.0
 10
89.34510631446928
 20
-136.762711554351
 30
0.0
 10
89.34510631446928
 20
-136.5067409597969
 30
0.0
 10
89.48687199368732
 20
-136.4113118148555
 30
0.0
 10
89.59263642508448
 20
-136.3499891152181
 30
0.0
 10
89.46775171374418
 20
-136.2907334728718
 30
0.0
 10
89.39161510352015
 20
-136.17670081231
 30
0.0
 10
89.39161510352015
 20
-136.0158148531488
 30
0.0
 10
89.39161510352015
 20
-135.7408962334259
 30
0.0
 10
89.59056936779334
 20
-135.6055039808556
 30
0.0
 10
89.86548798751627
 20
-135.6055039808556
 30
0.0
 10
90.14901934595234
 20
-135.6055039808556
 30
0.0
 10
90.33936087151238
 20
-135.7491644625905
 30
0.0
 10
90.33936087151238
 20
-136.0158148531488
 30
0.0
 10
90.33936087151238
 20
-136.17670081231
 30
0.0
 10
90.26115720399721
 20
-136.2907334728718
 30
0.0
 10
90.13627249265691
 20
-136.3499891152181
 30
0.0
 10
90.22515595617635
 20
-136.4009765283998
 30
0.0
 10
90.38380260327212
 20
-136.4960611637927
 30
0.0
 10
90.38380260327212
 20
-136.7585774397687
 30
0.0
 10
90.38380260327212
 20
-137.1327148094668
 30
0.0
 10
90.1045776141926
 20
-137.2491590368683
 30
0.0
 10
89.86548798751627
 20
-137.2491590368683
 30
0.0
  0
SPLINE
  5
DA
330
D5
100
AcDbEntity
  8
_U+30EC_U+30A4_U+30E4_U+30FC 1
370
     0
100
AcDbSpline
210
0.0
220
0.0
230
1.0
 70
    11
 71
     3
 72
    17
 73
    13
 74
     0
 42
0.0000000001
 43
0.0000000001
 12
1.0
 22
0.0
 32
0.0
 13
1.0
 23
0.0
 33
0.0
 40
0.0
 40
0.0
 40
0.0
 40
0.0
 40
1.0
 40
1.0
 40
1.0
 40
2.0
 40
2.0
 40
2.0
 40
3.0
 40
3.0
 40
3.0
 40
4.0
 40
4.0
 40
4.0
 40
4.0
 10
89.86548798751627
 20
-136.4581651134549
 30
0.0
 10
89.72165525100709
 20
-136.4581651134549
 30
0.0
 10
89.56938203055904
 20
-136.5446370101347
 30
0.0
 10
89.56938203055904
 20
-136.7478976437644
 30
0.0
 10
89.56938203055904
 20
-136.9528808251368
 30
0.0
 10
89.6963337991905
 20
-137.0545111419517
 30
0.0
 10
89.86548798751627
 20
-137.0545111419517
 30
0.0
 10
90.05169539849402
 20
-137.0545111419517
 30
0.0
 10
90.16176619924775
 20
-136.9318657426768
 30
0.0
 10
90.16176619924775
 20
-136.7540988156379
 30
0.0
 10
90.16176619924775
 20
-136.5318901568393
 30
0.0
 10
89.99881318279544
 20
-136.4581651134549
 30
0.0
 10
89.86548798751627
 20
-136.4581651134549
 30
0.0
  0
SPLINE
  5
DB
330
D5
100
AcDbEntity
  8
_U+30EC_U+30A4_U+30E4_U+30FC 1
370
     0
100
AcDbSpline
210
0.0
220
0.0
230
1.0
 70
    11
 71
     3
 72
    17
 73
    13
 74
     0
 42
0.0000000001
 43
0.0000000001
 12
1.0
 22
0.0
 32
0.0
 13
1.0
 23
0.0
 33
0.0
 40
0.0
 40
0.0
 40
0.0
 40
0.0
 40
1.0
 40
1.0
 40
1.0
 40
2.0
 40
2.0
 40
2.0
 40
3.0
 40
3.0
 40
3.0
 40
4.0
 40
4.0
 40
4.0
 40
4.0
 10
89.86548798751627
 20
-135.798084818481
 30
0.0
 10
89.7004679137728
 20
-135.798084818481
 30
0.0
 10
89.61589081960992
 20
-135.8931694538739
 30
0.0
 10
89.61589081960992
 20
-136.0285617064443
 30
0.0
 10
89.61589081960992
 20
-136.1512071057192
 30
0.0
 10
89.68789331525164
 20
-136.2697183904118
 30
0.0
 10
89.86548798751627
 20
-136.2697183904118
 30
0.0
 10
90.04325491455516
 20
-136.2697183904118
 30
0.0
 10
90.11508515542262
 20
-136.1512071057192
 30
0.0
 10
90.11508515542262
 20
-136.0285617064443
 30
0.0
 10
90.11508515542262
 20
-135.8931694538739
 30
0.0
 10
90.0284410039686
 20
-135.798084818481
 30
0.0
 10
89.86548798751627
 20
-135.798084818481
 30
0.0
  0
HATCH
  5
DC
330
D5
100
AcDbEntity
  8
_U+30EC_U+30A4_U+30E4_U+30FC 1
 62
     7
420
 16777215
100
AcDbHatch
 10
0.0
 20
0.0
 30
0.0
210
0.0
220
0.0
230
1.0
  2
SOLID
 70
     1
 71
     0
 91
        3
 92
        1
 93
        1
 72
     4
 94
        3
 73
     0
 74
     1
 95
       29
 96
       25
 40
0.0
 40
0.0
 40
0.0
 40
0.0
 40
1.0
 40
1.0
 40
1.0
 40
2.0
 40
2.0
 40
2.0
 40
3.0
 40
3.0
 40
3.0
 40
4.0
 40
4.0
 40
4.0
 40
5.0
 40
5.0
 40
5.0
 40
6.0
 40
6.0
 40
6.0
 40
7.0
 40
7.0
 40
7.0
 40
8.0
 40
8.0
 40
8.0
 40
8.0
 10
89.86548798751627
 20
-137.2491590368683
 10
89.59900985173219
 20
-137.2491590368683
 10
89.34510631446928
 20
-137.1116997270068
 10
89.34510631446928
 20
-136.762711554351
 10
89.34510631446928
 20
-136.5067409597969
 10
89.48687199368732
 20
-136.4113118148555
 10
89.59263642508448
 20
-136.3499891152181
 10
89.46775171374418
 20
-136.2907334728718
 10
89.39161510352015
 20
-136.17670081231
 10
89.39161510352015
 20
-136.0158148531488
 10
89.39161510352015
 20
-135.7408962334259
 10
89.59056936779334
 20
-135.6055039808556
 10
89.86548798751627
 20
-135.6055039808556
 10
90.14901934595234
 20
-135.6055039808556
 10
90.33936087151238
 20
-135.7491644625905
 10
90.33936087151238
 20
-136.0158148531488
 10
90.33936087151238
 20
-136.17670081231
 10
90.26115720399721
 20
-136.2907334728718
 10
90.13627249265691
 20
-136.3499891152181
 10
90.22515595617635
 20
-136.4009765283998
 10
90.38380260327212
 20
-136.4960611637927
 10
90.38380260327212
 20
-136.7585774397687
 10
90.38380260327212
 20
-137.1327148094668
 10
90.1045776141926
 20
-137.2491590368683
 10
89.86548798751627
 20
-137.2491590368683
 97
        0
 97
        0
 92
        1
 93
        1
 72
     4
 94
        3
 73
     0
 74
     1
 95
       17
 96
       13
 40
0.0
 40
0.0
 40
0.0
 40
0.0
 40
1.0
 40
1.0
 40
1.0
 40
2.0
 40
2.0
 40
2.0
 40
3.0
 40
3.0
 40
3.0
 40
4.0
 40
4.0
 40
4.0
 40
4.0
 10
89.86548798751627
 20
-136.4581651134549
 10
89.72165525100709
 20
-136.4581651134549
 10
89.56938203055904
 20
-136.5446370101347
 10
89.56938203055904
 20
-136.7478976437644
 10
89.56938203055904
 20
-136.9528808251368
 10
89.6963337991905
 20
-137.0545111419517
 10
89.86548798751627
 20
-137.0545111419517
 10
90.05169539849402
 20
-137.0545111419517
 10
90.16176619924775
 20
-136.9318657426768
 10
90.16176619924775
 20
-136.7540988156379
 10
90.16176619924775
 20
-136.5318901568393
 10
89.99881318279544
 20
-136.4581651134549
 10
89.86548798751627
 20
-136.4581651134549
 97
        0
 97
        0
 92
        1
 93
        1
 72
     4
 94
        3
 73
     0
 74
     1
 95
       17
 96
       13
 40
0.0
 40
0.0
 40
0.0
 40
0.0
 40
1.0
 40
1.0
 40
1.0
 40
2.0
 40
2.0
 40
2.0
 40
3.0
 40
3.0
 40
3.0
 40
4.0
 40
4.0
 40
4.0
 40
4.0
 10
89.86548798751627
 20
-135.798084818481
 10
89.7004679137728
 20
-135.798084818481
 10
89.61589081960992
 20
-135.8931694538739
 10
89.61589081960992
 20
-136.0285617064443
 10
89.61589081960992
 20
-136.1512071057192
 10
89.68789331525164
 20
-136.2697183904118
 10
89.86548798751627
 20
-136.2697183904118
 10
90.04325491455516
 20
-136.2697183904118
 10
90.11508515542262
 20
-136.1512071057192
 10
90.11508515542262
 20
-136.0285617064443
 10
90.11508515542262
 20
-135.8931694538739
 10
90.0284410039686
 20
-135.798084818481
 10
89.86548798751627
 20
-135.798084818481
 97
        0
 97
        0
 75
     2
 76
     1
 98
        0
  0
ENDBLK
  5
D8
330
D5
100
AcDbEntity
  8
0
100
AcDbBlockEnd
  0
ENDSEC
  0
SECTION
  2
ENTITIES
  0
POLYLINE
  5
41
330
1F
100
AcDbEntity
  8
_U+30EC_U+30A4_U+30E4_U+30FC 1
370
     0
100
AcDb2dPolyline
 66
     1
 10
0.0
 20
0.0
 30
0.0
  0
VERTEX
  5
42
330
41
100
AcDbEntity
  8
_U+30EC_U+30A4_U+30E4_U+30FC 1
370
     0
100
AcDbVertex
100
AcDb2dVertex
 10
70.82962680409679
 20
-126.6441177461169
 30
0.0
  0
VERTEX
  5
43
330
41
100
AcDbEntity
  8
_U+30EC_U+30A4_U+30E4_U+30FC 1
370
     0
100
AcDbVertex
100
AcDb2dVertex
 10
85.86536808716974
 20
-126.6441177461169
 30
0.0
  0
VERTEX
  5
44
330
41
100
AcDbEntity
  8
_U+30EC_U+30A4_U+30E4_U+30FC 1
370
     0
100
AcDbVertex
100
AcDb2dVertex
 10
85.86536808716974
 20
-133.8443827443169
 30
0.0
  0
VERTEX
  5
45
330
41
100
AcDbEntity
  8
_U+30EC_U+30A4_U+30E4_U+30FC 1
370
     0
100
AcDbVertex
100
AcDb2dVertex
 10
93.86506260530275
 20
-133.8443827443169
 30
0.0
  0
VERTEX
  5
46
330
41
100
AcDbEntity
  8
_U+30EC_U+30A4_U+30E4_U+30FC 1
370
     0
100
AcDbVertex
100
AcDb2dVertex
 10
93.86506260530275
 20
-132.8446105223444
 30
0.0
  0
VERTEX
  5
47
330
41
100
AcDbEntity
  8
_U+30EC_U+30A4_U+30E4_U+30FC 1
370
     0
100
AcDbVertex
100
AcDb2dVertex
 10
86.76523361976781
 20
-132.8446105223444
 30
0.0
  0
VERTEX
  5
48
330
41
100
AcDbEntity
  8
_U+30EC_U+30A4_U+30E4_U+30FC 1
370
     0
100
AcDbVertex
100
AcDb2dVertex
 10
86.76523361976781
 20
-126.6441177461169
 30
0.0
  0
VERTEX
  5
49
330
41
100
AcDbEntity
  8
_U+30EC_U+30A4_U+30E4_U+30FC 1
370
     0
100
AcDbVertex
100
AcDb2dVertex
 10
105.8657156324739
 20
-126.6441177461169
 30
0.0
  0
VERTEX
  5
4A
330
41
100
AcDbEntity
  8
_U+30EC_U+30A4_U+30E4_U+30FC 1
370
     0
100
AcDbVertex
100
AcDb2dVertex
 10
105.8657156324739
 20
-125.6443455241444
 30
0.0
  0
VERTEX
  5
4B
330
41
100
AcDbEntity
  8
_U+30EC_U+30A4_U+30E4_U+30FC 1
370
     0
100
AcDbVertex
100
AcDb2dVertex
 10
70.82962680409679
 20
-125.6443455241444
 30
0.0
  0
VERTEX
  5
4C
330
41
100
AcDbEntity
  8
_U+30EC_U+30A4_U+30E4_U+30FC 1
370
     0
100
AcDbVertex
100
AcDb2dVertex
 10
70.82962680409679
 20
-126.6441177461169
 30
0.0
  0
SEQEND
  5
4E
330
41
100
AcDbEntity
  8
_U+30EC_U+30A4_U+30E4_U+30FC 1
370
     0
  0
HATCH
  5
4D
330
1F
100
AcDbEntity
  8
_U+30EC_U+30A4_U+30E4_U+30FC 1
 62
   253
420
 11711154
100
AcDbHatch
 10
0.0
 20
0.0
 30
0.0
210
0.0
220
0.0
230
1.0
  2
SOLID
 70
     1
 71
     0
 91
        1
 92
        1
 93
       10
 72
     1
 10
70.82962680409679
 20
-126.6441177461169
 11
85.86536808716974
 21
-126.6441177461169
 72
     1
 10
85.86536808716974
 20
-126.6441177461169
 11
85.86536808716974
 21
-133.8443827443169
 72
     1
 10
85.86536808716974
 20
-133.8443827443169
 11
93.86506260530275
 21
-133.8443827443169
 72
     1
 10
93.86506260530275
 20
-133.8443827443169
 11
93.86506260530275
 21
-132.8446105223444
 72
     1
 10
93.86506260530275
 20
-132.8446105223444
 11
86.76523361976781
 21
-132.8446105223444
 72
     1
 10
86.76523361976781
 20
-132.8446105223444
 11
86.76523361976781
 21
-126.6441177461169
 72
     1
 10
86.76523361976781
 20
-126.6441177461169
 11
105.8657156324739
 21
-126.6441177461169
 72
     1
 10
105.8657156324739
 20
-126.6441177461169
 11
105.8657156324739
 21
-125.6443455241444
 72
     1
 10
105.8657156324739
 20
-125.6443455241444
 11
70.82962680409679
 21
-125.6443455241444
 72
     1
 10
70.82962680409679
 20
-125.6443455241444
 11
70.82962680409679
 21
-126.6441177461169
 97
        0
 75
     2
 76
     1
 98
        0
  0
POLYLINE
  5
4F
330
1F
100
AcDbEntity
  8
_U+30EC_U+30A4_U+30E4_U+30FC 1
 62
     7
420
 16777215
370
    25
100
AcDb2dPolyline
 66
     1
 10
0.0
 20
0.0
 30
0.0
  0
VERTEX
  5
50
330
4F
100
AcDbEntity
  8
_U+30EC_U+30A4_U+30E4_U+30FC 1
 62
     7
420
 16777215
370
    25
100
AcDbVertex
100
AcDb2dVertex
 10
70.86543374762772
 20
-126.6441177461169
 30
0.0
  0
VERTEX
  5
51
330
4F
100
AcDbEntity
  8
_U+30EC_U+30A4_U+30E4_U+30FC 1
 62
     7
420
 16777215
370
    25
100
AcDbVertex
100
AcDb2dVertex
 10
85.86536808716974
 20
-126.6441177461169
 30
0.0
  0
VERTEX
  5
52
330
4F
100
AcDbEntity
  8
_U+30EC_U+30A4_U+30E4_U+30FC 1
 62
     7
420
 16777215
370
    25
100
AcDbVertex
100
AcDb2dVertex
 10
85.86536808716974
 20
-133.8443827443169
 30
0.0
  0
VERTEX
  5
53
330
4F
100
AcDbEntity
  8
_U+30EC_U+30A4_U+30E4_U+30FC 1
 62
     7
420
 16777215
370
    25
100
AcDbVertex
100
AcDb2dVertex
 10
93.86506260530275
 20
-133.8443827443169
 30
0.0
  0
VERTEX
  5
54
330
4F
100
AcDbEntity
  8
_U+30EC_U+30A4_U+30E4_U+30FC 1
 62
     7
420
 16777215
370
    25
100
AcDbVertex
100
AcDb2dVertex
 10
93.86506260530275
 20
-132.8446105223444
 30
0.0
  0
VERTEX
  5
55
330
4F
100
AcDbEntity
  8
_U+30EC_U+30A4_U+30E4_U+30FC 1
 62
     7
420
 16777215
370
    25
100
AcDbVertex
100
AcDb2dVertex
 10
86.76523361976781
 20
-132.8446105223444
 30
0.0
  0
VERTEX
  5
56
330
4F
100
AcDbEntity
  8
_U+30EC_U+30A4_U+30E4_U+30FC 1
 62
     7
420
 16777215
370
    25
100
AcDbVertex
100
AcDb2dVertex
 10
86.76523361976781
 20
-126.6441177461169
 30
0.0
  0
VERTEX
  5
57
330
4F
100
AcDbEntity
  8
_U+30EC_U+30A4_U+30E4_U+30FC 1
 62
     7
420
 16777215
370
    25
100
AcDbVertex
100
AcDb2dVertex
 10
105.8657156324739
 20
-126.6441177461169
 30
0.0
  0
VERTEX
  5
58
330
4F
100
AcDbEntity
  8
_U+30EC_U+30A4_U+30E4_U+30FC 1
 62
     7
420
 16777215
370
    25
100
AcDbVertex
100
AcDb2dVertex
 10
105.8657156324739
 20
-125.6443455241444
 30
0.0
  0
VERTEX
  5
59
330
4F
100
AcDbEntity
  8
_U+30EC_U+30A4_U+30E4_U+30FC 1
 62
     7
420
 16777215
370
    25
100
AcDbVertex
100
AcDb2dVertex
 10
70.86543374762772
 20
-125.6443455241444
 30
0.0
  0
VERTEX
  5
5A
330
4F
100
AcDbEntity
  8
_U+30EC_U+30A4_U+30E4_U+30FC 1
 62
     7
420
 16777215
370
    25
100
AcDbVertex
100
AcDb2dVertex
 10
70.80997708237587
 20
-125.6443455241444
 30
0.0
  0
VERTEX
  5
5B
330
4F
100
AcDbEntity
  8
_U+30EC_U+30A4_U+30E4_U+30FC 1
 62
     7
420
 16777215
370
    25
100
AcDbVertex
100
AcDb2dVertex
 10
70.80997708237587
 20
-126.6441177461169
 30
0.0
  0
VERTEX
  5
5C
330
4F
100
AcDbEntity
  8
_U+30EC_U+30A4_U+30E4_U+30FC 1
 62
     7
420
 16777215
370
    25
100
AcDbVertex
100
AcDb2dVertex
 10
70.86543374762772
 20
-126.6441177461169
 30
0.0
  0
SEQEND
  5
5D
330
4F
100
AcDbEntity
  8
_U+30EC_U+30A4_U+30E4_U+30FC 1
 62
     7
420
 16777215
370
    25
  0
SPLINE
  5
5E
330
1F
100
AcDbEntity
  8
_U+30EC_U+30A4_U+30E4_U+30FC 1
 62
     7
420
 16777215
370
     9
100
AcDbSpline
210
0.0
220
0.0
230
1.0
 70
    11
 71
     3
 72
    17
 73
    13
 74
     0
 42
0.0000000001
 43
0.0000000001
 12
1.0
 22
0.0
 32
0.0
 13
1.0
 23
0.0
 33
0.0
 40
0.0
 40
0.0
 40
0.0
 40
0.0
 40
1.0
 40
1.0
 40
1.0
 40
2.0
 40
2.0
 40
2.0
 40
3.0
 40
3.0
 40
3.0
 40
4.0
 40
4.0
 40
4.0
 40
4.0
 10
70.96879763387957
 20
-121.6445863584778
 30
0.0
 10
70.96879763387957
 20
-121.5887769140473
 30
0.0
 10
70.92399485724481
 20
-121.5440094140585
 30
0.0
 10
70.86889096976174
 20
-121.5440094140585
 30
0.0
 10
70.81375180450179
 20
-121.5440094140585
 30
0.0
 10
70.76898609341872
 20
-121.5887769140473
 30
0.0
 10
70.76898609341872
 20
-121.6445863584778
 30
0.0
 10
70.76898609341872
 20
-121.6997255251305
 30
0.0
 10
70.81375180450179
 20
-121.7444930251194
 30
0.0
 10
70.86889096976174
 20
-121.7444930251194
 30
0.0
 10
70.92399485724481
 20
-121.7444930251194
 30
0.0
 10
70.96879763387957
 20
-121.6997255251305
 30
0.0
 10
70.96879763387957
 20
-121.6445863584778
 30
0.0
  0
SPLINE
  5
5F
330
1F
100
AcDbEntity
  8
_U+30EC_U+30A4_U+30E4_U+30FC 1
 62
     7
420
 16777215
370
     9
100
AcDbSpline
210
0.0
220
0.0
230
1.0
 70
    11
 71
     3
 72
    17
 73
    13
 74
     0
 42
0.0000000001
 43
0.0000000001
 12
1.0
 22
0.0
 32
0.0
 13
1.0
 23
0.0
 33
0.0
 40
0.0
 40
0.0
 40
0.0
 40
0.0
 40
1.0
 40
1.0
 40
1.0
 40
2.0
 40
2.0
 40
2.0
 40
3.0
 40
3.0
 40
3.0
 40
4.0
 40
4.0
 40
4.0
 40
4.0
 10
105.9656249735086
 20
-121.6445863584778
 30
0.0
 10
105.9656249735086
 20
-121.5887769140473
 30
0.0
 10
105.9208221957419
 20
-121.5440094140585
 30
0.0
 10
105.8657156324739
 20
-121.5440094140585
 30
0.0
 10
105.810576467214
 20
-121.5440094140585
 30
0.0
 10
105.7658089683561
 20
-121.5887769140473
 30
0.0
 10
105.7658089683561
 20
-121.6445863584778
 30
0.0
 10
105.7658089683561
 20
-121.6997255251305
 30
0.0
 10
105.810576467214
 20
-121.7444930251194
 30
0.0
 10
105.8657156324739
 20
-121.7444930251194
 30
0.0
 10
105.9208221957419
 20
-121.7444930251194
 30
0.0
 10
105.9656249735086
 20
-121.6997255251305
 30
0.0
 10
105.9656249735086
 20
-121.6445863584778
 30
0.0
  0
SPLINE
  5
60
330
1F
100
AcDbEntity
  8
_U+30EC_U+30A4_U+30E4_U+30FC 1
 62
     7
420
 16777215
370
     9
100
AcDbSpline
210
0.0
220
0.0
230
1.0
 70
    11
 71
     3
 72
    17
 73
    13
 74
     0
 42
0.0000000001
 43
0.0000000001
 12
1.0
 22
0.0
 32
0.0
 13
1.0
 23
0.0
 33
0.0
 40
0.0
 40
0.0
 40
0.0
 40
0.0
 40
1.0
 40
1.0
 40
1.0
 40
2.0
 40
2.0
 40
2.0
 40
3.0
 40
3.0
 40
3.0
 40
4.0
 40
4.0
 40
4.0
 40
4.0
 10
109.9653813612161
 20
-126.6441177461169
 30
0.0
 10
109.9653813612161
 20
-126.5890138572417
 30
0.0
 10
109.9205785845813
 20
-126.5442110794749
 30
0.0
 10
109.8654746970982
 20
-126.5442110794749
 30
0.0
 10
109.8103355318383
 20
-126.5442110794749
 30
0.0
 10
109.7655680329804
 20
-126.5890138572417
 30
0.0
 10
109.7655680329804
 20
-126.6441177461169
 30
0.0
 10
109.7655680329804
 20
-126.6992569127697
 30
0.0
 10
109.8103355318383
 20
-126.7440244127585
 30
0.0
 10
109.8654746970982
 20
-126.7440244127585
 30
0.0
 10
109.9205785845813
 20
-126.7440244127585
 30
0.0
 10
109.9653813612161
 20
-126.6992569127697
 30
0.0
 10
109.9653813612161
 20
-126.6441177461169
 30
0.0
  0
SPLINE
  5
61
330
1F
100
AcDbEntity
  8
_U+30EC_U+30A4_U+30E4_U+30FC 1
 62
     7
420
 16777215
370
     9
100
AcDbSpline
210
0.0
220
0.0
230
1.0
 70
    11
 71
     3
 72
    17
 73
    13
 74
     0
 42
0.0000000001
 43
0.0000000001
 12
1.0
 22
0.0
 32
0.0
 13
1.0
 23
0.0
 33
0.0
 40
0.0
 40
0.0
 40
0.0
 40
0.0
 40
1.0
 40
1.0
 40
1.0
 40
2.0
 40
2.0
 40
2.0
 40
3.0
 40
3.0
 40
3.0
 40
4.0
 40
4.0
 40
4.0
 40
4.0
 10
109.9653813612161
 20
-125.6443455241444
 30
0.0
 10
109.9653813612161
 20
-125.5892416352694
 30
0.0
 10
109.9205785845813
 20
-125.5444388575027
 30
0.0
 10
109.8654746970982
 20
-125.5444388575027
 30
0.0
 10
109.8103355318383
 20
-125.5444388575027
 30
0.0
 10
109.7655680329804
 20
-125.5892416352694
 30
0.0
 10
109.7655680329804
 20
-125.6443455241444
 30
0.0
 10
109.7655680329804
 20
-125.6994846907974
 30
0.0
 10
109.8103355318383
 20
-125.7442521907863
 30
0.0
 10
109.8654746970982
 20
-125.7442521907863
 30
0.0
 10
109.9205785845813
 20
-125.7442521907863
 30
0.0
 10
109.9653813612161
 20
-125.6994846907974
 30
0.0
 10
109.9653813612161
 20
-125.6443455241444
 30
0.0
  0
SPLINE
  5
62
330
1F
100
AcDbEntity
  8
_U+30EC_U+30A4_U+30E4_U+30FC 1
 62
     7
420
 16777215
370
     9
100
AcDbSpline
210
0.0
220
0.0
230
1.0
 70
    11
 71
     3
 72
    17
 73
    13
 74
     0
 42
0.0000000001
 43
0.0000000001
 12
1.0
 22
0.0
 32
0.0
 13
1.0
 23
0.0
 33
0.0
 40
0.0
 40
0.0
 40
0.0
 40
0.0
 40
1.0
 40
1.0
 40
1.0
 40
2.0
 40
2.0
 40
2.0
 40
3.0
 40
3.0
 40
3.0
 40
4.0
 40
4.0
 40
4.0
 40
4.0
 10
109.9653813612161
 20
-132.8446105223444
 30
0.0
 10
109.9653813612161
 20
-132.7888010779139
 30
0.0
 10
109.9205785845813
 20
-132.7439983001472
 30
0.0
 10
109.8654746970982
 20
-132.7439983001472
 30
0.0
 10
109.8103355318383
 20
-132.7439983001472
 30
0.0
 10
109.7655680329804
 20
-132.7888010779139
 30
0.0
 10
109.7655680329804
 20
-132.8446105223444
 30
0.0
 10
109.7655680329804
 20
-132.8997144112193
 30
0.0
 10
109.8103355318383
 20
-132.944517188986
 30
0.0
 10
109.8654746970982
 20
-132.944517188986
 30
0.0
 10
109.9205785845813
 20
-132.944517188986
 30
0.0
 10
109.9653813612161
 20
-132.8997144112193
 30
0.0
 10
109.9653813612161
 20
-132.8446105223444
 30
0.0
  0
SPLINE
  5
63
330
1F
100
AcDbEntity
  8
_U+30EC_U+30A4_U+30E4_U+30FC 1
 62
     7
420
 16777215
370
     9
100
AcDbSpline
210
0.0
220
0.0
230
1.0
 70
    11
 71
     3
 72
    17
 73
    13
 74
     0
 42
0.0000000001
 43
0.0000000001
 12
1.0
 22
0.0
 32
0.0
 13
1.0
 23
0.0
 33
0.0
 40
0.0
 40
0.0
 40
0.0
 40
0.0
 40
1.0
 40
1.0
 40
1.0
 40
2.0
 40
2.0
 40
2.0
 40
3.0
 40
3.0
 40
3.0
 40
4.0
 40
4.0
 40
4.0
 40
4.0
 10
85.96531002906445
 20
-137.8441419099832
 30
0.0
 10
85.96531002906445
 20
-137.7890027433307
 30
0.0
 10
85.92050725242969
 20
-137.7442352433415
 30
0.0
 10
85.86536808716974
 20
-137.7442352433415
 30
0.0
 10
85.81026419968667
 20
-137.7442352433415
 30
0.0
 10
85.7654614230519
 20
-137.7890027433307
 30
0.0
 10
85.7654614230519
 20
-137.8441419099832
 30
0.0
 10
85.7654614230519
 20
-137.8992457988587
 30
0.0
 10
85.81026419968667
 20
-137.9440485766248
 30
0.0
 10
85.86536808716974
 20
-137.9440485766248
 30
0.0
 10
85.92050725242969
 20
-137.9440485766248
 30
0.0
 10
85.96531002906445
 20
-137.8992457988587
 30
0.0
 10
85.96531002906445
 20
-137.8441419099832
 30
0.0
  0
SPLINE
  5
64
330
1F
100
AcDbEntity
  8
_U+30EC_U+30A4_U+30E4_U+30FC 1
 62
     7
420
 16777215
370
     9
100
AcDbSpline
210
0.0
220
0.0
230
1.0
 70
    11
 71
     3
 72
    17
 73
    13
 74
     0
 42
0.0000000001
 43
0.0000000001
 12
1.0
 22
0.0
 32
0.0
 13
1.0
 23
0.0
 33
0.0
 40
0.0
 40
0.0
 40
0.0
 40
0.0
 40
1.0
 40
1.0
 40
1.0
 40
2.0
 40
2.0
 40
2.0
 40
3.0
 40
3.0
 40
3.0
 40
4.0
 40
4.0
 40
4.0
 40
4.0
 10
93.96496926942058
 20
-137.8441419099832
 30
0.0
 10
93.96496926942058
 20
-137.7890027433307
 30
0.0
 10
93.9202017705627
 20
-137.7442352433415
 30
0.0
 10
93.86506260530275
 20
-137.7442352433415
 30
0.0
 10
93.80996108765851
 20
-137.7442352433415
 30
0.0
 10
93.76515830989179
 20
-137.7890027433307
 30
0.0
 10
93.76515830989179
 20
-137.8441419099832
 30
0.0
 10
93.76515830989179
 20
-137.8992457988587
 30
0.0
 10
93.80996108765851
 20
-137.9440485766248
 30
0.0
 10
93.86506260530275
 20
-137.9440485766248
 30
0.0
 10
93.9202017705627
 20
-137.9440485766248
 30
0.0
 10
93.96496926942058
 20
-137.8992457988587
 30
0.0
 10
93.96496926942058
 20
-137.8441419099832
 30
0.0
  0
SPLINE
  5
65
330
1F
100
AcDbEntity
  8
_U+30EC_U+30A4_U+30E4_U+30FC 1
 62
     7
420
 16777215
370
     9
100
AcDbSpline
210
0.0
220
0.0
230
1.0
 70
    11
 71
     3
 72
    17
 73
    13
 74
     0
 42
0.0000000001
 43
0.0000000001
 12
1.0
 22
0.0
 32
0.0
 13
1.0
 23
0.0
 33
0.0
 40
0.0
 40
0.0
 40
0.0
 40
0.0
 40
1.0
 40
1.0
 40
1.0
 40
2.0
 40
2.0
 40
2.0
 40
3.0
 40
3.0
 40
3.0
 40
4.0
 40
4.0
 40
4.0
 40
4.0
 10
70.96879763387957
 20
-137.8441419099832
 30
0.0
 10
70.96879763387957
 20
-137.7890027433307
 30
0.0
 10
70.92399485724481
 20
-137.7442352433415
 30
0.0
 10
70.86889096976174
 20
-137.7442352433415
 30
0.0
 10
70.81343609340767
 20
-137.7442352433415
 30
0.0
 10
70.76863331564127
 20
-137.7890027433307
 30
0.0
 10
70.76863331564127
 20
-137.8441419099832
 30
0.0
 10
70.76863331564127
 20
-137.8992457988587
 30
0.0
 10
70.81343609340767
 20
-137.9440485766248
 30
0.0
 10
70.86889096976174
 20
-137.9440485766248
 30
0.0
 10
70.92399485724481
 20
-137.9440485766248
 30
0.0
 10
70.96879763387957
 20
-137.8992457988587
 30
0.0
 10
70.96879763387957
 20
-137.8441419099832
 30
0.0
  0
INSERT
  5
67
330
1F
100
AcDbEntity
  8
_U+30EC_U+30A4_U+30E4_U+30FC 1
100
AcDbBlockReference
  2
block 2
 10
0.0
 20
0.0
 30
0.0
  0
INSERT
  5
81
330
1F
100
AcDbEntity
  8
_U+30EC_U+30A4_U+30E4_U+30FC 1
100
AcDbBlockReference
  2
block 4
 10
0.0
 20
0.0
 30
0.0
  0
POLYLINE
  5
9D
330
1F
100
AcDbEntity
  8
_U+30EC_U+30A4_U+30E4_U+30FC 1
 62
     7
420
 16777215
370
     9
100
AcDb2dPolyline
 66
     1
 10
0.0
 20
0.0
 30
0.0
  0
VERTEX
  5
9E
330
9D
100
AcDbEntity
  8
_U+30EC_U+30A4_U+30E4_U+30FC 1
 62
     7
420
 16777215
370
     9
100
AcDbVertex
100
AcDb2dVertex
 10
70.86543374762772
 20
-121.6445863584778
 30
0.0
  0
VERTEX
  5
9F
330
9D
100
AcDbEntity
  8
_U+30EC_U+30A4_U+30E4_U+30FC 1
 62
     7
420
 16777215
370
     9
100
AcDbVertex
100
AcDb2dVertex
 10
105.8657156324739
 20
-121.6445863584778
 30
0.0
  0
SEQEND
  5
A0
330
9D
100
AcDbEntity
  8
_U+30EC_U+30A4_U+30E4_U+30FC 1
 62
     7
420
 16777215
370
     9
  0
POLYLINE
  5
A1
330
1F
100
AcDbEntity
  8
_U+30EC_U+30A4_U+30E4_U+30FC 1
 62
     7
420
 16777215
370
     9
100
AcDb2dPolyline
 66
     1
 10
0.0
 20
0.0
 30
0.0
  0
VERTEX
  5
A2
330
A1
100
AcDbEntity
  8
_U+30EC_U+30A4_U+30E4_U+30FC 1
 62
     7
420
 16777215
370
     9
100
AcDbVertex
100
AcDb2dVertex
 10
70.86889096976174
 20
-123.1039574692241
 30
0.0
  0
VERTEX
  5
A3
330
A1
100
AcDbEntity
  8
_U+30EC_U+30A4_U+30E4_U+30FC 1
 62
     7
420
 16777215
370
     9
100
AcDbVertex
100
AcDb2dVertex
 10
70.86889096976174
 20
-120.6441438587279
 30
0.0
  0
SEQEND
  5
A4
330
A1
100
AcDbEntity
  8
_U+30EC_U+30A4_U+30E4_U+30FC 1
 62
     7
420
 16777215
370
     9
  0
POLYLINE
  5
A5
330
1F
100
AcDbEntity
  8
_U+30EC_U+30A4_U+30E4_U+30FC 1
 62
     7
420
 16777215
370
     9
100
AcDb2dPolyline
 66
     1
 10
0.0
 20
0.0
 30
0.0
  0
VERTEX
  5
A6
330
A5
100
AcDbEntity
  8
_U+30EC_U+30A4_U+30E4_U+30FC 1
 62
     7
420
 16777215
370
     9
100
AcDbVertex
100
AcDb2dVertex
 10
105.8657156324739
 20
-123.1039574692241
 30
0.0
  0
VERTEX
  5
A7
330
A5
100
AcDbEntity
  8
_U+30EC_U+30A4_U+30E4_U+30FC 1
 62
     7
420
 16777215
370
     9
100
AcDbVertex
100
AcDb2dVertex
 10
105.8657156324739
 20
-120.6441438587279
 30
0.0
  0
SEQEND
  5
A8
330
A5
100
AcDbEntity
  8
_U+30EC_U+30A4_U+30E4_U+30FC 1
 62
     7
420
 16777215
370
     9
  0
INSERT
  5
AA
330
1F
100
AcDbEntity
  8
_U+30EC_U+30A4_U+30E4_U+30FC 1
100
AcDbBlockReference
  2
block 6
 10
0.0
 20
0.0
 30
0.0
  0
POLYLINE
  5
B1
330
1F
100
AcDbEntity
  8
_U+30EC_U+30A4_U+30E4_U+30FC 1
 62
     7
420
 16777215
370
     9
100
AcDb2dPolyline
 66
     1
 10
0.0
 20
0.0
 30
0.0
  0
VERTEX
  5
B2
330
B1
100
AcDbEntity
  8
_U+30EC_U+30A4_U+30E4_U+30FC 1
 62
     7
420
 16777215
370
     9
100
AcDbVertex
100
AcDb2dVertex
 10
85.86536808716974
 20
-137.8441419099832
 30
0.0
  0
VERTEX
  5
B3
330
B1
100
AcDbEntity
  8
_U+30EC_U+30A4_U+30E4_U+30FC 1
 62
     7
420
 16777215
370
     9
100
AcDbVertex
100
AcDb2dVertex
 10
70.86543374762772
 20
-137.8441419099832
 30
0.0
  0
SEQEND
  5
B4
330
B1
100
AcDbEntity
  8
_U+30EC_U+30A4_U+30E4_U+30FC 1
 62
     7
420
 16777215
370
     9
  0
POLYLINE
  5
B5
330
1F
100
AcDbEntity
  8
_U+30EC_U+30A4_U+30E4_U+30FC 1
 62
     7
420
 16777215
370
     9
100
AcDb2dPolyline
 66
     1
 10
0.0
 20
0.0
 30
0.0
  0
VERTEX
  5
B6
330
B5
100
AcDbEntity
  8
_U+30EC_U+30A4_U+30E4_U+30FC 1
 62
     7
420
 16777215
370
     9
100
AcDbVertex
100
AcDb2dVertex
 10
85.86536808716974
 20
-136.3841005214595
 30
0.0
  0
VERTEX
  5
B7
330
B5
100
AcDbEntity
  8
_U+30EC_U+30A4_U+30E4_U+30FC 1
 62
     7
420
 16777215
370
     9
100
AcDbVertex
100
AcDb2dVertex
 10
85.86536808716974
 20
-138.8445844097331
 30
0.0
  0
SEQEND
  5
B8
330
B5
100
AcDbEntity
  8
_U+30EC_U+30A4_U+30E4_U+30FC 1
 62
     7
420
 16777215
370
     9
  0
POLYLINE
  5
B9
330
1F
100
AcDbEntity
  8
_U+30EC_U+30A4_U+30E4_U+30FC 1
 62
     7
420
 16777215
370
     9
100
AcDb2dPolyline
 66
     1
 10
0.0
 20
0.0
 30
0.0
  0
VERTEX
  5
BA
330
B9
100
AcDbEntity
  8
_U+30EC_U+30A4_U+30E4_U+30FC 1
 62
     7
420
 16777215
370
     9
100
AcDbVertex
100
AcDb2dVertex
 10
70.86889096976174
 20
-129.184541078815
 30
0.0
  0
VERTEX
  5
BB
330
B9
100
AcDbEntity
  8
_U+30EC_U+30A4_U+30E4_U+30FC 1
 62
     7
420
 16777215
370
     9
100
AcDbVertex
100
AcDb2dVertex
 10
70.86889096976174
 20
-138.8445844097331
 30
0.0
  0
SEQEND
  5
BC
330
B9
100
AcDbEntity
  8
_U+30EC_U+30A4_U+30E4_U+30FC 1
 62
     7
420
 16777215
370
     9
  0
INSERT
  5
BE
330
1F
100
AcDbEntity
  8
_U+30EC_U+30A4_U+30E4_U+30FC 1
100
AcDbBlockReference
  2
block 7
 10
0.0
 20
0.0
 30
0.0
  0
INSERT
  5
C6
330
1F
100
AcDbEntity
  8
_U+30EC_U+30A4_U+30E4_U+30FC 1
100
AcDbBlockReference
  2
block 8
 10
0.0
 20
0.0
 30
0.0
  0
ENDSEC
  0
SECTION
  2
OBJECTS
  0
DICTIONARY
  5
C
330
0
100
AcDbDictionary
281
     1
  3
ACAD_GROUP
350
D
  3
ACAD_LAYOUT
350
1A
  3
ACAD_MATERIAL
350
3B
  3
ACAD_MLEADERSTYLE
350
DE
  3
ACAD_MLINESTYLE
350
17
  3
ACAD_PLOTSETTINGS
350
19
  3
ACAD_PLOTSTYLENAME
350
E
  3
ACAD_TABLESTYLE
350
DD
  3
ACAD_VISUALSTYLE
350
2A
  0
SUN
  5
3F
330
29
100
AcDbSun
 90
        1
290
     0
 63
     7
421
 16777215
 40
1.0
291
     1
 91
  2455826
 92
 54000000
292
     0
 70
     2
 71
   256
280
     1
  0
DICTIONARY
  5
D
102
{ACAD_REACTORS
330
C
102
}
330
C
100
AcDbDictionary
281
     1
  0
DICTIONARY
  5
1A
102
{ACAD_REACTORS
330
C
102
}
330
C
100
AcDbDictionary
281
     1
  3
Layout1
350
1E
  3
Layout2
350
26
  3
Model
350
22
  0
DICTIONARY
  5
3B
102
{ACAD_REACTORS
330
C
102
}
330
C
100
AcDbDictionary
281
     1
  3
ByBlock
350
3D
  3
ByLayer
350
3C
  3
Global
350
3E
  0
DICTIONARY
  5
DE
102
{ACAD_REACTORS
330
C
102
}
330
C
100
AcDbDictionary
281
     1
  0
DICTIONARY
  5
17
102
{ACAD_REACTORS
330
C
102
}
330
C
100
AcDbDictionary
281
     1
  3
Standard
350
18
  0
DICTIONARY
  5
19
102
{ACAD_REACTORS
330
C
102
}
330
C
100
AcDbDictionary
281
     1
  0
ACDBDICTIONARYWDFLT
  5
E
102
{ACAD_REACTORS
330
C
102
}
330
C
100
AcDbDictionary
281
     1
  3
Normal
350
F
100
AcDbDictionaryWithDefault
340
F
  0
DICTIONARY
  5
DD
102
{ACAD_REACTORS
330
C
102
}
330
C
100
AcDbDictionary
281
     1
  0
DICTIONARY
  5
2A
102
{ACAD_REACTORS
330
C
102
}
330
C
100
AcDbDictionary
281
     1
  3
2dWireframe
350
2F
  3
3D Hidden
350
31
  3
3dWireframe
350
30
  3
Basic
350
32
  3
Brighten
350
36
  3
ColorChange
350
3A
  3
Conceptual
350
34
  3
Dim
350
35
  3
Facepattern
350
39
  3
Flat
350
2B
  3
FlatWithEdges
350
2C
  3
Gouraud
350
2D
  3
GouraudWithEdges
350
2E
  3
Linepattern
350
38
  3
Realistic
350
33
  3
Thicken
350
37
  0
LAYOUT
  5
1E
102
{ACAD_REACTORS
330
1A
102
}
330
1A
100
AcDbPlotSettings
  1

  2
none_device
  4

  6

 40
0.0
 41
0.0
 42
0.0
 43
0.0
 44
0.0
 45
0.0
 46
0.0
 47
0.0
 48
0.0
 49
0.0
140
0.0
141
0.0
142
1.0
143
1.0
 70
   688
 72
     0
 73
     0
 74
     5
  7

 75
    16
 76
     0
 77
     2
 78
   300
147
1.0
148
0.0
149
0.0
100
AcDbLayout
  1
Layout1
 70
     1
 71
     1
 10
0.0
 20
0.0
 11
12.0
 21
9.0
 12
0.0
 22
0.0
 32
0.0
 14
1.000000000000000E+20
 24
1.000000000000000E+20
 34
1.000000000000000E+20
 15
-1.000000000000000E+20
 25
-1.000000000000000E+20
 35
-1.000000000000000E+20
146
0.0
 13
0.0
 23
0.0
 33
0.0
 16
1.0
 26
0.0
 36
0.0
 17
0.0
 27
1.0
 37
0.0
 76
     0
330
1B
  0
LAYOUT
  5
26
102
{ACAD_REACTORS
330
1A
102
}
330
1A
100
AcDbPlotSettings
  1

  2
none_device
  4

  6

 40
0.0
 41
0.0
 42
0.0
 43
0.0
 44
0.0
 45
0.0
 46
0.0
 47
0.0
 48
0.0
 49
0.0
140
0.0
141
0.0
142
1.0
143
1.0
 70
   688
 72
     0
 73
     0
 74
     5
  7

 75
    16
 76
     0
 77
     2
 78
   300
147
1.0
148
0.0
149
0.0
100
AcDbLayout
  1
Layout2
 70
     1
 71
     2
 10
0.0
 20
0.0
 11
0.0
 21
0.0
 12
0.0
 22
0.0
 32
0.0
 14
0.0
 24
0.0
 34
0.0
 15
0.0
 25
0.0
 35
0.0
146
0.0
 13
0.0
 23
0.0
 33
0.0
 16
1.0
 26
0.0
 36
0.0
 17
0.0
 27
1.0
 37
0.0
 76
     0
330
23
  0
LAYOUT
  5
22
102
{ACAD_REACTORS
330
1A
102
}
330
1A
100
AcDbPlotSettings
  1

  2
none_device
  4

  6

 40
0.0
 41
0.0
 42
0.0
 43
0.0
 44
0.0
 45
0.0
 46
0.0
 47
0.0
 48
0.0
 49
0.0
140
0.0
141
0.0
142
1.0
143
1.0
 70
  1712
 72
     0
 73
     0
 74
     0
  7

 75
     0
 76
     0
 77
     2
 78
   300
147
1.0
148
0.0
149
0.0
100
AcDbLayout
  1
Model
 70
     1
 71
     0
 10
0.0
 20
0.0
 11
12.0
 21
9.0
 12
0.0
 22
0.0
 32
0.0
 14
1.000000000000000E+20
 24
1.000000000000000E+20
 34
1.000000000000000E+20
 15
-1.000000000000000E+20
 25
-1.000000000000000E+20
 35
-1.000000000000000E+20
146
0.0
 13
0.0
 23
0.0
 33
0.0
 16
1.0
 26
0.0
 36
0.0
 17
0.0
 27
1.0
 37
0.0
 76
     0
330
1F
331
29
  0
MATERIAL
  5
3D
102
{ACAD_REACTORS
330
3B
102
}
330
3B
100
AcDbMaterial
  1
ByBlock
 72
     1
 94
      127
  0
MATERIAL
  5
3C
102
{ACAD_REACTORS
330
3B
102
}
330
3B
100
AcDbMaterial
  1
ByLayer
 72
     1
 94
      127
  0
MATERIAL
  5
3E
102
{ACAD_REACTORS
330
3B
102
}
330
3B
100
AcDbMaterial
  1
Global
 72
     1
 94
      127
  0
MLINESTYLE
  5
18
102
{ACAD_REACTORS
330
17
102
}
330
17
100
AcDbMlineStyle
  2
Standard
 70
     0
  3

 62
   256
 51
90.0
 52
90.0
 71
     2
 49
0.5
 62
   256
  6
BYLAYER
 49
-0.5
 62
   256
  6
BYLAYER
  0
ACDBPLACEHOLDER
  5
F
102
{ACAD_REACTORS
330
E
102
}
330
E
  0
VISUALSTYLE
  5
2F
102
{ACAD_REACTORS
330
2A
102
}
330
2A
100
AcDbVisualStyle
  2
2dWireframe
 70
     4
177
     2
291
     0
 71
     0
176
     1
 72
     2
176
     1
 73
     0
176
     1
 90
        0
176
     1
 40
-0.6
176
     1
 41
-30.0
176
     1
 62
     5
 63
     7
421
 16777215
176
     1
 74
     1
176
     1
 91
        4
176
     1
 64
     7
176
     1
 65
   257
176
     1
 75
     1
176
     1
175
     1
176
     1
 42
1.0
176
     1
 92
        0
176
     1
 66
   257
176
     1
 43
1.0
176
     1
 76
     1
176
     1
 77
     6
176
     1
 78
     2
176
     1
 67
     7
176
     1
 79
     5
176
     1
170
     0
176
     1
171
     0
176
     1
290
     0
176
     1
 93
        1
176
     1
 44
0.0
176
     1
173
     0
176
     1
  0
VISUALSTYLE
  5
31
102
{ACAD_REACTORS
330
2A
102
}
330
2A
100
AcDbVisualStyle
  2
3D Hidden
 70
     6
177
     2
291
     0
 71
     1
176
     1
 72
     2
176
     1
 73
     2
176
     1
 90
        0
176
     1
 40
-0.6
176
     1
 41
-30.0
176
     1
 62
     5
 63
     7
421
 16777215
176
     1
 74
     2
176
     1
 91
        2
176
     1
 64
     7
176
     1
 65
   257
176
     1
 75
     2
176
     1
175
     1
176
     1
 42
40.0
176
     1
 92
        0
176
     1
 66
   257
176
     1
 43
1.0
176
     1
 76
     1
176
     1
 77
     6
176
     1
 78
     2
176
     1
 67
     7
176
     1
 79
     3
176
     1
170
     0
176
     1
171
     0
176
     1
290
     0
176
     1
 93
        1
176
     1
 44
0.0
176
     1
173
     0
176
     1
  0
VISUALSTYLE
  5
30
102
{ACAD_REACTORS
330
2A
102
}
330
2A
100
AcDbVisualStyle
  2
3dWireframe
 70
     5
177
     2
291
     0
 71
     0
176
     1
 72
     2
176
     1
 73
     0
176
     1
 90
        0
176
     1
 40
-0.6
176
     1
 41
-30.0
176
     1
 62
     5
 63
     7
421
 16777215
176
     1
 74
     1
176
     1
 91
        4
176
     1
 64
     7
176
     1
 65
   257
176
     1
 75
     1
176
     1
175
     1
176
     1
 42
1.0
176
     1
 92
        0
176
     1
 66
   257
176
     1
 43
1.0
176
     1
 76
     1
176
     1
 77
     6
176
     1
 78
     2
176
     1
 67
     7
176
     1
 79
     5
176
     1
170
     0
176
     1
171
     0
176
     1
290
     0
176
     1
 93
        1
176
     1
 44
0.0
176
     1
173
     0
176
     1
  0
VISUALSTYLE
  5
32
102
{ACAD_REACTORS
330
2A
102
}
330
2A
100
AcDbVisualStyle
  2
Basic
 70
     7
177
     2
291
     1
 71
     1
176
     1
 72
     0
176
     1
 73
     1
176
     1
 90
        0
176
     1
 40
-0.6
176
     1
 41
-30.0
176
     1
 62
     5
 63
     7
421
 16777215
176
     1
 74
     0
176
     1
 91
        4
176
     1
 64
     7
176
     1
 65
   257
176
     1
 75
     1
176
     1
175
     1
176
     1
 42
1.0
176
     1
 92
        8
176
     1
 66
     7
176
     1
 43
1.0
176
     1
 76
     1
176
     1
 77
     6
176
     1
 78
     2
176
     1
 67
     7
176
     1
 79
     5
176
     1
170
     0
176
     1
171
     0
176
     1
290
     0
176
     1
 93
        1
176
     1
 44
0.0
176
     1
173
     0
176
     1
  0
VISUALSTYLE
  5
36
102
{ACAD_REACTORS
330
2A
102
}
330
2A
100
AcDbVisualStyle
  2
Brighten
 70
    12
177
     2
291
     1
 71
     2
176
     1
 72
     2
176
     1
 73
     0
176
     1
 90
        0
176
     1
 40
-0.6
176
     1
 41
-30.0
176
     1
 62
     5
 63
     7
421
 16777215
176
     1
 74
     1
176
     1
 91
        4
176
     1
 64
     7
176
     1
 65
   257
176
     1
 75
     1
176
     1
175
     1
176
     1
 42
1.0
176
     1
 92
        8
176
     1
 66
     7
176
     1
 43
1.0
176
     1
 76
     1
176
     1
 77
     6
176
     1
 78
     2
176
     1
 67
     7
176
     1
 79
     5
176
     1
170
     0
176
     1
171
     0
176
     1
290
     0
176
     1
 93
        1
176
     1
 44
50.0
176
     1
173
     0
176
     1
  0
VISUALSTYLE
  5
3A
102
{ACAD_REACTORS
330
2A
102
}
330
2A
100
AcDbVisualStyle
  2
ColorChange
 70
    16
177
     2
291
     1
 71
     2
176
     1
 72
     2
176
     1
 73
     3
176
     1
 90
        0
176
     1
 40
-0.6
176
     1
 41
-30.0
176
     1
 62
     5
 63
     8
421
  8421504
176
     1
 74
     1
176
     1
 91
        4
176
     1
 64
     7
176
     1
 65
   257
176
     1
 75
     1
176
     1
175
     1
176
     1
 42
1.0
176
     1
 92
        8
176
     1
 66
     8
424
  8421504
176
     1
 43
1.0
176
     1
 76
     1
176
     1
 77
     6
176
     1
 78
     2
176
     1
 67
     7
176
     1
 79
     5
176
     1
170
     0
176
     1
171
     0
176
     1
290
     0
176
     1
 93
        1
176
     1
 44
0.0
176
     1
173
     0
176
     1
  0
VISUALSTYLE
  5
34
102
{ACAD_REACTORS
330
2A
102
}
330
2A
100
AcDbVisualStyle
  2
Conceptual
 70
     9
177
     2
291
     0
 71
     3
176
     1
 72
     2
176
     1
 73
     0
176
     1
 90
        0
176
     1
 40
-0.6
176
     1
 41
-30.0
176
     1
 62
     5
 63
     7
421
 16777215
176
     1
 74
     2
176
     1
 91
        2
176
     1
 64
     7
176
     1
 65
   257
176
     1
 75
     1
176
     1
175
     1
176
     1
 42
40.0
176
     1
 92
        8
176
     1
 66
     7
176
     1
 43
1.0
176
     1
 76
     1
176
     1
 77
     6
176
     1
 78
     2
176
     1
 67
     7
176
     1
 79
     3
176
     1
170
     0
176
     1
171
     0
176
     1
290
     0
176
     1
 93
        1
176
     1
 44
0.0
176
     1
173
     0
176
     1
  0
VISUALSTYLE
  5
35
102
{ACAD_REACTORS
330
2A
102
}
330
2A
100
AcDbVisualStyle
  2
Dim
 70
    11
177
     2
291
     1
 71
     2
176
     1
 72
     2
176
     1
 73
     0
176
     1
 90
        0
176
     1
 40
-0.6
176
     1
 41
-30.0
176
     1
 62
     5
 63
     7
421
 16777215
176
     1
 74
     1
176
     1
 91
        4
176
     1
 64
     7
176
     1
 65
   257
176
     1
 75
     1
176
     1
175
     1
176
     1
 42
1.0
176
     1
 92
        8
176
     1
 66
     7
176
     1
 43
1.0
176
     1
 76
     1
176
     1
 77
     6
176
     1
 78
     2
176
     1
 67
     7
176
     1
 79
     5
176
     1
170
     0
176
     1
171
     0
176
     1
290
     0
176
     1
 93
        1
176
     1
 44
-50.0
176
     1
173
     0
176
     1
  0
VISUALSTYLE
  5
39
102
{ACAD_REACTORS
330
2A
102
}
330
2A
100
AcDbVisualStyle
  2
Facepattern
 70
    15
177
     2
291
     1
 71
     2
176
     1
 72
     2
176
     1
 73
     0
176
     1
 90
        0
176
     1
 40
-0.6
176
     1
 41
-30.0
176
     1
 62
     5
 63
     7
421
 16777215
176
     1
 74
     1
176
     1
 91
        4
176
     1
 64
     7
176
     1
 65
   257
176
     1
 75
     1
176
     1
175
     1
176
     1
 42
1.0
176
     1
 92
        8
176
     1
 66
     7
176
     1
 43
1.0
176
     1
 76
     1
176
     1
 77
     6
176
     1
 78
     2
176
     1
 67
     7
176
     1
 79
     5
176
     1
170
     0
176
     1
171
     0
176
     1
290
     0
176
     1
 93
        1
176
     1
 44
0.0
176
     1
173
     0
176
     1
  0
VISUALSTYLE
  5
2B
102
{ACAD_REACTORS
330
2A
102
}
330
2A
100
AcDbVisualStyle
  2
Flat
 70
     0
177
     2
291
     1
 71
     2
176
     1
 72
     1
176
     1
 73
     1
176
     1
 90
        2
176
     1
 40
-0.6
176
     1
 41
30.0
176
     1
 62
     5
 63
     7
421
 16777215
176
     1
 74
     0
176
     1
 91
        4
176
     1
 64
     7
176
     1
 65
   257
176
     1
 75
     1
176
     1
175
     1
176
     1
 42
1.0
176
     1
 92
        8
176
     1
 66
     7
176
     1
 43
1.0
176
     1
 76
     1
176
     1
 77
     6
176
     1
 78
     2
176
     1
 67
     7
176
     1
 79
     5
176
     1
170
     0
176
     1
171
     0
176
     1
290
     0
176
     1
 93
       13
176
     1
 44
0.0
176
     1
173
     0
176
     1
  0
VISUALSTYLE
  5
2C
102
{ACAD_REACTORS
330
2A
102
}
330
2A
100
AcDbVisualStyle
  2
FlatWithEdges
 70
     1
177
     2
291
     1
 71
     2
176
     1
 72
     1
176
     1
 73
     1
176
     1
 90
        2
176
     1
 40
-0.6
176
     1
 41
30.0
176
     1
 62
     5
 63
     7
421
 16777215
176
     1
 74
     1
176
     1
 91
        4
176
     1
 64
     7
176
     1
 65
   257
176
     1
 75
     1
176
     1
175
     1
176
     1
 42
1.0
176
     1
 92
        0
176
     1
 66
   257
176
     1
 43
1.0
176
     1
 76
     1
176
     1
 77
     6
176
     1
 78
     2
176
     1
 67
     7
176
     1
 79
     5
176
     1
170
     0
176
     1
171
     0
176
     1
290
     0
176
     1
 93
       13
176
     1
 44
0.0
176
     1
173
     0
176
     1
  0
VISUALSTYLE
  5
2D
102
{ACAD_REACTORS
330
2A
102
}
330
2A
100
AcDbVisualStyle
  2
Gouraud
 70
     2
177
     2
291
     1
 71
     2
176
     1
 72
     2
176
     1
 73
     1
176
     1
 90
        2
176
     1
 40
-0.6
176
     1
 41
30.0
176
     1
 62
     5
 63
     7
421
 16777215
176
     1
 74
     0
176
     1
 91
        4
176
     1
 64
     7
176
     1
 65
   257
176
     1
 75
     1
176
     1
175
     1
176
     1
 42
1.0
176
     1
 92
        0
176
     1
 66
     7
176
     1
 43
1.0
176
     1
 76
     1
176
     1
 77
     6
176
     1
 78
     2
176
     1
 67
     7
176
     1
 79
     5
176
     1
170
     0
176
     1
171
     0
176
     1
290
     0
176
     1
 93
       13
176
     1
 44
0.0
176
     1
173
     0
176
     1
  0
VISUALSTYLE
  5
2E
102
{ACAD_REACTORS
330
2A
102
}
330
2A
100
AcDbVisualStyle
  2
GouraudWithEdges
 70
     3
177
     2
291
     1
 71
     2
176
     1
 72
     2
176
     1
 73
     1
176
     1
 90
        2
176
     1
 40
-0.6
176
     1
 41
30.0
176
     1
 62
     5
 63
     7
421
 16777215
176
     1
 74
     1
176
     1
 91
        4
176
     1
 64
     7
176
     1
 65
   257
176
     1
 75
     1
176
     1
175
     1
176
     1
 42
1.0
176
     1
 92
        0
176
     1
 66
   257
176
     1
 43
1.0
176
     1
 76
     1
176
     1
 77
     6
176
     1
 78
     2
176
     1
 67
     7
176
     1
 79
     5
176
     1
170
     0
176
     1
171
     0
176
     1
290
     0
176
     1
 93
       13
176
     1
 44
0.0
176
     1
173
     0
176
     1
  0
VISUALSTYLE
  5
38
102
{ACAD_REACTORS
330
2A
102
}
330
2A
100
AcDbVisualStyle
  2
Linepattern
 70
    14
177
     2
291
     1
 71
     2
176
     1
 72
     2
176
     1
 73
     0
176
     1
 90
        0
176
     1
 40
-0.6
176
     1
 41
-30.0
176
     1
 62
     5
 63
     7
421
 16777215
176
     1
 74
     1
176
     1
 91
        4
176
     1
 64
     7
176
     1
 65
   257
176
     1
 75
     7
176
     1
175
     7
176
     1
 42
1.0
176
     1
 92
        8
176
     1
 66
     7
176
     1
 43
1.0
176
     1
 76
     1
176
     1
 77
     6
176
     1
 78
     2
176
     1
 67
     7
176
     1
 79
     5
176
     1
170
     0
176
     1
171
     0
176
     1
290
     0
176
     1
 93
        1
176
     1
 44
0.0
176
     1
173
     0
176
     1
  0
VISUALSTYLE
  5
33
102
{ACAD_REACTORS
330
2A
102
}
330
2A
100
AcDbVisualStyle
  2
Realistic
 70
     8
177
     2
291
     0
 71
     2
176
     1
 72
     2
176
     1
 73
     0
176
     1
 90
        0
176
     1
 40
-0.6
176
     1
 41
-30.0
176
     1
 62
     5
 63
     7
421
 16777215
176
     1
 74
     1
176
     1
 91
        0
176
     1
 64
     7
176
     1
 65
   257
176
     1
 75
     1
176
     1
175
     1
176
     1
 42
1.0
176
     1
 92
        8
176
     1
 66
     8
424
  7895160
176
     1
 43
1.0
176
     1
 76
     1
176
     1
 77
     6
176
     1
 78
     2
176
     1
 67
     7
176
     1
 79
     5
176
     1
170
     0
176
     1
171
     0
176
     1
290
     0
176
     1
 93
       13
176
     1
 44
0.0
176
     1
173
     0
176
     1
  0
VISUALSTYLE
  5
37
102
{ACAD_REACTORS
330
2A
102
}
330
2A
100
AcDbVisualStyle
  2
Thicken
 70
    13
177
     2
291
     1
 71
     2
176
     1
 72
     2
176
     1
 73
     0
176
     1
 90
        0
176
     1
 40
-0.6
176
     1
 41
-30.0
176
     1
 62
     5
 63
     7
421
 16777215
176
     1
 74
     1
176
     1
 91
        4
176
     1
 64
     7
176
     1
 65
   257
176
     1
 75
     1
176
     1
175
     1
176
     1
 42
1.0
176
     1
 92
       12
176
     1
 66
     7
176
     1
 43
1.0
176
     1
 76
     1
176
     1
 77
     6
176
     1
 78
     2
176
     1
 67
     7
176
     1
 79
     5
176
     1
170
     0
176
     1
171
     0
176
     1
290
     0
176
     1
 93
        1
176
     1
 44
0.0
176
     1
173
     0
176
     1
  0
ENDSEC
  0
EOF
