  0
SECTION
  2
HEADER
  9
$ACADVER
  1
AC1024
  9
$ACADMAINTVER
 70
     6
  9
$DWGCODEPAGE
  3
UNDEFINED
  9
$INSBASE
 10
0.0
 20
0.0
 30
0.0
  9
$EXTMIN
 10
1.000000000000000E+20
 20
1.000000000000000E+20
 30
1.000000000000000E+20
  9
$EXTMAX
 10
-1.000000000000000E+20
 20
-1.000000000000000E+20
 30
-1.000000000000000E+20
  9
$LIMMIN
 10
0.0
 20
0.0
  9
$LIMMAX
 10
12.0
 20
9.0
  9
$ORTHOMODE
 70
     0
  9
$REGENMODE
 70
     1
  9
$FILLMODE
 70
     1
  9
$QTEXTMODE
 70
     0
  9
$MIRRTEXT
 70
     1
  9
$LTSCALE
 40
1.0
  9
$ATTMODE
 70
     1
  9
$TEXTSIZE
 40
0.2
  9
$TRACEWID
 40
0.05
  9
$TEXTSTYLE
  7
Standard
  9
$CLAYER
  8
0
  9
$CELTYPE
  6
ByLayer
  9
$CECOLOR
 62
   256
  9
$CELTSCALE
 40
1.0
  9
$DISPSILH
 70
     0
  9
$DIMSCALE
 40
1.0
  9
$DIMASZ
 40
0.18
  9
$DIMEXO
 40
0.0625
  9
$DIMDLI
 40
0.38
  9
$DIMRND
 40
0.0
  9
$DIMDLE
 40
0.0
  9
$DIMEXE
 40
0.18
  9
$DIMTP
 40
0.0
  9
$DIMTM
 40
0.0
  9
$DIMTXT
 40
0.18
  9
$DIMCEN
 40
0.09
  9
$DIMTSZ
 40
0.0
  9
$DIMTOL
 70
     0
  9
$DIMLIM
 70
     0
  9
$DIMTIH
 70
     1
  9
$DIMTOH
 70
     1
  9
$DIMSE1
 70
     0
  9
$DIMSE2
 70
     0
  9
$DIMTAD
 70
     0
  9
$DIMZIN
 70
     0
  9
$DIMBLK
  1

  9
$DIMASO
 70
     1
  9
$DIMSHO
 70
     1
  9
$DIMPOST
  1

  9
$DIMAPOST
  1

  9
$DIMALT
 70
     0
  9
$DIMALTD
 70
     2
  9
$DIMALTF
 40
25.4
  9
$DIMLFAC
 40
1.0
  9
$DIMTOFL
 70
     0
  9
$DIMTVP
 40
0.0
  9
$DIMTIX
 70
     0
  9
$DIMSOXD
 70
     0
  9
$DIMSAH
 70
     0
  9
$DIMBLK1
  1

  9
$DIMBLK2
  1

  9
$DIMSTYLE
  2
Standard
  9
$DIMCLRD
 70
     0
  9
$DIMCLRE
 70
     0
  9
$DIMCLRT
 70
     0
  9
$DIMTFAC
 40
1.0
  9
$DIMGAP
 40
0.09
  9
$DIMJUST
 70
     0
  9
$DIMSD1
 70
     0
  9
$DIMSD2
 70
     0
  9
$DIMTOLJ
 70
     1
  9
$DIMTZIN
 70
     0
  9
$DIMALTZ
 70
     0
  9
$DIMALTTZ
 70
     0
  9
$DIMUPT
 70
     0
  9
$DIMDEC
 70
     4
  9
$DIMTDEC
 70
     4
  9
$DIMALTU
 70
     2
  9
$DIMALTTD
 70
     2
  9
$DIMTXSTY
  7
Standard
  9
$DIMAUNIT
 70
     0
  9
$DIMADEC
 70
     0
  9
$DIMALTRND
 40
0.0
  9
$DIMAZIN
 70
     0
  9
$DIMDSEP
 70
    46
  9
$DIMATFIT
 70
     3
  9
$DIMFRAC
 70
     0
  9
$DIMLDRBLK
  1

  9
$DIMLUNIT
 70
     2
  9
$DIMLWD
 70
    -2
  9
$DIMLWE
 70
    -2
  9
$DIMTMOVE
 70
     0
  9
$DIMFXL
 40
1.0
  9
$DIMFXLON
 70
     0
  9
$DIMJOGANG
 40
0.7853981633974483
  9
$DIMTFILL
 70
     0
  9
$DIMTFILLCLR
 70
     0
  9
$DIMARCSYM
 70
     0
  9
$DIMLTYPE
  6

  9
$DIMLTEX1
  6

  9
$DIMLTEX2
  6

  9
$DIMTXTDIRECTION
 70
     0
  9
$LUNITS
 70
     2
  9
$LUPREC
 70
     4
  9
$SKETCHINC
 40
0.1
  9
$FILLETRAD
 40
0.5
  9
$AUNITS
 70
     0
  9
$AUPREC
 70
     0
  9
$MENU
  1
.
  9
$ELEVATION
 40
0.0
  9
$PELEVATION
 40
0.0
  9
$THICKNESS
 40
0.0
  9
$LIMCHECK
 70
     0
  9
$CHAMFERA
 40
0.5
  9
$CHAMFERB
 40
0.5
  9
$CHAMFERC
 40
1.0
  9
$CHAMFERD
 40
0.0
  9
$SKPOLY
 70
     0
  9
$TDCREATE
 40
2458263.580775463
  9
$TDUCREATE
 40
2458263.205775463
  9
$TDUPDATE
 40
2458263.580775463
  9
$TDUUPDATE
 40
2458263.205775463
  9
$TDINDWG
 40
0.0000000116
  9
$TDUSRTIMER
 40
0.0000000116
  9
$USRTIMER
 70
     1
  9
$ANGBASE
 50
0.0
  9
$ANGDIR
 70
     0
  9
$PDMODE
 70
     0
  9
$PDSIZE
 40
0.0
  9
$PLINEWID
 40
0.0
  9
$SPLFRAME
 70
     0
  9
$SPLINETYPE
 70
     6
  9
$SPLINESEGS
 70
     8
  9
$HANDSEED
  5
152
  9
$SURFTAB1
 70
     6
  9
$SURFTAB2
 70
     6
  9
$SURFTYPE
 70
     6
  9
$SURFU
 70
     6
  9
$SURFV
 70
     6
  9
$UCSBASE
  2

  9
$UCSNAME
  2

  9
$UCSORG
 10
0.0
 20
0.0
 30
0.0
  9
$UCSXDIR
 10
1.0
 20
0.0
 30
0.0
  9
$UCSYDIR
 10
0.0
 20
1.0
 30
0.0
  9
$UCSORTHOREF
  2

  9
$UCSORTHOVIEW
 70
     0
  9
$UCSORGTOP
 10
0.0
 20
0.0
 30
0.0
  9
$UCSORGBOTTOM
 10
0.0
 20
0.0
 30
0.0
  9
$UCSORGLEFT
 10
0.0
 20
0.0
 30
0.0
  9
$UCSORGRIGHT
 10
0.0
 20
0.0
 30
0.0
  9
$UCSORGFRONT
 10
0.0
 20
0.0
 30
0.0
  9
$UCSORGBACK
 10
0.0
 20
0.0
 30
0.0
  9
$PUCSBASE
  2

  9
$PUCSNAME
  2

  9
$PUCSORG
 10
0.0
 20
0.0
 30
0.0
  9
$PUCSXDIR
 10
1.0
 20
0.0
 30
0.0
  9
$PUCSYDIR
 10
0.0
 20
1.0
 30
0.0
  9
$PUCSORTHOREF
  2

  9
$PUCSORTHOVIEW
 70
     0
  9
$PUCSORGTOP
 10
0.0
 20
0.0
 30
0.0
  9
$PUCSORGBOTTOM
 10
0.0
 20
0.0
 30
0.0
  9
$PUCSORGLEFT
 10
0.0
 20
0.0
 30
0.0
  9
$PUCSORGRIGHT
 10
0.0
 20
0.0
 30
0.0
  9
$PUCSORGFRONT
 10
0.0
 20
0.0
 30
0.0
  9
$PUCSORGBACK
 10
0.0
 20
0.0
 30
0.0
  9
$USERI1
 70
     0
  9
$USERI2
 70
     0
  9
$USERI3
 70
     0
  9
$USERI4
 70
     0
  9
$USERI5
 70
     0
  9
$USERR1
 40
0.0
  9
$USERR2
 40
0.0
  9
$USERR3
 40
0.0
  9
$USERR4
 40
0.0
  9
$USERR5
 40
0.0
  9
$WORLDVIEW
 70
     1
  9
$SHADEDGE
 70
     3
  9
$SHADEDIF
 70
    70
  9
$TILEMODE
 70
     1
  9
$MAXACTVP
 70
    64
  9
$PINSBASE
 10
0.0
 20
0.0
 30
0.0
  9
$PLIMCHECK
 70
     0
  9
$PEXTMIN
 10
1.000000000000000E+20
 20
1.000000000000000E+20
 30
1.000000000000000E+20
  9
$PEXTMAX
 10
-1.000000000000000E+20
 20
-1.000000000000000E+20
 30
-1.000000000000000E+20
  9
$PLIMMIN
 10
0.0
 20
0.0
  9
$PLIMMAX
 10
12.0
 20
9.0
  9
$UNITMODE
 70
     0
  9
$VISRETAIN
 70
     1
  9
$PLINEGEN
 70
     0
  9
$PSLTSCALE
 70
     1
  9
$TREEDEPTH
 70
  3020
  9
$CMLSTYLE
  2
Standard
  9
$CMLJUST
 70
     0
  9
$CMLSCALE
 40
1.0
  9
$PROXYGRAPHICS
 70
     1
  9
$MEASUREMENT
 70
     0
  9
$CELWEIGHT
370
    -1
  9
$ENDCAPS
280
     0
  9
$JOINSTYLE
280
     0
  9
$LWDISPLAY
290
     1
  9
$INSUNITS
 70
     1
  9
$HYPERLINKBASE
  1

  9
$STYLESHEET
  1

  9
$XEDIT
290
     1
  9
$CEPSNTYPE
380
     0
  9
$PSTYLEMODE
290
     1
  9
$FINGERPRINTGUID
  2
{8C1461EE-5F6E-DDE5-1F0A-5C1B6D0015E8}
  9
$VERSIONGUID
  2
{FAEB1C32-E019-11D5-929B-00C0DF256EC4}
  9
$EXTNAMES
290
     1
  9
$PSVPSCALE
 40
0.0
  9
$OLESTARTUP
290
     0
  9
$SORTENTS
280
   127
  9
$INDEXCTL
280
     0
  9
$HIDETEXT
280
     1
  9
$XCLIPFRAME
280
     2
  9
$HALOGAP
280
     0
  9
$OBSCOLOR
 70
   257
  9
$OBSLTYPE
280
     0
  9
$INTERSECTIONDISPLAY
280
     0
  9
$INTERSECTIONCOLOR
 70
   257
  9
$DIMASSOC
280
     2
  9
$PROJECTNAME
  1

  9
$CAMERADISPLAY
290
     0
  9
$LENSLENGTH
 40
50.0
  9
$CAMERAHEIGHT
 40
0.0
  9
$STEPSPERSEC
 40
2.0
  9
$STEPSIZE
 40
6.0
  9
$3DDWFPREC
 40
2.0
  9
$PSOLWIDTH
 40
0.25
  9
$PSOLHEIGHT
 40
4.0
  9
$LOFTANG1
 40
1.570796326794897
  9
$LOFTANG2
 40
1.570796326794897
  9
$LOFTMAG1
 40
0.0
  9
$LOFTMAG2
 40
0.0
  9
$LOFTPARAM
 70
     7
  9
$LOFTNORMALS
280
     1
  9
$LATITUDE
 40
37.795
  9
$LONGITUDE
 40
-122.394
  9
$NORTHDIRECTION
 40
0.0
  9
$TIMEZONE
 70
 -8000
  9
$LIGHTGLYPHDISPLAY
280
     1
  9
$TILEMODELIGHTSYNCH
280
     1
  9
$CMATERIAL
347
3C
  9
$SOLIDHIST
280
     1
  9
$SHOWHIST
280
     1
  9
$DWFFRAME
280
     2
  9
$DGNFRAME
280
     2
  9
$REALWORLDSCALE
290
     1
  9
$INTERFERECOLOR
 62
   256
  9
$CSHADOW
280
     0
  9
$SHADOWPLANELOCATION
 40
0.0
  0
ENDSEC
  0
SECTION
  2
CLASSES
  0
CLASS
  1
ACDBDICTIONARYWDFLT
  2
AcDbDictionaryWithDefault
  3
ObjectDBX Classes
 90
        0
 91
        4
280
     0
281
     0
  0
CLASS
  1
VISUALSTYLE
  2
AcDbVisualStyle
  3
ObjectDBX Classes
 90
     4095
 91
        4
280
     0
281
     0
  0
CLASS
  1
MATERIAL
  2
AcDbMaterial
  3
ObjectDBX Classes
 90
     1153
 91
        4
280
     0
281
     0
  0
CLASS
  1
SUN
  2
AcDbSun
  3
SCENEOE
 90
     1024
 91
        4
280
     0
281
     0
  0
ENDSEC
  0
SECTION
  2
TABLES
  0
TABLE
  2
VPORT
  5
8
330
0
100
AcDbSymbolTable
 70
     1
  0
VPORT
  5
29
330
8
100
AcDbSymbolTableRecord
100
AcDbViewportTableRecord
  2
*Active
 70
     0
 10
0.0
 20
0.0
 11
1.0
 21
1.0
 12
0.0
 22
0.0
 13
0.0
 23
0.0
 14
0.5
 24
0.5
 15
0.5
 25
0.5
 16
0.0
 26
0.0
 36
1.0
 17
105.0007777515277
 27
-148.5000416295416
 37
0.0
 40
297.0000832590831
 41
0.7070757462376333
 42
50.0
 43
0.0
 44
0.0
 50
0.0
 51
0.0
 71
     0
 72
   100
 73
     1
 74
     3
 75
     0
 76
     0
 77
     0
 78
     0
281
     0
 65
     1
110
0.0
120
0.0
130
0.0
111
1.0
121
0.0
131
0.0
112
0.0
122
1.0
132
0.0
 79
     0
146
0.0
 60
     3
 61
     5
292
     1
282
     1
141
0.0
142
0.0
 63
   250
361
3F
  0
ENDTAB
  0
TABLE
  2
LTYPE
  5
5
330
0
100
AcDbSymbolTable
 70
     2
  0
LTYPE
  5
14
330
5
100
AcDbSymbolTableRecord
100
AcDbLinetypeTableRecord
  2
ByBlock
 70
     0
  3

 72
    65
 73
     0
 40
0.0
  0
LTYPE
  5
15
330
5
100
AcDbSymbolTableRecord
100
AcDbLinetypeTableRecord
  2
ByLayer
 70
     0
  3

 72
    65
 73
     0
 40
0.0
  0
LTYPE
  5
16
330
5
100
AcDbSymbolTableRecord
100
AcDbLinetypeTableRecord
  2
Continuous
 70
     0
  3
Solid line
 72
    65
 73
     0
 40
0.0
  0
LTYPE
  5
14E
330
5
100
AcDbSymbolTableRecord
100
AcDbLinetypeTableRecord
  2
AI-Linetype-1
 70
     0
  3
Adobe Illustrator Linetype No. 1
 72
    65
 73
     2
 40
1.380066645462674
 49
0.6900333227313368
 74
     0
 49
-0.6900333227313368
 74
     0
  0
ENDTAB
  0
TABLE
  2
LAYER
  5
2
330
0
100
AcDbSymbolTable
 70
     2
  0
LAYER
  5
10
330
2
100
AcDbSymbolTableRecord
100
AcDbLayerTableRecord
  2
0
 70
     0
 62
     7
  6
Continuous
370
    -3
390
F
347
3E
  0
LAYER
  5
40
330
2
100
AcDbSymbolTableRecord
100
AcDbLayerTableRecord
  2
_U+30EC_U+30A4_U+30E4_U+30FC 1
 70
     0
 62
     7
  6
Continuous
370
    -3
390
F
347
3E
  0
ENDTAB
  0
TABLE
  2
STYLE
  5
3
330
0
100
AcDbSymbolTable
 70
     1
  0
STYLE
  5
11
330
3
100
AcDbSymbolTableRecord
100
AcDbTextStyleTableRecord
  2
Standard
 70
     0
 40
0.0
 41
1.0
 50
0.0
 71
     0
 42
0.2
  3
txt
  4

  0
ENDTAB
  0
TABLE
  2
VIEW
  5
6
330
0
100
AcDbSymbolTable
 70
     0
  0
ENDTAB
  0
TABLE
  2
UCS
  5
7
330
0
100
AcDbSymbolTable
 70
     0
  0
ENDTAB
  0
TABLE
  2
APPID
  5
9
330
0
100
AcDbSymbolTable
 70
     1
  0
APPID
  5
12
330
9
100
AcDbSymbolTableRecord
100
AcDbRegAppTableRecord
  2
ACAD
 70
     0
  0
ENDTAB
  0
TABLE
  2
DIMSTYLE
  5
A
330
0
100
AcDbSymbolTable
 70
     1
100
AcDbDimStyleTable
  0
DIMSTYLE
105
27
330
A
100
AcDbSymbolTableRecord
100
AcDbDimStyleTableRecord
  2
Standard
 70
     0
178
     0
340
11
  0
ENDTAB
  0
TABLE
  2
BLOCK_RECORD
  5
1
330
0
100
AcDbSymbolTable
 70
     8
  0
BLOCK_RECORD
  5
1F
330
1
100
AcDbSymbolTableRecord
100
AcDbBlockTableRecord
  2
*Model_Space
340
22
 70
     0
280
     1
281
     0
  0
BLOCK_RECORD
  5
1B
330
1
100
AcDbSymbolTableRecord
100
AcDbBlockTableRecord
  2
*Paper_Space
340
1E
 70
     0
280
     1
281
     0
  0
BLOCK_RECORD
  5
23
330
1
100
AcDbSymbolTableRecord
100
AcDbBlockTableRecord
  2
*Paper_Space0
340
26
 70
     0
280
     1
281
     0
  0
BLOCK_RECORD
  5
AC
330
1
100
AcDbSymbolTableRecord
100
AcDbBlockTableRecord
  2
block 2
340
0
102
{BLKREFS
331
AD
102
}
 70
     0
280
     1
281
     0
  0
BLOCK_RECORD
  5
BE
330
1
100
AcDbSymbolTableRecord
100
AcDbBlockTableRecord
  2
block 3
340
0
102
{BLKREFS
331
BF
102
}
 70
     0
280
     1
281
     0
  0
BLOCK_RECORD
  5
D0
330
1
100
AcDbSymbolTableRecord
100
AcDbBlockTableRecord
  2
block 4
340
0
102
{BLKREFS
331
D1
102
}
 70
     0
280
     1
281
     0
  0
BLOCK_RECORD
  5
F8
330
1
100
AcDbSymbolTableRecord
100
AcDbBlockTableRecord
  2
block 5
340
0
102
{BLKREFS
331
F9
102
}
 70
     0
280
     1
281
     0
  0
BLOCK_RECORD
  5
10D
330
1
100
AcDbSymbolTableRecord
100
AcDbBlockTableRecord
  2
block 6
340
0
102
{BLKREFS
331
10E
102
}
 70
     0
280
     1
281
     0
  0
BLOCK_RECORD
  5
130
330
1
100
AcDbSymbolTableRecord
100
AcDbBlockTableRecord
  2
block 7
340
0
102
{BLKREFS
331
131
102
}
 70
     0
280
     1
281
     0
  0
BLOCK_RECORD
  5
141
330
1
100
AcDbSymbolTableRecord
100
AcDbBlockTableRecord
  2
block 8
340
0
102
{BLKREFS
331
142
102
}
 70
     0
280
     1
281
     0
  0
ENDTAB
  0
ENDSEC
  0
SECTION
  2
BLOCKS
  0
BLOCK
  5
20
330
1F
100
AcDbEntity
  8
0
100
AcDbBlockBegin
  2
*Model_Space
 70
     0
 10
0.0
 20
0.0
 30
0.0
  3
*Model_Space
  1

  0
ENDBLK
  5
21
330
1F
100
AcDbEntity
  8
0
100
AcDbBlockEnd
  0
BLOCK
  5
1C
330
1B
100
AcDbEntity
 67
     1
  8
0
100
AcDbBlockBegin
  2
*Paper_Space
 70
     0
 10
0.0
 20
0.0
 30
0.0
  3
*Paper_Space
  1

  0
ENDBLK
  5
1D
330
1B
100
AcDbEntity
 67
     1
  8
0
100
AcDbBlockEnd
  0
BLOCK
  5
24
330
23
100
AcDbEntity
  8
0
100
AcDbBlockBegin
  2
*Paper_Space0
 70
     0
 10
0.0
 20
0.0
 30
0.0
  3
*Paper_Space0
  1

  0
ENDBLK
  5
25
330
23
100
AcDbEntity
  8
0
100
AcDbBlockEnd
  0
BLOCK
  5
AE
330
AC
100
AcDbEntity
  8
0
100
AcDbBlockBegin
  2
block 2
 70
     0
 10
0.0
 20
0.0
 30
0.0
  3
block 2
  1

  0
SPLINE
  5
B0
330
AC
100
AcDbEntity
  8
_U+30EC_U+30A4_U+30E4_U+30FC 1
370
     0
100
AcDbSpline
210
0.0
220
0.0
230
1.0
 70
    11
 71
     3
 72
    62
 73
    58
 74
     0
 42
0.0000000001
 43
0.0000000001
 12
1.0
 22
0.0
 32
0.0
 13
1.0
 23
0.0
 33
0.0
 40
0.0
 40
0.0
 40
0.0
 40
0.0
 40
1.0
 40
1.0
 40
1.0
 40
2.0
 40
2.0
 40
2.0
 40
3.0
 40
3.0
 40
3.0
 40
4.0
 40
4.0
 40
4.0
 40
5.0
 40
5.0
 40
5.0
 40
6.0
 40
6.0
 40
6.0
 40
7.0
 40
7.0
 40
7.0
 40
8.0
 40
8.0
 40
8.0
 40
9.0
 40
9.0
 40
9.0
 40
10.0
 40
10.0
 40
10.0
 40
11.0
 40
11.0
 40
11.0
 40
12.0
 40
12.0
 40
12.0
 40
13.0
 40
13.0
 40
13.0
 40
14.0
 40
14.0
 40
14.0
 40
15.0
 40
15.0
 40
15.0
 40
16.0
 40
16.0
 40
16.0
 40
17.0
 40
17.0
 40
17.0
 40
18.0
 40
18.0
 40
18.0
 40
19.0
 40
19.0
 40
19.0
 40
19.0
 10
129.6396321290484
 20
-162.4073133274537
 30
0.0
 10
129.6396321290484
 20
-162.5085991347201
 30
0.0
 10
129.6182725370399
 20
-162.741487589523
 30
0.0
 10
129.4322373808364
 20
-162.8751572943507
 30
0.0
 10
129.3199272680172
 20
-162.9543944905114
 30
0.0
 10
129.220708518042
 20
-162.9585286050937
 30
0.0
 10
129.1359591691049
 20
-162.9633517387731
 30
0.0
 10
129.1359591691049
 20
-162.9633517387731
 30
0.0
 10
129.1359591691049
 20
-162.7280517171305
 30
0.0
 10
129.1359591691049
 20
-162.7280517171305
 30
0.0
 10
129.2103732315863
 20
-162.7256401502908
 30
0.0
 10
129.4446397245833
 20
-162.714615844738
 30
0.0
 10
129.4446397245833
 20
-162.411447442036
 30
0.0
 10
129.4446397245833
 20
-162.2646863743644
 30
0.0
 10
129.3750487957813
 20
-162.1020778674606
 30
0.0
 10
129.1469834746577
 20
-162.1020778674606
 30
0.0
 10
129.0305392472563
 20
-162.1020778674606
 30
0.0
 10
128.9816188913657
 20
-162.1427299941865
 30
0.0
 10
128.9499240129014
 20
-162.176491929942
 30
0.0
 10
128.8761989695171
 20
-162.2557291261028
 30
0.0
 10
128.8631076066731
 20
-162.3797525635717
 30
0.0
 10
128.8631076066731
 20
-162.4386636963695
 30
0.0
 10
128.8631076066731
 20
-162.4589897597325
 30
0.0
 10
128.8651746639643
 20
-162.4975748291673
 30
0.0
 10
128.8693087785466
 20
-162.5268581407919
 30
0.0
 10
128.8693087785466
 20
-162.5268581407919
 30
0.0
 10
128.6750053931785
 20
-162.5268581407919
 30
0.0
 10
128.6750053931785
 20
-162.5268581407919
 30
0.0
 10
128.6812065650519
 20
-162.4862060140659
 30
0.0
 10
128.6832736223431
 20
-162.4410752632092
 30
0.0
 10
128.6832736223431
 20
-162.4341850722387
 30
0.0
 10
128.6832736223431
 20
-162.3639051243396
 30
0.0
 10
128.6619140303345
 20
-162.1516872424482
 30
0.0
 10
128.4255804800464
 20
-162.1516872424482
 30
0.0
 10
128.2478135530075
 20
-162.1516872424482
 30
0.0
 10
128.1926920252435
 20
-162.2915581191493
 30
0.0
 10
128.1926920252435
 20
-162.4093803847449
 30
0.0
 10
128.1926920252435
 20
-162.6918782145354
 30
0.0
 10
128.4255804800464
 20
-162.700835462797
 30
0.0
 10
128.4972384661396
 20
-162.7056585964764
 30
0.0
 10
128.4972384661396
 20
-162.7056585964764
 30
0.0
 10
128.4972384661396
 20
-162.9226996120471
 30
0.0
 10
128.4972384661396
 20
-162.9226996120471
 30
0.0
 10
128.3725260095735
 20
-162.9137423637855
 30
0.0
 10
127.9956325634872
 20
-162.8841145426123
 30
0.0
 10
127.9956325634872
 20
-162.3956000028039
 30
0.0
 10
127.9956325634872
 20
-162.156165866579
 30
0.0
 10
128.1231010964414
 20
-161.8984727242823
 30
0.0
 10
128.4186902890759
 20
-161.8984727242823
 30
0.0
 10
128.6054144643764
 20
-161.8984727242823
 30
0.0
 10
128.6874077369254
 20
-162.0001030410972
 30
0.0
 10
128.7487304365628
 20
-162.1062119820429
 30
0.0
 10
128.7762912004448
 20
-162.0407551678232
 30
0.0
 10
128.8569064347997
 20
-161.8464517824551
 30
0.0
 10
129.1338921118138
 20
-161.8464517824551
 30
0.0
 10
129.4722004884653
 20
-161.8464517824551
 30
0.0
 10
129.6396321290484
 20
-162.1110351157222
 30
0.0
 10
129.6396321290484
 20
-162.4073133274537
 30
0.0
  0
HATCH
  5
B1
330
AC
100
AcDbEntity
  8
_U+30EC_U+30A4_U+30E4_U+30FC 1
 62
   179
420
  2234388
100
AcDbHatch
 10
0.0
 20
0.0
 30
0.0
210
0.0
220
0.0
230
1.0
  2
SOLID
 70
     1
 71
     0
 91
        1
 92
        1
 93
        1
 72
     4
 94
        3
 73
     0
 74
     1
 95
       62
 96
       58
 40
0.0
 40
0.0
 40
0.0
 40
0.0
 40
1.0
 40
1.0
 40
1.0
 40
2.0
 40
2.0
 40
2.0
 40
3.0
 40
3.0
 40
3.0
 40
4.0
 40
4.0
 40
4.0
 40
5.0
 40
5.0
 40
5.0
 40
6.0
 40
6.0
 40
6.0
 40
7.0
 40
7.0
 40
7.0
 40
8.0
 40
8.0
 40
8.0
 40
9.0
 40
9.0
 40
9.0
 40
10.0
 40
10.0
 40
10.0
 40
11.0
 40
11.0
 40
11.0
 40
12.0
 40
12.0
 40
12.0
 40
13.0
 40
13.0
 40
13.0
 40
14.0
 40
14.0
 40
14.0
 40
15.0
 40
15.0
 40
15.0
 40
16.0
 40
16.0
 40
16.0
 40
17.0
 40
17.0
 40
17.0
 40
18.0
 40
18.0
 40
18.0
 40
19.0
 40
19.0
 40
19.0
 40
19.0
 10
129.6396321290484
 20
-162.4073133274537
 10
129.6396321290484
 20
-162.5085991347201
 10
129.6182725370399
 20
-162.741487589523
 10
129.4322373808364
 20
-162.8751572943507
 10
129.3199272680172
 20
-162.9543944905114
 10
129.220708518042
 20
-162.9585286050937
 10
129.1359591691049
 20
-162.9633517387731
 10
129.1359591691049
 20
-162.9633517387731
 10
129.1359591691049
 20
-162.7280517171305
 10
129.1359591691049
 20
-162.7280517171305
 10
129.2103732315863
 20
-162.7256401502908
 10
129.4446397245833
 20
-162.714615844738
 10
129.4446397245833
 20
-162.411447442036
 10
129.4446397245833
 20
-162.2646863743644
 10
129.3750487957813
 20
-162.1020778674606
 10
129.1469834746577
 20
-162.1020778674606
 10
129.0305392472563
 20
-162.1020778674606
 10
128.9816188913657
 20
-162.1427299941865
 10
128.9499240129014
 20
-162.176491929942
 10
128.8761989695171
 20
-162.2557291261028
 10
128.8631076066731
 20
-162.3797525635717
 10
128.8631076066731
 20
-162.4386636963695
 10
128.8631076066731
 20
-162.4589897597325
 10
128.8651746639643
 20
-162.4975748291673
 10
128.8693087785466
 20
-162.5268581407919
 10
128.8693087785466
 20
-162.5268581407919
 10
128.6750053931785
 20
-162.5268581407919
 10
128.6750053931785
 20
-162.5268581407919
 10
128.6812065650519
 20
-162.4862060140659
 10
128.6832736223431
 20
-162.4410752632092
 10
128.6832736223431
 20
-162.4341850722387
 10
128.6832736223431
 20
-162.3639051243396
 10
128.6619140303345
 20
-162.1516872424482
 10
128.4255804800464
 20
-162.1516872424482
 10
128.2478135530075
 20
-162.1516872424482
 10
128.1926920252435
 20
-162.2915581191493
 10
128.1926920252435
 20
-162.4093803847449
 10
128.1926920252435
 20
-162.6918782145354
 10
128.4255804800464
 20
-162.700835462797
 10
128.4972384661396
 20
-162.7056585964764
 10
128.4972384661396
 20
-162.7056585964764
 10
128.4972384661396
 20
-162.9226996120471
 10
128.4972384661396
 20
-162.9226996120471
 10
128.3725260095735
 20
-162.9137423637855
 10
127.9956325634872
 20
-162.8841145426123
 10
127.9956325634872
 20
-162.3956000028039
 10
127.9956325634872
 20
-162.156165866579
 10
128.1231010964414
 20
-161.8984727242823
 10
128.4186902890759
 20
-161.8984727242823
 10
128.6054144643764
 20
-161.8984727242823
 10
128.6874077369254
 20
-162.0001030410972
 10
128.7487304365628
 20
-162.1062119820429
 10
128.7762912004448
 20
-162.0407551678232
 10
128.8569064347997
 20
-161.8464517824551
 10
129.1338921118138
 20
-161.8464517824551
 10
129.4722004884653
 20
-161.8464517824551
 10
129.6396321290484
 20
-162.1110351157222
 10
129.6396321290484
 20
-162.4073133274537
 97
        0
 97
        0
 75
     2
 76
     1
 98
        0
  0
ENDBLK
  5
AF
330
AC
100
AcDbEntity
  8
0
100
AcDbBlockEnd
  0
BLOCK
  5
C0
330
BE
100
AcDbEntity
  8
0
100
AcDbBlockBegin
  2
block 3
 70
     0
 10
0.0
 20
0.0
 30
0.0
  3
block 3
  1

  0
SPLINE
  5
C2
330
BE
100
AcDbEntity
  8
_U+30EC_U+30A4_U+30E4_U+30FC 1
370
     0
100
AcDbSpline
210
0.0
220
0.0
230
1.0
 70
    11
 71
     3
 72
    62
 73
    58
 74
     0
 42
0.0000000001
 43
0.0000000001
 12
1.0
 22
0.0
 32
0.0
 13
1.0
 23
0.0
 33
0.0
 40
0.0
 40
0.0
 40
0.0
 40
0.0
 40
1.0
 40
1.0
 40
1.0
 40
2.0
 40
2.0
 40
2.0
 40
3.0
 40
3.0
 40
3.0
 40
4.0
 40
4.0
 40
4.0
 40
5.0
 40
5.0
 40
5.0
 40
6.0
 40
6.0
 40
6.0
 40
7.0
 40
7.0
 40
7.0
 40
8.0
 40
8.0
 40
8.0
 40
9.0
 40
9.0
 40
9.0
 40
10.0
 40
10.0
 40
10.0
 40
11.0
 40
11.0
 40
11.0
 40
12.0
 40
12.0
 40
12.0
 40
13.0
 40
13.0
 40
13.0
 40
14.0
 40
14.0
 40
14.0
 40
15.0
 40
15.0
 40
15.0
 40
16.0
 40
16.0
 40
16.0
 40
17.0
 40
17.0
 40
17.0
 40
18.0
 40
18.0
 40
18.0
 40
19.0
 40
19.0
 40
19.0
 40
19.0
 10
87.72556692685333
 20
-135.3018188138308
 30
0.0
 10
87.62393661003847
 20
-135.3018188138308
 30
0.0
 10
87.39104815523558
 20
-135.2808037313708
 30
0.0
 10
87.25755070518214
 20
-135.0947685751673
 30
0.0
 10
87.17848576379566
 20
-134.9824584623481
 30
0.0
 10
87.17400713966484
 20
-134.883239712373
 30
0.0
 10
87.16952851553401
 20
-134.7984903634358
 30
0.0
 10
87.16952851553401
 20
-134.7984903634358
 30
0.0
 10
87.40448402762804
 20
-134.7984903634358
 30
0.0
 10
87.40448402762804
 20
-134.7984903634358
 30
0.0
 10
87.40689559446773
 20
-134.8725599163687
 30
0.0
 10
87.41809215479479
 20
-135.1071709189142
 30
0.0
 10
87.7210883027225
 20
-135.1071709189142
 30
0.0
 10
87.86802162516841
 20
-135.1071709189142
 30
0.0
 10
88.03080238684647
 20
-135.0375799901121
 30
0.0
 10
88.03080238684647
 20
-134.8091701594401
 30
0.0
 10
88.03080238684647
 20
-134.6927259320386
 30
0.0
 10
87.99015026012052
 20
-134.6441500856966
 30
0.0
 10
87.95621606959081
 20
-134.6124552072323
 30
0.0
 10
87.87715112820433
 20
-134.5383856542994
 30
0.0
 10
87.75278318118681
 20
-134.525638801004
 30
0.0
 10
87.69387204838904
 20
-134.525638801004
 30
0.0
 10
87.67354598502607
 20
-134.525638801004
 30
0.0
 10
87.63513317036552
 20
-134.5277058582951
 30
0.0
 10
87.6058498587409
 20
-134.5318399728775
 30
0.0
 10
87.6058498587409
 20
-134.5318399728775
 30
0.0
 10
87.6058498587409
 20
-134.3371920779609
 30
0.0
 10
87.6058498587409
 20
-134.3371920779609
 30
0.0
 10
87.64650198546686
 20
-134.3437377593828
 30
0.0
 10
87.69163273632363
 20
-134.345804816674
 30
0.0
 10
87.69852292729412
 20
-134.345804816674
 30
0.0
 10
87.76863062041896
 20
-134.345804816674
 30
0.0
 10
87.98102075708461
 20
-134.3244452246654
 30
0.0
 10
87.98102075708461
 20
-134.0877671648288
 30
0.0
 10
87.98102075708461
 20
-133.9100002377899
 30
0.0
 10
87.8409776256092
 20
-133.8548787100259
 30
0.0
 10
87.72332761478792
 20
-133.8548787100259
 30
0.0
 10
87.44065753022318
 20
-133.8548787100259
 30
0.0
 10
87.43170028196153
 20
-134.0877671648288
 30
0.0
 10
87.4272216578307
 20
-134.1594251509219
 30
0.0
 10
87.4272216578307
 20
-134.1594251509219
 30
0.0
 10
87.21018064225996
 20
-134.1594251509219
 30
0.0
 10
87.21018064225996
 20
-134.1594251509219
 30
0.0
 10
87.21913789052161
 20
-134.0347126943559
 30
0.0
 10
87.24859345692049
 20
-133.6581637578181
 30
0.0
 10
87.73693574195465
 20
-133.6581637578181
 30
0.0
 10
87.97654213295378
 20
-133.6581637578181
 30
0.0
 10
88.23423527525047
 20
-133.7852877812238
 30
0.0
 10
88.23423527525047
 20
-134.0812214834068
 30
0.0
 10
88.23423527525047
 20
-134.2676011491588
 30
0.0
 10
88.1326049584356
 20
-134.3499389312563
 30
0.0
 10
88.02632376271565
 20
-134.4112616308937
 30
0.0
 10
88.09178057693539
 20
-134.4388223947757
 30
0.0
 10
88.28625621707775
 20
-134.519093119582
 30
0.0
 10
88.28625621707775
 20
-134.7964233061446
 30
0.0
 10
88.28625621707775
 20
-135.1347316827962
 30
0.0
 10
88.02184513858482
 20
-135.3018188138308
 30
0.0
 10
87.72556692685333
 20
-135.3018188138308
 30
0.0
  0
HATCH
  5
C3
330
BE
100
AcDbEntity
  8
_U+30EC_U+30A4_U+30E4_U+30FC 1
 62
   179
420
  2234388
100
AcDbHatch
 10
0.0
 20
0.0
 30
0.0
210
0.0
220
0.0
230
1.0
  2
SOLID
 70
     1
 71
     0
 91
        1
 92
        1
 93
        1
 72
     4
 94
        3
 73
     0
 74
     1
 95
       62
 96
       58
 40
0.0
 40
0.0
 40
0.0
 40
0.0
 40
1.0
 40
1.0
 40
1.0
 40
2.0
 40
2.0
 40
2.0
 40
3.0
 40
3.0
 40
3.0
 40
4.0
 40
4.0
 40
4.0
 40
5.0
 40
5.0
 40
5.0
 40
6.0
 40
6.0
 40
6.0
 40
7.0
 40
7.0
 40
7.0
 40
8.0
 40
8.0
 40
8.0
 40
9.0
 40
9.0
 40
9.0
 40
10.0
 40
10.0
 40
10.0
 40
11.0
 40
11.0
 40
11.0
 40
12.0
 40
12.0
 40
12.0
 40
13.0
 40
13.0
 40
13.0
 40
14.0
 40
14.0
 40
14.0
 40
15.0
 40
15.0
 40
15.0
 40
16.0
 40
16.0
 40
16.0
 40
17.0
 40
17.0
 40
17.0
 40
18.0
 40
18.0
 40
18.0
 40
19.0
 40
19.0
 40
19.0
 40
19.0
 10
87.72556692685333
 20
-135.3018188138308
 10
87.62393661003847
 20
-135.3018188138308
 10
87.39104815523558
 20
-135.2808037313708
 10
87.25755070518214
 20
-135.0947685751673
 10
87.17848576379566
 20
-134.9824584623481
 10
87.17400713966484
 20
-134.883239712373
 10
87.16952851553401
 20
-134.7984903634358
 10
87.16952851553401
 20
-134.7984903634358
 10
87.40448402762804
 20
-134.7984903634358
 10
87.40448402762804
 20
-134.7984903634358
 10
87.40689559446773
 20
-134.8725599163687
 10
87.41809215479479
 20
-135.1071709189142
 10
87.7210883027225
 20
-135.1071709189142
 10
87.86802162516841
 20
-135.1071709189142
 10
88.03080238684647
 20
-135.0375799901121
 10
88.03080238684647
 20
-134.8091701594401
 10
88.03080238684647
 20
-134.6927259320386
 10
87.99015026012052
 20
-134.6441500856966
 10
87.95621606959081
 20
-134.6124552072323
 10
87.87715112820433
 20
-134.5383856542994
 10
87.75278318118681
 20
-134.525638801004
 10
87.69387204838904
 20
-134.525638801004
 10
87.67354598502607
 20
-134.525638801004
 10
87.63513317036552
 20
-134.5277058582951
 10
87.6058498587409
 20
-134.5318399728775
 10
87.6058498587409
 20
-134.5318399728775
 10
87.6058498587409
 20
-134.3371920779609
 10
87.6058498587409
 20
-134.3371920779609
 10
87.64650198546686
 20
-134.3437377593828
 10
87.69163273632363
 20
-134.345804816674
 10
87.69852292729412
 20
-134.345804816674
 10
87.76863062041896
 20
-134.345804816674
 10
87.98102075708461
 20
-134.3244452246654
 10
87.98102075708461
 20
-134.0877671648288
 10
87.98102075708461
 20
-133.9100002377899
 10
87.8409776256092
 20
-133.8548787100259
 10
87.72332761478792
 20
-133.8548787100259
 10
87.44065753022318
 20
-133.8548787100259
 10
87.43170028196153
 20
-134.0877671648288
 10
87.4272216578307
 20
-134.1594251509219
 10
87.4272216578307
 20
-134.1594251509219
 10
87.21018064225996
 20
-134.1594251509219
 10
87.21018064225996
 20
-134.1594251509219
 10
87.21913789052161
 20
-134.0347126943559
 10
87.24859345692049
 20
-133.6581637578181
 10
87.73693574195465
 20
-133.6581637578181
 10
87.97654213295378
 20
-133.6581637578181
 10
88.23423527525047
 20
-133.7852877812238
 10
88.23423527525047
 20
-134.0812214834068
 10
88.23423527525047
 20
-134.2676011491588
 10
88.1326049584356
 20
-134.3499389312563
 10
88.02632376271565
 20
-134.4112616308937
 10
88.09178057693539
 20
-134.4388223947757
 10
88.28625621707775
 20
-134.519093119582
 10
88.28625621707775
 20
-134.7964233061446
 10
88.28625621707775
 20
-135.1347316827962
 10
88.02184513858482
 20
-135.3018188138308
 10
87.72556692685333
 20
-135.3018188138308
 97
        0
 97
        0
 75
     2
 76
     1
 98
        0
  0
ENDBLK
  5
C1
330
BE
100
AcDbEntity
  8
0
100
AcDbBlockEnd
  0
BLOCK
  5
D2
330
D0
100
AcDbEntity
  8
0
100
AcDbBlockBegin
  2
block 4
 70
     0
 10
0.0
 20
0.0
 30
0.0
  3
block 4
  1

  0
POLYLINE
  5
D4
330
D0
100
AcDbEntity
  8
_U+30EC_U+30A4_U+30E4_U+30FC 1
370
     0
100
AcDb2dPolyline
 66
     1
 10
0.0
 20
0.0
 30
0.0
  0
VERTEX
  5
D5
330
D4
100
AcDbEntity
  8
_U+30EC_U+30A4_U+30E4_U+30FC 1
370
     0
100
AcDbVertex
100
AcDb2dVertex
 10
105.9604573302807
 20
-130.905187955555
 30
0.0
  0
VERTEX
  5
D6
330
D4
100
AcDbEntity
  8
_U+30EC_U+30A4_U+30E4_U+30FC 1
370
     0
100
AcDbVertex
100
AcDb2dVertex
 10
105.9604573302807
 20
-131.2521090709196
 30
0.0
  0
VERTEX
  5
D7
330
D4
100
AcDbEntity
  8
_U+30EC_U+30A4_U+30E4_U+30FC 1
370
     0
100
AcDbVertex
100
AcDb2dVertex
 10
105.7275688754778
 20
-131.2521090709196
 30
0.0
  0
VERTEX
  5
D8
330
D4
100
AcDbEntity
  8
_U+30EC_U+30A4_U+30E4_U+30FC 1
370
     0
100
AcDbVertex
100
AcDb2dVertex
 10
105.7275688754778
 20
-130.905187955555
 30
0.0
  0
VERTEX
  5
D9
330
D4
100
AcDbEntity
  8
_U+30EC_U+30A4_U+30E4_U+30FC 1
370
     0
100
AcDbVertex
100
AcDb2dVertex
 10
105.026836453778
 20
-130.905187955555
 30
0.0
  0
VERTEX
  5
DA
330
D4
100
AcDbEntity
  8
_U+30EC_U+30A4_U+30E4_U+30FC 1
370
     0
100
AcDbVertex
100
AcDb2dVertex
 10
105.026836453778
 20
-130.6809122394652
 30
0.0
  0
VERTEX
  5
DB
330
D4
100
AcDbEntity
  8
_U+30EC_U+30A4_U+30E4_U+30FC 1
370
     0
100
AcDbVertex
100
AcDb2dVertex
 10
105.7527180725202
 20
-129.7076727648821
 30
0.0
  0
VERTEX
  5
DC
330
D4
100
AcDbEntity
  8
_U+30EC_U+30A4_U+30E4_U+30FC 1
370
     0
100
AcDbVertex
100
AcDb2dVertex
 10
105.9604573302807
 20
-129.7076727648821
 30
0.0
  0
VERTEX
  5
DD
330
D4
100
AcDbEntity
  8
_U+30EC_U+30A4_U+30E4_U+30FC 1
370
     0
100
AcDbVertex
100
AcDb2dVertex
 10
105.9604573302807
 20
-130.706405946056
 30
0.0
  0
VERTEX
  5
DE
330
D4
100
AcDbEntity
  8
_U+30EC_U+30A4_U+30E4_U+30FC 1
370
     0
100
AcDbVertex
100
AcDb2dVertex
 10
106.1819769699823
 20
-130.706405946056
 30
0.0
  0
VERTEX
  5
DF
330
D4
100
AcDbEntity
  8
_U+30EC_U+30A4_U+30E4_U+30FC 1
370
     0
100
AcDbVertex
100
AcDb2dVertex
 10
106.1819769699823
 20
-130.905187955555
 30
0.0
  0
VERTEX
  5
E0
330
D4
100
AcDbEntity
  8
_U+30EC_U+30A4_U+30E4_U+30FC 1
370
     0
100
AcDbVertex
100
AcDb2dVertex
 10
105.9604573302807
 20
-130.905187955555
 30
0.0
  0
SEQEND
  5
E1
330
D4
100
AcDbEntity
  8
_U+30EC_U+30A4_U+30E4_U+30FC 1
370
     0
  0
POLYLINE
  5
E2
330
D0
100
AcDbEntity
  8
_U+30EC_U+30A4_U+30E4_U+30FC 1
370
     0
100
AcDb2dPolyline
 66
     1
 10
0.0
 20
0.0
 30
0.0
  0
VERTEX
  5
E3
330
E2
100
AcDbEntity
  8
_U+30EC_U+30A4_U+30E4_U+30FC 1
370
     0
100
AcDbVertex
100
AcDb2dVertex
 10
105.7275688754778
 20
-130.0504597656645
 30
0.0
  0
VERTEX
  5
E4
330
E2
100
AcDbEntity
  8
_U+30EC_U+30A4_U+30E4_U+30FC 1
370
     0
100
AcDbVertex
100
AcDb2dVertex
 10
105.2393988452179
 20
-130.706405946056
 30
0.0
  0
VERTEX
  5
E5
330
E2
100
AcDbEntity
  8
_U+30EC_U+30A4_U+30E4_U+30FC 1
370
     0
100
AcDbVertex
100
AcDb2dVertex
 10
105.7275688754778
 20
-130.706405946056
 30
0.0
  0
VERTEX
  5
E6
330
E2
100
AcDbEntity
  8
_U+30EC_U+30A4_U+30E4_U+30FC 1
370
     0
100
AcDbVertex
100
AcDb2dVertex
 10
105.7275688754778
 20
-130.0504597656645
 30
0.0
  0
SEQEND
  5
E7
330
E2
100
AcDbEntity
  8
_U+30EC_U+30A4_U+30E4_U+30FC 1
370
     0
  0
HATCH
  5
E8
330
D0
100
AcDbEntity
  8
_U+30EC_U+30A4_U+30E4_U+30FC 1
 62
   179
420
  2234388
100
AcDbHatch
 10
0.0
 20
0.0
 30
0.0
210
0.0
220
0.0
230
1.0
  2
SOLID
 70
     1
 71
     0
 91
        2
 92
        1
 93
       11
 72
     1
 10
105.9604573302807
 20
-130.905187955555
 11
105.9604573302807
 21
-131.2521090709196
 72
     1
 10
105.9604573302807
 20
-131.2521090709196
 11
105.7275688754778
 21
-131.2521090709196
 72
     1
 10
105.7275688754778
 20
-131.2521090709196
 11
105.7275688754778
 21
-130.905187955555
 72
     1
 10
105.7275688754778
 20
-130.905187955555
 11
105.026836453778
 21
-130.905187955555
 72
     1
 10
105.026836453778
 20
-130.905187955555
 11
105.026836453778
 21
-130.6809122394652
 72
     1
 10
105.026836453778
 20
-130.6809122394652
 11
105.7527180725202
 21
-129.7076727648821
 72
     1
 10
105.7527180725202
 20
-129.7076727648821
 11
105.9604573302807
 21
-129.7076727648821
 72
     1
 10
105.9604573302807
 20
-129.7076727648821
 11
105.9604573302807
 21
-130.706405946056
 72
     1
 10
105.9604573302807
 20
-130.706405946056
 11
106.1819769699823
 21
-130.706405946056
 72
     1
 10
106.1819769699823
 20
-130.706405946056
 11
106.1819769699823
 21
-130.905187955555
 72
     1
 10
106.1819769699823
 20
-130.905187955555
 11
105.9604573302807
 21
-130.905187955555
 97
        0
 92
        1
 93
        3
 72
     1
 10
105.7275688754778
 20
-130.0504597656645
 11
105.2393988452179
 21
-130.706405946056
 72
     1
 10
105.2393988452179
 20
-130.706405946056
 11
105.7275688754778
 21
-130.706405946056
 72
     1
 10
105.7275688754778
 20
-130.706405946056
 11
105.7275688754778
 21
-130.0504597656645
 97
        0
 75
     2
 76
     1
 98
        0
  0
SPLINE
  5
E9
330
D0
100
AcDbEntity
  8
_U+30EC_U+30A4_U+30E4_U+30FC 1
370
     0
100
AcDbSpline
210
0.0
220
0.0
230
1.0
 70
    11
 71
     3
 72
    29
 73
    25
 74
     0
 42
0.0000000001
 43
0.0000000001
 12
1.0
 22
0.0
 32
0.0
 13
1.0
 23
0.0
 33
0.0
 40
0.0
 40
0.0
 40
0.0
 40
0.0
 40
1.0
 40
1.0
 40
1.0
 40
2.0
 40
2.0
 40
2.0
 40
3.0
 40
3.0
 40
3.0
 40
4.0
 40
4.0
 40
4.0
 40
5.0
 40
5.0
 40
5.0
 40
6.0
 40
6.0
 40
6.0
 40
7.0
 40
7.0
 40
7.0
 40
8.0
 40
8.0
 40
8.0
 40
8.0
 10
107.2885416398445
 20
-131.0743421438807
 30
0.0
 10
107.1731309410887
 20
-131.2838039493839
 30
0.0
 10
106.9877848039822
 20
-131.3027519745528
 30
0.0
 10
106.8634168569647
 20
-131.3027519745528
 30
0.0
 10
106.6915065922507
 20
-131.3027519745528
 30
0.0
 10
106.5402669004483
 20
-131.2562431855019
 30
0.0
 10
106.4382920740849
 20
-131.0743421438807
 30
0.0
 10
106.3273599994598
 20
-130.8796942489641
 30
0.0
 10
106.3073784456454
 20
-130.6430161891275
 30
0.0
 10
106.3073784456454
 20
-130.4800631726751
 30
0.0
 10
106.3073784456454
 20
-130.3360581813917
 30
0.0
 10
106.3252929421687
 20
-130.0842217014199
 30
0.0
 10
106.4382920740849
 20
-129.885439691921
 30
0.0
 10
106.5537027728408
 20
-129.6825235678398
 30
0.0
 10
106.7256130375547
 20
-129.6590969185401
 30
0.0
 10
106.8634168569647
 20
-129.6590969185401
 30
0.0
 10
107.032915554839
 20
-129.6590969185401
 30
0.0
 10
107.1865668134811
 20
-129.7035386502998
 30
0.0
 10
107.2885416398445
 20
-129.885439691921
 30
0.0
 10
107.3946505807902
 20
-130.0780205295465
 30
0.0
 10
107.419455268284
 20
-130.3064303602185
 30
0.0
 10
107.419455268284
 20
-130.4800631726751
 30
0.0
 10
107.419455268284
 20
-130.6512844182921
 30
0.0
 10
107.3967176380814
 20
-130.8817613062553
 30
0.0
 10
107.2885416398445
 20
-131.0743421438807
 30
0.0
  0
SPLINE
  5
EA
330
D0
100
AcDbEntity
  8
_U+30EC_U+30A4_U+30E4_U+30FC 1
370
     0
100
AcDbSpline
210
0.0
220
0.0
230
1.0
 70
    11
 71
     3
 72
    17
 73
    13
 74
     0
 42
0.0000000001
 43
0.0000000001
 12
1.0
 22
0.0
 32
0.0
 13
1.0
 23
0.0
 33
0.0
 40
0.0
 40
0.0
 40
0.0
 40
0.0
 40
1.0
 40
1.0
 40
1.0
 40
2.0
 40
2.0
 40
2.0
 40
3.0
 40
3.0
 40
3.0
 40
4.0
 40
4.0
 40
4.0
 40
4.0
 10
106.8634168569647
 20
-129.8516777561656
 30
0.0
 10
106.5967664664064
 20
-129.8516777561656
 30
0.0
 10
106.5468125818702
 20
-130.1352091146016
 30
0.0
 10
106.5468125818702
 20
-130.4800631726751
 30
0.0
 10
106.5468125818702
 20
-130.7994235241578
 30
0.0
 10
106.5850531417565
 20
-131.1081040796362
 30
0.0
 10
106.8634168569647
 20
-131.1081040796362
 30
0.0
 10
107.1280001902319
 20
-131.1081040796362
 30
0.0
 10
107.1796766225106
 20
-130.8269842880398
 30
0.0
 10
107.1796766225106
 20
-130.4800631726751
 30
0.0
 10
107.1796766225106
 20
-130.1603583116439
 30
0.0
 10
107.1390244957847
 20
-129.8516777561656
 30
0.0
 10
106.8634168569647
 20
-129.8516777561656
 30
0.0
  0
HATCH
  5
EB
330
D0
100
AcDbEntity
  8
_U+30EC_U+30A4_U+30E4_U+30FC 1
 62
   179
420
  2234388
100
AcDbHatch
 10
0.0
 20
0.0
 30
0.0
210
0.0
220
0.0
230
1.0
  2
SOLID
 70
     1
 71
     0
 91
        2
 92
        1
 93
        1
 72
     4
 94
        3
 73
     0
 74
     1
 95
       29
 96
       25
 40
0.0
 40
0.0
 40
0.0
 40
0.0
 40
1.0
 40
1.0
 40
1.0
 40
2.0
 40
2.0
 40
2.0
 40
3.0
 40
3.0
 40
3.0
 40
4.0
 40
4.0
 40
4.0
 40
5.0
 40
5.0
 40
5.0
 40
6.0
 40
6.0
 40
6.0
 40
7.0
 40
7.0
 40
7.0
 40
8.0
 40
8.0
 40
8.0
 40
8.0
 10
107.2885416398445
 20
-131.0743421438807
 10
107.1731309410887
 20
-131.2838039493839
 10
106.9877848039822
 20
-131.3027519745528
 10
106.8634168569647
 20
-131.3027519745528
 10
106.6915065922507
 20
-131.3027519745528
 10
106.5402669004483
 20
-131.2562431855019
 10
106.4382920740849
 20
-131.0743421438807
 10
106.3273599994598
 20
-130.8796942489641
 10
106.3073784456454
 20
-130.6430161891275
 10
106.3073784456454
 20
-130.4800631726751
 10
106.3073784456454
 20
-130.3360581813917
 10
106.3252929421687
 20
-130.0842217014199
 10
106.4382920740849
 20
-129.885439691921
 10
106.5537027728408
 20
-129.6825235678398
 10
106.7256130375547
 20
-129.6590969185401
 10
106.8634168569647
 20
-129.6590969185401
 10
107.032915554839
 20
-129.6590969185401
 10
107.1865668134811
 20
-129.7035386502998
 10
107.2885416398445
 20
-129.885439691921
 10
107.3946505807902
 20
-130.0780205295465
 10
107.419455268284
 20
-130.3064303602185
 10
107.419455268284
 20
-130.4800631726751
 10
107.419455268284
 20
-130.6512844182921
 10
107.3967176380814
 20
-130.8817613062553
 10
107.2885416398445
 20
-131.0743421438807
 97
        0
 97
        0
 92
        1
 93
        1
 72
     4
 94
        3
 73
     0
 74
     1
 95
       17
 96
       13
 40
0.0
 40
0.0
 40
0.0
 40
0.0
 40
1.0
 40
1.0
 40
1.0
 40
2.0
 40
2.0
 40
2.0
 40
3.0
 40
3.0
 40
3.0
 40
4.0
 40
4.0
 40
4.0
 40
4.0
 10
106.8634168569647
 20
-129.8516777561656
 10
106.5967664664064
 20
-129.8516777561656
 10
106.5468125818702
 20
-130.1352091146016
 10
106.5468125818702
 20
-130.4800631726751
 10
106.5468125818702
 20
-130.7994235241578
 10
106.5850531417565
 20
-131.1081040796362
 10
106.8634168569647
 20
-131.1081040796362
 10
107.1280001902319
 20
-131.1081040796362
 10
107.1796766225106
 20
-130.8269842880398
 10
107.1796766225106
 20
-130.4800631726751
 10
107.1796766225106
 20
-130.1603583116439
 10
107.1390244957847
 20
-129.8516777561656
 10
106.8634168569647
 20
-129.8516777561656
 97
        0
 97
        0
 75
     2
 76
     1
 98
        0
  0
ENDBLK
  5
D3
330
D0
100
AcDbEntity
  8
0
100
AcDbBlockEnd
  0
BLOCK
  5
FA
330
F8
100
AcDbEntity
  8
0
100
AcDbBlockBegin
  2
block 5
 70
     0
 10
0.0
 20
0.0
 30
0.0
  3
block 5
  1

  0
SPLINE
  5
FC
330
F8
100
AcDbEntity
  8
_U+30EC_U+30A4_U+30E4_U+30FC 1
370
     0
100
AcDbSpline
210
0.0
220
0.0
230
1.0
 70
    11
 71
     3
 72
    26
 73
    22
 74
     0
 42
0.0000000001
 43
0.0000000001
 12
1.0
 22
0.0
 32
0.0
 13
1.0
 23
0.0
 33
0.0
 40
0.0
 40
0.0
 40
0.0
 40
0.0
 40
1.0
 40
1.0
 40
1.0
 40
2.0
 40
2.0
 40
2.0
 40
3.0
 40
3.0
 40
3.0
 40
4.0
 40
4.0
 40
4.0
 40
5.0
 40
5.0
 40
5.0
 40
6.0
 40
6.0
 40
6.0
 40
7.0
 40
7.0
 40
7.0
 40
7.0
 10
90.55364581069493
 20
-167.2518065988121
 30
0.0
 10
90.55364581069493
 20
-167.2518065988121
 30
0.0
 10
90.55364581069493
 20
-166.1476534957895
 30
0.0
 10
90.55364581069493
 20
-166.1476534957895
 30
0.0
 10
90.55364581069493
 20
-166.1476534957895
 30
0.0
 10
90.20086803300535
 20
-166.1476534957895
 30
0.0
 10
90.20086803300535
 20
-166.1476534957895
 30
0.0
 10
90.20086803300535
 20
-166.1476534957895
 30
0.0
 10
90.20086803300535
 20
-165.9995143899237
 30
0.0
 10
90.20086803300535
 20
-165.9995143899237
 30
0.0
 10
90.55588512276034
 20
-165.9847004793372
 30
0.0
 10
90.6056667525222
 20
-165.8217474628848
 30
0.0
 10
90.63736163098649
 20
-165.7073702927746
 30
0.0
 10
90.63736163098649
 20
-165.7073702927746
 30
0.0
 10
90.79325220169405
 20
-165.7073702927746
 30
0.0
 10
90.79325220169405
 20
-165.7073702927746
 30
0.0
 10
90.79325220169405
 20
-165.7073702927746
 30
0.0
 10
90.79325220169405
 20
-167.2518065988121
 30
0.0
 10
90.79325220169405
 20
-167.2518065988121
 30
0.0
 10
90.79325220169405
 20
-167.2518065988121
 30
0.0
 10
90.55364581069493
 20
-167.2518065988121
 30
0.0
 10
90.55364581069493
 20
-167.2518065988121
 30
0.0
  0
HATCH
  5
FD
330
F8
100
AcDbEntity
  8
_U+30EC_U+30A4_U+30E4_U+30FC 1
 62
   179
420
  2234388
100
AcDbHatch
 10
0.0
 20
0.0
 30
0.0
210
0.0
220
0.0
230
1.0
  2
SOLID
 70
     1
 71
     0
 91
        1
 92
        1
 93
        1
 72
     4
 94
        3
 73
     0
 74
     1
 95
       26
 96
       22
 40
0.0
 40
0.0
 40
0.0
 40
0.0
 40
1.0
 40
1.0
 40
1.0
 40
2.0
 40
2.0
 40
2.0
 40
3.0
 40
3.0
 40
3.0
 40
4.0
 40
4.0
 40
4.0
 40
5.0
 40
5.0
 40
5.0
 40
6.0
 40
6.0
 40
6.0
 40
7.0
 40
7.0
 40
7.0
 40
7.0
 10
90.55364581069493
 20
-167.2518065988121
 10
90.55364581069493
 20
-167.2518065988121
 10
90.55364581069493
 20
-166.1476534957895
 10
90.55364581069493
 20
-166.1476534957895
 10
90.55364581069493
 20
-166.1476534957895
 10
90.20086803300535
 20
-166.1476534957895
 10
90.20086803300535
 20
-166.1476534957895
 10
90.20086803300535
 20
-166.1476534957895
 10
90.20086803300535
 20
-165.9995143899237
 10
90.20086803300535
 20
-165.9995143899237
 10
90.55588512276034
 20
-165.9847004793372
 10
90.6056667525222
 20
-165.8217474628848
 10
90.63736163098649
 20
-165.7073702927746
 10
90.63736163098649
 20
-165.7073702927746
 10
90.79325220169405
 20
-165.7073702927746
 10
90.79325220169405
 20
-165.7073702927746
 10
90.79325220169405
 20
-165.7073702927746
 10
90.79325220169405
 20
-167.2518065988121
 10
90.79325220169405
 20
-167.2518065988121
 10
90.79325220169405
 20
-167.2518065988121
 10
90.55364581069493
 20
-167.2518065988121
 10
90.55364581069493
 20
-167.2518065988121
 97
        0
 97
        0
 75
     2
 76
     1
 98
        0
  0
SPLINE
  5
FE
330
F8
100
AcDbEntity
  8
_U+30EC_U+30A4_U+30E4_U+30FC 1
370
     0
100
AcDbSpline
210
0.0
220
0.0
230
1.0
 70
    11
 71
     3
 72
    29
 73
    25
 74
     0
 42
0.0000000001
 43
0.0000000001
 12
1.0
 22
0.0
 32
0.0
 13
1.0
 23
0.0
 33
0.0
 40
0.0
 40
0.0
 40
0.0
 40
0.0
 40
1.0
 40
1.0
 40
1.0
 40
2.0
 40
2.0
 40
2.0
 40
3.0
 40
3.0
 40
3.0
 40
4.0
 40
4.0
 40
4.0
 40
5.0
 40
5.0
 40
5.0
 40
6.0
 40
6.0
 40
6.0
 40
7.0
 40
7.0
 40
7.0
 40
8.0
 40
8.0
 40
8.0
 40
8.0
 10
92.28842364229249
 20
-167.0740396717732
 30
0.0
 10
92.17318519831088
 20
-167.2835014772764
 30
0.0
 10
91.98783906120444
 20
-167.3024495024452
 30
0.0
 10
91.86347111418691
 20
-167.3024495024452
 30
0.0
 10
91.69156084947295
 20
-167.3024495024452
 30
0.0
 10
91.54014890289622
 20
-167.2559407133944
 30
0.0
 10
91.43834633130709
 20
-167.0740396717732
 30
0.0
 10
91.3275865114563
 20
-166.8793917768566
 30
0.0
 10
91.30726044809333
 20
-166.6427137170199
 30
0.0
 10
91.30726044809333
 20
-166.4797607005676
 30
0.0
 10
91.30726044809333
 20
-166.3357557092841
 30
0.0
 10
91.32534719939089
 20
-166.0839192293124
 30
0.0
 10
91.43834633130709
 20
-165.8851372198135
 30
0.0
 10
91.55375703006295
 20
-165.6822210957322
 30
0.0
 10
91.72549504000266
 20
-165.6587944464325
 30
0.0
 10
91.86347111418691
 20
-165.6587944464325
 30
0.0
 10
92.03296981206121
 20
-165.6587944464325
 30
0.0
 10
92.18679332547761
 20
-165.7032361781922
 30
0.0
 10
92.28842364229249
 20
-165.8851372198135
 30
0.0
 10
92.39470483801244
 20
-166.0777180574389
 30
0.0
 10
92.41950952550624
 20
-166.306127888111
 30
0.0
 10
92.41950952550624
 20
-166.4797607005676
 30
0.0
 10
92.41950952550624
 20
-166.6509819461845
 30
0.0
 10
92.39694415007786
 20
-166.8814588341477
 30
0.0
 10
92.28842364229249
 20
-167.0740396717732
 30
0.0
  0
SPLINE
  5
FF
330
F8
100
AcDbEntity
  8
_U+30EC_U+30A4_U+30E4_U+30FC 1
370
     0
100
AcDbSpline
210
0.0
220
0.0
230
1.0
 70
    11
 71
     3
 72
    17
 73
    13
 74
     0
 42
0.0000000001
 43
0.0000000001
 12
1.0
 22
0.0
 32
0.0
 13
1.0
 23
0.0
 33
0.0
 40
0.0
 40
0.0
 40
0.0
 40
0.0
 40
1.0
 40
1.0
 40
1.0
 40
2.0
 40
2.0
 40
2.0
 40
3.0
 40
3.0
 40
3.0
 40
4.0
 40
4.0
 40
4.0
 40
4.0
 10
91.86347111418691
 20
-165.851375284058
 30
0.0
 10
91.59664846885431
 20
-165.851375284058
 30
0.0
 10
91.54686683909246
 20
-166.1349066424941
 30
0.0
 10
91.54686683909246
 20
-166.4797607005676
 30
0.0
 10
91.54686683909246
 20
-166.7991210520502
 30
0.0
 10
91.58527965375299
 20
-167.1078016075286
 30
0.0
 10
91.86347111418691
 20
-167.1078016075286
 30
0.0
 10
92.12788219267983
 20
-167.1078016075286
 30
0.0
 10
92.17990313450711
 20
-166.8266818159322
 30
0.0
 10
92.17990313450711
 20
-166.4797607005676
 30
0.0
 10
92.17990313450711
 20
-166.1600558395364
 30
0.0
 10
92.13925100778117
 20
-165.851375284058
 30
0.0
 10
91.86347111418691
 20
-165.851375284058
 30
0.0
  0
HATCH
  5
100
330
F8
100
AcDbEntity
  8
_U+30EC_U+30A4_U+30E4_U+30FC 1
 62
   179
420
  2234388
100
AcDbHatch
 10
0.0
 20
0.0
 30
0.0
210
0.0
220
0.0
230
1.0
  2
SOLID
 70
     1
 71
     0
 91
        2
 92
        1
 93
        1
 72
     4
 94
        3
 73
     0
 74
     1
 95
       29
 96
       25
 40
0.0
 40
0.0
 40
0.0
 40
0.0
 40
1.0
 40
1.0
 40
1.0
 40
2.0
 40
2.0
 40
2.0
 40
3.0
 40
3.0
 40
3.0
 40
4.0
 40
4.0
 40
4.0
 40
5.0
 40
5.0
 40
5.0
 40
6.0
 40
6.0
 40
6.0
 40
7.0
 40
7.0
 40
7.0
 40
8.0
 40
8.0
 40
8.0
 40
8.0
 10
92.28842364229249
 20
-167.0740396717732
 10
92.17318519831088
 20
-167.2835014772764
 10
91.98783906120444
 20
-167.3024495024452
 10
91.86347111418691
 20
-167.3024495024452
 10
91.69156084947295
 20
-167.3024495024452
 10
91.54014890289622
 20
-167.2559407133944
 10
91.43834633130709
 20
-167.0740396717732
 10
91.3275865114563
 20
-166.8793917768566
 10
91.30726044809333
 20
-166.6427137170199
 10
91.30726044809333
 20
-166.4797607005676
 10
91.30726044809333
 20
-166.3357557092841
 10
91.32534719939089
 20
-166.0839192293124
 10
91.43834633130709
 20
-165.8851372198135
 10
91.55375703006295
 20
-165.6822210957322
 10
91.72549504000266
 20
-165.6587944464325
 10
91.86347111418691
 20
-165.6587944464325
 10
92.03296981206121
 20
-165.6587944464325
 10
92.18679332547761
 20
-165.7032361781922
 10
92.28842364229249
 20
-165.8851372198135
 10
92.39470483801244
 20
-166.0777180574389
 10
92.41950952550624
 20
-166.306127888111
 10
92.41950952550624
 20
-166.4797607005676
 10
92.41950952550624
 20
-166.6509819461845
 10
92.39694415007786
 20
-166.8814588341477
 10
92.28842364229249
 20
-167.0740396717732
 97
        0
 97
        0
 92
        1
 93
        1
 72
     4
 94
        3
 73
     0
 74
     1
 95
       17
 96
       13
 40
0.0
 40
0.0
 40
0.0
 40
0.0
 40
1.0
 40
1.0
 40
1.0
 40
2.0
 40
2.0
 40
2.0
 40
3.0
 40
3.0
 40
3.0
 40
4.0
 40
4.0
 40
4.0
 40
4.0
 10
91.86347111418691
 20
-165.851375284058
 10
91.59664846885431
 20
-165.851375284058
 10
91.54686683909246
 20
-166.1349066424941
 10
91.54686683909246
 20
-166.4797607005676
 10
91.54686683909246
 20
-166.7991210520502
 10
91.58527965375299
 20
-167.1078016075286
 10
91.86347111418691
 20
-167.1078016075286
 10
92.12788219267983
 20
-167.1078016075286
 10
92.17990313450711
 20
-166.8266818159322
 10
92.17990313450711
 20
-166.4797607005676
 10
92.17990313450711
 20
-166.1600558395364
 10
92.13925100778117
 20
-165.851375284058
 10
91.86347111418691
 20
-165.851375284058
 97
        0
 97
        0
 75
     2
 76
     1
 98
        0
  0
ENDBLK
  5
FB
330
F8
100
AcDbEntity
  8
0
100
AcDbBlockEnd
  0
BLOCK
  5
10F
330
10D
100
AcDbEntity
  8
0
100
AcDbBlockBegin
  2
block 6
 70
     0
 10
0.0
 20
0.0
 30
0.0
  3
block 6
  1

  0
SPLINE
  5
111
330
10D
100
AcDbEntity
  8
_U+30EC_U+30A4_U+30E4_U+30FC 1
370
     0
100
AcDbSpline
210
0.0
220
0.0
230
1.0
 70
    11
 71
     3
 72
    44
 73
    40
 74
     0
 42
0.0000000001
 43
0.0000000001
 12
1.0
 22
0.0
 32
0.0
 13
1.0
 23
0.0
 33
0.0
 40
0.0
 40
0.0
 40
0.0
 40
0.0
 40
1.0
 40
1.0
 40
1.0
 40
2.0
 40
2.0
 40
2.0
 40
3.0
 40
3.0
 40
3.0
 40
4.0
 40
4.0
 40
4.0
 40
5.0
 40
5.0
 40
5.0
 40
6.0
 40
6.0
 40
6.0
 40
7.0
 40
7.0
 40
7.0
 40
8.0
 40
8.0
 40
8.0
 40
9.0
 40
9.0
 40
9.0
 40
10.0
 40
10.0
 40
10.0
 40
11.0
 40
11.0
 40
11.0
 40
12.0
 40
12.0
 40
12.0
 40
13.0
 40
13.0
 40
13.0
 40
13.0
 10
80.22748885798133
 20
-152.4282497448791
 30
0.0
 10
80.38630775985135
 20
-152.6611381996819
 30
0.0
 10
80.46037731278422
 20
-152.7603569496571
 30
0.0
 10
80.60403779451913
 20
-152.8123778914844
 30
0.0
 10
80.60403779451913
 20
-152.8123778914844
 30
0.0
 10
80.60403779451913
 20
-151.9803873317966
 30
0.0
 10
80.60403779451913
 20
-151.9803873317966
 30
0.0
 10
80.60403779451913
 20
-151.9803873317966
 30
0.0
 10
80.80936548544003
 20
-151.9803873317966
 30
0.0
 10
80.80936548544003
 20
-151.9803873317966
 30
0.0
 10
80.80936548544003
 20
-151.9803873317966
 30
0.0
 10
80.80936548544003
 20
-153.0793727915913
 30
0.0
 10
80.80936548544003
 20
-153.0793727915913
 30
0.0
 10
80.45176457407109
 20
-153.0452663462873
 30
0.0
 10
80.37356090655592
 20
-152.9753309079367
 30
0.0
 10
80.07521563753328
 20
-152.5636419974494
 30
0.0
 10
79.87643362803436
 20
-152.2901014159205
 30
0.0
 10
79.80856524697495
 20
-152.22016597757
 30
0.0
 10
79.67110593711348
 20
-152.22016597757
 30
0.0
 10
79.55259465242088
 20
-152.22016597757
 30
0.0
 10
79.42168102398139
 20
-152.296991606891
 30
0.0
 10
79.42168102398139
 20
-152.5071424314913
 30
0.0
 10
79.42168102398139
 20
-152.7851616371509
 30
0.0
 10
79.6521579119446
 20
-152.7941188854126
 30
0.0
 10
79.76860213934604
 20
-152.7989420190919
 30
0.0
 10
79.76860213934604
 20
-152.7989420190919
 30
0.0
 10
79.76860213934604
 20
-153.0383761553168
 30
0.0
 10
79.76860213934604
 20
-153.0383761553168
 30
0.0
 10
79.64147811594033
 20
-153.0294189070551
 30
0.0
 10
79.52951251266971
 20
-153.0180500919538
 30
0.0
 10
79.41100122797711
 20
-152.9322672143711
 30
0.0
 10
79.25011526881595
 20
-152.8147894583241
 30
0.0
 10
79.2163533330605
 20
-152.6156629392767
 30
0.0
 10
79.2163533330605
 20
-152.4912949922591
 30
0.0
 10
79.2163533330605
 20
-152.1953612900762
 30
0.0
 10
79.40032143197284
 20
-151.9734971408261
 30
0.0
 10
79.67317299440462
 20
-151.9734971408261
 30
0.0
 10
79.90192733462521
 20
-151.9734971408261
 30
0.0
 10
80.0011460846004
 20
-152.0978650878436
 30
0.0
 10
80.22748885798133
 20
-152.4282497448791
 30
0.0
  0
HATCH
  5
112
330
10D
100
AcDbEntity
  8
_U+30EC_U+30A4_U+30E4_U+30FC 1
 62
   179
420
  2234388
100
AcDbHatch
 10
0.0
 20
0.0
 30
0.0
210
0.0
220
0.0
230
1.0
  2
SOLID
 70
     1
 71
     0
 91
        1
 92
        1
 93
        1
 72
     4
 94
        3
 73
     0
 74
     1
 95
       44
 96
       40
 40
0.0
 40
0.0
 40
0.0
 40
0.0
 40
1.0
 40
1.0
 40
1.0
 40
2.0
 40
2.0
 40
2.0
 40
3.0
 40
3.0
 40
3.0
 40
4.0
 40
4.0
 40
4.0
 40
5.0
 40
5.0
 40
5.0
 40
6.0
 40
6.0
 40
6.0
 40
7.0
 40
7.0
 40
7.0
 40
8.0
 40
8.0
 40
8.0
 40
9.0
 40
9.0
 40
9.0
 40
10.0
 40
10.0
 40
10.0
 40
11.0
 40
11.0
 40
11.0
 40
12.0
 40
12.0
 40
12.0
 40
13.0
 40
13.0
 40
13.0
 40
13.0
 10
80.22748885798133
 20
-152.4282497448791
 10
80.38630775985135
 20
-152.6611381996819
 10
80.46037731278422
 20
-152.7603569496571
 10
80.60403779451913
 20
-152.8123778914844
 10
80.60403779451913
 20
-152.8123778914844
 10
80.60403779451913
 20
-151.9803873317966
 10
80.60403779451913
 20
-151.9803873317966
 10
80.60403779451913
 20
-151.9803873317966
 10
80.80936548544003
 20
-151.9803873317966
 10
80.80936548544003
 20
-151.9803873317966
 10
80.80936548544003
 20
-151.9803873317966
 10
80.80936548544003
 20
-153.0793727915913
 10
80.80936548544003
 20
-153.0793727915913
 10
80.45176457407109
 20
-153.0452663462873
 10
80.37356090655592
 20
-152.9753309079367
 10
80.07521563753328
 20
-152.5636419974494
 10
79.87643362803436
 20
-152.2901014159205
 10
79.80856524697495
 20
-152.22016597757
 10
79.67110593711348
 20
-152.22016597757
 10
79.55259465242088
 20
-152.22016597757
 10
79.42168102398139
 20
-152.296991606891
 10
79.42168102398139
 20
-152.5071424314913
 10
79.42168102398139
 20
-152.7851616371509
 10
79.6521579119446
 20
-152.7941188854126
 10
79.76860213934604
 20
-152.7989420190919
 10
79.76860213934604
 20
-152.7989420190919
 10
79.76860213934604
 20
-153.0383761553168
 10
79.76860213934604
 20
-153.0383761553168
 10
79.64147811594033
 20
-153.0294189070551
 10
79.52951251266971
 20
-153.0180500919538
 10
79.41100122797711
 20
-152.9322672143711
 10
79.25011526881595
 20
-152.8147894583241
 10
79.2163533330605
 20
-152.6156629392767
 10
79.2163533330605
 20
-152.4912949922591
 10
79.2163533330605
 20
-152.1953612900762
 10
79.40032143197284
 20
-151.9734971408261
 10
79.67317299440462
 20
-151.9734971408261
 10
79.90192733462521
 20
-151.9734971408261
 10
80.0011460846004
 20
-152.0978650878436
 10
80.22748885798133
 20
-152.4282497448791
 97
        0
 97
        0
 75
     2
 76
     1
 98
        0
  0
POLYLINE
  5
113
330
10D
100
AcDbEntity
  8
_U+30EC_U+30A4_U+30E4_U+30FC 1
370
     0
100
AcDb2dPolyline
 66
     1
 10
0.0
 20
0.0
 30
0.0
  0
VERTEX
  5
114
330
113
100
AcDbEntity
  8
_U+30EC_U+30A4_U+30E4_U+30FC 1
370
     0
100
AcDbVertex
100
AcDb2dVertex
 10
80.46244437007536
 20
-150.9148192982088
 30
0.0
  0
VERTEX
  5
115
330
113
100
AcDbEntity
  8
_U+30EC_U+30A4_U+30E4_U+30FC 1
370
     0
100
AcDbVertex
100
AcDb2dVertex
 10
80.80936548544003
 20
-150.9148192982088
 30
0.0
  0
VERTEX
  5
116
330
113
100
AcDbEntity
  8
_U+30EC_U+30A4_U+30E4_U+30FC 1
370
     0
100
AcDbVertex
100
AcDb2dVertex
 10
80.80936548544003
 20
-151.1477077530117
 30
0.0
  0
VERTEX
  5
117
330
113
100
AcDbEntity
  8
_U+30EC_U+30A4_U+30E4_U+30FC 1
370
     0
100
AcDbVertex
100
AcDb2dVertex
 10
80.46244437007536
 20
-151.1477077530117
 30
0.0
  0
VERTEX
  5
118
330
113
100
AcDbEntity
  8
_U+30EC_U+30A4_U+30E4_U+30FC 1
370
     0
100
AcDbVertex
100
AcDb2dVertex
 10
80.46244437007536
 20
-151.8484401747115
 30
0.0
  0
VERTEX
  5
119
330
113
100
AcDbEntity
  8
_U+30EC_U+30A4_U+30E4_U+30FC 1
370
     0
100
AcDbVertex
100
AcDb2dVertex
 10
80.2381686539856
 20
-151.8484401747115
 30
0.0
  0
VERTEX
  5
11A
330
113
100
AcDbEntity
  8
_U+30EC_U+30A4_U+30E4_U+30FC 1
370
     0
100
AcDbVertex
100
AcDb2dVertex
 10
79.26492917940251
 20
-151.1225585559694
 30
0.0
  0
VERTEX
  5
11B
330
113
100
AcDbEntity
  8
_U+30EC_U+30A4_U+30E4_U+30FC 1
370
     0
100
AcDbVertex
100
AcDb2dVertex
 10
79.26492917940251
 20
-150.9148192982088
 30
0.0
  0
VERTEX
  5
11C
330
113
100
AcDbEntity
  8
_U+30EC_U+30A4_U+30E4_U+30FC 1
370
     0
100
AcDbVertex
100
AcDb2dVertex
 10
80.26366236057645
 20
-150.9148192982088
 30
0.0
  0
VERTEX
  5
11D
330
113
100
AcDbEntity
  8
_U+30EC_U+30A4_U+30E4_U+30FC 1
370
     0
100
AcDbVertex
100
AcDb2dVertex
 10
80.26366236057645
 20
-150.6932996585072
 30
0.0
  0
VERTEX
  5
11E
330
113
100
AcDbEntity
  8
_U+30EC_U+30A4_U+30E4_U+30FC 1
370
     0
100
AcDbVertex
100
AcDb2dVertex
 10
80.46244437007536
 20
-150.6932996585072
 30
0.0
  0
VERTEX
  5
11F
330
113
100
AcDbEntity
  8
_U+30EC_U+30A4_U+30E4_U+30FC 1
370
     0
100
AcDbVertex
100
AcDb2dVertex
 10
80.46244437007536
 20
-150.9148192982088
 30
0.0
  0
SEQEND
  5
120
330
113
100
AcDbEntity
  8
_U+30EC_U+30A4_U+30E4_U+30FC 1
370
     0
  0
POLYLINE
  5
121
330
10D
100
AcDbEntity
  8
_U+30EC_U+30A4_U+30E4_U+30FC 1
370
     0
100
AcDb2dPolyline
 66
     1
 10
0.0
 20
0.0
 30
0.0
  0
VERTEX
  5
122
330
121
100
AcDbEntity
  8
_U+30EC_U+30A4_U+30E4_U+30FC 1
370
     0
100
AcDbVertex
100
AcDb2dVertex
 10
79.60771618018488
 20
-151.1477077530117
 30
0.0
  0
VERTEX
  5
123
330
121
100
AcDbEntity
  8
_U+30EC_U+30A4_U+30E4_U+30FC 1
370
     0
100
AcDbVertex
100
AcDb2dVertex
 10
80.26366236057645
 20
-151.6358777832716
 30
0.0
  0
VERTEX
  5
124
330
121
100
AcDbEntity
  8
_U+30EC_U+30A4_U+30E4_U+30FC 1
370
     0
100
AcDbVertex
100
AcDb2dVertex
 10
80.26366236057645
 20
-151.1477077530117
 30
0.0
  0
VERTEX
  5
125
330
121
100
AcDbEntity
  8
_U+30EC_U+30A4_U+30E4_U+30FC 1
370
     0
100
AcDbVertex
100
AcDb2dVertex
 10
79.60771618018488
 20
-151.1477077530117
 30
0.0
  0
SEQEND
  5
126
330
121
100
AcDbEntity
  8
_U+30EC_U+30A4_U+30E4_U+30FC 1
370
     0
  0
HATCH
  5
127
330
10D
100
AcDbEntity
  8
_U+30EC_U+30A4_U+30E4_U+30FC 1
 62
   179
420
  2234388
100
AcDbHatch
 10
0.0
 20
0.0
 30
0.0
210
0.0
220
0.0
230
1.0
  2
SOLID
 70
     1
 71
     0
 91
        2
 92
        1
 93
       11
 72
     1
 10
80.46244437007536
 20
-150.9148192982088
 11
80.80936548544003
 21
-150.9148192982088
 72
     1
 10
80.80936548544003
 20
-150.9148192982088
 11
80.80936548544003
 21
-151.1477077530117
 72
     1
 10
80.80936548544003
 20
-151.1477077530117
 11
80.46244437007536
 21
-151.1477077530117
 72
     1
 10
80.46244437007536
 20
-151.1477077530117
 11
80.46244437007536
 21
-151.8484401747115
 72
     1
 10
80.46244437007536
 20
-151.8484401747115
 11
80.2381686539856
 21
-151.8484401747115
 72
     1
 10
80.2381686539856
 20
-151.8484401747115
 11
79.26492917940251
 21
-151.1225585559694
 72
     1
 10
79.26492917940251
 20
-151.1225585559694
 11
79.26492917940251
 21
-150.9148192982088
 72
     1
 10
79.26492917940251
 20
-150.9148192982088
 11
80.26366236057645
 21
-150.9148192982088
 72
     1
 10
80.26366236057645
 20
-150.9148192982088
 11
80.26366236057645
 21
-150.6932996585072
 72
     1
 10
80.26366236057645
 20
-150.6932996585072
 11
80.46244437007536
 21
-150.6932996585072
 72
     1
 10
80.46244437007536
 20
-150.6932996585072
 11
80.46244437007536
 21
-150.9148192982088
 97
        0
 92
        1
 93
        3
 72
     1
 10
79.60771618018488
 20
-151.1477077530117
 11
80.26366236057645
 21
-151.6358777832716
 72
     1
 10
80.26366236057645
 20
-151.6358777832716
 11
80.26366236057645
 21
-151.1477077530117
 72
     1
 10
80.26366236057645
 20
-151.1477077530117
 11
79.60771618018488
 21
-151.1477077530117
 97
        0
 75
     2
 76
     1
 98
        0
  0
ENDBLK
  5
110
330
10D
100
AcDbEntity
  8
0
100
AcDbBlockEnd
  0
BLOCK
  5
132
330
130
100
AcDbEntity
  8
0
100
AcDbBlockBegin
  2
block 7
 70
     0
 10
0.0
 20
0.0
 30
0.0
  3
block 7
  1

  0
SPLINE
  5
134
330
130
100
AcDbEntity
  8
_U+30EC_U+30A4_U+30E4_U+30FC 1
370
     0
100
AcDbSpline
210
0.0
220
0.0
230
1.0
 70
    11
 71
     3
 72
    26
 73
    22
 74
     0
 42
0.0000000001
 43
0.0000000001
 12
1.0
 22
0.0
 32
0.0
 13
1.0
 23
0.0
 33
0.0
 40
0.0
 40
0.0
 40
0.0
 40
0.0
 40
1.0
 40
1.0
 40
1.0
 40
2.0
 40
2.0
 40
2.0
 40
3.0
 40
3.0
 40
3.0
 40
4.0
 40
4.0
 40
4.0
 40
5.0
 40
5.0
 40
5.0
 40
6.0
 40
6.0
 40
6.0
 40
7.0
 40
7.0
 40
7.0
 40
7.0
 10
129.5886447158667
 20
-155.0795952303273
 30
0.0
 10
129.5886447158667
 20
-155.0795952303273
 30
0.0
 10
128.4844916128442
 20
-155.0795952303273
 30
0.0
 10
128.4844916128442
 20
-155.0795952303273
 30
0.0
 10
128.4844916128442
 20
-155.0795952303273
 30
0.0
 10
128.4844916128442
 20
-155.4323730080169
 30
0.0
 10
128.4844916128442
 20
-155.4323730080169
 30
0.0
 10
128.4844916128442
 20
-155.4323730080169
 30
0.0
 10
128.3363525069784
 20
-155.4323730080169
 30
0.0
 10
128.3363525069784
 20
-155.4323730080169
 30
0.0
 10
128.3215385963918
 20
-155.0775281730362
 30
0.0
 10
128.1585855799395
 20
-155.0275742885001
 30
0.0
 10
128.0442084098292
 20
-154.9958794100358
 30
0.0
 10
128.0442084098292
 20
-154.9958794100358
 30
0.0
 10
128.0442084098292
 20
-154.8398165845539
 30
0.0
 10
128.0442084098292
 20
-154.8398165845539
 30
0.0
 10
128.0442084098292
 20
-154.8398165845539
 30
0.0
 10
129.5886447158667
 20
-154.8398165845539
 30
0.0
 10
129.5886447158667
 20
-154.8398165845539
 30
0.0
 10
129.5886447158667
 20
-154.8398165845539
 30
0.0
 10
129.5886447158667
 20
-155.0795952303273
 30
0.0
 10
129.5886447158667
 20
-155.0795952303273
 30
0.0
  0
HATCH
  5
135
330
130
100
AcDbEntity
  8
_U+30EC_U+30A4_U+30E4_U+30FC 1
 62
   179
420
  2234388
100
AcDbHatch
 10
0.0
 20
0.0
 30
0.0
210
0.0
220
0.0
230
1.0
  2
SOLID
 70
     1
 71
     0
 91
        1
 92
        1
 93
        1
 72
     4
 94
        3
 73
     0
 74
     1
 95
       26
 96
       22
 40
0.0
 40
0.0
 40
0.0
 40
0.0
 40
1.0
 40
1.0
 40
1.0
 40
2.0
 40
2.0
 40
2.0
 40
3.0
 40
3.0
 40
3.0
 40
4.0
 40
4.0
 40
4.0
 40
5.0
 40
5.0
 40
5.0
 40
6.0
 40
6.0
 40
6.0
 40
7.0
 40
7.0
 40
7.0
 40
7.0
 10
129.5886447158667
 20
-155.0795952303273
 10
129.5886447158667
 20
-155.0795952303273
 10
128.4844916128442
 20
-155.0795952303273
 10
128.4844916128442
 20
-155.0795952303273
 10
128.4844916128442
 20
-155.0795952303273
 10
128.4844916128442
 20
-155.4323730080169
 10
128.4844916128442
 20
-155.4323730080169
 10
128.4844916128442
 20
-155.4323730080169
 10
128.3363525069784
 20
-155.4323730080169
 10
128.3363525069784
 20
-155.4323730080169
 10
128.3215385963918
 20
-155.0775281730362
 10
128.1585855799395
 20
-155.0275742885001
 10
128.0442084098292
 20
-154.9958794100358
 10
128.0442084098292
 20
-154.9958794100358
 10
128.0442084098292
 20
-154.8398165845539
 10
128.0442084098292
 20
-154.8398165845539
 10
128.0442084098292
 20
-154.8398165845539
 10
129.5886447158667
 20
-154.8398165845539
 10
129.5886447158667
 20
-154.8398165845539
 10
129.5886447158667
 20
-154.8398165845539
 10
129.5886447158667
 20
-155.0795952303273
 10
129.5886447158667
 20
-155.0795952303273
 97
        0
 97
        0
 75
     2
 76
     1
 98
        0
  0
SPLINE
  5
136
330
130
100
AcDbEntity
  8
_U+30EC_U+30A4_U+30E4_U+30FC 1
370
     0
100
AcDbSpline
210
0.0
220
0.0
230
1.0
 70
    11
 71
     3
 72
    62
 73
    58
 74
     0
 42
0.0000000001
 43
0.0000000001
 12
1.0
 22
0.0
 32
0.0
 13
1.0
 23
0.0
 33
0.0
 40
0.0
 40
0.0
 40
0.0
 40
0.0
 40
1.0
 40
1.0
 40
1.0
 40
2.0
 40
2.0
 40
2.0
 40
3.0
 40
3.0
 40
3.0
 40
4.0
 40
4.0
 40
4.0
 40
5.0
 40
5.0
 40
5.0
 40
6.0
 40
6.0
 40
6.0
 40
7.0
 40
7.0
 40
7.0
 40
8.0
 40
8.0
 40
8.0
 40
9.0
 40
9.0
 40
9.0
 40
10.0
 40
10.0
 40
10.0
 40
11.0
 40
11.0
 40
11.0
 40
12.0
 40
12.0
 40
12.0
 40
13.0
 40
13.0
 40
13.0
 40
14.0
 40
14.0
 40
14.0
 40
15.0
 40
15.0
 40
15.0
 40
16.0
 40
16.0
 40
16.0
 40
17.0
 40
17.0
 40
17.0
 40
18.0
 40
18.0
 40
18.0
 40
19.0
 40
19.0
 40
19.0
 40
19.0
 10
129.6392876194999
 20
-153.778727175097
 30
0.0
 10
129.6392876194999
 20
-153.8807020014604
 30
0.0
 10
129.6182725370399
 20
-154.1135904562633
 30
0.0
 10
129.4322373808364
 20
-154.2469156515425
 30
0.0
 10
129.3199272680172
 20
-154.3258083381547
 30
0.0
 10
129.220708518042
 20
-154.330631471834
 30
0.0
 10
129.1359591691049
 20
-154.3351100959648
 30
0.0
 10
129.1359591691049
 20
-154.3351100959648
 30
0.0
 10
129.1359591691049
 20
-154.0998100743223
 30
0.0
 10
129.1359591691049
 20
-154.0998100743223
 30
0.0
 10
129.2100287220378
 20
-154.0977430170311
 30
0.0
 10
129.4446397245833
 20
-154.0863742019298
 30
0.0
 10
129.4446397245833
 20
-153.7835503087763
 30
0.0
 10
129.4446397245833
 20
-153.6364447315562
 30
0.0
 10
129.3750487957813
 20
-153.4734917151038
 30
0.0
 10
129.1466389651092
 20
-153.4734917151038
 30
0.0
 10
129.0301947377077
 20
-153.4734917151038
 30
0.0
 10
128.9816188913657
 20
-153.5141438418298
 30
0.0
 10
128.9499240129014
 20
-153.5482502871338
 30
0.0
 10
128.8758544599685
 20
-153.627142973746
 30
0.0
 10
128.8631076066731
 20
-153.751855430312
 30
0.0
 10
128.8631076066731
 20
-153.8104220535613
 30
0.0
 10
128.8631076066731
 20
-153.8310926264728
 30
0.0
 10
128.8651746639643
 20
-153.8693331863591
 30
0.0
 10
128.8693087785466
 20
-153.8986164979837
 30
0.0
 10
128.8693087785466
 20
-153.8986164979837
 30
0.0
 10
128.6746608836299
 20
-153.8986164979837
 30
0.0
 10
128.6746608836299
 20
-153.8986164979837
 30
0.0
 10
128.6812065650519
 20
-153.8579643712577
 30
0.0
 10
128.6832736223431
 20
-153.812833620401
 30
0.0
 10
128.6832736223431
 20
-153.8059434294305
 30
0.0
 10
128.6832736223431
 20
-153.7360079910799
 30
0.0
 10
128.6619140303345
 20
-153.52344559964
 30
0.0
 10
128.4252359704979
 20
-153.52344559964
 30
0.0
 10
128.247469043459
 20
-153.52344559964
 30
0.0
 10
128.192347515695
 20
-153.6636609858896
 30
0.0
 10
128.192347515695
 20
-153.7811387419367
 30
0.0
 10
128.192347515695
 20
-154.0636365717272
 30
0.0
 10
128.4252359704979
 20
-154.0729383295373
 30
0.0
 10
128.4968939565911
 20
-154.0770724441196
 30
0.0
 10
128.4968939565911
 20
-154.0770724441196
 30
0.0
 10
128.4968939565911
 20
-154.2941134596904
 30
0.0
 10
128.4968939565911
 20
-154.2941134596904
 30
0.0
 10
128.372181500025
 20
-154.2851562114287
 30
0.0
 10
127.9956325634872
 20
-154.2558728998041
 30
0.0
 10
127.9956325634872
 20
-153.7677028695442
 30
0.0
 10
127.9956325634872
 20
-153.5279242237708
 30
0.0
 10
128.1227565868929
 20
-153.2702310814741
 30
0.0
 10
128.4186902890759
 20
-153.2702310814741
 30
0.0
 10
128.6050699548279
 20
-153.2702310814741
 30
0.0
 10
128.6874077369254
 20
-153.371861398289
 30
0.0
 10
128.7487304365628
 20
-153.4783148487832
 30
0.0
 10
128.7762912004448
 20
-153.4125135250149
 30
0.0
 10
128.8565619252512
 20
-153.2182101396469
 30
0.0
 10
129.1338921118138
 20
-153.2182101396469
 30
0.0
 10
129.4722004884653
 20
-153.2182101396469
 30
0.0
 10
129.6392876194999
 20
-153.4824489633655
 30
0.0
 10
129.6392876194999
 20
-153.778727175097
 30
0.0
  0
HATCH
  5
137
330
130
100
AcDbEntity
  8
_U+30EC_U+30A4_U+30E4_U+30FC 1
 62
   179
420
  2234388
100
AcDbHatch
 10
0.0
 20
0.0
 30
0.0
210
0.0
220
0.0
230
1.0
  2
SOLID
 70
     1
 71
     0
 91
        1
 92
        1
 93
        1
 72
     4
 94
        3
 73
     0
 74
     1
 95
       62
 96
       58
 40
0.0
 40
0.0
 40
0.0
 40
0.0
 40
1.0
 40
1.0
 40
1.0
 40
2.0
 40
2.0
 40
2.0
 40
3.0
 40
3.0
 40
3.0
 40
4.0
 40
4.0
 40
4.0
 40
5.0
 40
5.0
 40
5.0
 40
6.0
 40
6.0
 40
6.0
 40
7.0
 40
7.0
 40
7.0
 40
8.0
 40
8.0
 40
8.0
 40
9.0
 40
9.0
 40
9.0
 40
10.0
 40
10.0
 40
10.0
 40
11.0
 40
11.0
 40
11.0
 40
12.0
 40
12.0
 40
12.0
 40
13.0
 40
13.0
 40
13.0
 40
14.0
 40
14.0
 40
14.0
 40
15.0
 40
15.0
 40
15.0
 40
16.0
 40
16.0
 40
16.0
 40
17.0
 40
17.0
 40
17.0
 40
18.0
 40
18.0
 40
18.0
 40
19.0
 40
19.0
 40
19.0
 40
19.0
 10
129.6392876194999
 20
-153.778727175097
 10
129.6392876194999
 20
-153.8807020014604
 10
129.6182725370399
 20
-154.1135904562633
 10
129.4322373808364
 20
-154.2469156515425
 10
129.3199272680172
 20
-154.3258083381547
 10
129.220708518042
 20
-154.330631471834
 10
129.1359591691049
 20
-154.3351100959648
 10
129.1359591691049
 20
-154.3351100959648
 10
129.1359591691049
 20
-154.0998100743223
 10
129.1359591691049
 20
-154.0998100743223
 10
129.2100287220378
 20
-154.0977430170311
 10
129.4446397245833
 20
-154.0863742019298
 10
129.4446397245833
 20
-153.7835503087763
 10
129.4446397245833
 20
-153.6364447315562
 10
129.3750487957813
 20
-153.4734917151038
 10
129.1466389651092
 20
-153.4734917151038
 10
129.0301947377077
 20
-153.4734917151038
 10
128.9816188913657
 20
-153.5141438418298
 10
128.9499240129014
 20
-153.5482502871338
 10
128.8758544599685
 20
-153.627142973746
 10
128.8631076066731
 20
-153.751855430312
 10
128.8631076066731
 20
-153.8104220535613
 10
128.8631076066731
 20
-153.8310926264728
 10
128.8651746639643
 20
-153.8693331863591
 10
128.8693087785466
 20
-153.8986164979837
 10
128.8693087785466
 20
-153.8986164979837
 10
128.6746608836299
 20
-153.8986164979837
 10
128.6746608836299
 20
-153.8986164979837
 10
128.6812065650519
 20
-153.8579643712577
 10
128.6832736223431
 20
-153.812833620401
 10
128.6832736223431
 20
-153.8059434294305
 10
128.6832736223431
 20
-153.7360079910799
 10
128.6619140303345
 20
-153.52344559964
 10
128.4252359704979
 20
-153.52344559964
 10
128.247469043459
 20
-153.52344559964
 10
128.192347515695
 20
-153.6636609858896
 10
128.192347515695
 20
-153.7811387419367
 10
128.192347515695
 20
-154.0636365717272
 10
128.4252359704979
 20
-154.0729383295373
 10
128.4968939565911
 20
-154.0770724441196
 10
128.4968939565911
 20
-154.0770724441196
 10
128.4968939565911
 20
-154.2941134596904
 10
128.4968939565911
 20
-154.2941134596904
 10
128.372181500025
 20
-154.2851562114287
 10
127.9956325634872
 20
-154.2558728998041
 10
127.9956325634872
 20
-153.7677028695442
 10
127.9956325634872
 20
-153.5279242237708
 10
128.1227565868929
 20
-153.2702310814741
 10
128.4186902890759
 20
-153.2702310814741
 10
128.6050699548279
 20
-153.2702310814741
 10
128.6874077369254
 20
-153.371861398289
 10
128.7487304365628
 20
-153.4783148487832
 10
128.7762912004448
 20
-153.4125135250149
 10
128.8565619252512
 20
-153.2182101396469
 10
129.1338921118138
 20
-153.2182101396469
 10
129.4722004884653
 20
-153.2182101396469
 10
129.6392876194999
 20
-153.4824489633655
 10
129.6392876194999
 20
-153.778727175097
 97
        0
 97
        0
 75
     2
 76
     1
 98
        0
  0
ENDBLK
  5
133
330
130
100
AcDbEntity
  8
0
100
AcDbBlockEnd
  0
BLOCK
  5
143
330
141
100
AcDbEntity
  8
0
100
AcDbBlockBegin
  2
block 8
 70
     0
 10
0.0
 20
0.0
 30
0.0
  3
block 8
  1

  0
SPLINE
  5
145
330
141
100
AcDbEntity
  8
_U+30EC_U+30A4_U+30E4_U+30FC 1
370
     0
100
AcDbSpline
210
0.0
220
0.0
230
1.0
 70
    11
 71
     3
 72
    26
 73
    22
 74
     0
 42
0.0000000001
 43
0.0000000001
 12
1.0
 22
0.0
 32
0.0
 13
1.0
 23
0.0
 33
0.0
 40
0.0
 40
0.0
 40
0.0
 40
0.0
 40
1.0
 40
1.0
 40
1.0
 40
2.0
 40
2.0
 40
2.0
 40
3.0
 40
3.0
 40
3.0
 40
4.0
 40
4.0
 40
4.0
 40
5.0
 40
5.0
 40
5.0
 40
6.0
 40
6.0
 40
6.0
 40
7.0
 40
7.0
 40
7.0
 40
7.0
 10
129.5007947809929
 20
-146.0076252890189
 30
0.0
 10
129.5007947809929
 20
-146.0076252890189
 30
0.0
 10
128.3966416779703
 20
-146.0076252890189
 30
0.0
 10
128.3966416779703
 20
-146.0076252890189
 30
0.0
 10
128.3966416779703
 20
-146.0076252890189
 30
0.0
 10
128.3966416779703
 20
-146.3604030667085
 30
0.0
 10
128.3966416779703
 20
-146.3604030667085
 30
0.0
 10
128.3966416779703
 20
-146.3604030667085
 30
0.0
 10
128.2485025721045
 20
-146.3604030667085
 30
0.0
 10
128.2485025721045
 20
-146.3604030667085
 30
0.0
 10
128.233688661518
 20
-146.0053859769535
 30
0.0
 10
128.0707356450657
 20
-145.9556043471917
 30
0.0
 10
127.9563584749554
 20
-145.9239094687274
 30
0.0
 10
127.9563584749554
 20
-145.9239094687274
 30
0.0
 10
127.9563584749554
 20
-145.7680188980198
 30
0.0
 10
127.9563584749554
 20
-145.7680188980198
 30
0.0
 10
127.9563584749554
 20
-145.7680188980198
 30
0.0
 10
129.5007947809929
 20
-145.7680188980198
 30
0.0
 10
129.5007947809929
 20
-145.7680188980198
 30
0.0
 10
129.5007947809929
 20
-145.7680188980198
 30
0.0
 10
129.5007947809929
 20
-146.0076252890189
 30
0.0
 10
129.5007947809929
 20
-146.0076252890189
 30
0.0
  0
HATCH
  5
146
330
141
100
AcDbEntity
  8
_U+30EC_U+30A4_U+30E4_U+30FC 1
 62
   179
420
  2234388
100
AcDbHatch
 10
0.0
 20
0.0
 30
0.0
210
0.0
220
0.0
230
1.0
  2
SOLID
 70
     1
 71
     0
 91
        1
 92
        1
 93
        1
 72
     4
 94
        3
 73
     0
 74
     1
 95
       26
 96
       22
 40
0.0
 40
0.0
 40
0.0
 40
0.0
 40
1.0
 40
1.0
 40
1.0
 40
2.0
 40
2.0
 40
2.0
 40
3.0
 40
3.0
 40
3.0
 40
4.0
 40
4.0
 40
4.0
 40
5.0
 40
5.0
 40
5.0
 40
6.0
 40
6.0
 40
6.0
 40
7.0
 40
7.0
 40
7.0
 40
7.0
 10
129.5007947809929
 20
-146.0076252890189
 10
129.5007947809929
 20
-146.0076252890189
 10
128.3966416779703
 20
-146.0076252890189
 10
128.3966416779703
 20
-146.0076252890189
 10
128.3966416779703
 20
-146.0076252890189
 10
128.3966416779703
 20
-146.3604030667085
 10
128.3966416779703
 20
-146.3604030667085
 10
128.3966416779703
 20
-146.3604030667085
 10
128.2485025721045
 20
-146.3604030667085
 10
128.2485025721045
 20
-146.3604030667085
 10
128.233688661518
 20
-146.0053859769535
 10
128.0707356450657
 20
-145.9556043471917
 10
127.9563584749554
 20
-145.9239094687274
 10
127.9563584749554
 20
-145.9239094687274
 10
127.9563584749554
 20
-145.7680188980198
 10
127.9563584749554
 20
-145.7680188980198
 10
127.9563584749554
 20
-145.7680188980198
 10
129.5007947809929
 20
-145.7680188980198
 10
129.5007947809929
 20
-145.7680188980198
 10
129.5007947809929
 20
-145.7680188980198
 10
129.5007947809929
 20
-146.0076252890189
 10
129.5007947809929
 20
-146.0076252890189
 97
        0
 97
        0
 75
     2
 76
     1
 98
        0
  0
ENDBLK
  5
144
330
141
100
AcDbEntity
  8
0
100
AcDbBlockEnd
  0
ENDSEC
  0
SECTION
  2
ENTITIES
  0
POLYLINE
  5
41
330
1F
100
AcDbEntity
  8
_U+30EC_U+30A4_U+30E4_U+30FC 1
370
     0
100
AcDb2dPolyline
 66
     1
 10
0.0
 20
0.0
 30
0.0
  0
VERTEX
  5
42
330
41
100
AcDbEntity
  8
_U+30EC_U+30A4_U+30E4_U+30FC 1
370
     0
100
AcDbVertex
100
AcDb2dVertex
 10
87.13417053163579
 20
-140.8972675395098
 30
0.0
  0
VERTEX
  5
43
330
41
100
AcDbEntity
  8
_U+30EC_U+30A4_U+30E4_U+30FC 1
370
     0
100
AcDbVertex
100
AcDb2dVertex
 10
89.23390240027861
 20
-140.8972675395098
 30
0.0
  0
VERTEX
  5
44
330
41
100
AcDbEntity
  8
_U+30EC_U+30A4_U+30E4_U+30FC 1
370
     0
100
AcDbVertex
100
AcDb2dVertex
 10
89.23390240027861
 20
-139.8974954467286
 30
0.0
  0
VERTEX
  5
45
330
41
100
AcDbEntity
  8
_U+30EC_U+30A4_U+30E4_U+30FC 1
370
     0
100
AcDbVertex
100
AcDb2dVertex
 10
86.23388095395288
 20
-139.8974954467286
 30
0.0
  0
VERTEX
  5
46
330
41
100
AcDbEntity
  8
_U+30EC_U+30A4_U+30E4_U+30FC 1
370
     0
100
AcDbVertex
100
AcDb2dVertex
 10
86.23388095395288
 20
-163.897322507786
 30
0.0
  0
VERTEX
  5
47
330
41
100
AcDbEntity
  8
_U+30EC_U+30A4_U+30E4_U+30FC 1
370
     0
100
AcDbVertex
100
AcDb2dVertex
 10
96.23442524517425
 20
-163.897322507786
 30
0.0
  0
VERTEX
  5
48
330
41
100
AcDbEntity
  8
_U+30EC_U+30A4_U+30E4_U+30FC 1
370
     0
100
AcDbVertex
100
AcDb2dVertex
 10
96.23442524517425
 20
-160.8973010614602
 30
0.0
  0
VERTEX
  5
49
330
41
100
AcDbEntity
  8
_U+30EC_U+30A4_U+30E4_U+30FC 1
370
     0
100
AcDbVertex
100
AcDb2dVertex
 10
93.23440379884885
 20
-160.8973010614602
 30
0.0
  0
VERTEX
  5
4A
330
41
100
AcDbEntity
  8
_U+30EC_U+30A4_U+30E4_U+30FC 1
370
     0
100
AcDbVertex
100
AcDb2dVertex
 10
93.23440379884885
 20
-161.8970731542414
 30
0.0
  0
VERTEX
  5
4B
330
41
100
AcDbEntity
  8
_U+30EC_U+30A4_U+30E4_U+30FC 1
370
     0
100
AcDbVertex
100
AcDb2dVertex
 10
95.23394798441092
 20
-161.8970731542414
 30
0.0
  0
VERTEX
  5
4C
330
41
100
AcDbEntity
  8
_U+30EC_U+30A4_U+30E4_U+30FC 1
370
     0
100
AcDbVertex
100
AcDb2dVertex
 10
95.23394798441092
 20
-162.8968452470226
 30
0.0
  0
VERTEX
  5
4D
330
41
100
AcDbEntity
  8
_U+30EC_U+30A4_U+30E4_U+30FC 1
370
     0
100
AcDbVertex
100
AcDb2dVertex
 10
87.13417053163579
 20
-162.8968452470226
 30
0.0
  0
VERTEX
  5
4E
330
41
100
AcDbEntity
  8
_U+30EC_U+30A4_U+30E4_U+30FC 1
370
     0
100
AcDbVertex
100
AcDb2dVertex
 10
87.13417053163579
 20
-147.8970879079042
 30
0.0
  0
VERTEX
  5
4F
330
41
100
AcDbEntity
  8
_U+30EC_U+30A4_U+30E4_U+30FC 1
370
     0
100
AcDbVertex
100
AcDb2dVertex
 10
126.2342951988831
 20
-147.8970879079042
 30
0.0
  0
VERTEX
  5
50
330
41
100
AcDbEntity
  8
_U+30EC_U+30A4_U+30E4_U+30FC 1
370
     0
100
AcDbVertex
100
AcDb2dVertex
 10
126.2342951988831
 20
-146.9971482227315
 30
0.0
  0
VERTEX
  5
51
330
41
100
AcDbEntity
  8
_U+30EC_U+30A4_U+30E4_U+30FC 1
370
     0
100
AcDbVertex
100
AcDb2dVertex
 10
87.13417053163579
 20
-146.9971482227315
 30
0.0
  0
VERTEX
  5
52
330
41
100
AcDbEntity
  8
_U+30EC_U+30A4_U+30E4_U+30FC 1
370
     0
100
AcDbVertex
100
AcDb2dVertex
 10
87.13417053163579
 20
-140.8972675395098
 30
0.0
  0
SEQEND
  5
54
330
41
100
AcDbEntity
  8
_U+30EC_U+30A4_U+30E4_U+30FC 1
370
     0
  0
HATCH
  5
53
330
1F
100
AcDbEntity
  8
_U+30EC_U+30A4_U+30E4_U+30FC 1
 62
     9
420
 13224394
100
AcDbHatch
 10
0.0
 20
0.0
 30
0.0
210
0.0
220
0.0
230
1.0
  2
SOLID
 70
     1
 71
     0
 91
        1
 92
        1
 93
       16
 72
     1
 10
87.13417053163579
 20
-140.8972675395098
 11
89.23390240027861
 21
-140.8972675395098
 72
     1
 10
89.23390240027861
 20
-140.8972675395098
 11
89.23390240027861
 21
-139.8974954467286
 72
     1
 10
89.23390240027861
 20
-139.8974954467286
 11
86.23388095395288
 21
-139.8974954467286
 72
     1
 10
86.23388095395288
 20
-139.8974954467286
 11
86.23388095395288
 21
-163.897322507786
 72
     1
 10
86.23388095395288
 20
-163.897322507786
 11
96.23442524517425
 21
-163.897322507786
 72
     1
 10
96.23442524517425
 20
-163.897322507786
 11
96.23442524517425
 21
-160.8973010614602
 72
     1
 10
96.23442524517425
 20
-160.8973010614602
 11
93.23440379884885
 21
-160.8973010614602
 72
     1
 10
93.23440379884885
 20
-160.8973010614602
 11
93.23440379884885
 21
-161.8970731542414
 72
     1
 10
93.23440379884885
 20
-161.8970731542414
 11
95.23394798441092
 21
-161.8970731542414
 72
     1
 10
95.23394798441092
 20
-161.8970731542414
 11
95.23394798441092
 21
-162.8968452470226
 72
     1
 10
95.23394798441092
 20
-162.8968452470226
 11
87.13417053163579
 21
-162.8968452470226
 72
     1
 10
87.13417053163579
 20
-162.8968452470226
 11
87.13417053163579
 21
-147.8970879079042
 72
     1
 10
87.13417053163579
 20
-147.8970879079042
 11
126.2342951988831
 21
-147.8970879079042
 72
     1
 10
126.2342951988831
 20
-147.8970879079042
 11
126.2342951988831
 21
-146.9971482227315
 72
     1
 10
126.2342951988831
 20
-146.9971482227315
 11
87.13417053163579
 21
-146.9971482227315
 72
     1
 10
87.13417053163579
 20
-146.9971482227315
 11
87.13417053163579
 21
-140.8972675395098
 97
        0
 75
     2
 76
     1
 98
        0
  0
POLYLINE
  5
55
330
1F
100
AcDbEntity
  8
_U+30EC_U+30A4_U+30E4_U+30FC 1
 62
   179
420
  2234388
370
    25
100
AcDb2dPolyline
 66
     1
 10
0.0
 20
0.0
 30
0.0
  0
VERTEX
  5
56
330
55
100
AcDbEntity
  8
_U+30EC_U+30A4_U+30E4_U+30FC 1
 62
   179
420
  2234388
370
    25
100
AcDbVertex
100
AcDb2dVertex
 10
87.13417053163579
 20
-147.8970125464405
 30
0.0
  0
VERTEX
  5
57
330
55
100
AcDbEntity
  8
_U+30EC_U+30A4_U+30E4_U+30FC 1
 62
   179
420
  2234388
370
    25
100
AcDbVertex
100
AcDb2dVertex
 10
126.2342951988831
 20
-147.8970125464405
 30
0.0
  0
SEQEND
  5
58
330
55
100
AcDbEntity
  8
_U+30EC_U+30A4_U+30E4_U+30FC 1
 62
   179
420
  2234388
370
    25
  0
POLYLINE
  5
59
330
1F
100
AcDbEntity
  8
_U+30EC_U+30A4_U+30E4_U+30FC 1
 62
   179
420
  2234388
370
    25
100
AcDb2dPolyline
 66
     1
 10
0.0
 20
0.0
 30
0.0
  0
VERTEX
  5
5A
330
59
100
AcDbEntity
  8
_U+30EC_U+30A4_U+30E4_U+30FC 1
 62
   179
420
  2234388
370
    25
100
AcDbVertex
100
AcDb2dVertex
 10
93.23440379884885
 20
-160.8974356355026
 30
0.0
  0
VERTEX
  5
5B
330
59
100
AcDbEntity
  8
_U+30EC_U+30A4_U+30E4_U+30FC 1
 62
   179
420
  2234388
370
    25
100
AcDbVertex
100
AcDb2dVertex
 10
96.23442524517425
 20
-160.8974356355026
 30
0.0
  0
SEQEND
  5
5C
330
59
100
AcDbEntity
  8
_U+30EC_U+30A4_U+30E4_U+30FC 1
 62
   179
420
  2234388
370
    25
  0
POLYLINE
  5
5D
330
1F
100
AcDbEntity
  8
_U+30EC_U+30A4_U+30E4_U+30FC 1
 62
   179
420
  2234388
370
    25
100
AcDb2dPolyline
 66
     1
 10
0.0
 20
0.0
 30
0.0
  0
VERTEX
  5
5E
330
5D
100
AcDbEntity
  8
_U+30EC_U+30A4_U+30E4_U+30FC 1
 62
   179
420
  2234388
370
    25
100
AcDbVertex
100
AcDb2dVertex
 10
86.23395362393576
 20
-163.8974247840582
 30
0.0
  0
VERTEX
  5
5F
330
5D
100
AcDbEntity
  8
_U+30EC_U+30A4_U+30E4_U+30FC 1
 62
   179
420
  2234388
370
    25
100
AcDbVertex
100
AcDb2dVertex
 10
96.2344952236763
 20
-163.8974247840582
 30
0.0
  0
SEQEND
  5
60
330
5D
100
AcDbEntity
  8
_U+30EC_U+30A4_U+30E4_U+30FC 1
 62
   179
420
  2234388
370
    25
  0
POLYLINE
  5
61
330
1F
100
AcDbEntity
  8
_U+30EC_U+30A4_U+30E4_U+30FC 1
 62
   179
420
  2234388
370
    25
100
AcDb2dPolyline
 66
     1
 10
0.0
 20
0.0
 30
0.0
  0
VERTEX
  5
62
330
61
100
AcDbEntity
  8
_U+30EC_U+30A4_U+30E4_U+30FC 1
 62
   179
420
  2234388
370
    25
100
AcDbVertex
100
AcDb2dVertex
 10
86.23395362393576
 20
-139.8974954467286
 30
0.0
  0
VERTEX
  5
63
330
61
100
AcDbEntity
  8
_U+30EC_U+30A4_U+30E4_U+30FC 1
 62
   179
420
  2234388
370
    25
100
AcDbVertex
100
AcDb2dVertex
 10
86.23395362393576
 20
-163.897322507786
 30
0.0
  0
SEQEND
  5
64
330
61
100
AcDbEntity
  8
_U+30EC_U+30A4_U+30E4_U+30FC 1
 62
   179
420
  2234388
370
    25
  0
POLYLINE
  5
65
330
1F
100
AcDbEntity
  8
_U+30EC_U+30A4_U+30E4_U+30FC 1
 62
   179
420
  2234388
370
    25
100
AcDb2dPolyline
 66
     1
 10
0.0
 20
0.0
 30
0.0
  0
VERTEX
  5
66
330
65
100
AcDbEntity
  8
_U+30EC_U+30A4_U+30E4_U+30FC 1
 62
   179
420
  2234388
370
    25
100
AcDbVertex
100
AcDb2dVertex
 10
126.2342951988831
 20
-146.9971482227315
 30
0.0
  0
VERTEX
  5
67
330
65
100
AcDbEntity
  8
_U+30EC_U+30A4_U+30E4_U+30FC 1
 62
   179
420
  2234388
370
    25
100
AcDbVertex
100
AcDb2dVertex
 10
126.2342951988831
 20
-147.8970879079042
 30
0.0
  0
SEQEND
  5
68
330
65
100
AcDbEntity
  8
_U+30EC_U+30A4_U+30E4_U+30FC 1
 62
   179
420
  2234388
370
    25
  0
POLYLINE
  5
69
330
1F
100
AcDbEntity
  8
_U+30EC_U+30A4_U+30E4_U+30FC 1
 62
   179
420
  2234388
370
    25
100
AcDb2dPolyline
 66
     1
 10
0.0
 20
0.0
 30
0.0
  0
VERTEX
  5
6A
330
69
100
AcDbEntity
  8
_U+30EC_U+30A4_U+30E4_U+30FC 1
 62
   179
420
  2234388
370
    25
100
AcDbVertex
100
AcDb2dVertex
 10
86.23395362393576
 20
-139.8974954467286
 30
0.0
  0
VERTEX
  5
6B
330
69
100
AcDbEntity
  8
_U+30EC_U+30A4_U+30E4_U+30FC 1
 62
   179
420
  2234388
370
    25
100
AcDbVertex
100
AcDb2dVertex
 10
89.2339750702615
 20
-139.8974954467286
 30
0.0
  0
SEQEND
  5
6C
330
69
100
AcDbEntity
  8
_U+30EC_U+30A4_U+30E4_U+30FC 1
 62
   179
420
  2234388
370
    25
  0
POLYLINE
  5
6D
330
1F
100
AcDbEntity
  8
_U+30EC_U+30A4_U+30E4_U+30FC 1
 62
   179
420
  2234388
370
    25
100
AcDb2dPolyline
 66
     1
 10
0.0
 20
0.0
 30
0.0
  0
VERTEX
  5
6E
330
6D
100
AcDbEntity
  8
_U+30EC_U+30A4_U+30E4_U+30FC 1
 62
   179
420
  2234388
370
    25
100
AcDbVertex
100
AcDb2dVertex
 10
89.2339750702615
 20
-139.8974954467286
 30
0.0
  0
VERTEX
  5
6F
330
6D
100
AcDbEntity
  8
_U+30EC_U+30A4_U+30E4_U+30FC 1
 62
   179
420
  2234388
370
    25
100
AcDbVertex
100
AcDb2dVertex
 10
89.2339750702615
 20
-140.8972729224715
 30
0.0
  0
SEQEND
  5
70
330
6D
100
AcDbEntity
  8
_U+30EC_U+30A4_U+30E4_U+30FC 1
 62
   179
420
  2234388
370
    25
  0
POLYLINE
  5
71
330
1F
100
AcDbEntity
  8
_U+30EC_U+30A4_U+30E4_U+30FC 1
 62
   179
420
  2234388
370
    25
100
AcDb2dPolyline
 66
     1
 10
0.0
 20
0.0
 30
0.0
  0
VERTEX
  5
72
330
71
100
AcDbEntity
  8
_U+30EC_U+30A4_U+30E4_U+30FC 1
 62
   179
420
  2234388
370
    25
100
AcDbVertex
100
AcDb2dVertex
 10
87.13417053163579
 20
-140.8972675395098
 30
0.0
  0
VERTEX
  5
73
330
71
100
AcDbEntity
  8
_U+30EC_U+30A4_U+30E4_U+30FC 1
 62
   179
420
  2234388
370
    25
100
AcDbVertex
100
AcDb2dVertex
 10
89.23390240027861
 20
-140.8972675395098
 30
0.0
  0
SEQEND
  5
74
330
71
100
AcDbEntity
  8
_U+30EC_U+30A4_U+30E4_U+30FC 1
 62
   179
420
  2234388
370
    25
  0
POLYLINE
  5
75
330
1F
100
AcDbEntity
  8
_U+30EC_U+30A4_U+30E4_U+30FC 1
 62
   179
420
  2234388
370
    25
100
AcDb2dPolyline
 66
     1
 10
0.0
 20
0.0
 30
0.0
  0
VERTEX
  5
76
330
75
100
AcDbEntity
  8
_U+30EC_U+30A4_U+30E4_U+30FC 1
 62
   179
420
  2234388
370
    25
100
AcDbVertex
100
AcDb2dVertex
 10
96.23435526667221
 20
-160.8974356355026
 30
0.0
  0
VERTEX
  5
77
330
75
100
AcDbEntity
  8
_U+30EC_U+30A4_U+30E4_U+30FC 1
 62
   179
420
  2234388
370
    25
100
AcDbVertex
100
AcDb2dVertex
 10
96.23435526667221
 20
-163.8974624647901
 30
0.0
  0
SEQEND
  5
78
330
75
100
AcDbEntity
  8
_U+30EC_U+30A4_U+30E4_U+30FC 1
 62
   179
420
  2234388
370
    25
  0
POLYLINE
  5
79
330
1F
100
AcDbEntity
  8
_U+30EC_U+30A4_U+30E4_U+30FC 1
 62
   179
420
  2234388
370
    25
100
AcDb2dPolyline
 66
     1
 10
0.0
 20
0.0
 30
0.0
  0
VERTEX
  5
7A
330
79
100
AcDbEntity
  8
_U+30EC_U+30A4_U+30E4_U+30FC 1
 62
   179
420
  2234388
370
    25
100
AcDbVertex
100
AcDb2dVertex
 10
93.23440379884885
 20
-160.8974356355026
 30
0.0
  0
VERTEX
  5
7B
330
79
100
AcDbEntity
  8
_U+30EC_U+30A4_U+30E4_U+30FC 1
 62
   179
420
  2234388
370
    25
100
AcDbVertex
100
AcDb2dVertex
 10
93.23440379884885
 20
-161.8972131112455
 30
0.0
  0
SEQEND
  5
7C
330
79
100
AcDbEntity
  8
_U+30EC_U+30A4_U+30E4_U+30FC 1
 62
   179
420
  2234388
370
    25
  0
POLYLINE
  5
7D
330
1F
100
AcDbEntity
  8
_U+30EC_U+30A4_U+30E4_U+30FC 1
 62
   179
420
  2234388
370
    25
100
AcDb2dPolyline
 66
     1
 10
0.0
 20
0.0
 30
0.0
  0
VERTEX
  5
7E
330
7D
100
AcDbEntity
  8
_U+30EC_U+30A4_U+30E4_U+30FC 1
 62
   179
420
  2234388
370
    25
100
AcDbVertex
100
AcDb2dVertex
 10
93.23440379884885
 20
-161.8972077282838
 30
0.0
  0
VERTEX
  5
7F
330
7D
100
AcDbEntity
  8
_U+30EC_U+30A4_U+30E4_U+30FC 1
 62
   179
420
  2234388
370
    25
100
AcDbVertex
100
AcDb2dVertex
 10
95.23394798441092
 20
-161.8972077282838
 30
0.0
  0
SEQEND
  5
80
330
7D
100
AcDbEntity
  8
_U+30EC_U+30A4_U+30E4_U+30FC 1
 62
   179
420
  2234388
370
    25
  0
POLYLINE
  5
81
330
1F
100
AcDbEntity
  8
_U+30EC_U+30A4_U+30E4_U+30FC 1
 62
   179
420
  2234388
370
    25
100
AcDb2dPolyline
 66
     1
 10
0.0
 20
0.0
 30
0.0
  0
VERTEX
  5
82
330
81
100
AcDbEntity
  8
_U+30EC_U+30A4_U+30E4_U+30FC 1
 62
   179
420
  2234388
370
    25
100
AcDbVertex
100
AcDb2dVertex
 10
87.13417053163579
 20
-162.8969475232949
 30
0.0
  0
VERTEX
  5
83
330
81
100
AcDbEntity
  8
_U+30EC_U+30A4_U+30E4_U+30FC 1
 62
   179
420
  2234388
370
    25
100
AcDbVertex
100
AcDb2dVertex
 10
95.23394798441092
 20
-162.8969475232949
 30
0.0
  0
SEQEND
  5
84
330
81
100
AcDbEntity
  8
_U+30EC_U+30A4_U+30E4_U+30FC 1
 62
   179
420
  2234388
370
    25
  0
POLYLINE
  5
85
330
1F
100
AcDbEntity
  8
_U+30EC_U+30A4_U+30E4_U+30FC 1
 62
   179
420
  2234388
370
    25
100
AcDb2dPolyline
 66
     1
 10
0.0
 20
0.0
 30
0.0
  0
VERTEX
  5
86
330
85
100
AcDbEntity
  8
_U+30EC_U+30A4_U+30E4_U+30FC 1
 62
   179
420
  2234388
370
    25
100
AcDbVertex
100
AcDb2dVertex
 10
95.23394798441092
 20
-161.8972077282838
 30
0.0
  0
VERTEX
  5
87
330
85
100
AcDbEntity
  8
_U+30EC_U+30A4_U+30E4_U+30FC 1
 62
   179
420
  2234388
370
    25
100
AcDbVertex
100
AcDb2dVertex
 10
95.23394798441092
 20
-162.8969852040267
 30
0.0
  0
SEQEND
  5
88
330
85
100
AcDbEntity
  8
_U+30EC_U+30A4_U+30E4_U+30FC 1
 62
   179
420
  2234388
370
    25
  0
POLYLINE
  5
89
330
1F
100
AcDbEntity
  8
_U+30EC_U+30A4_U+30E4_U+30FC 1
 62
   179
420
  2234388
370
    25
100
AcDb2dPolyline
 66
     1
 10
0.0
 20
0.0
 30
0.0
  0
VERTEX
  5
8A
330
89
100
AcDbEntity
  8
_U+30EC_U+30A4_U+30E4_U+30FC 1
 62
   179
420
  2234388
370
    25
100
AcDbVertex
100
AcDb2dVertex
 10
87.13417053163579
 20
-146.9971482227315
 30
0.0
  0
VERTEX
  5
8B
330
89
100
AcDbEntity
  8
_U+30EC_U+30A4_U+30E4_U+30FC 1
 62
   179
420
  2234388
370
    25
100
AcDbVertex
100
AcDb2dVertex
 10
126.2342951988831
 20
-146.9971482227315
 30
0.0
  0
SEQEND
  5
8C
330
89
100
AcDbEntity
  8
_U+30EC_U+30A4_U+30E4_U+30FC 1
 62
   179
420
  2234388
370
    25
  0
POLYLINE
  5
8D
330
1F
100
AcDbEntity
  8
_U+30EC_U+30A4_U+30E4_U+30FC 1
 62
   179
420
  2234388
370
    25
100
AcDb2dPolyline
 66
     1
 10
0.0
 20
0.0
 30
0.0
  0
VERTEX
  5
8E
330
8D
100
AcDbEntity
  8
_U+30EC_U+30A4_U+30E4_U+30FC 1
 62
   179
420
  2234388
370
    25
100
AcDbVertex
100
AcDb2dVertex
 10
87.13417053163579
 20
-140.8972675395098
 30
0.0
  0
VERTEX
  5
8F
330
8D
100
AcDbEntity
  8
_U+30EC_U+30A4_U+30E4_U+30FC 1
 62
   179
420
  2234388
370
    25
100
AcDbVertex
100
AcDb2dVertex
 10
87.13417053163579
 20
-146.9971482227315
 30
0.0
  0
SEQEND
  5
90
330
8D
100
AcDbEntity
  8
_U+30EC_U+30A4_U+30E4_U+30FC 1
 62
   179
420
  2234388
370
    25
  0
POLYLINE
  5
91
330
1F
100
AcDbEntity
  8
_U+30EC_U+30A4_U+30E4_U+30FC 1
 62
   179
420
  2234388
370
    25
100
AcDb2dPolyline
 66
     1
 10
0.0
 20
0.0
 30
0.0
  0
VERTEX
  5
92
330
91
100
AcDbEntity
  8
_U+30EC_U+30A4_U+30E4_U+30FC 1
 62
   179
420
  2234388
370
    25
100
AcDbVertex
100
AcDb2dVertex
 10
87.13417053163579
 20
-147.8970125464405
 30
0.0
  0
VERTEX
  5
93
330
91
100
AcDbEntity
  8
_U+30EC_U+30A4_U+30E4_U+30FC 1
 62
   179
420
  2234388
370
    25
100
AcDbVertex
100
AcDb2dVertex
 10
87.13417053163579
 20
-162.8971251610308
 30
0.0
  0
SEQEND
  5
94
330
91
100
AcDbEntity
  8
_U+30EC_U+30A4_U+30E4_U+30FC 1
 62
   179
420
  2234388
370
    25
  0
SPLINE
  5
95
330
1F
100
AcDbEntity
  8
_U+30EC_U+30A4_U+30E4_U+30FC 1
 62
   179
420
  2234388
370
     9
100
AcDbSpline
210
0.0
220
0.0
230
1.0
 70
    11
 71
     3
 72
    17
 73
    13
 74
     0
 42
0.0000000001
 43
0.0000000001
 12
1.0
 22
0.0
 32
0.0
 13
1.0
 23
0.0
 33
0.0
 40
0.0
 40
0.0
 40
0.0
 40
0.0
 40
1.0
 40
1.0
 40
1.0
 40
2.0
 40
2.0
 40
2.0
 40
3.0
 40
3.0
 40
3.0
 40
4.0
 40
4.0
 40
4.0
 40
4.0
 10
86.33421128551824
 20
-131.8973054768049
 30
0.0
 10
86.33421128551824
 20
-131.8415702914075
 30
0.0
 10
86.28940620384405
 20
-131.7967679012142
 30
0.0
 10
86.23402091095696
 20
-131.7967679012142
 30
0.0
 10
86.17898820206095
 20
-131.7967679012142
 30
0.0
 10
86.13418581186761
 20
-131.8415702914075
 30
0.0
 10
86.13418581186761
 20
-131.8973054768049
 30
0.0
 10
86.13418581186761
 20
-131.9523408771817
 30
0.0
 10
86.17898820206095
 20
-131.9971432673751
 30
0.0
 10
86.23402091095696
 20
-131.9971432673751
 30
0.0
 10
86.28940620384405
 20
-131.9971432673751
 30
0.0
 10
86.33421128551824
 20
-131.9523408771817
 30
0.0
 10
86.33421128551824
 20
-131.8973054768049
 30
0.0
  0
SPLINE
  5
96
330
1F
100
AcDbEntity
  8
_U+30EC_U+30A4_U+30E4_U+30FC 1
 62
   179
420
  2234388
370
     9
100
AcDbSpline
210
0.0
220
0.0
230
1.0
 70
    11
 71
     3
 72
    17
 73
    13
 74
     0
 42
0.0000000001
 43
0.0000000001
 12
1.0
 22
0.0
 32
0.0
 13
1.0
 23
0.0
 33
0.0
 40
0.0
 40
0.0
 40
0.0
 40
0.0
 40
1.0
 40
1.0
 40
1.0
 40
2.0
 40
2.0
 40
2.0
 40
3.0
 40
3.0
 40
3.0
 40
4.0
 40
4.0
 40
4.0
 40
4.0
 10
86.33421128551824
 20
-135.8970613351799
 30
0.0
 10
86.33421128551824
 20
-135.8420313177648
 30
0.0
 10
86.28940620384405
 20
-135.7972289275714
 30
0.0
 10
86.23402091095696
 20
-135.7972289275714
 30
0.0
 10
86.17898820206095
 20
-135.7972289275714
 30
0.0
 10
86.13418581186761
 20
-135.8420313177648
 30
0.0
 10
86.13418581186761
 20
-135.8970613351799
 30
0.0
 10
86.13418581186761
 20
-135.9520967355568
 30
0.0
 10
86.17898820206095
 20
-135.9968991257501
 30
0.0
 10
86.23402091095696
 20
-135.9968991257501
 30
0.0
 10
86.28940620384405
 20
-135.9968991257501
 30
0.0
 10
86.33421128551824
 20
-135.9520967355568
 30
0.0
 10
86.33421128551824
 20
-135.8970613351799
 30
0.0
  0
SPLINE
  5
97
330
1F
100
AcDbEntity
  8
_U+30EC_U+30A4_U+30E4_U+30FC 1
 62
   179
420
  2234388
370
     9
100
AcDbSpline
210
0.0
220
0.0
230
1.0
 70
    11
 71
     3
 72
    17
 73
    13
 74
     0
 42
0.0000000001
 43
0.0000000001
 12
1.0
 22
0.0
 32
0.0
 13
1.0
 23
0.0
 33
0.0
 40
0.0
 40
0.0
 40
0.0
 40
0.0
 40
1.0
 40
1.0
 40
1.0
 40
2.0
 40
2.0
 40
2.0
 40
3.0
 40
3.0
 40
3.0
 40
4.0
 40
4.0
 40
4.0
 40
4.0
 10
89.33423542332481
 20
-135.8970613351799
 30
0.0
 10
89.33423542332481
 20
-135.8420313177648
 30
0.0
 10
89.28943034165063
 20
-135.7972289275714
 30
0.0
 10
89.23404504876386
 20
-135.7972289275714
 30
0.0
 10
89.17901233986753
 20
-135.7972289275714
 30
0.0
 10
89.13420994967419
 20
-135.8420313177648
 30
0.0
 10
89.13420994967419
 20
-135.8970613351799
 30
0.0
 10
89.13420994967419
 20
-135.9520967355568
 30
0.0
 10
89.17901233986753
 20
-135.9968991257501
 30
0.0
 10
89.23404504876386
 20
-135.9968991257501
 30
0.0
 10
89.28943034165063
 20
-135.9968991257501
 30
0.0
 10
89.33423542332481
 20
-135.9520967355568
 30
0.0
 10
89.33423542332481
 20
-135.8970613351799
 30
0.0
  0
SPLINE
  5
98
330
1F
100
AcDbEntity
  8
_U+30EC_U+30A4_U+30E4_U+30FC 1
 62
   179
420
  2234388
370
     9
100
AcDbSpline
210
0.0
220
0.0
230
1.0
 70
    11
 71
     3
 72
    17
 73
    13
 74
     0
 42
0.0000000001
 43
0.0000000001
 12
1.0
 22
0.0
 32
0.0
 13
1.0
 23
0.0
 33
0.0
 40
0.0
 40
0.0
 40
0.0
 40
0.0
 40
1.0
 40
1.0
 40
1.0
 40
2.0
 40
2.0
 40
2.0
 40
3.0
 40
3.0
 40
3.0
 40
4.0
 40
4.0
 40
4.0
 40
4.0
 10
126.3342029679553
 20
-131.8973054768049
 30
0.0
 10
126.3342029679553
 20
-131.8415702914075
 30
0.0
 10
126.2893951948003
 20
-131.7967679012142
 30
0.0
 10
126.2343651773851
 20
-131.7967679012142
 30
0.0
 10
126.1793297770082
 20
-131.7967679012142
 30
0.0
 10
126.1345273868149
 20
-131.8415702914075
 30
0.0
 10
126.1345273868149
 20
-131.8973054768049
 30
0.0
 10
126.1345273868149
 20
-131.9523408771817
 30
0.0
 10
126.1793297770082
 20
-131.9971432673751
 30
0.0
 10
126.2343651773851
 20
-131.9971432673751
 30
0.0
 10
126.2893951948003
 20
-131.9971432673751
 30
0.0
 10
126.3342029679553
 20
-131.9523408771817
 30
0.0
 10
126.3342029679553
 20
-131.8973054768049
 30
0.0
  0
SPLINE
  5
99
330
1F
100
AcDbEntity
  8
_U+30EC_U+30A4_U+30E4_U+30FC 1
 62
   179
420
  2234388
370
     9
100
AcDbSpline
210
0.0
220
0.0
230
1.0
 70
    11
 71
     3
 72
    17
 73
    13
 74
     0
 42
0.0000000001
 43
0.0000000001
 12
1.0
 22
0.0
 32
0.0
 13
1.0
 23
0.0
 33
0.0
 40
0.0
 40
0.0
 40
0.0
 40
0.0
 40
1.0
 40
1.0
 40
1.0
 40
2.0
 40
2.0
 40
2.0
 40
3.0
 40
3.0
 40
3.0
 40
4.0
 40
4.0
 40
4.0
 40
4.0
 10
130.3339265285602
 20
-147.8970125464405
 30
0.0
 10
130.3339265285602
 20
-147.8419825290253
 30
0.0
 10
130.2891187554052
 20
-147.7971801388319
 30
0.0
 10
130.23408873799
 20
-147.7971801388319
 30
0.0
 10
130.1790533376131
 20
-147.7971801388319
 30
0.0
 10
130.1342509474198
 20
-147.8419825290253
 30
0.0
 10
130.1342509474198
 20
-147.8970125464405
 30
0.0
 10
130.1342509474198
 20
-147.9520479468173
 30
0.0
 10
130.1790533376131
 20
-147.9968503370107
 30
0.0
 10
130.23408873799
 20
-147.9968503370107
 30
0.0
 10
130.2891187554052
 20
-147.9968503370107
 30
0.0
 10
130.3339265285602
 20
-147.9520479468173
 30
0.0
 10
130.3339265285602
 20
-147.8970125464405
 30
0.0
  0
SPLINE
  5
9A
330
1F
100
AcDbEntity
  8
_U+30EC_U+30A4_U+30E4_U+30FC 1
 62
   179
420
  2234388
370
     9
100
AcDbSpline
210
0.0
220
0.0
230
1.0
 70
    11
 71
     3
 72
    17
 73
    13
 74
     0
 42
0.0000000001
 43
0.0000000001
 12
1.0
 22
0.0
 32
0.0
 13
1.0
 23
0.0
 33
0.0
 40
0.0
 40
0.0
 40
0.0
 40
0.0
 40
1.0
 40
1.0
 40
1.0
 40
2.0
 40
2.0
 40
2.0
 40
3.0
 40
3.0
 40
3.0
 40
4.0
 40
4.0
 40
4.0
 40
4.0
 10
130.3339265285602
 20
-160.8974356355026
 30
0.0
 10
130.3339265285602
 20
-160.8417004501053
 30
0.0
 10
130.2891187554052
 20
-160.796898059912
 30
0.0
 10
130.23408873799
 20
-160.796898059912
 30
0.0
 10
130.1790533376131
 20
-160.796898059912
 30
0.0
 10
130.1342509474198
 20
-160.8417004501053
 30
0.0
 10
130.1342509474198
 20
-160.8974356355026
 30
0.0
 10
130.1342509474198
 20
-160.9524710358795
 30
0.0
 10
130.1790533376131
 20
-160.9972734260728
 30
0.0
 10
130.23408873799
 20
-160.9972734260728
 30
0.0
 10
130.2891187554052
 20
-160.9972734260728
 30
0.0
 10
130.3339265285602
 20
-160.9524710358795
 30
0.0
 10
130.3339265285602
 20
-160.8974356355026
 30
0.0
  0
SPLINE
  5
9B
330
1F
100
AcDbEntity
  8
_U+30EC_U+30A4_U+30E4_U+30FC 1
 62
   179
420
  2234388
370
     9
100
AcDbSpline
210
0.0
220
0.0
230
1.0
 70
    11
 71
     3
 72
    17
 73
    13
 74
     0
 42
0.0000000001
 43
0.0000000001
 12
1.0
 22
0.0
 32
0.0
 13
1.0
 23
0.0
 33
0.0
 40
0.0
 40
0.0
 40
0.0
 40
0.0
 40
1.0
 40
1.0
 40
1.0
 40
2.0
 40
2.0
 40
2.0
 40
3.0
 40
3.0
 40
3.0
 40
4.0
 40
4.0
 40
4.0
 40
4.0
 10
130.3339265285602
 20
-163.8974247840582
 30
0.0
 10
130.3339265285602
 20
-163.8416895986609
 30
0.0
 10
130.2891187554052
 20
-163.7968872084676
 30
0.0
 10
130.23408873799
 20
-163.7968872084676
 30
0.0
 10
130.1790533376131
 20
-163.7968872084676
 30
0.0
 10
130.1342509474198
 20
-163.8416895986609
 30
0.0
 10
130.1342509474198
 20
-163.8974247840582
 30
0.0
 10
130.1342509474198
 20
-163.9524601844351
 30
0.0
 10
130.1790533376131
 20
-163.9972625746284
 30
0.0
 10
130.23408873799
 20
-163.9972625746284
 30
0.0
 10
130.2891187554052
 20
-163.9972625746284
 30
0.0
 10
130.3339265285602
 20
-163.9524601844351
 30
0.0
 10
130.3339265285602
 20
-163.8974247840582
 30
0.0
  0
SPLINE
  5
9C
330
1F
100
AcDbEntity
  8
_U+30EC_U+30A4_U+30E4_U+30FC 1
 62
   179
420
  2234388
370
     9
100
AcDbSpline
210
0.0
220
0.0
230
1.0
 70
    11
 71
     3
 72
    17
 73
    13
 74
     0
 42
0.0000000001
 43
0.0000000001
 12
1.0
 22
0.0
 32
0.0
 13
1.0
 23
0.0
 33
0.0
 40
0.0
 40
0.0
 40
0.0
 40
0.0
 40
1.0
 40
1.0
 40
1.0
 40
2.0
 40
2.0
 40
2.0
 40
3.0
 40
3.0
 40
3.0
 40
4.0
 40
4.0
 40
4.0
 40
4.0
 10
86.33421128551824
 20
-167.8971806424333
 30
0.0
 10
86.33421128551824
 20
-167.8421506250181
 30
0.0
 10
86.28940620384405
 20
-167.7973482348248
 30
0.0
 10
86.23402091095696
 20
-167.7973482348248
 30
0.0
 10
86.17898820206095
 20
-167.7973482348248
 30
0.0
 10
86.13418581186761
 20
-167.8421506250181
 30
0.0
 10
86.13418581186761
 20
-167.8971806424333
 30
0.0
 10
86.13418581186761
 20
-167.9522160428101
 30
0.0
 10
86.17898820206095
 20
-167.9970184330035
 30
0.0
 10
86.23402091095696
 20
-167.9970184330035
 30
0.0
 10
86.28940620384405
 20
-167.9970184330035
 30
0.0
 10
86.33421128551824
 20
-167.9522160428101
 30
0.0
 10
86.33421128551824
 20
-167.8971806424333
 30
0.0
  0
SPLINE
  5
9D
330
1F
100
AcDbEntity
  8
_U+30EC_U+30A4_U+30E4_U+30FC 1
 62
   179
420
  2234388
370
     9
100
AcDbSpline
210
0.0
220
0.0
230
1.0
 70
    11
 71
     3
 72
    17
 73
    13
 74
     0
 42
0.0000000001
 43
0.0000000001
 12
1.0
 22
0.0
 32
0.0
 13
1.0
 23
0.0
 33
0.0
 40
0.0
 40
0.0
 40
0.0
 40
0.0
 40
1.0
 40
1.0
 40
1.0
 40
2.0
 40
2.0
 40
2.0
 40
3.0
 40
3.0
 40
3.0
 40
4.0
 40
4.0
 40
4.0
 40
4.0
 10
96.33426303574446
 20
-167.8971806424333
 30
0.0
 10
96.33426303574446
 20
-167.8421506250181
 30
0.0
 10
96.28945526258943
 20
-167.7973482348248
 30
0.0
 10
96.23442524517425
 20
-167.7973482348248
 30
0.0
 10
96.17938984479738
 20
-167.7973482348248
 30
0.0
 10
96.13458745460406
 20
-167.8421506250181
 30
0.0
 10
96.13458745460406
 20
-167.8971806424333
 30
0.0
 10
96.13458745460406
 20
-167.9522160428101
 30
0.0
 10
96.17938984479738
 20
-167.9970184330035
 30
0.0
 10
96.23442524517425
 20
-167.9970184330035
 30
0.0
 10
96.28945526258943
 20
-167.9970184330035
 30
0.0
 10
96.33426303574446
 20
-167.9522160428101
 30
0.0
 10
96.33426303574446
 20
-167.8971806424333
 30
0.0
  0
SPLINE
  5
9E
330
1F
100
AcDbEntity
  8
_U+30EC_U+30A4_U+30E4_U+30FC 1
 62
   179
420
  2234388
370
     9
100
AcDbSpline
210
0.0
220
0.0
230
1.0
 70
    11
 71
     3
 72
    17
 73
    13
 74
     0
 42
0.0000000001
 43
0.0000000001
 12
1.0
 22
0.0
 32
0.0
 13
1.0
 23
0.0
 33
0.0
 40
0.0
 40
0.0
 40
0.0
 40
0.0
 40
1.0
 40
1.0
 40
1.0
 40
2.0
 40
2.0
 40
2.0
 40
3.0
 40
3.0
 40
3.0
 40
4.0
 40
4.0
 40
4.0
 40
4.0
 10
81.55481416994604
 20
-139.8974954467286
 30
0.0
 10
81.55481416994604
 20
-139.8417602613313
 30
0.0
 10
81.51000908827186
 20
-139.796957871138
 30
0.0
 10
81.45497637937584
 20
-139.796957871138
 30
0.0
 10
81.39994367047983
 20
-139.796957871138
 30
0.0
 10
81.35514128028649
 20
-139.8417602613313
 30
0.0
 10
81.35514128028649
 20
-139.8974954467286
 30
0.0
 10
81.35514128028649
 20
-139.9525308471055
 30
0.0
 10
81.39994367047983
 20
-139.9973332372988
 30
0.0
 10
81.45497637937584
 20
-139.9973332372988
 30
0.0
 10
81.51000908827186
 20
-139.9973332372988
 30
0.0
 10
81.55481416994604
 20
-139.9525308471055
 30
0.0
 10
81.55481416994604
 20
-139.8974954467286
 30
0.0
  0
SPLINE
  5
9F
330
1F
100
AcDbEntity
  8
_U+30EC_U+30A4_U+30E4_U+30FC 1
 62
   179
420
  2234388
370
     9
100
AcDbSpline
210
0.0
220
0.0
230
1.0
 70
    11
 71
     3
 72
    17
 73
    13
 74
     0
 42
0.0000000001
 43
0.0000000001
 12
1.0
 22
0.0
 32
0.0
 13
1.0
 23
0.0
 33
0.0
 40
0.0
 40
0.0
 40
0.0
 40
0.0
 40
1.0
 40
1.0
 40
1.0
 40
2.0
 40
2.0
 40
2.0
 40
3.0
 40
3.0
 40
3.0
 40
4.0
 40
4.0
 40
4.0
 40
4.0
 10
81.55481416994604
 20
-163.8974247840582
 30
0.0
 10
81.55481416994604
 20
-163.8416895986609
 30
0.0
 10
81.51000908827186
 20
-163.7968872084676
 30
0.0
 10
81.45497637937584
 20
-163.7968872084676
 30
0.0
 10
81.39994367047983
 20
-163.7968872084676
 30
0.0
 10
81.35514128028649
 20
-163.8416895986609
 30
0.0
 10
81.35514128028649
 20
-163.8974247840582
 30
0.0
 10
81.35514128028649
 20
-163.9524601844351
 30
0.0
 10
81.39994367047983
 20
-163.9972625746284
 30
0.0
 10
81.45497637937584
 20
-163.9972625746284
 30
0.0
 10
81.51000908827186
 20
-163.9972625746284
 30
0.0
 10
81.55481416994604
 20
-163.9524601844351
 30
0.0
 10
81.55481416994604
 20
-163.8974247840582
 30
0.0
  0
POLYLINE
  5
A0
330
1F
100
AcDbEntity
  8
_U+30EC_U+30A4_U+30E4_U+30FC 1
 62
   179
420
  2234388
370
     9
100
AcDb2dPolyline
 66
     1
 10
0.0
 20
0.0
 30
0.0
  0
VERTEX
  5
A1
330
A0
100
AcDbEntity
  8
_U+30EC_U+30A4_U+30E4_U+30FC 1
 62
   179
420
  2234388
370
     9
100
AcDbVertex
100
AcDb2dVertex
 10
130.2340564402198
 20
-160.8974356355026
 30
0.0
  0
VERTEX
  5
A2
330
A0
100
AcDbEntity
  8
_U+30EC_U+30A4_U+30E4_U+30FC 1
 62
   179
420
  2234388
370
     9
100
AcDbVertex
100
AcDb2dVertex
 10
130.2340564402198
 20
-163.8974624647901
 30
0.0
  0
SEQEND
  5
A3
330
A0
100
AcDbEntity
  8
_U+30EC_U+30A4_U+30E4_U+30FC 1
 62
   179
420
  2234388
370
     9
  0
POLYLINE
  5
A4
330
1F
100
AcDbEntity
  8
_U+30EC_U+30A4_U+30E4_U+30FC 1
 62
   179
420
  2234388
370
     9
100
AcDb2dPolyline
 66
     1
 10
0.0
 20
0.0
 30
0.0
  0
VERTEX
  5
A5
330
A4
100
AcDbEntity
  8
_U+30EC_U+30A4_U+30E4_U+30FC 1
 62
   179
420
  2234388
370
     9
100
AcDbVertex
100
AcDb2dVertex
 10
98.77407427543669
 20
-160.8974356355026
 30
0.0
  0
VERTEX
  5
A6
330
A4
100
AcDbEntity
  8
_U+30EC_U+30A4_U+30E4_U+30FC 1
 62
   179
420
  2234388
370
     9
100
AcDbVertex
100
AcDb2dVertex
 10
131.2345659987533
 20
-160.8974356355026
 30
0.0
  0
SEQEND
  5
A7
330
A4
100
AcDbEntity
  8
_U+30EC_U+30A4_U+30E4_U+30FC 1
 62
   179
420
  2234388
370
     9
  0
POLYLINE
  5
A8
330
1F
100
AcDbEntity
  8
_U+30EC_U+30A4_U+30E4_U+30FC 1
 62
   179
420
  2234388
370
     9
100
AcDb2dPolyline
 66
     1
 10
0.0
 20
0.0
 30
0.0
  0
VERTEX
  5
A9
330
A8
100
AcDbEntity
  8
_U+30EC_U+30A4_U+30E4_U+30FC 1
 62
   179
420
  2234388
370
     9
100
AcDbVertex
100
AcDb2dVertex
 10
98.77407427543669
 20
-163.8974247840582
 30
0.0
  0
VERTEX
  5
AA
330
A8
100
AcDbEntity
  8
_U+30EC_U+30A4_U+30E4_U+30FC 1
 62
   179
420
  2234388
370
     9
100
AcDbVertex
100
AcDb2dVertex
 10
131.2345659987533
 20
-163.8974247840582
 30
0.0
  0
SEQEND
  5
AB
330
A8
100
AcDbEntity
  8
_U+30EC_U+30A4_U+30E4_U+30FC 1
 62
   179
420
  2234388
370
     9
  0
INSERT
  5
AD
330
1F
100
AcDbEntity
  8
_U+30EC_U+30A4_U+30E4_U+30FC 1
100
AcDbBlockReference
  2
block 2
 10
0.0
 20
0.0
 30
0.0
  0
POLYLINE
  5
B2
330
1F
100
AcDbEntity
  8
_U+30EC_U+30A4_U+30E4_U+30FC 1
 62
   179
420
  2234388
370
     9
100
AcDb2dPolyline
 66
     1
 10
0.0
 20
0.0
 30
0.0
  0
VERTEX
  5
B3
330
B2
100
AcDbEntity
  8
_U+30EC_U+30A4_U+30E4_U+30FC 1
 62
   179
420
  2234388
370
     9
100
AcDbVertex
100
AcDb2dVertex
 10
86.23395362393576
 20
-135.8970613351799
 30
0.0
  0
VERTEX
  5
B4
330
B2
100
AcDbEntity
  8
_U+30EC_U+30A4_U+30E4_U+30FC 1
 62
   179
420
  2234388
370
     9
100
AcDbVertex
100
AcDb2dVertex
 10
89.2339750702615
 20
-135.8970613351799
 30
0.0
  0
SEQEND
  5
B5
330
B2
100
AcDbEntity
  8
_U+30EC_U+30A4_U+30E4_U+30FC 1
 62
   179
420
  2234388
370
     9
  0
POLYLINE
  5
B6
330
1F
100
AcDbEntity
  8
_U+30EC_U+30A4_U+30E4_U+30FC 1
 62
   179
420
  2234388
370
     9
100
AcDb2dPolyline
 66
     1
 10
0.0
 20
0.0
 30
0.0
  0
VERTEX
  5
B7
330
B6
100
AcDbEntity
  8
_U+30EC_U+30A4_U+30E4_U+30FC 1
 62
   179
420
  2234388
370
     9
100
AcDbVertex
100
AcDb2dVertex
 10
86.23395362393576
 20
-137.3571035677522
 30
0.0
  0
VERTEX
  5
B8
330
B6
100
AcDbEntity
  8
_U+30EC_U+30A4_U+30E4_U+30FC 1
 62
   179
420
  2234388
370
     9
100
AcDbVertex
100
AcDb2dVertex
 10
86.23395362393576
 20
-134.8971869661265
 30
0.0
  0
SEQEND
  5
B9
330
B6
100
AcDbEntity
  8
_U+30EC_U+30A4_U+30E4_U+30FC 1
 62
   179
420
  2234388
370
     9
  0
POLYLINE
  5
BA
330
1F
100
AcDbEntity
  8
_U+30EC_U+30A4_U+30E4_U+30FC 1
 62
   179
420
  2234388
370
     9
100
AcDb2dPolyline
 66
     1
 10
0.0
 20
0.0
 30
0.0
  0
VERTEX
  5
BB
330
BA
100
AcDbEntity
  8
_U+30EC_U+30A4_U+30E4_U+30FC 1
 62
   179
420
  2234388
370
     9
100
AcDbVertex
100
AcDb2dVertex
 10
89.2339750702615
 20
-137.3571035677522
 30
0.0
  0
VERTEX
  5
BC
330
BA
100
AcDbEntity
  8
_U+30EC_U+30A4_U+30E4_U+30FC 1
 62
   179
420
  2234388
370
     9
100
AcDbVertex
100
AcDb2dVertex
 10
89.2339750702615
 20
-134.8971869661265
 30
0.0
  0
SEQEND
  5
BD
330
BA
100
AcDbEntity
  8
_U+30EC_U+30A4_U+30E4_U+30FC 1
 62
   179
420
  2234388
370
     9
  0
INSERT
  5
BF
330
1F
100
AcDbEntity
  8
_U+30EC_U+30A4_U+30E4_U+30FC 1
100
AcDbBlockReference
  2
block 3
 10
0.0
 20
0.0
 30
0.0
  0
POLYLINE
  5
C4
330
1F
100
AcDbEntity
  8
_U+30EC_U+30A4_U+30E4_U+30FC 1
 62
   179
420
  2234388
370
     9
100
AcDb2dPolyline
 66
     1
 10
0.0
 20
0.0
 30
0.0
  0
VERTEX
  5
C5
330
C4
100
AcDbEntity
  8
_U+30EC_U+30A4_U+30E4_U+30FC 1
 62
   179
420
  2234388
370
     9
100
AcDbVertex
100
AcDb2dVertex
 10
86.23395362393576
 20
-131.8973054768049
 30
0.0
  0
VERTEX
  5
C6
330
C4
100
AcDbEntity
  8
_U+30EC_U+30A4_U+30E4_U+30FC 1
 62
   179
420
  2234388
370
     9
100
AcDbVertex
100
AcDb2dVertex
 10
126.2343651773851
 20
-131.8973054768049
 30
0.0
  0
SEQEND
  5
C7
330
C4
100
AcDbEntity
  8
_U+30EC_U+30A4_U+30E4_U+30FC 1
 62
   179
420
  2234388
370
     9
  0
POLYLINE
  5
C8
330
1F
100
AcDbEntity
  8
_U+30EC_U+30A4_U+30E4_U+30FC 1
 62
   179
420
  2234388
370
     9
100
AcDb2dPolyline
 66
     1
 10
0.0
 20
0.0
 30
0.0
  0
VERTEX
  5
C9
330
C8
100
AcDbEntity
  8
_U+30EC_U+30A4_U+30E4_U+30FC 1
 62
   179
420
  2234388
370
     9
100
AcDbVertex
100
AcDb2dVertex
 10
86.23395362393576
 20
-137.3571035677522
 30
0.0
  0
VERTEX
  5
CA
330
C8
100
AcDbEntity
  8
_U+30EC_U+30A4_U+30E4_U+30FC 1
 62
   179
420
  2234388
370
     9
100
AcDbVertex
100
AcDb2dVertex
 10
86.23395362393576
 20
-130.8966936419991
 30
0.0
  0
SEQEND
  5
CB
330
C8
100
AcDbEntity
  8
_U+30EC_U+30A4_U+30E4_U+30FC 1
 62
   179
420
  2234388
370
     9
  0
POLYLINE
  5
CC
330
1F
100
AcDbEntity
  8
_U+30EC_U+30A4_U+30E4_U+30FC 1
 62
   179
420
  2234388
370
     9
100
AcDb2dPolyline
 66
     1
 10
0.0
 20
0.0
 30
0.0
  0
VERTEX
  5
CD
330
CC
100
AcDbEntity
  8
_U+30EC_U+30A4_U+30E4_U+30FC 1
 62
   179
420
  2234388
370
     9
100
AcDbVertex
100
AcDb2dVertex
 10
126.2342951988831
 20
-144.457429213967
 30
0.0
  0
VERTEX
  5
CE
330
CC
100
AcDbEntity
  8
_U+30EC_U+30A4_U+30E4_U+30FC 1
 62
   179
420
  2234388
370
     9
100
AcDbVertex
100
AcDb2dVertex
 10
126.2342951988831
 20
-130.8970058537775
 30
0.0
  0
SEQEND
  5
CF
330
CC
100
AcDbEntity
  8
_U+30EC_U+30A4_U+30E4_U+30FC 1
 62
   179
420
  2234388
370
     9
  0
INSERT
  5
D1
330
1F
100
AcDbEntity
  8
_U+30EC_U+30A4_U+30E4_U+30FC 1
100
AcDbBlockReference
  2
block 4
 10
0.0
 20
0.0
 30
0.0
  0
POLYLINE
  5
EC
330
1F
100
AcDbEntity
  8
_U+30EC_U+30A4_U+30E4_U+30FC 1
 62
   179
420
  2234388
370
     9
100
AcDb2dPolyline
 66
     1
 10
0.0
 20
0.0
 30
0.0
  0
VERTEX
  5
ED
330
EC
100
AcDbEntity
  8
_U+30EC_U+30A4_U+30E4_U+30FC 1
 62
   179
420
  2234388
370
     9
100
AcDbVertex
100
AcDb2dVertex
 10
86.23395362393576
 20
-167.8971806424333
 30
0.0
  0
VERTEX
  5
EE
330
EC
100
AcDbEntity
  8
_U+30EC_U+30A4_U+30E4_U+30FC 1
 62
   179
420
  2234388
370
     9
100
AcDbVertex
100
AcDb2dVertex
 10
96.2344952236763
 20
-167.8971806424333
 30
0.0
  0
SEQEND
  5
EF
330
EC
100
AcDbEntity
  8
_U+30EC_U+30A4_U+30E4_U+30FC 1
 62
   179
420
  2234388
370
     9
  0
POLYLINE
  5
F0
330
1F
100
AcDbEntity
  8
_U+30EC_U+30A4_U+30E4_U+30FC 1
 62
   179
420
  2234388
370
     9
100
AcDb2dPolyline
 66
     1
 10
0.0
 20
0.0
 30
0.0
  0
VERTEX
  5
F1
330
F0
100
AcDbEntity
  8
_U+30EC_U+30A4_U+30E4_U+30FC 1
 62
   179
420
  2234388
370
     9
100
AcDbVertex
100
AcDb2dVertex
 10
86.23395362393576
 20
-166.4371437928227
 30
0.0
  0
VERTEX
  5
F2
330
F0
100
AcDbEntity
  8
_U+30EC_U+30A4_U+30E4_U+30FC 1
 62
   179
420
  2234388
370
     9
100
AcDbVertex
100
AcDb2dVertex
 10
86.23395362393576
 20
-168.8970657774101
 30
0.0
  0
SEQEND
  5
F3
330
F0
100
AcDbEntity
  8
_U+30EC_U+30A4_U+30E4_U+30FC 1
 62
   179
420
  2234388
370
     9
  0
POLYLINE
  5
F4
330
1F
100
AcDbEntity
  8
_U+30EC_U+30A4_U+30E4_U+30FC 1
 62
   179
420
  2234388
370
     9
100
AcDb2dPolyline
 66
     1
 10
0.0
 20
0.0
 30
0.0
  0
VERTEX
  5
F5
330
F4
100
AcDbEntity
  8
_U+30EC_U+30A4_U+30E4_U+30FC 1
 62
   179
420
  2234388
370
     9
100
AcDbVertex
100
AcDb2dVertex
 10
96.23435526667221
 20
-166.4371437928227
 30
0.0
  0
VERTEX
  5
F6
330
F4
100
AcDbEntity
  8
_U+30EC_U+30A4_U+30E4_U+30FC 1
 62
   179
420
  2234388
370
     9
100
AcDbVertex
100
AcDb2dVertex
 10
96.23435526667221
 20
-168.8970657774101
 30
0.0
  0
SEQEND
  5
F7
330
F4
100
AcDbEntity
  8
_U+30EC_U+30A4_U+30E4_U+30FC 1
 62
   179
420
  2234388
370
     9
  0
INSERT
  5
F9
330
1F
100
AcDbEntity
  8
_U+30EC_U+30A4_U+30E4_U+30FC 1
100
AcDbBlockReference
  2
block 5
 10
0.0
 20
0.0
 30
0.0
  0
POLYLINE
  5
101
330
1F
100
AcDbEntity
  8
_U+30EC_U+30A4_U+30E4_U+30FC 1
 62
   179
420
  2234388
370
     9
100
AcDb2dPolyline
 66
     1
 10
0.0
 20
0.0
 30
0.0
  0
VERTEX
  5
102
330
101
100
AcDbEntity
  8
_U+30EC_U+30A4_U+30E4_U+30FC 1
 62
   179
420
  2234388
370
     9
100
AcDbVertex
100
AcDb2dVertex
 10
81.45494139012482
 20
-139.8974954467286
 30
0.0
  0
VERTEX
  5
103
330
101
100
AcDbEntity
  8
_U+30EC_U+30A4_U+30E4_U+30FC 1
 62
   179
420
  2234388
370
     9
100
AcDbVertex
100
AcDb2dVertex
 10
81.45494139012482
 20
-163.897322507786
 30
0.0
  0
SEQEND
  5
104
330
101
100
AcDbEntity
  8
_U+30EC_U+30A4_U+30E4_U+30FC 1
 62
   179
420
  2234388
370
     9
  0
POLYLINE
  5
105
330
1F
100
AcDbEntity
  8
_U+30EC_U+30A4_U+30E4_U+30FC 1
 62
   179
420
  2234388
370
     9
100
AcDb2dPolyline
 66
     1
 10
0.0
 20
0.0
 30
0.0
  0
VERTEX
  5
106
330
105
100
AcDbEntity
  8
_U+30EC_U+30A4_U+30E4_U+30FC 1
 62
   179
420
  2234388
370
     9
100
AcDbVertex
100
AcDb2dVertex
 10
82.91494863344607
 20
-139.8974954467286
 30
0.0
  0
VERTEX
  5
107
330
105
100
AcDbEntity
  8
_U+30EC_U+30A4_U+30E4_U+30FC 1
 62
   179
420
  2234388
370
     9
100
AcDbVertex
100
AcDb2dVertex
 10
80.45432148087654
 20
-139.8974954467286
 30
0.0
  0
SEQEND
  5
108
330
105
100
AcDbEntity
  8
_U+30EC_U+30A4_U+30E4_U+30FC 1
 62
   179
420
  2234388
370
     9
  0
POLYLINE
  5
109
330
1F
100
AcDbEntity
  8
_U+30EC_U+30A4_U+30E4_U+30FC 1
 62
   179
420
  2234388
370
     9
100
AcDb2dPolyline
 66
     1
 10
0.0
 20
0.0
 30
0.0
  0
VERTEX
  5
10A
330
109
100
AcDbEntity
  8
_U+30EC_U+30A4_U+30E4_U+30FC 1
 62
   179
420
  2234388
370
     9
100
AcDbVertex
100
AcDb2dVertex
 10
82.91494863344607
 20
-163.8974247840582
 30
0.0
  0
VERTEX
  5
10B
330
109
100
AcDbEntity
  8
_U+30EC_U+30A4_U+30E4_U+30FC 1
 62
   179
420
  2234388
370
     9
100
AcDbVertex
100
AcDb2dVertex
 10
80.45432148087654
 20
-163.8974247840582
 30
0.0
  0
SEQEND
  5
10C
330
109
100
AcDbEntity
  8
_U+30EC_U+30A4_U+30E4_U+30FC 1
 62
   179
420
  2234388
370
     9
  0
INSERT
  5
10E
330
1F
100
AcDbEntity
  8
_U+30EC_U+30A4_U+30E4_U+30FC 1
100
AcDbBlockReference
  2
block 6
 10
0.0
 20
0.0
 30
0.0
  0
POLYLINE
  5
128
330
1F
100
AcDbEntity
  8
_U+30EC_U+30A4_U+30E4_U+30FC 1
 62
   179
420
  2234388
370
     9
100
AcDb2dPolyline
 66
     1
 10
0.0
 20
0.0
 30
0.0
  0
VERTEX
  5
129
330
128
100
AcDbEntity
  8
_U+30EC_U+30A4_U+30E4_U+30FC 1
 62
   179
420
  2234388
370
     9
100
AcDbVertex
100
AcDb2dVertex
 10
130.2340564402198
 20
-160.8974356355026
 30
0.0
  0
VERTEX
  5
12A
330
128
100
AcDbEntity
  8
_U+30EC_U+30A4_U+30E4_U+30FC 1
 62
   179
420
  2234388
370
     9
100
AcDbVertex
100
AcDb2dVertex
 10
130.2340564402198
 20
-147.8968725894367
 30
0.0
  0
SEQEND
  5
12B
330
128
100
AcDbEntity
  8
_U+30EC_U+30A4_U+30E4_U+30FC 1
 62
   179
420
  2234388
370
     9
  0
POLYLINE
  5
12C
330
1F
100
AcDbEntity
  8
_U+30EC_U+30A4_U+30E4_U+30FC 1
 62
   179
420
  2234388
370
     9
100
AcDb2dPolyline
 66
     1
 10
0.0
 20
0.0
 30
0.0
  0
VERTEX
  5
12D
330
12C
100
AcDbEntity
  8
_U+30EC_U+30A4_U+30E4_U+30FC 1
 62
   179
420
  2234388
370
     9
100
AcDbVertex
100
AcDb2dVertex
 10
129.1267919853371
 20
-147.8970125464405
 30
0.0
  0
VERTEX
  5
12E
330
12C
100
AcDbEntity
  8
_U+30EC_U+30A4_U+30E4_U+30FC 1
 62
   179
420
  2234388
370
     9
100
AcDbVertex
100
AcDb2dVertex
 10
131.2346359772554
 20
-147.8970125464405
 30
0.0
  0
SEQEND
  5
12F
330
12C
100
AcDbEntity
  8
_U+30EC_U+30A4_U+30E4_U+30FC 1
 62
   179
420
  2234388
370
     9
  0
INSERT
  5
131
330
1F
100
AcDbEntity
  8
_U+30EC_U+30A4_U+30E4_U+30FC 1
100
AcDbBlockReference
  2
block 7
 10
0.0
 20
0.0
 30
0.0
  0
POLYLINE
  5
138
330
1F
100
AcDbEntity
  8
_U+30EC_U+30A4_U+30E4_U+30FC 1
 62
   179
420
  2234388
370
     9
100
AcDb2dPolyline
 66
     1
 10
0.0
 20
0.0
 30
0.0
  0
VERTEX
  5
139
330
138
100
AcDbEntity
  8
_U+30EC_U+30A4_U+30E4_U+30FC 1
 62
   179
420
  2234388
370
     9
100
AcDbVertex
100
AcDb2dVertex
 10
129.1267919853371
 20
-146.9950973143254
 30
0.0
  0
VERTEX
  5
13A
330
138
100
AcDbEntity
  8
_U+30EC_U+30A4_U+30E4_U+30FC 1
 62
   179
420
  2234388
370
     9
100
AcDbVertex
100
AcDb2dVertex
 10
131.2346359772554
 20
-146.9950973143254
 30
0.0
  0
SEQEND
  5
13B
330
138
100
AcDbEntity
  8
_U+30EC_U+30A4_U+30E4_U+30FC 1
 62
   179
420
  2234388
370
     9
  0
SPLINE
  5
13C
330
1F
100
AcDbEntity
  8
_U+30EC_U+30A4_U+30E4_U+30FC 1
 62
   179
420
  2234388
370
     9
100
AcDbSpline
210
0.0
220
0.0
230
1.0
 70
    11
 71
     3
 72
    17
 73
    13
 74
     0
 42
0.0000000001
 43
0.0000000001
 12
1.0
 22
0.0
 32
0.0
 13
1.0
 23
0.0
 33
0.0
 40
0.0
 40
0.0
 40
0.0
 40
0.0
 40
1.0
 40
1.0
 40
1.0
 40
2.0
 40
2.0
 40
2.0
 40
3.0
 40
3.0
 40
3.0
 40
4.0
 40
4.0
 40
4.0
 40
4.0
 10
130.2340564402198
 20
-147.0812139355333
 30
0.0
 10
130.289086457635
 20
-147.0812139355333
 30
0.0
 10
130.3338888478283
 20
-147.03641154534
 30
0.0
 10
130.3338888478283
 20
-146.9813815279248
 30
0.0
 10
130.3338888478283
 20
-146.9259962350377
 30
0.0
 10
130.289086457635
 20
-146.8811938448444
 30
0.0
 10
130.2340564402198
 20
-146.8811938448444
 30
0.0
 10
130.179021039843
 20
-146.8811938448444
 30
0.0
 10
130.1342186496496
 20
-146.9259962350377
 30
0.0
 10
130.1342186496496
 20
-146.9813815279248
 30
0.0
 10
130.1342186496496
 20
-147.03641154534
 30
0.0
 10
130.179021039843
 20
-147.0812139355333
 30
0.0
 10
130.2340564402198
 20
-147.0812139355333
 30
0.0
  0
POLYLINE
  5
13D
330
1F
100
AcDbEntity
  8
_U+30EC_U+30A4_U+30E4_U+30FC 1
 62
   179
420
  2234388
370
     9
100
AcDb2dPolyline
 66
     1
 10
0.0
 20
0.0
 30
0.0
  0
VERTEX
  5
13E
330
13D
100
AcDbEntity
  8
_U+30EC_U+30A4_U+30E4_U+30FC 1
 62
   179
420
  2234388
370
     9
100
AcDbVertex
100
AcDb2dVertex
 10
130.2347239274701
 20
-145.3266375708189
 30
0.0
  0
VERTEX
  5
13F
330
13D
100
AcDbEntity
  8
_U+30EC_U+30A4_U+30E4_U+30FC 1
 62
   179
420
  2234388
370
     9
100
AcDbVertex
100
AcDb2dVertex
 10
130.2347239274701
 20
-147.9809383022382
 30
0.0
  0
SEQEND
  5
140
330
13D
100
AcDbEntity
  8
_U+30EC_U+30A4_U+30E4_U+30FC 1
 62
   179
420
  2234388
370
     9
  0
INSERT
  5
142
330
1F
100
AcDbEntity
  8
_U+30EC_U+30A4_U+30E4_U+30FC 1
100
AcDbBlockReference
  2
block 8
 10
0.0
 20
0.0
 30
0.0
  0
POLYLINE
  5
147
330
1F
100
AcDbEntity
  8
_U+30EC_U+30A4_U+30E4_U+30FC 1
  6
AI-Linetype-1
 62
   154
420
    23468
370
    25
100
AcDb2dPolyline
 66
     1
 10
0.0
 20
0.0
 30
0.0
  0
VERTEX
  5
148
330
147
100
AcDbEntity
  8
_U+30EC_U+30A4_U+30E4_U+30FC 1
  6
AI-Linetype-1
 62
   154
420
    23468
370
    25
100
AcDbVertex
100
AcDb2dVertex
 10
89.71576359943114
 20
-140.8972675395098
 30
0.0
  0
VERTEX
  5
149
330
147
100
AcDbEntity
  8
_U+30EC_U+30A4_U+30E4_U+30FC 1
  6
AI-Linetype-1
 62
   154
420
    23468
370
    25
100
AcDbVertex
100
AcDb2dVertex
 10
89.71576359943114
 20
-139.4081949945127
 30
0.0
  0
VERTEX
  5
14A
330
147
100
AcDbEntity
  8
_U+30EC_U+30A4_U+30E4_U+30FC 1
  6
AI-Linetype-1
 62
   154
420
    23468
370
    25
100
AcDbVertex
100
AcDb2dVertex
 10
85.71032333350541
 20
-139.4081949945127
 30
0.0
  0
VERTEX
  5
14B
330
147
100
AcDbEntity
  8
_U+30EC_U+30A4_U+30E4_U+30FC 1
  6
AI-Linetype-1
 62
   154
420
    23468
370
    25
100
AcDbVertex
100
AcDb2dVertex
 10
85.71032333350541
 20
-164.4402480244146
 30
0.0
  0
VERTEX
  5
14C
330
147
100
AcDbEntity
  8
_U+30EC_U+30A4_U+30E4_U+30FC 1
  6
AI-Linetype-1
 62
   154
420
    23468
370
    25
100
AcDbVertex
100
AcDb2dVertex
 10
96.7600283910664
 20
-164.4402480244146
 30
0.0
  0
VERTEX
  5
14D
330
147
100
AcDbEntity
  8
_U+30EC_U+30A4_U+30E4_U+30FC 1
  6
AI-Linetype-1
 62
   154
420
    23468
370
    25
100
AcDbVertex
100
AcDb2dVertex
 10
96.7600283910664
 20
-160.8662575213611
 30
0.0
  0
SEQEND
  5
14F
330
147
100
AcDbEntity
  8
_U+30EC_U+30A4_U+30E4_U+30FC 1
  6
AI-Linetype-1
 62
   154
420
    23468
370
    25
  0
ENDSEC
  0
SECTION
  2
OBJECTS
  0
DICTIONARY
  5
C
330
0
100
AcDbDictionary
281
     1
  3
ACAD_GROUP
350
D
  3
ACAD_LAYOUT
350
1A
  3
ACAD_MATERIAL
350
3B
  3
ACAD_MLEADERSTYLE
350
151
  3
ACAD_MLINESTYLE
350
17
  3
ACAD_PLOTSETTINGS
350
19
  3
ACAD_PLOTSTYLENAME
350
E
  3
ACAD_TABLESTYLE
350
150
  3
ACAD_VISUALSTYLE
350
2A
  0
SUN
  5
3F
330
29
100
AcDbSun
 90
        1
290
     0
 63
     7
421
 16777215
 40
1.0
291
     1
 91
  2455826
 92
 54000000
292
     0
 70
     2
 71
   256
280
     1
  0
DICTIONARY
  5
D
102
{ACAD_REACTORS
330
C
102
}
330
C
100
AcDbDictionary
281
     1
  0
DICTIONARY
  5
1A
102
{ACAD_REACTORS
330
C
102
}
330
C
100
AcDbDictionary
281
     1
  3
Layout1
350
1E
  3
Layout2
350
26
  3
Model
350
22
  0
DICTIONARY
  5
3B
102
{ACAD_REACTORS
330
C
102
}
330
C
100
AcDbDictionary
281
     1
  3
ByBlock
350
3D
  3
ByLayer
350
3C
  3
Global
350
3E
  0
DICTIONARY
  5
151
102
{ACAD_REACTORS
330
C
102
}
330
C
100
AcDbDictionary
281
     1
  0
DICTIONARY
  5
17
102
{ACAD_REACTORS
330
C
102
}
330
C
100
AcDbDictionary
281
     1
  3
Standard
350
18
  0
DICTIONARY
  5
19
102
{ACAD_REACTORS
330
C
102
}
330
C
100
AcDbDictionary
281
     1
  0
ACDBDICTIONARYWDFLT
  5
E
102
{ACAD_REACTORS
330
C
102
}
330
C
100
AcDbDictionary
281
     1
  3
Normal
350
F
100
AcDbDictionaryWithDefault
340
F
  0
DICTIONARY
  5
150
102
{ACAD_REACTORS
330
C
102
}
330
C
100
AcDbDictionary
281
     1
  0
DICTIONARY
  5
2A
102
{ACAD_REACTORS
330
C
102
}
330
C
100
AcDbDictionary
281
     1
  3
2dWireframe
350
2F
  3
3D Hidden
350
31
  3
3dWireframe
350
30
  3
Basic
350
32
  3
Brighten
350
36
  3
ColorChange
350
3A
  3
Conceptual
350
34
  3
Dim
350
35
  3
Facepattern
350
39
  3
Flat
350
2B
  3
FlatWithEdges
350
2C
  3
Gouraud
350
2D
  3
GouraudWithEdges
350
2E
  3
Linepattern
350
38
  3
Realistic
350
33
  3
Thicken
350
37
  0
LAYOUT
  5
1E
102
{ACAD_REACTORS
330
1A
102
}
330
1A
100
AcDbPlotSettings
  1

  2
none_device
  4

  6

 40
0.0
 41
0.0
 42
0.0
 43
0.0
 44
0.0
 45
0.0
 46
0.0
 47
0.0
 48
0.0
 49
0.0
140
0.0
141
0.0
142
1.0
143
1.0
 70
   688
 72
     0
 73
     0
 74
     5
  7

 75
    16
 76
     0
 77
     2
 78
   300
147
1.0
148
0.0
149
0.0
100
AcDbLayout
  1
Layout1
 70
     1
 71
     1
 10
0.0
 20
0.0
 11
12.0
 21
9.0
 12
0.0
 22
0.0
 32
0.0
 14
1.000000000000000E+20
 24
1.000000000000000E+20
 34
1.000000000000000E+20
 15
-1.000000000000000E+20
 25
-1.000000000000000E+20
 35
-1.000000000000000E+20
146
0.0
 13
0.0
 23
0.0
 33
0.0
 16
1.0
 26
0.0
 36
0.0
 17
0.0
 27
1.0
 37
0.0
 76
     0
330
1B
  0
LAYOUT
  5
26
102
{ACAD_REACTORS
330
1A
102
}
330
1A
100
AcDbPlotSettings
  1

  2
none_device
  4

  6

 40
0.0
 41
0.0
 42
0.0
 43
0.0
 44
0.0
 45
0.0
 46
0.0
 47
0.0
 48
0.0
 49
0.0
140
0.0
141
0.0
142
1.0
143
1.0
 70
   688
 72
     0
 73
     0
 74
     5
  7

 75
    16
 76
     0
 77
     2
 78
   300
147
1.0
148
0.0
149
0.0
100
AcDbLayout
  1
Layout2
 70
     1
 71
     2
 10
0.0
 20
0.0
 11
0.0
 21
0.0
 12
0.0
 22
0.0
 32
0.0
 14
0.0
 24
0.0
 34
0.0
 15
0.0
 25
0.0
 35
0.0
146
0.0
 13
0.0
 23
0.0
 33
0.0
 16
1.0
 26
0.0
 36
0.0
 17
0.0
 27
1.0
 37
0.0
 76
     0
330
23
  0
LAYOUT
  5
22
102
{ACAD_REACTORS
330
1A
102
}
330
1A
100
AcDbPlotSettings
  1

  2
none_device
  4

  6

 40
0.0
 41
0.0
 42
0.0
 43
0.0
 44
0.0
 45
0.0
 46
0.0
 47
0.0
 48
0.0
 49
0.0
140
0.0
141
0.0
142
1.0
143
1.0
 70
  1712
 72
     0
 73
     0
 74
     0
  7

 75
     0
 76
     0
 77
     2
 78
   300
147
1.0
148
0.0
149
0.0
100
AcDbLayout
  1
Model
 70
     1
 71
     0
 10
0.0
 20
0.0
 11
12.0
 21
9.0
 12
0.0
 22
0.0
 32
0.0
 14
1.000000000000000E+20
 24
1.000000000000000E+20
 34
1.000000000000000E+20
 15
-1.000000000000000E+20
 25
-1.000000000000000E+20
 35
-1.000000000000000E+20
146
0.0
 13
0.0
 23
0.0
 33
0.0
 16
1.0
 26
0.0
 36
0.0
 17
0.0
 27
1.0
 37
0.0
 76
     0
330
1F
331
29
  0
MATERIAL
  5
3D
102
{ACAD_REACTORS
330
3B
102
}
330
3B
100
AcDbMaterial
  1
ByBlock
 72
     1
 94
      127
  0
MATERIAL
  5
3C
102
{ACAD_REACTORS
330
3B
102
}
330
3B
100
AcDbMaterial
  1
ByLayer
 72
     1
 94
      127
  0
MATERIAL
  5
3E
102
{ACAD_REACTORS
330
3B
102
}
330
3B
100
AcDbMaterial
  1
Global
 72
     1
 94
      127
  0
MLINESTYLE
  5
18
102
{ACAD_REACTORS
330
17
102
}
330
17
100
AcDbMlineStyle
  2
Standard
 70
     0
  3

 62
   256
 51
90.0
 52
90.0
 71
     2
 49
0.5
 62
   256
  6
BYLAYER
 49
-0.5
 62
   256
  6
BYLAYER
  0
ACDBPLACEHOLDER
  5
F
102
{ACAD_REACTORS
330
E
102
}
330
E
  0
VISUALSTYLE
  5
2F
102
{ACAD_REACTORS
330
2A
102
}
330
2A
100
AcDbVisualStyle
  2
2dWireframe
 70
     4
177
     2
291
     0
 71
     0
176
     1
 72
     2
176
     1
 73
     0
176
     1
 90
        0
176
     1
 40
-0.6
176
     1
 41
-30.0
176
     1
 62
     5
 63
     7
421
 16777215
176
     1
 74
     1
176
     1
 91
        4
176
     1
 64
     7
176
     1
 65
   257
176
     1
 75
     1
176
     1
175
     1
176
     1
 42
1.0
176
     1
 92
        0
176
     1
 66
   257
176
     1
 43
1.0
176
     1
 76
     1
176
     1
 77
     6
176
     1
 78
     2
176
     1
 67
     7
176
     1
 79
     5
176
     1
170
     0
176
     1
171
     0
176
     1
290
     0
176
     1
 93
        1
176
     1
 44
0.0
176
     1
173
     0
176
     1
  0
VISUALSTYLE
  5
31
102
{ACAD_REACTORS
330
2A
102
}
330
2A
100
AcDbVisualStyle
  2
3D Hidden
 70
     6
177
     2
291
     0
 71
     1
176
     1
 72
     2
176
     1
 73
     2
176
     1
 90
        0
176
     1
 40
-0.6
176
     1
 41
-30.0
176
     1
 62
     5
 63
     7
421
 16777215
176
     1
 74
     2
176
     1
 91
        2
176
     1
 64
     7
176
     1
 65
   257
176
     1
 75
     2
176
     1
175
     1
176
     1
 42
40.0
176
     1
 92
        0
176
     1
 66
   257
176
     1
 43
1.0
176
     1
 76
     1
176
     1
 77
     6
176
     1
 78
     2
176
     1
 67
     7
176
     1
 79
     3
176
     1
170
     0
176
     1
171
     0
176
     1
290
     0
176
     1
 93
        1
176
     1
 44
0.0
176
     1
173
     0
176
     1
  0
VISUALSTYLE
  5
30
102
{ACAD_REACTORS
330
2A
102
}
330
2A
100
AcDbVisualStyle
  2
3dWireframe
 70
     5
177
     2
291
     0
 71
     0
176
     1
 72
     2
176
     1
 73
     0
176
     1
 90
        0
176
     1
 40
-0.6
176
     1
 41
-30.0
176
     1
 62
     5
 63
     7
421
 16777215
176
     1
 74
     1
176
     1
 91
        4
176
     1
 64
     7
176
     1
 65
   257
176
     1
 75
     1
176
     1
175
     1
176
     1
 42
1.0
176
     1
 92
        0
176
     1
 66
   257
176
     1
 43
1.0
176
     1
 76
     1
176
     1
 77
     6
176
     1
 78
     2
176
     1
 67
     7
176
     1
 79
     5
176
     1
170
     0
176
     1
171
     0
176
     1
290
     0
176
     1
 93
        1
176
     1
 44
0.0
176
     1
173
     0
176
     1
  0
VISUALSTYLE
  5
32
102
{ACAD_REACTORS
330
2A
102
}
330
2A
100
AcDbVisualStyle
  2
Basic
 70
     7
177
     2
291
     1
 71
     1
176
     1
 72
     0
176
     1
 73
     1
176
     1
 90
        0
176
     1
 40
-0.6
176
     1
 41
-30.0
176
     1
 62
     5
 63
     7
421
 16777215
176
     1
 74
     0
176
     1
 91
        4
176
     1
 64
     7
176
     1
 65
   257
176
     1
 75
     1
176
     1
175
     1
176
     1
 42
1.0
176
     1
 92
        8
176
     1
 66
     7
176
     1
 43
1.0
176
     1
 76
     1
176
     1
 77
     6
176
     1
 78
     2
176
     1
 67
     7
176
     1
 79
     5
176
     1
170
     0
176
     1
171
     0
176
     1
290
     0
176
     1
 93
        1
176
     1
 44
0.0
176
     1
173
     0
176
     1
  0
VISUALSTYLE
  5
36
102
{ACAD_REACTORS
330
2A
102
}
330
2A
100
AcDbVisualStyle
  2
Brighten
 70
    12
177
     2
291
     1
 71
     2
176
     1
 72
     2
176
     1
 73
     0
176
     1
 90
        0
176
     1
 40
-0.6
176
     1
 41
-30.0
176
     1
 62
     5
 63
     7
421
 16777215
176
     1
 74
     1
176
     1
 91
        4
176
     1
 64
     7
176
     1
 65
   257
176
     1
 75
     1
176
     1
175
     1
176
     1
 42
1.0
176
     1
 92
        8
176
     1
 66
     7
176
     1
 43
1.0
176
     1
 76
     1
176
     1
 77
     6
176
     1
 78
     2
176
     1
 67
     7
176
     1
 79
     5
176
     1
170
     0
176
     1
171
     0
176
     1
290
     0
176
     1
 93
        1
176
     1
 44
50.0
176
     1
173
     0
176
     1
  0
VISUALSTYLE
  5
3A
102
{ACAD_REACTORS
330
2A
102
}
330
2A
100
AcDbVisualStyle
  2
ColorChange
 70
    16
177
     2
291
     1
 71
     2
176
     1
 72
     2
176
     1
 73
     3
176
     1
 90
        0
176
     1
 40
-0.6
176
     1
 41
-30.0
176
     1
 62
     5
 63
     8
421
  8421504
176
     1
 74
     1
176
     1
 91
        4
176
     1
 64
     7
176
     1
 65
   257
176
     1
 75
     1
176
     1
175
     1
176
     1
 42
1.0
176
     1
 92
        8
176
     1
 66
     8
424
  8421504
176
     1
 43
1.0
176
     1
 76
     1
176
     1
 77
     6
176
     1
 78
     2
176
     1
 67
     7
176
     1
 79
     5
176
     1
170
     0
176
     1
171
     0
176
     1
290
     0
176
     1
 93
        1
176
     1
 44
0.0
176
     1
173
     0
176
     1
  0
VISUALSTYLE
  5
34
102
{ACAD_REACTORS
330
2A
102
}
330
2A
100
AcDbVisualStyle
  2
Conceptual
 70
     9
177
     2
291
     0
 71
     3
176
     1
 72
     2
176
     1
 73
     0
176
     1
 90
        0
176
     1
 40
-0.6
176
     1
 41
-30.0
176
     1
 62
     5
 63
     7
421
 16777215
176
     1
 74
     2
176
     1
 91
        2
176
     1
 64
     7
176
     1
 65
   257
176
     1
 75
     1
176
     1
175
     1
176
     1
 42
40.0
176
     1
 92
        8
176
     1
 66
     7
176
     1
 43
1.0
176
     1
 76
     1
176
     1
 77
     6
176
     1
 78
     2
176
     1
 67
     7
176
     1
 79
     3
176
     1
170
     0
176
     1
171
     0
176
     1
290
     0
176
     1
 93
        1
176
     1
 44
0.0
176
     1
173
     0
176
     1
  0
VISUALSTYLE
  5
35
102
{ACAD_REACTORS
330
2A
102
}
330
2A
100
AcDbVisualStyle
  2
Dim
 70
    11
177
     2
291
     1
 71
     2
176
     1
 72
     2
176
     1
 73
     0
176
     1
 90
        0
176
     1
 40
-0.6
176
     1
 41
-30.0
176
     1
 62
     5
 63
     7
421
 16777215
176
     1
 74
     1
176
     1
 91
        4
176
     1
 64
     7
176
     1
 65
   257
176
     1
 75
     1
176
     1
175
     1
176
     1
 42
1.0
176
     1
 92
        8
176
     1
 66
     7
176
     1
 43
1.0
176
     1
 76
     1
176
     1
 77
     6
176
     1
 78
     2
176
     1
 67
     7
176
     1
 79
     5
176
     1
170
     0
176
     1
171
     0
176
     1
290
     0
176
     1
 93
        1
176
     1
 44
-50.0
176
     1
173
     0
176
     1
  0
VISUALSTYLE
  5
39
102
{ACAD_REACTORS
330
2A
102
}
330
2A
100
AcDbVisualStyle
  2
Facepattern
 70
    15
177
     2
291
     1
 71
     2
176
     1
 72
     2
176
     1
 73
     0
176
     1
 90
        0
176
     1
 40
-0.6
176
     1
 41
-30.0
176
     1
 62
     5
 63
     7
421
 16777215
176
     1
 74
     1
176
     1
 91
        4
176
     1
 64
     7
176
     1
 65
   257
176
     1
 75
     1
176
     1
175
     1
176
     1
 42
1.0
176
     1
 92
        8
176
     1
 66
     7
176
     1
 43
1.0
176
     1
 76
     1
176
     1
 77
     6
176
     1
 78
     2
176
     1
 67
     7
176
     1
 79
     5
176
     1
170
     0
176
     1
171
     0
176
     1
290
     0
176
     1
 93
        1
176
     1
 44
0.0
176
     1
173
     0
176
     1
  0
VISUALSTYLE
  5
2B
102
{ACAD_REACTORS
330
2A
102
}
330
2A
100
AcDbVisualStyle
  2
Flat
 70
     0
177
     2
291
     1
 71
     2
176
     1
 72
     1
176
     1
 73
     1
176
     1
 90
        2
176
     1
 40
-0.6
176
     1
 41
30.0
176
     1
 62
     5
 63
     7
421
 16777215
176
     1
 74
     0
176
     1
 91
        4
176
     1
 64
     7
176
     1
 65
   257
176
     1
 75
     1
176
     1
175
     1
176
     1
 42
1.0
176
     1
 92
        8
176
     1
 66
     7
176
     1
 43
1.0
176
     1
 76
     1
176
     1
 77
     6
176
     1
 78
     2
176
     1
 67
     7
176
     1
 79
     5
176
     1
170
     0
176
     1
171
     0
176
     1
290
     0
176
     1
 93
       13
176
     1
 44
0.0
176
     1
173
     0
176
     1
  0
VISUALSTYLE
  5
2C
102
{ACAD_REACTORS
330
2A
102
}
330
2A
100
AcDbVisualStyle
  2
FlatWithEdges
 70
     1
177
     2
291
     1
 71
     2
176
     1
 72
     1
176
     1
 73
     1
176
     1
 90
        2
176
     1
 40
-0.6
176
     1
 41
30.0
176
     1
 62
     5
 63
     7
421
 16777215
176
     1
 74
     1
176
     1
 91
        4
176
     1
 64
     7
176
     1
 65
   257
176
     1
 75
     1
176
     1
175
     1
176
     1
 42
1.0
176
     1
 92
        0
176
     1
 66
   257
176
     1
 43
1.0
176
     1
 76
     1
176
     1
 77
     6
176
     1
 78
     2
176
     1
 67
     7
176
     1
 79
     5
176
     1
170
     0
176
     1
171
     0
176
     1
290
     0
176
     1
 93
       13
176
     1
 44
0.0
176
     1
173
     0
176
     1
  0
VISUALSTYLE
  5
2D
102
{ACAD_REACTORS
330
2A
102
}
330
2A
100
AcDbVisualStyle
  2
Gouraud
 70
     2
177
     2
291
     1
 71
     2
176
     1
 72
     2
176
     1
 73
     1
176
     1
 90
        2
176
     1
 40
-0.6
176
     1
 41
30.0
176
     1
 62
     5
 63
     7
421
 16777215
176
     1
 74
     0
176
     1
 91
        4
176
     1
 64
     7
176
     1
 65
   257
176
     1
 75
     1
176
     1
175
     1
176
     1
 42
1.0
176
     1
 92
        0
176
     1
 66
     7
176
     1
 43
1.0
176
     1
 76
     1
176
     1
 77
     6
176
     1
 78
     2
176
     1
 67
     7
176
     1
 79
     5
176
     1
170
     0
176
     1
171
     0
176
     1
290
     0
176
     1
 93
       13
176
     1
 44
0.0
176
     1
173
     0
176
     1
  0
VISUALSTYLE
  5
2E
102
{ACAD_REACTORS
330
2A
102
}
330
2A
100
AcDbVisualStyle
  2
GouraudWithEdges
 70
     3
177
     2
291
     1
 71
     2
176
     1
 72
     2
176
     1
 73
     1
176
     1
 90
        2
176
     1
 40
-0.6
176
     1
 41
30.0
176
     1
 62
     5
 63
     7
421
 16777215
176
     1
 74
     1
176
     1
 91
        4
176
     1
 64
     7
176
     1
 65
   257
176
     1
 75
     1
176
     1
175
     1
176
     1
 42
1.0
176
     1
 92
        0
176
     1
 66
   257
176
     1
 43
1.0
176
     1
 76
     1
176
     1
 77
     6
176
     1
 78
     2
176
     1
 67
     7
176
     1
 79
     5
176
     1
170
     0
176
     1
171
     0
176
     1
290
     0
176
     1
 93
       13
176
     1
 44
0.0
176
     1
173
     0
176
     1
  0
VISUALSTYLE
  5
38
102
{ACAD_REACTORS
330
2A
102
}
330
2A
100
AcDbVisualStyle
  2
Linepattern
 70
    14
177
     2
291
     1
 71
     2
176
     1
 72
     2
176
     1
 73
     0
176
     1
 90
        0
176
     1
 40
-0.6
176
     1
 41
-30.0
176
     1
 62
     5
 63
     7
421
 16777215
176
     1
 74
     1
176
     1
 91
        4
176
     1
 64
     7
176
     1
 65
   257
176
     1
 75
     7
176
     1
175
     7
176
     1
 42
1.0
176
     1
 92
        8
176
     1
 66
     7
176
     1
 43
1.0
176
     1
 76
     1
176
     1
 77
     6
176
     1
 78
     2
176
     1
 67
     7
176
     1
 79
     5
176
     1
170
     0
176
     1
171
     0
176
     1
290
     0
176
     1
 93
        1
176
     1
 44
0.0
176
     1
173
     0
176
     1
  0
VISUALSTYLE
  5
33
102
{ACAD_REACTORS
330
2A
102
}
330
2A
100
AcDbVisualStyle
  2
Realistic
 70
     8
177
     2
291
     0
 71
     2
176
     1
 72
     2
176
     1
 73
     0
176
     1
 90
        0
176
     1
 40
-0.6
176
     1
 41
-30.0
176
     1
 62
     5
 63
     7
421
 16777215
176
     1
 74
     1
176
     1
 91
        0
176
     1
 64
     7
176
     1
 65
   257
176
     1
 75
     1
176
     1
175
     1
176
     1
 42
1.0
176
     1
 92
        8
176
     1
 66
     8
424
  7895160
176
     1
 43
1.0
176
     1
 76
     1
176
     1
 77
     6
176
     1
 78
     2
176
     1
 67
     7
176
     1
 79
     5
176
     1
170
     0
176
     1
171
     0
176
     1
290
     0
176
     1
 93
       13
176
     1
 44
0.0
176
     1
173
     0
176
     1
  0
VISUALSTYLE
  5
37
102
{ACAD_REACTORS
330
2A
102
}
330
2A
100
AcDbVisualStyle
  2
Thicken
 70
    13
177
     2
291
     1
 71
     2
176
     1
 72
     2
176
     1
 73
     0
176
     1
 90
        0
176
     1
 40
-0.6
176
     1
 41
-30.0
176
     1
 62
     5
 63
     7
421
 16777215
176
     1
 74
     1
176
     1
 91
        4
176
     1
 64
     7
176
     1
 65
   257
176
     1
 75
     1
176
     1
175
     1
176
     1
 42
1.0
176
     1
 92
       12
176
     1
 66
     7
176
     1
 43
1.0
176
     1
 76
     1
176
     1
 77
     6
176
     1
 78
     2
176
     1
 67
     7
176
     1
 79
     5
176
     1
170
     0
176
     1
171
     0
176
     1
290
     0
176
     1
 93
        1
176
     1
 44
0.0
176
     1
173
     0
176
     1
  0
ENDSEC
  0
EOF
