  0
SECTION
  2
HEADER
  9
$ACADVER
  1
AC1024
  9
$ACADMAINTVER
 70
     6
  9
$DWGCODEPAGE
  3
UNDEFINED
  9
$INSBASE
 10
0.0
 20
0.0
 30
0.0
  9
$EXTMIN
 10
1.000000000000000E+20
 20
1.000000000000000E+20
 30
1.000000000000000E+20
  9
$EXTMAX
 10
-1.000000000000000E+20
 20
-1.000000000000000E+20
 30
-1.000000000000000E+20
  9
$LIMMIN
 10
0.0
 20
0.0
  9
$LIMMAX
 10
12.0
 20
9.0
  9
$ORTHOMODE
 70
     0
  9
$REGENMODE
 70
     1
  9
$FILLMODE
 70
     1
  9
$QTEXTMODE
 70
     0
  9
$MIRRTEXT
 70
     1
  9
$LTSCALE
 40
1.0
  9
$ATTMODE
 70
     1
  9
$TEXTSIZE
 40
0.2
  9
$TRACEWID
 40
0.05
  9
$TEXTSTYLE
  7
Standard
  9
$CLAYER
  8
0
  9
$CELTYPE
  6
ByLayer
  9
$CECOLOR
 62
   256
  9
$CELTSCALE
 40
1.0
  9
$DISPSILH
 70
     0
  9
$DIMSCALE
 40
1.0
  9
$DIMASZ
 40
0.18
  9
$DIMEXO
 40
0.0625
  9
$DIMDLI
 40
0.38
  9
$DIMRND
 40
0.0
  9
$DIMDLE
 40
0.0
  9
$DIMEXE
 40
0.18
  9
$DIMTP
 40
0.0
  9
$DIMTM
 40
0.0
  9
$DIMTXT
 40
0.18
  9
$DIMCEN
 40
0.09
  9
$DIMTSZ
 40
0.0
  9
$DIMTOL
 70
     0
  9
$DIMLIM
 70
     0
  9
$DIMTIH
 70
     1
  9
$DIMTOH
 70
     1
  9
$DIMSE1
 70
     0
  9
$DIMSE2
 70
     0
  9
$DIMTAD
 70
     0
  9
$DIMZIN
 70
     0
  9
$DIMBLK
  1

  9
$DIMASO
 70
     1
  9
$DIMSHO
 70
     1
  9
$DIMPOST
  1

  9
$DIMAPOST
  1

  9
$DIMALT
 70
     0
  9
$DIMALTD
 70
     2
  9
$DIMALTF
 40
25.4
  9
$DIMLFAC
 40
1.0
  9
$DIMTOFL
 70
     0
  9
$DIMTVP
 40
0.0
  9
$DIMTIX
 70
     0
  9
$DIMSOXD
 70
     0
  9
$DIMSAH
 70
     0
  9
$DIMBLK1
  1

  9
$DIMBLK2
  1

  9
$DIMSTYLE
  2
Standard
  9
$DIMCLRD
 70
     0
  9
$DIMCLRE
 70
     0
  9
$DIMCLRT
 70
     0
  9
$DIMTFAC
 40
1.0
  9
$DIMGAP
 40
0.09
  9
$DIMJUST
 70
     0
  9
$DIMSD1
 70
     0
  9
$DIMSD2
 70
     0
  9
$DIMTOLJ
 70
     1
  9
$DIMTZIN
 70
     0
  9
$DIMALTZ
 70
     0
  9
$DIMALTTZ
 70
     0
  9
$DIMUPT
 70
     0
  9
$DIMDEC
 70
     4
  9
$DIMTDEC
 70
     4
  9
$DIMALTU
 70
     2
  9
$DIMALTTD
 70
     2
  9
$DIMTXSTY
  7
Standard
  9
$DIMAUNIT
 70
     0
  9
$DIMADEC
 70
     0
  9
$DIMALTRND
 40
0.0
  9
$DIMAZIN
 70
     0
  9
$DIMDSEP
 70
    46
  9
$DIMATFIT
 70
     3
  9
$DIMFRAC
 70
     0
  9
$DIMLDRBLK
  1

  9
$DIMLUNIT
 70
     2
  9
$DIMLWD
 70
    -2
  9
$DIMLWE
 70
    -2
  9
$DIMTMOVE
 70
     0
  9
$DIMFXL
 40
1.0
  9
$DIMFXLON
 70
     0
  9
$DIMJOGANG
 40
0.7853981633974483
  9
$DIMTFILL
 70
     0
  9
$DIMTFILLCLR
 70
     0
  9
$DIMARCSYM
 70
     0
  9
$DIMLTYPE
  6

  9
$DIMLTEX1
  6

  9
$DIMLTEX2
  6

  9
$DIMTXTDIRECTION
 70
     0
  9
$LUNITS
 70
     2
  9
$LUPREC
 70
     4
  9
$SKETCHINC
 40
0.1
  9
$FILLETRAD
 40
0.5
  9
$AUNITS
 70
     0
  9
$AUPREC
 70
     0
  9
$MENU
  1
.
  9
$ELEVATION
 40
0.0
  9
$PELEVATION
 40
0.0
  9
$THICKNESS
 40
0.0
  9
$LIMCHECK
 70
     0
  9
$CHAMFERA
 40
0.5
  9
$CHAMFERB
 40
0.5
  9
$CHAMFERC
 40
1.0
  9
$CHAMFERD
 40
0.0
  9
$SKPOLY
 70
     0
  9
$TDCREATE
 40
2458263.580729155
  9
$TDUCREATE
 40
2458263.205729167
  9
$TDUPDATE
 40
2458263.580729155
  9
$TDUUPDATE
 40
2458263.205729167
  9
$TDINDWG
 40
0.0000000116
  9
$TDUSRTIMER
 40
0.0000000116
  9
$USRTIMER
 70
     1
  9
$ANGBASE
 50
0.0
  9
$ANGDIR
 70
     0
  9
$PDMODE
 70
     0
  9
$PDSIZE
 40
0.0
  9
$PLINEWID
 40
0.0
  9
$SPLFRAME
 70
     0
  9
$SPLINETYPE
 70
     6
  9
$SPLINESEGS
 70
     8
  9
$HANDSEED
  5
140
  9
$SURFTAB1
 70
     6
  9
$SURFTAB2
 70
     6
  9
$SURFTYPE
 70
     6
  9
$SURFU
 70
     6
  9
$SURFV
 70
     6
  9
$UCSBASE
  2

  9
$UCSNAME
  2

  9
$UCSORG
 10
0.0
 20
0.0
 30
0.0
  9
$UCSXDIR
 10
1.0
 20
0.0
 30
0.0
  9
$UCSYDIR
 10
0.0
 20
1.0
 30
0.0
  9
$UCSORTHOREF
  2

  9
$UCSORTHOVIEW
 70
     0
  9
$UCSORGTOP
 10
0.0
 20
0.0
 30
0.0
  9
$UCSORGBOTTOM
 10
0.0
 20
0.0
 30
0.0
  9
$UCSORGLEFT
 10
0.0
 20
0.0
 30
0.0
  9
$UCSORGRIGHT
 10
0.0
 20
0.0
 30
0.0
  9
$UCSORGFRONT
 10
0.0
 20
0.0
 30
0.0
  9
$UCSORGBACK
 10
0.0
 20
0.0
 30
0.0
  9
$PUCSBASE
  2

  9
$PUCSNAME
  2

  9
$PUCSORG
 10
0.0
 20
0.0
 30
0.0
  9
$PUCSXDIR
 10
1.0
 20
0.0
 30
0.0
  9
$PUCSYDIR
 10
0.0
 20
1.0
 30
0.0
  9
$PUCSORTHOREF
  2

  9
$PUCSORTHOVIEW
 70
     0
  9
$PUCSORGTOP
 10
0.0
 20
0.0
 30
0.0
  9
$PUCSORGBOTTOM
 10
0.0
 20
0.0
 30
0.0
  9
$PUCSORGLEFT
 10
0.0
 20
0.0
 30
0.0
  9
$PUCSORGRIGHT
 10
0.0
 20
0.0
 30
0.0
  9
$PUCSORGFRONT
 10
0.0
 20
0.0
 30
0.0
  9
$PUCSORGBACK
 10
0.0
 20
0.0
 30
0.0
  9
$USERI1
 70
     0
  9
$USERI2
 70
     0
  9
$USERI3
 70
     0
  9
$USERI4
 70
     0
  9
$USERI5
 70
     0
  9
$USERR1
 40
0.0
  9
$USERR2
 40
0.0
  9
$USERR3
 40
0.0
  9
$USERR4
 40
0.0
  9
$USERR5
 40
0.0
  9
$WORLDVIEW
 70
     1
  9
$SHADEDGE
 70
     3
  9
$SHADEDIF
 70
    70
  9
$TILEMODE
 70
     1
  9
$MAXACTVP
 70
    64
  9
$PINSBASE
 10
0.0
 20
0.0
 30
0.0
  9
$PLIMCHECK
 70
     0
  9
$PEXTMIN
 10
1.000000000000000E+20
 20
1.000000000000000E+20
 30
1.000000000000000E+20
  9
$PEXTMAX
 10
-1.000000000000000E+20
 20
-1.000000000000000E+20
 30
-1.000000000000000E+20
  9
$PLIMMIN
 10
0.0
 20
0.0
  9
$PLIMMAX
 10
12.0
 20
9.0
  9
$UNITMODE
 70
     0
  9
$VISRETAIN
 70
     1
  9
$PLINEGEN
 70
     0
  9
$PSLTSCALE
 70
     1
  9
$TREEDEPTH
 70
  3020
  9
$CMLSTYLE
  2
Standard
  9
$CMLJUST
 70
     0
  9
$CMLSCALE
 40
1.0
  9
$PROXYGRAPHICS
 70
     1
  9
$MEASUREMENT
 70
     0
  9
$CELWEIGHT
370
    -1
  9
$ENDCAPS
280
     0
  9
$JOINSTYLE
280
     0
  9
$LWDISPLAY
290
     1
  9
$INSUNITS
 70
     1
  9
$HYPERLINKBASE
  1

  9
$STYLESHEET
  1

  9
$XEDIT
290
     1
  9
$CEPSNTYPE
380
     0
  9
$PSTYLEMODE
290
     1
  9
$FINGERPRINTGUID
  2
{53B8B00D-0DEE-86F7-826F-160480C89386}
  9
$VERSIONGUID
  2
{FAEB1C32-E019-11D5-929B-00C0DF256EC4}
  9
$EXTNAMES
290
     1
  9
$PSVPSCALE
 40
0.0
  9
$OLESTARTUP
290
     0
  9
$SORTENTS
280
   127
  9
$INDEXCTL
280
     0
  9
$HIDETEXT
280
     1
  9
$XCLIPFRAME
280
     2
  9
$HALOGAP
280
     0
  9
$OBSCOLOR
 70
   257
  9
$OBSLTYPE
280
     0
  9
$INTERSECTIONDISPLAY
280
     0
  9
$INTERSECTIONCOLOR
 70
   257
  9
$DIMASSOC
280
     2
  9
$PROJECTNAME
  1

  9
$CAMERADISPLAY
290
     0
  9
$LENSLENGTH
 40
50.0
  9
$CAMERAHEIGHT
 40
0.0
  9
$STEPSPERSEC
 40
2.0
  9
$STEPSIZE
 40
6.0
  9
$3DDWFPREC
 40
2.0
  9
$PSOLWIDTH
 40
0.25
  9
$PSOLHEIGHT
 40
4.0
  9
$LOFTANG1
 40
1.570796326794897
  9
$LOFTANG2
 40
1.570796326794897
  9
$LOFTMAG1
 40
0.0
  9
$LOFTMAG2
 40
0.0
  9
$LOFTPARAM
 70
     7
  9
$LOFTNORMALS
280
     1
  9
$LATITUDE
 40
37.795
  9
$LONGITUDE
 40
-122.394
  9
$NORTHDIRECTION
 40
0.0
  9
$TIMEZONE
 70
 -8000
  9
$LIGHTGLYPHDISPLAY
280
     1
  9
$TILEMODELIGHTSYNCH
280
     1
  9
$CMATERIAL
347
3C
  9
$SOLIDHIST
280
     1
  9
$SHOWHIST
280
     1
  9
$DWFFRAME
280
     2
  9
$DGNFRAME
280
     2
  9
$REALWORLDSCALE
290
     1
  9
$INTERFERECOLOR
 62
   256
  9
$CSHADOW
280
     0
  9
$SHADOWPLANELOCATION
 40
0.0
  0
ENDSEC
  0
SECTION
  2
CLASSES
  0
CLASS
  1
ACDBDICTIONARYWDFLT
  2
AcDbDictionaryWithDefault
  3
ObjectDBX Classes
 90
        0
 91
        4
280
     0
281
     0
  0
CLASS
  1
VISUALSTYLE
  2
AcDbVisualStyle
  3
ObjectDBX Classes
 90
     4095
 91
        4
280
     0
281
     0
  0
CLASS
  1
MATERIAL
  2
AcDbMaterial
  3
ObjectDBX Classes
 90
     1153
 91
        4
280
     0
281
     0
  0
CLASS
  1
SUN
  2
AcDbSun
  3
SCENEOE
 90
     1024
 91
        4
280
     0
281
     0
  0
ENDSEC
  0
SECTION
  2
TABLES
  0
TABLE
  2
VPORT
  5
8
330
0
100
AcDbSymbolTable
 70
     1
  0
VPORT
  5
29
330
8
100
AcDbSymbolTableRecord
100
AcDbViewportTableRecord
  2
*Active
 70
     0
 10
0.0
 20
0.0
 11
1.0
 21
1.0
 12
0.0
 22
0.0
 13
0.0
 23
0.0
 14
0.5
 24
0.5
 15
0.5
 25
0.5
 16
0.0
 26
0.0
 36
1.0
 17
105.0007777515277
 27
-148.5000416295416
 37
0.0
 40
297.0000832590831
 41
0.7070757462376333
 42
50.0
 43
0.0
 44
0.0
 50
0.0
 51
0.0
 71
     0
 72
   100
 73
     1
 74
     3
 75
     0
 76
     0
 77
     0
 78
     0
281
     0
 65
     1
110
0.0
120
0.0
130
0.0
111
1.0
121
0.0
131
0.0
112
0.0
122
1.0
132
0.0
 79
     0
146
0.0
 60
     3
 61
     5
292
     1
282
     1
141
0.0
142
0.0
 63
   250
361
3F
  0
ENDTAB
  0
TABLE
  2
LTYPE
  5
5
330
0
100
AcDbSymbolTable
 70
     2
  0
LTYPE
  5
14
330
5
100
AcDbSymbolTableRecord
100
AcDbLinetypeTableRecord
  2
ByBlock
 70
     0
  3

 72
    65
 73
     0
 40
0.0
  0
LTYPE
  5
15
330
5
100
AcDbSymbolTableRecord
100
AcDbLinetypeTableRecord
  2
ByLayer
 70
     0
  3

 72
    65
 73
     0
 40
0.0
  0
LTYPE
  5
16
330
5
100
AcDbSymbolTableRecord
100
AcDbLinetypeTableRecord
  2
Continuous
 70
     0
  3
Solid line
 72
    65
 73
     0
 40
0.0
  0
LTYPE
  5
13C
330
5
100
AcDbSymbolTableRecord
100
AcDbLinetypeTableRecord
  2
AI-Linetype-1
 70
     0
  3
Adobe Illustrator Linetype No. 1
 72
    65
 73
     2
 40
1.380066645462674
 49
0.6900333227313368
 74
     0
 49
-0.6900333227313368
 74
     0
  0
ENDTAB
  0
TABLE
  2
LAYER
  5
2
330
0
100
AcDbSymbolTable
 70
     2
  0
LAYER
  5
10
330
2
100
AcDbSymbolTableRecord
100
AcDbLayerTableRecord
  2
0
 70
     0
 62
     7
  6
Continuous
370
    -3
390
F
347
3E
  0
LAYER
  5
40
330
2
100
AcDbSymbolTableRecord
100
AcDbLayerTableRecord
  2
_U+30EC_U+30A4_U+30E4_U+30FC 1
 70
     0
 62
     7
  6
Continuous
370
    -3
390
F
347
3E
  0
ENDTAB
  0
TABLE
  2
STYLE
  5
3
330
0
100
AcDbSymbolTable
 70
     1
  0
STYLE
  5
11
330
3
100
AcDbSymbolTableRecord
100
AcDbTextStyleTableRecord
  2
Standard
 70
     0
 40
0.0
 41
1.0
 50
0.0
 71
     0
 42
0.2
  3
txt
  4

  0
ENDTAB
  0
TABLE
  2
VIEW
  5
6
330
0
100
AcDbSymbolTable
 70
     0
  0
ENDTAB
  0
TABLE
  2
UCS
  5
7
330
0
100
AcDbSymbolTable
 70
     0
  0
ENDTAB
  0
TABLE
  2
APPID
  5
9
330
0
100
AcDbSymbolTable
 70
     1
  0
APPID
  5
12
330
9
100
AcDbSymbolTableRecord
100
AcDbRegAppTableRecord
  2
ACAD
 70
     0
  0
ENDTAB
  0
TABLE
  2
DIMSTYLE
  5
A
330
0
100
AcDbSymbolTable
 70
     1
100
AcDbDimStyleTable
  0
DIMSTYLE
105
27
330
A
100
AcDbSymbolTableRecord
100
AcDbDimStyleTableRecord
  2
Standard
 70
     0
178
     0
340
11
  0
ENDTAB
  0
TABLE
  2
BLOCK_RECORD
  5
1
330
0
100
AcDbSymbolTable
 70
     8
  0
BLOCK_RECORD
  5
1F
330
1
100
AcDbSymbolTableRecord
100
AcDbBlockTableRecord
  2
*Model_Space
340
22
 70
     0
280
     1
281
     0
  0
BLOCK_RECORD
  5
1B
330
1
100
AcDbSymbolTableRecord
100
AcDbBlockTableRecord
  2
*Paper_Space
340
1E
 70
     0
280
     1
281
     0
  0
BLOCK_RECORD
  5
23
330
1
100
AcDbSymbolTableRecord
100
AcDbBlockTableRecord
  2
*Paper_Space0
340
26
 70
     0
280
     1
281
     0
  0
BLOCK_RECORD
  5
AC
330
1
100
AcDbSymbolTableRecord
100
AcDbBlockTableRecord
  2
block 2
340
0
102
{BLKREFS
331
AD
102
}
 70
     0
280
     1
281
     0
  0
BLOCK_RECORD
  5
BE
330
1
100
AcDbSymbolTableRecord
100
AcDbBlockTableRecord
  2
block 3
340
0
102
{BLKREFS
331
BF
102
}
 70
     0
280
     1
281
     0
  0
BLOCK_RECORD
  5
D0
330
1
100
AcDbSymbolTableRecord
100
AcDbBlockTableRecord
  2
block 4
340
0
102
{BLKREFS
331
D1
102
}
 70
     0
280
     1
281
     0
  0
BLOCK_RECORD
  5
F8
330
1
100
AcDbSymbolTableRecord
100
AcDbBlockTableRecord
  2
block 5
340
0
102
{BLKREFS
331
F9
102
}
 70
     0
280
     1
281
     0
  0
BLOCK_RECORD
  5
10D
330
1
100
AcDbSymbolTableRecord
100
AcDbBlockTableRecord
  2
block 6
340
0
102
{BLKREFS
331
10E
102
}
 70
     0
280
     1
281
     0
  0
BLOCK_RECORD
  5
11D
330
1
100
AcDbSymbolTableRecord
100
AcDbBlockTableRecord
  2
block 7
340
0
102
{BLKREFS
331
11E
102
}
 70
     0
280
     1
281
     0
  0
BLOCK_RECORD
  5
12F
330
1
100
AcDbSymbolTableRecord
100
AcDbBlockTableRecord
  2
block 8
340
0
102
{BLKREFS
331
130
102
}
 70
     0
280
     1
281
     0
  0
ENDTAB
  0
ENDSEC
  0
SECTION
  2
BLOCKS
  0
BLOCK
  5
20
330
1F
100
AcDbEntity
  8
0
100
AcDbBlockBegin
  2
*Model_Space
 70
     0
 10
0.0
 20
0.0
 30
0.0
  3
*Model_Space
  1

  0
ENDBLK
  5
21
330
1F
100
AcDbEntity
  8
0
100
AcDbBlockEnd
  0
BLOCK
  5
1C
330
1B
100
AcDbEntity
 67
     1
  8
0
100
AcDbBlockBegin
  2
*Paper_Space
 70
     0
 10
0.0
 20
0.0
 30
0.0
  3
*Paper_Space
  1

  0
ENDBLK
  5
1D
330
1B
100
AcDbEntity
 67
     1
  8
0
100
AcDbBlockEnd
  0
BLOCK
  5
24
330
23
100
AcDbEntity
  8
0
100
AcDbBlockBegin
  2
*Paper_Space0
 70
     0
 10
0.0
 20
0.0
 30
0.0
  3
*Paper_Space0
  1

  0
ENDBLK
  5
25
330
23
100
AcDbEntity
  8
0
100
AcDbBlockEnd
  0
BLOCK
  5
AE
330
AC
100
AcDbEntity
  8
0
100
AcDbBlockBegin
  2
block 2
 70
     0
 10
0.0
 20
0.0
 30
0.0
  3
block 2
  1

  0
SPLINE
  5
B0
330
AC
100
AcDbEntity
  8
_U+30EC_U+30A4_U+30E4_U+30FC 1
370
     0
100
AcDbSpline
210
0.0
220
0.0
230
1.0
 70
    11
 71
     3
 72
    62
 73
    58
 74
     0
 42
0.0000000001
 43
0.0000000001
 12
1.0
 22
0.0
 32
0.0
 13
1.0
 23
0.0
 33
0.0
 40
0.0
 40
0.0
 40
0.0
 40
0.0
 40
1.0
 40
1.0
 40
1.0
 40
2.0
 40
2.0
 40
2.0
 40
3.0
 40
3.0
 40
3.0
 40
4.0
 40
4.0
 40
4.0
 40
5.0
 40
5.0
 40
5.0
 40
6.0
 40
6.0
 40
6.0
 40
7.0
 40
7.0
 40
7.0
 40
8.0
 40
8.0
 40
8.0
 40
9.0
 40
9.0
 40
9.0
 40
10.0
 40
10.0
 40
10.0
 40
11.0
 40
11.0
 40
11.0
 40
12.0
 40
12.0
 40
12.0
 40
13.0
 40
13.0
 40
13.0
 40
14.0
 40
14.0
 40
14.0
 40
15.0
 40
15.0
 40
15.0
 40
16.0
 40
16.0
 40
16.0
 40
17.0
 40
17.0
 40
17.0
 40
18.0
 40
18.0
 40
18.0
 40
19.0
 40
19.0
 40
19.0
 40
19.0
 10
129.8218776802181
 20
-160.6699516742422
 30
0.0
 10
129.8218776802181
 20
-160.7715819910571
 30
0.0
 10
129.8008625977581
 20
-161.00447044586
 30
0.0
 10
129.6148274415546
 20
-161.1377956411392
 30
0.0
 10
129.5025173287355
 20
-161.2170328372999
 30
0.0
 10
129.4032985787603
 20
-161.2215114614307
 30
0.0
 10
129.3185492298231
 20
-161.2259900855616
 30
0.0
 10
129.3185492298231
 20
-161.2259900855616
 30
0.0
 10
129.3185492298231
 20
-160.9910345734675
 30
0.0
 10
129.3185492298231
 20
-160.9910345734675
 30
0.0
 10
129.392618782756
 20
-160.9886230066278
 30
0.0
 10
129.6272297853015
 20
-160.9772541915265
 30
0.0
 10
129.6272297853015
 20
-160.6744302983731
 30
0.0
 10
129.6272297853015
 20
-160.5273247211529
 30
0.0
 10
129.5576388564995
 20
-160.3647162142491
 30
0.0
 10
129.3292290258274
 20
-160.3647162142491
 30
0.0
 10
129.212784798426
 20
-160.3647162142491
 30
0.0
 10
129.164208952084
 20
-160.4053683409751
 30
0.0
 10
129.1325140736197
 20
-160.439474786279
 30
0.0
 10
129.0584445206868
 20
-160.5183674728912
 30
0.0
 10
129.0456976673914
 20
-160.6427354199088
 30
0.0
 10
129.0456976673914
 20
-160.7016465527065
 30
0.0
 10
129.0456976673914
 20
-160.7219726160695
 30
0.0
 10
129.0477647246825
 20
-160.7602131759558
 30
0.0
 10
129.0518988392648
 20
-160.7898409971289
 30
0.0
 10
129.0518988392648
 20
-160.7898409971289
 30
0.0
 10
128.8572509443482
 20
-160.7898409971289
 30
0.0
 10
128.8572509443482
 20
-160.7898409971289
 30
0.0
 10
128.8637966257702
 20
-160.749188870403
 30
0.0
 10
128.8658636830613
 20
-160.7037136099977
 30
0.0
 10
128.8658636830613
 20
-160.6971679285757
 30
0.0
 10
128.8658636830613
 20
-160.6268879806766
 30
0.0
 10
128.8445040910528
 20
-160.4143255892367
 30
0.0
 10
128.6078260312161
 20
-160.4143255892367
 30
0.0
 10
128.4300591041772
 20
-160.4143255892367
 30
0.0
 10
128.3749375764132
 20
-160.5545409754864
 30
0.0
 10
128.3749375764132
 20
-160.6720187315334
 30
0.0
 10
128.3749375764132
 20
-160.9548610708724
 30
0.0
 10
128.6078260312161
 20
-160.963818319134
 30
0.0
 10
128.6794840173093
 20
-160.9682969432649
 30
0.0
 10
128.6794840173093
 20
-160.9682969432649
 30
0.0
 10
128.6794840173093
 20
-161.1853379588356
 30
0.0
 10
128.6794840173093
 20
-161.1853379588356
 30
0.0
 10
128.5547715607433
 20
-161.176380710574
 30
0.0
 10
128.1782226242055
 20
-161.1470973989493
 30
0.0
 10
128.1782226242055
 20
-160.6585828591409
 30
0.0
 10
128.1782226242055
 20
-160.4188042133675
 30
0.0
 10
128.3053466476112
 20
-160.1611110710708
 30
0.0
 10
128.6012803497941
 20
-160.1611110710708
 30
0.0
 10
128.7876600155462
 20
-160.1611110710708
 30
0.0
 10
128.8699977976436
 20
-160.2630858974342
 30
0.0
 10
128.9313204972811
 20
-160.3691948383799
 30
0.0
 10
128.9588812611631
 20
-160.3037380241602
 30
0.0
 10
129.0391519859694
 20
-160.1090901292436
 30
0.0
 10
129.316482172532
 20
-160.1090901292436
 30
0.0
 10
129.6547905491835
 20
-160.1090901292436
 30
0.0
 10
129.8218776802181
 20
-160.3736734625108
 30
0.0
 10
129.8218776802181
 20
-160.6699516742422
 30
0.0
  0
HATCH
  5
B1
330
AC
100
AcDbEntity
  8
_U+30EC_U+30A4_U+30E4_U+30FC 1
 62
   179
420
  2234388
100
AcDbHatch
 10
0.0
 20
0.0
 30
0.0
210
0.0
220
0.0
230
1.0
  2
SOLID
 70
     1
 71
     0
 91
        1
 92
        1
 93
        1
 72
     4
 94
        3
 73
     0
 74
     1
 95
       62
 96
       58
 40
0.0
 40
0.0
 40
0.0
 40
0.0
 40
1.0
 40
1.0
 40
1.0
 40
2.0
 40
2.0
 40
2.0
 40
3.0
 40
3.0
 40
3.0
 40
4.0
 40
4.0
 40
4.0
 40
5.0
 40
5.0
 40
5.0
 40
6.0
 40
6.0
 40
6.0
 40
7.0
 40
7.0
 40
7.0
 40
8.0
 40
8.0
 40
8.0
 40
9.0
 40
9.0
 40
9.0
 40
10.0
 40
10.0
 40
10.0
 40
11.0
 40
11.0
 40
11.0
 40
12.0
 40
12.0
 40
12.0
 40
13.0
 40
13.0
 40
13.0
 40
14.0
 40
14.0
 40
14.0
 40
15.0
 40
15.0
 40
15.0
 40
16.0
 40
16.0
 40
16.0
 40
17.0
 40
17.0
 40
17.0
 40
18.0
 40
18.0
 40
18.0
 40
19.0
 40
19.0
 40
19.0
 40
19.0
 10
129.8218776802181
 20
-160.6699516742422
 10
129.8218776802181
 20
-160.7715819910571
 10
129.8008625977581
 20
-161.00447044586
 10
129.6148274415546
 20
-161.1377956411392
 10
129.5025173287355
 20
-161.2170328372999
 10
129.4032985787603
 20
-161.2215114614307
 10
129.3185492298231
 20
-161.2259900855616
 10
129.3185492298231
 20
-161.2259900855616
 10
129.3185492298231
 20
-160.9910345734675
 10
129.3185492298231
 20
-160.9910345734675
 10
129.392618782756
 20
-160.9886230066278
 10
129.6272297853015
 20
-160.9772541915265
 10
129.6272297853015
 20
-160.6744302983731
 10
129.6272297853015
 20
-160.5273247211529
 10
129.5576388564995
 20
-160.3647162142491
 10
129.3292290258274
 20
-160.3647162142491
 10
129.212784798426
 20
-160.3647162142491
 10
129.164208952084
 20
-160.4053683409751
 10
129.1325140736197
 20
-160.439474786279
 10
129.0584445206868
 20
-160.5183674728912
 10
129.0456976673914
 20
-160.6427354199088
 10
129.0456976673914
 20
-160.7016465527065
 10
129.0456976673914
 20
-160.7219726160695
 10
129.0477647246825
 20
-160.7602131759558
 10
129.0518988392648
 20
-160.7898409971289
 10
129.0518988392648
 20
-160.7898409971289
 10
128.8572509443482
 20
-160.7898409971289
 10
128.8572509443482
 20
-160.7898409971289
 10
128.8637966257702
 20
-160.749188870403
 10
128.8658636830613
 20
-160.7037136099977
 10
128.8658636830613
 20
-160.6971679285757
 10
128.8658636830613
 20
-160.6268879806766
 10
128.8445040910528
 20
-160.4143255892367
 10
128.6078260312161
 20
-160.4143255892367
 10
128.4300591041772
 20
-160.4143255892367
 10
128.3749375764132
 20
-160.5545409754864
 10
128.3749375764132
 20
-160.6720187315334
 10
128.3749375764132
 20
-160.9548610708724
 10
128.6078260312161
 20
-160.963818319134
 10
128.6794840173093
 20
-160.9682969432649
 10
128.6794840173093
 20
-160.9682969432649
 10
128.6794840173093
 20
-161.1853379588356
 10
128.6794840173093
 20
-161.1853379588356
 10
128.5547715607433
 20
-161.176380710574
 10
128.1782226242055
 20
-161.1470973989493
 10
128.1782226242055
 20
-160.6585828591409
 10
128.1782226242055
 20
-160.4188042133675
 10
128.3053466476112
 20
-160.1611110710708
 10
128.6012803497941
 20
-160.1611110710708
 10
128.7876600155462
 20
-160.1611110710708
 10
128.8699977976436
 20
-160.2630858974342
 10
128.9313204972811
 20
-160.3691948383799
 10
128.9588812611631
 20
-160.3037380241602
 10
129.0391519859694
 20
-160.1090901292436
 10
129.316482172532
 20
-160.1090901292436
 10
129.6547905491835
 20
-160.1090901292436
 10
129.8218776802181
 20
-160.3736734625108
 10
129.8218776802181
 20
-160.6699516742422
 97
        0
 97
        0
 75
     2
 76
     1
 98
        0
  0
ENDBLK
  5
AF
330
AC
100
AcDbEntity
  8
0
100
AcDbBlockEnd
  0
BLOCK
  5
C0
330
BE
100
AcDbEntity
  8
0
100
AcDbBlockBegin
  2
block 3
 70
     0
 10
0.0
 20
0.0
 30
0.0
  3
block 3
  1

  0
SPLINE
  5
C2
330
BE
100
AcDbEntity
  8
_U+30EC_U+30A4_U+30E4_U+30FC 1
370
     0
100
AcDbSpline
210
0.0
220
0.0
230
1.0
 70
    11
 71
     3
 72
    62
 73
    58
 74
     0
 42
0.0000000001
 43
0.0000000001
 12
1.0
 22
0.0
 32
0.0
 13
1.0
 23
0.0
 33
0.0
 40
0.0
 40
0.0
 40
0.0
 40
0.0
 40
1.0
 40
1.0
 40
1.0
 40
2.0
 40
2.0
 40
2.0
 40
3.0
 40
3.0
 40
3.0
 40
4.0
 40
4.0
 40
4.0
 40
5.0
 40
5.0
 40
5.0
 40
6.0
 40
6.0
 40
6.0
 40
7.0
 40
7.0
 40
7.0
 40
8.0
 40
8.0
 40
8.0
 40
9.0
 40
9.0
 40
9.0
 40
10.0
 40
10.0
 40
10.0
 40
11.0
 40
11.0
 40
11.0
 40
12.0
 40
12.0
 40
12.0
 40
13.0
 40
13.0
 40
13.0
 40
14.0
 40
14.0
 40
14.0
 40
15.0
 40
15.0
 40
15.0
 40
16.0
 40
16.0
 40
16.0
 40
17.0
 40
17.0
 40
17.0
 40
18.0
 40
18.0
 40
18.0
 40
19.0
 40
19.0
 40
19.0
 40
19.0
 10
87.90781247802305
 20
-136.5651353282719
 30
0.0
 10
87.80618216120818
 20
-136.5651353282719
 30
0.0
 10
87.5732937064053
 20
-136.5441202458119
 30
0.0
 10
87.43996851112612
 20
-136.3580850896084
 30
0.0
 10
87.36073131496538
 20
-136.2457749767892
 30
0.0
 10
87.35625269083455
 20
-136.1465562268141
 30
0.0
 10
87.35177406670373
 20
-136.0618068778769
 30
0.0
 10
87.35177406670373
 20
-136.0618068778769
 30
0.0
 10
87.58672957879777
 20
-136.0618068778769
 30
0.0
 10
87.58672957879777
 20
-136.0618068778769
 30
0.0
 10
87.58914114563744
 20
-136.1358764308098
 30
0.0
 10
87.60050996073876
 20
-136.3704874333553
 30
0.0
 10
87.90333385389222
 20
-136.3704874333553
 30
0.0
 10
88.0504394311124
 20
-136.3704874333553
 30
0.0
 10
88.21304793801619
 20
-136.3008965045533
 30
0.0
 10
88.21304793801619
 20
-136.0724866738812
 30
0.0
 10
88.21304793801619
 20
-135.9560424464798
 30
0.0
 10
88.17239581129024
 20
-135.9074666001377
 30
0.0
 10
88.1386338755348
 20
-135.8757717216734
 30
0.0
 10
88.05939667937405
 20
-135.8017021687405
 30
0.0
 10
87.93502873235653
 20
-135.7889553154451
 30
0.0
 10
87.87611759955875
 20
-135.7889553154451
 30
0.0
 10
87.85579153619578
 20
-135.7889553154451
 30
0.0
 10
87.8175509763095
 20
-135.7910223727363
 30
0.0
 10
87.78792315513635
 20
-135.7951564873186
 30
0.0
 10
87.78792315513635
 20
-135.7951564873186
 30
0.0
 10
87.78792315513635
 20
-135.600508592402
 30
0.0
 10
87.78792315513635
 20
-135.600508592402
 30
0.0
 10
87.8285752818623
 20
-135.6070542738239
 30
0.0
 10
87.8740505422676
 20
-135.6091213311151
 30
0.0
 10
87.88059622368958
 20
-135.6091213311151
 30
0.0
 10
87.95087617158867
 20
-135.6091213311151
 30
0.0
 10
88.16343856302859
 20
-135.5877617391065
 30
0.0
 10
88.16343856302859
 20
-135.3510836792699
 30
0.0
 10
88.16343856302859
 20
-135.173316752231
 30
0.0
 10
88.02322317677893
 20
-135.118195224467
 30
0.0
 10
87.9057454207319
 20
-135.118195224467
 30
0.0
 10
87.62290308139289
 20
-135.118195224467
 30
0.0
 10
87.61394583313124
 20
-135.3510836792699
 30
0.0
 10
87.60946720900041
 20
-135.4227416653631
 30
0.0
 10
87.60946720900041
 20
-135.4227416653631
 30
0.0
 10
87.39242619342967
 20
-135.4227416653631
 30
0.0
 10
87.39242619342967
 20
-135.4227416653631
 30
0.0
 10
87.40138344169132
 20
-135.298029208797
 30
0.0
 10
87.43066675331595
 20
-134.9214802722592
 30
0.0
 10
87.91918129312438
 20
-134.9214802722592
 30
0.0
 10
88.15895993889777
 20
-134.9214802722592
 30
0.0
 10
88.41665308119445
 20
-135.0486042956649
 30
0.0
 10
88.41665308119445
 20
-135.3445379978479
 30
0.0
 10
88.41665308119445
 20
-135.5309176635999
 30
0.0
 10
88.31467825483105
 20
-135.6132554456974
 30
0.0
 10
88.20856931388536
 20
-135.6745781453348
 30
0.0
 10
88.2740261281051
 20
-135.7021389092168
 30
0.0
 10
88.46867402302172
 20
-135.7824096340232
 30
0.0
 10
88.46867402302172
 20
-136.0597398205858
 30
0.0
 10
88.46867402302172
 20
-136.3980481972373
 30
0.0
 10
88.20409068975454
 20
-136.5651353282719
 30
0.0
 10
87.90781247802305
 20
-136.5651353282719
 30
0.0
  0
HATCH
  5
C3
330
BE
100
AcDbEntity
  8
_U+30EC_U+30A4_U+30E4_U+30FC 1
 62
   179
420
  2234388
100
AcDbHatch
 10
0.0
 20
0.0
 30
0.0
210
0.0
220
0.0
230
1.0
  2
SOLID
 70
     1
 71
     0
 91
        1
 92
        1
 93
        1
 72
     4
 94
        3
 73
     0
 74
     1
 95
       62
 96
       58
 40
0.0
 40
0.0
 40
0.0
 40
0.0
 40
1.0
 40
1.0
 40
1.0
 40
2.0
 40
2.0
 40
2.0
 40
3.0
 40
3.0
 40
3.0
 40
4.0
 40
4.0
 40
4.0
 40
5.0
 40
5.0
 40
5.0
 40
6.0
 40
6.0
 40
6.0
 40
7.0
 40
7.0
 40
7.0
 40
8.0
 40
8.0
 40
8.0
 40
9.0
 40
9.0
 40
9.0
 40
10.0
 40
10.0
 40
10.0
 40
11.0
 40
11.0
 40
11.0
 40
12.0
 40
12.0
 40
12.0
 40
13.0
 40
13.0
 40
13.0
 40
14.0
 40
14.0
 40
14.0
 40
15.0
 40
15.0
 40
15.0
 40
16.0
 40
16.0
 40
16.0
 40
17.0
 40
17.0
 40
17.0
 40
18.0
 40
18.0
 40
18.0
 40
19.0
 40
19.0
 40
19.0
 40
19.0
 10
87.90781247802305
 20
-136.5651353282719
 10
87.80618216120818
 20
-136.5651353282719
 10
87.5732937064053
 20
-136.5441202458119
 10
87.43996851112612
 20
-136.3580850896084
 10
87.36073131496538
 20
-136.2457749767892
 10
87.35625269083455
 20
-136.1465562268141
 10
87.35177406670373
 20
-136.0618068778769
 10
87.35177406670373
 20
-136.0618068778769
 10
87.58672957879777
 20
-136.0618068778769
 10
87.58672957879777
 20
-136.0618068778769
 10
87.58914114563744
 20
-136.1358764308098
 10
87.60050996073876
 20
-136.3704874333553
 10
87.90333385389222
 20
-136.3704874333553
 10
88.0504394311124
 20
-136.3704874333553
 10
88.21304793801619
 20
-136.3008965045533
 10
88.21304793801619
 20
-136.0724866738812
 10
88.21304793801619
 20
-135.9560424464798
 10
88.17239581129024
 20
-135.9074666001377
 10
88.1386338755348
 20
-135.8757717216734
 10
88.05939667937405
 20
-135.8017021687405
 10
87.93502873235653
 20
-135.7889553154451
 10
87.87611759955875
 20
-135.7889553154451
 10
87.85579153619578
 20
-135.7889553154451
 10
87.8175509763095
 20
-135.7910223727363
 10
87.78792315513635
 20
-135.7951564873186
 10
87.78792315513635
 20
-135.7951564873186
 10
87.78792315513635
 20
-135.600508592402
 10
87.78792315513635
 20
-135.600508592402
 10
87.8285752818623
 20
-135.6070542738239
 10
87.8740505422676
 20
-135.6091213311151
 10
87.88059622368958
 20
-135.6091213311151
 10
87.95087617158867
 20
-135.6091213311151
 10
88.16343856302859
 20
-135.5877617391065
 10
88.16343856302859
 20
-135.3510836792699
 10
88.16343856302859
 20
-135.173316752231
 10
88.02322317677893
 20
-135.118195224467
 10
87.9057454207319
 20
-135.118195224467
 10
87.62290308139289
 20
-135.118195224467
 10
87.61394583313124
 20
-135.3510836792699
 10
87.60946720900041
 20
-135.4227416653631
 10
87.60946720900041
 20
-135.4227416653631
 10
87.39242619342967
 20
-135.4227416653631
 10
87.39242619342967
 20
-135.4227416653631
 10
87.40138344169132
 20
-135.298029208797
 10
87.43066675331595
 20
-134.9214802722592
 10
87.91918129312438
 20
-134.9214802722592
 10
88.15895993889777
 20
-134.9214802722592
 10
88.41665308119445
 20
-135.0486042956649
 10
88.41665308119445
 20
-135.3445379978479
 10
88.41665308119445
 20
-135.5309176635999
 10
88.31467825483105
 20
-135.6132554456974
 10
88.20856931388536
 20
-135.6745781453348
 10
88.2740261281051
 20
-135.7021389092168
 10
88.46867402302172
 20
-135.7824096340232
 10
88.46867402302172
 20
-136.0597398205858
 10
88.46867402302172
 20
-136.3980481972373
 10
88.20409068975454
 20
-136.5651353282719
 10
87.90781247802305
 20
-136.5651353282719
 97
        0
 97
        0
 75
     2
 76
     1
 98
        0
  0
ENDBLK
  5
C1
330
BE
100
AcDbEntity
  8
0
100
AcDbBlockEnd
  0
BLOCK
  5
D2
330
D0
100
AcDbEntity
  8
0
100
AcDbBlockBegin
  2
block 4
 70
     0
 10
0.0
 20
0.0
 30
0.0
  3
block 4
  1

  0
POLYLINE
  5
D4
330
D0
100
AcDbEntity
  8
_U+30EC_U+30A4_U+30E4_U+30FC 1
370
     0
100
AcDb2dPolyline
 66
     1
 10
0.0
 20
0.0
 30
0.0
  0
VERTEX
  5
D5
330
D4
100
AcDbEntity
  8
_U+30EC_U+30A4_U+30E4_U+30FC 1
370
     0
100
AcDbVertex
100
AcDb2dVertex
 10
106.143047390999
 20
-132.1674709413505
 30
0.0
  0
VERTEX
  5
D6
330
D4
100
AcDbEntity
  8
_U+30EC_U+30A4_U+30E4_U+30FC 1
370
     0
100
AcDbVertex
100
AcDb2dVertex
 10
106.143047390999
 20
-132.5143920567152
 30
0.0
  0
VERTEX
  5
D7
330
D4
100
AcDbEntity
  8
_U+30EC_U+30A4_U+30E4_U+30FC 1
370
     0
100
AcDbVertex
100
AcDb2dVertex
 10
105.9101589361961
 20
-132.5143920567152
 30
0.0
  0
VERTEX
  5
D8
330
D4
100
AcDbEntity
  8
_U+30EC_U+30A4_U+30E4_U+30FC 1
370
     0
100
AcDbVertex
100
AcDb2dVertex
 10
105.9101589361961
 20
-132.1674709413505
 30
0.0
  0
VERTEX
  5
D9
330
D4
100
AcDbEntity
  8
_U+30EC_U+30A4_U+30E4_U+30FC 1
370
     0
100
AcDbVertex
100
AcDb2dVertex
 10
105.2090820049477
 20
-132.1674709413505
 30
0.0
  0
VERTEX
  5
DA
330
D4
100
AcDbEntity
  8
_U+30EC_U+30A4_U+30E4_U+30FC 1
370
     0
100
AcDbVertex
100
AcDb2dVertex
 10
105.2090820049477
 20
-131.9431952252607
 30
0.0
  0
VERTEX
  5
DB
330
D4
100
AcDbEntity
  8
_U+30EC_U+30A4_U+30E4_U+30FC 1
370
     0
100
AcDbVertex
100
AcDb2dVertex
 10
105.9349636236899
 20
-130.9699557506777
 30
0.0
  0
VERTEX
  5
DC
330
D4
100
AcDbEntity
  8
_U+30EC_U+30A4_U+30E4_U+30FC 1
370
     0
100
AcDbVertex
100
AcDb2dVertex
 10
106.143047390999
 20
-130.9699557506777
 30
0.0
  0
VERTEX
  5
DD
330
D4
100
AcDbEntity
  8
_U+30EC_U+30A4_U+30E4_U+30FC 1
370
     0
100
AcDbVertex
100
AcDb2dVertex
 10
106.143047390999
 20
-131.9686889318516
 30
0.0
  0
VERTEX
  5
DE
330
D4
100
AcDbEntity
  8
_U+30EC_U+30A4_U+30E4_U+30FC 1
370
     0
100
AcDbVertex
100
AcDb2dVertex
 10
106.3645670307005
 20
-131.9686889318516
 30
0.0
  0
VERTEX
  5
DF
330
D4
100
AcDbEntity
  8
_U+30EC_U+30A4_U+30E4_U+30FC 1
370
     0
100
AcDbVertex
100
AcDb2dVertex
 10
106.3645670307005
 20
-132.1674709413505
 30
0.0
  0
VERTEX
  5
E0
330
D4
100
AcDbEntity
  8
_U+30EC_U+30A4_U+30E4_U+30FC 1
370
     0
100
AcDbVertex
100
AcDb2dVertex
 10
106.143047390999
 20
-132.1674709413505
 30
0.0
  0
SEQEND
  5
E1
330
D4
100
AcDbEntity
  8
_U+30EC_U+30A4_U+30E4_U+30FC 1
370
     0
  0
POLYLINE
  5
E2
330
D0
100
AcDbEntity
  8
_U+30EC_U+30A4_U+30E4_U+30FC 1
370
     0
100
AcDb2dPolyline
 66
     1
 10
0.0
 20
0.0
 30
0.0
  0
VERTEX
  5
E3
330
E2
100
AcDbEntity
  8
_U+30EC_U+30A4_U+30E4_U+30FC 1
370
     0
100
AcDbVertex
100
AcDb2dVertex
 10
105.9101589361961
 20
-131.31274275146
 30
0.0
  0
VERTEX
  5
E4
330
E2
100
AcDbEntity
  8
_U+30EC_U+30A4_U+30E4_U+30FC 1
370
     0
100
AcDbVertex
100
AcDb2dVertex
 10
105.4216443963876
 20
-131.9686889318516
 30
0.0
  0
VERTEX
  5
E5
330
E2
100
AcDbEntity
  8
_U+30EC_U+30A4_U+30E4_U+30FC 1
370
     0
100
AcDbVertex
100
AcDb2dVertex
 10
105.9101589361961
 20
-131.9686889318516
 30
0.0
  0
VERTEX
  5
E6
330
E2
100
AcDbEntity
  8
_U+30EC_U+30A4_U+30E4_U+30FC 1
370
     0
100
AcDbVertex
100
AcDb2dVertex
 10
105.9101589361961
 20
-131.31274275146
 30
0.0
  0
SEQEND
  5
E7
330
E2
100
AcDbEntity
  8
_U+30EC_U+30A4_U+30E4_U+30FC 1
370
     0
  0
HATCH
  5
E8
330
D0
100
AcDbEntity
  8
_U+30EC_U+30A4_U+30E4_U+30FC 1
 62
   179
420
  2234388
100
AcDbHatch
 10
0.0
 20
0.0
 30
0.0
210
0.0
220
0.0
230
1.0
  2
SOLID
 70
     1
 71
     0
 91
        2
 92
        1
 93
       11
 72
     1
 10
106.143047390999
 20
-132.1674709413505
 11
106.143047390999
 21
-132.5143920567152
 72
     1
 10
106.143047390999
 20
-132.5143920567152
 11
105.9101589361961
 21
-132.5143920567152
 72
     1
 10
105.9101589361961
 20
-132.5143920567152
 11
105.9101589361961
 21
-132.1674709413505
 72
     1
 10
105.9101589361961
 20
-132.1674709413505
 11
105.2090820049477
 21
-132.1674709413505
 72
     1
 10
105.2090820049477
 20
-132.1674709413505
 11
105.2090820049477
 21
-131.9431952252607
 72
     1
 10
105.2090820049477
 20
-131.9431952252607
 11
105.9349636236899
 21
-130.9699557506777
 72
     1
 10
105.9349636236899
 20
-130.9699557506777
 11
106.143047390999
 21
-130.9699557506777
 72
     1
 10
106.143047390999
 20
-130.9699557506777
 11
106.143047390999
 21
-131.9686889318516
 72
     1
 10
106.143047390999
 20
-131.9686889318516
 11
106.3645670307005
 21
-131.9686889318516
 72
     1
 10
106.3645670307005
 20
-131.9686889318516
 11
106.3645670307005
 21
-132.1674709413505
 72
     1
 10
106.3645670307005
 20
-132.1674709413505
 11
106.143047390999
 21
-132.1674709413505
 97
        0
 92
        1
 93
        3
 72
     1
 10
105.9101589361961
 20
-131.31274275146
 11
105.4216443963876
 21
-131.9686889318516
 72
     1
 10
105.4216443963876
 20
-131.9686889318516
 11
105.9101589361961
 21
-131.9686889318516
 72
     1
 10
105.9101589361961
 20
-131.9686889318516
 11
105.9101589361961
 21
-131.31274275146
 97
        0
 75
     2
 76
     1
 98
        0
  0
SPLINE
  5
E9
330
D0
100
AcDbEntity
  8
_U+30EC_U+30A4_U+30E4_U+30FC 1
370
     0
100
AcDbSpline
210
0.0
220
0.0
230
1.0
 70
    11
 71
     3
 72
    29
 73
    25
 74
     0
 42
0.0000000001
 43
0.0000000001
 12
1.0
 22
0.0
 32
0.0
 13
1.0
 23
0.0
 33
0.0
 40
0.0
 40
0.0
 40
0.0
 40
0.0
 40
1.0
 40
1.0
 40
1.0
 40
2.0
 40
2.0
 40
2.0
 40
3.0
 40
3.0
 40
3.0
 40
4.0
 40
4.0
 40
4.0
 40
5.0
 40
5.0
 40
5.0
 40
6.0
 40
6.0
 40
6.0
 40
7.0
 40
7.0
 40
7.0
 40
8.0
 40
8.0
 40
8.0
 40
8.0
 10
107.4707871910143
 20
-132.3366251296763
 30
0.0
 10
107.3553764922584
 20
-132.5460869351795
 30
0.0
 10
107.1700303551519
 20
-132.5650349603483
 30
0.0
 10
107.0456624081344
 20
-132.5650349603483
 30
0.0
 10
106.874096652969
 20
-132.5650349603483
 30
0.0
 10
106.722512451618
 20
-132.5185261712975
 30
0.0
 10
106.6208821348031
 20
-132.3366251296763
 30
0.0
 10
106.5099500601781
 20
-132.1419772347597
 30
0.0
 10
106.4896239968151
 20
-131.905299174923
 30
0.0
 10
106.4896239968151
 20
-131.7423461584707
 30
0.0
 10
106.4896239968151
 20
-131.5983411671872
 30
0.0
 10
106.5078830028869
 20
-131.3465046872155
 30
0.0
 10
106.6208821348031
 20
-131.1477226777166
 30
0.0
 10
106.7359483240105
 20
-130.9448065536353
 30
0.0
 10
106.9078585887244
 20
-130.9213799043356
 30
0.0
 10
107.0456624081344
 20
-130.9213799043356
 30
0.0
 10
107.2155056155572
 20
-130.9213799043356
 30
0.0
 10
107.3691568741994
 20
-130.9658216360954
 30
0.0
 10
107.4707871910143
 20
-131.1477226777166
 30
0.0
 10
107.5772406415085
 20
-131.340303515342
 30
0.0
 10
107.6020453290023
 20
-131.5687133460141
 30
0.0
 10
107.6020453290023
 20
-131.7423461584707
 30
0.0
 10
107.6020453290023
 20
-131.9135674040876
 30
0.0
 10
107.5793076987996
 20
-132.1440442920508
 30
0.0
 10
107.4707871910143
 20
-132.3366251296763
 30
0.0
  0
SPLINE
  5
EA
330
D0
100
AcDbEntity
  8
_U+30EC_U+30A4_U+30E4_U+30FC 1
370
     0
100
AcDbSpline
210
0.0
220
0.0
230
1.0
 70
    11
 71
     3
 72
    17
 73
    13
 74
     0
 42
0.0000000001
 43
0.0000000001
 12
1.0
 22
0.0
 32
0.0
 13
1.0
 23
0.0
 33
0.0
 40
0.0
 40
0.0
 40
0.0
 40
0.0
 40
1.0
 40
1.0
 40
1.0
 40
2.0
 40
2.0
 40
2.0
 40
3.0
 40
3.0
 40
3.0
 40
4.0
 40
4.0
 40
4.0
 40
4.0
 10
107.0456624081344
 20
-131.1139607419611
 30
0.0
 10
106.7790120175761
 20
-131.1139607419611
 30
0.0
 10
106.7294026425885
 20
-131.3974921003972
 30
0.0
 10
106.7294026425885
 20
-131.7423461584707
 30
0.0
 10
106.7294026425885
 20
-132.0617065099533
 30
0.0
 10
106.7676432024748
 20
-132.3703870654317
 30
0.0
 10
107.0456624081344
 20
-132.3703870654317
 30
0.0
 10
107.3102457414016
 20
-132.3703870654317
 30
0.0
 10
107.3622666832289
 20
-132.0892672738353
 30
0.0
 10
107.3622666832289
 20
-131.7423461584707
 30
0.0
 10
107.3622666832289
 20
-131.4226412974395
 30
0.0
 10
107.3216145565029
 20
-131.1139607419611
 30
0.0
 10
107.0456624081344
 20
-131.1139607419611
 30
0.0
  0
HATCH
  5
EB
330
D0
100
AcDbEntity
  8
_U+30EC_U+30A4_U+30E4_U+30FC 1
 62
   179
420
  2234388
100
AcDbHatch
 10
0.0
 20
0.0
 30
0.0
210
0.0
220
0.0
230
1.0
  2
SOLID
 70
     1
 71
     0
 91
        2
 92
        1
 93
        1
 72
     4
 94
        3
 73
     0
 74
     1
 95
       29
 96
       25
 40
0.0
 40
0.0
 40
0.0
 40
0.0
 40
1.0
 40
1.0
 40
1.0
 40
2.0
 40
2.0
 40
2.0
 40
3.0
 40
3.0
 40
3.0
 40
4.0
 40
4.0
 40
4.0
 40
5.0
 40
5.0
 40
5.0
 40
6.0
 40
6.0
 40
6.0
 40
7.0
 40
7.0
 40
7.0
 40
8.0
 40
8.0
 40
8.0
 40
8.0
 10
107.4707871910143
 20
-132.3366251296763
 10
107.3553764922584
 20
-132.5460869351795
 10
107.1700303551519
 20
-132.5650349603483
 10
107.0456624081344
 20
-132.5650349603483
 10
106.874096652969
 20
-132.5650349603483
 10
106.722512451618
 20
-132.5185261712975
 10
106.6208821348031
 20
-132.3366251296763
 10
106.5099500601781
 20
-132.1419772347597
 10
106.4896239968151
 20
-131.905299174923
 10
106.4896239968151
 20
-131.7423461584707
 10
106.4896239968151
 20
-131.5983411671872
 10
106.5078830028869
 20
-131.3465046872155
 10
106.6208821348031
 20
-131.1477226777166
 10
106.7359483240105
 20
-130.9448065536353
 10
106.9078585887244
 20
-130.9213799043356
 10
107.0456624081344
 20
-130.9213799043356
 10
107.2155056155572
 20
-130.9213799043356
 10
107.3691568741994
 20
-130.9658216360954
 10
107.4707871910143
 20
-131.1477226777166
 10
107.5772406415085
 20
-131.340303515342
 10
107.6020453290023
 20
-131.5687133460141
 10
107.6020453290023
 20
-131.7423461584707
 10
107.6020453290023
 20
-131.9135674040876
 10
107.5793076987996
 20
-132.1440442920508
 10
107.4707871910143
 20
-132.3366251296763
 97
        0
 97
        0
 92
        1
 93
        1
 72
     4
 94
        3
 73
     0
 74
     1
 95
       17
 96
       13
 40
0.0
 40
0.0
 40
0.0
 40
0.0
 40
1.0
 40
1.0
 40
1.0
 40
2.0
 40
2.0
 40
2.0
 40
3.0
 40
3.0
 40
3.0
 40
4.0
 40
4.0
 40
4.0
 40
4.0
 10
107.0456624081344
 20
-131.1139607419611
 10
106.7790120175761
 20
-131.1139607419611
 10
106.7294026425885
 20
-131.3974921003972
 10
106.7294026425885
 20
-131.7423461584707
 10
106.7294026425885
 20
-132.0617065099533
 10
106.7676432024748
 20
-132.3703870654317
 10
107.0456624081344
 20
-132.3703870654317
 10
107.3102457414016
 20
-132.3703870654317
 10
107.3622666832289
 20
-132.0892672738353
 10
107.3622666832289
 20
-131.7423461584707
 10
107.3622666832289
 20
-131.4226412974395
 10
107.3216145565029
 20
-131.1139607419611
 10
107.0456624081344
 20
-131.1139607419611
 97
        0
 97
        0
 75
     2
 76
     1
 98
        0
  0
ENDBLK
  5
D3
330
D0
100
AcDbEntity
  8
0
100
AcDbBlockEnd
  0
BLOCK
  5
FA
330
F8
100
AcDbEntity
  8
0
100
AcDbBlockBegin
  2
block 5
 70
     0
 10
0.0
 20
0.0
 30
0.0
  3
block 5
  1

  0
SPLINE
  5
FC
330
F8
100
AcDbEntity
  8
_U+30EC_U+30A4_U+30E4_U+30FC 1
370
     0
100
AcDbSpline
210
0.0
220
0.0
230
1.0
 70
    11
 71
     3
 72
    26
 73
    22
 74
     0
 42
0.0000000001
 43
0.0000000001
 12
1.0
 22
0.0
 32
0.0
 13
1.0
 23
0.0
 33
0.0
 40
0.0
 40
0.0
 40
0.0
 40
0.0
 40
1.0
 40
1.0
 40
1.0
 40
2.0
 40
2.0
 40
2.0
 40
3.0
 40
3.0
 40
3.0
 40
4.0
 40
4.0
 40
4.0
 40
5.0
 40
5.0
 40
5.0
 40
6.0
 40
6.0
 40
6.0
 40
7.0
 40
7.0
 40
7.0
 40
7.0
 10
90.73589136186465
 20
-165.514100436052
 30
0.0
 10
90.73589136186465
 20
-165.514100436052
 30
0.0
 10
90.73589136186465
 20
-164.4099473330295
 30
0.0
 10
90.73589136186465
 20
-164.4099473330295
 30
0.0
 10
90.73589136186465
 20
-164.4099473330295
 30
0.0
 10
90.38345809372359
 20
-164.4099473330295
 30
0.0
 10
90.38345809372359
 20
-164.4099473330295
 30
0.0
 10
90.38345809372359
 20
-164.4099473330295
 30
0.0
 10
90.38345809372359
 20
-164.2618082271637
 30
0.0
 10
90.38345809372359
 20
-164.2618082271637
 30
0.0
 10
90.73830292870431
 20
-164.2469943165771
 30
0.0
 10
90.78791230369191
 20
-164.0840413001248
 30
0.0
 10
90.81960718215622
 20
-163.9696641300145
 30
0.0
 10
90.81960718215622
 20
-163.9696641300145
 30
0.0
 10
90.97567000763803
 20
-163.9696641300145
 30
0.0
 10
90.97567000763803
 20
-163.9696641300145
 30
0.0
 10
90.97567000763803
 20
-163.9696641300145
 30
0.0
 10
90.97567000763803
 20
-165.514100436052
 30
0.0
 10
90.97567000763803
 20
-165.514100436052
 30
0.0
 10
90.97567000763803
 20
-165.514100436052
 30
0.0
 10
90.73589136186465
 20
-165.514100436052
 30
0.0
 10
90.73589136186465
 20
-165.514100436052
 30
0.0
  0
HATCH
  5
FD
330
F8
100
AcDbEntity
  8
_U+30EC_U+30A4_U+30E4_U+30FC 1
 62
   179
420
  2234388
100
AcDbHatch
 10
0.0
 20
0.0
 30
0.0
210
0.0
220
0.0
230
1.0
  2
SOLID
 70
     1
 71
     0
 91
        1
 92
        1
 93
        1
 72
     4
 94
        3
 73
     0
 74
     1
 95
       26
 96
       22
 40
0.0
 40
0.0
 40
0.0
 40
0.0
 40
1.0
 40
1.0
 40
1.0
 40
2.0
 40
2.0
 40
2.0
 40
3.0
 40
3.0
 40
3.0
 40
4.0
 40
4.0
 40
4.0
 40
5.0
 40
5.0
 40
5.0
 40
6.0
 40
6.0
 40
6.0
 40
7.0
 40
7.0
 40
7.0
 40
7.0
 10
90.73589136186465
 20
-165.514100436052
 10
90.73589136186465
 20
-165.514100436052
 10
90.73589136186465
 20
-164.4099473330295
 10
90.73589136186465
 20
-164.4099473330295
 10
90.73589136186465
 20
-164.4099473330295
 10
90.38345809372359
 20
-164.4099473330295
 10
90.38345809372359
 20
-164.4099473330295
 10
90.38345809372359
 20
-164.4099473330295
 10
90.38345809372359
 20
-164.2618082271637
 10
90.38345809372359
 20
-164.2618082271637
 10
90.73830292870431
 20
-164.2469943165771
 10
90.78791230369191
 20
-164.0840413001248
 10
90.81960718215622
 20
-163.9696641300145
 10
90.81960718215622
 20
-163.9696641300145
 10
90.97567000763803
 20
-163.9696641300145
 10
90.97567000763803
 20
-163.9696641300145
 10
90.97567000763803
 20
-163.9696641300145
 10
90.97567000763803
 20
-165.514100436052
 10
90.97567000763803
 20
-165.514100436052
 10
90.97567000763803
 20
-165.514100436052
 10
90.73589136186465
 20
-165.514100436052
 10
90.73589136186465
 20
-165.514100436052
 97
        0
 97
        0
 75
     2
 76
     1
 98
        0
  0
SPLINE
  5
FE
330
F8
100
AcDbEntity
  8
_U+30EC_U+30A4_U+30E4_U+30FC 1
370
     0
100
AcDbSpline
210
0.0
220
0.0
230
1.0
 70
    11
 71
     3
 72
    29
 73
    25
 74
     0
 42
0.0000000001
 43
0.0000000001
 12
1.0
 22
0.0
 32
0.0
 13
1.0
 23
0.0
 33
0.0
 40
0.0
 40
0.0
 40
0.0
 40
0.0
 40
1.0
 40
1.0
 40
1.0
 40
2.0
 40
2.0
 40
2.0
 40
3.0
 40
3.0
 40
3.0
 40
4.0
 40
4.0
 40
4.0
 40
5.0
 40
5.0
 40
5.0
 40
6.0
 40
6.0
 40
6.0
 40
7.0
 40
7.0
 40
7.0
 40
8.0
 40
8.0
 40
8.0
 40
8.0
 10
92.47084144823646
 20
-165.3363335090131
 30
0.0
 10
92.35543074948059
 20
-165.5457953145163
 30
0.0
 10
92.17008461237415
 20
-165.5647433396852
 30
0.0
 10
92.04571666535664
 20
-165.5647433396852
 30
0.0
 10
91.87415091019119
 20
-165.5647433396852
 30
0.0
 10
91.72256670884019
 20
-165.5182345506343
 30
0.0
 10
91.62093639202533
 20
-165.3363335090131
 30
0.0
 10
91.51000431740029
 20
-165.1416856140965
 30
0.0
 10
91.4896782540373
 20
-164.9050075542599
 30
0.0
 10
91.4896782540373
 20
-164.7420545378075
 30
0.0
 10
91.4896782540373
 20
-164.5980495465241
 30
0.0
 10
91.50793726010913
 20
-164.3462130665523
 30
0.0
 10
91.62093639202533
 20
-164.1474310570534
 30
0.0
 10
91.73600258123267
 20
-163.9445149329722
 30
0.0
 10
91.90791284594664
 20
-163.9210882836725
 30
0.0
 10
92.04571666535664
 20
-163.9210882836725
 30
0.0
 10
92.21555987277945
 20
-163.9210882836725
 30
0.0
 10
92.3692111314216
 20
-163.9655300154322
 30
0.0
 10
92.47084144823646
 20
-164.1474310570534
 30
0.0
 10
92.57729489873068
 20
-164.3400118946789
 30
0.0
 10
92.60209958622448
 20
-164.568421725351
 30
0.0
 10
92.60209958622448
 20
-164.7420545378075
 30
0.0
 10
92.60209958622448
 20
-164.9132757834245
 30
0.0
 10
92.57936195602183
 20
-165.1437526713877
 30
0.0
 10
92.47084144823646
 20
-165.3363335090131
 30
0.0
  0
SPLINE
  5
FF
330
F8
100
AcDbEntity
  8
_U+30EC_U+30A4_U+30E4_U+30FC 1
370
     0
100
AcDbSpline
210
0.0
220
0.0
230
1.0
 70
    11
 71
     3
 72
    17
 73
    13
 74
     0
 42
0.0000000001
 43
0.0000000001
 12
1.0
 22
0.0
 32
0.0
 13
1.0
 23
0.0
 33
0.0
 40
0.0
 40
0.0
 40
0.0
 40
0.0
 40
1.0
 40
1.0
 40
1.0
 40
2.0
 40
2.0
 40
2.0
 40
3.0
 40
3.0
 40
3.0
 40
4.0
 40
4.0
 40
4.0
 40
4.0
 10
92.04571666535664
 20
-164.113669121298
 30
0.0
 10
91.7790662747983
 20
-164.113669121298
 30
0.0
 10
91.7294568998107
 20
-164.397200479734
 30
0.0
 10
91.7294568998107
 20
-164.7420545378075
 30
0.0
 10
91.7294568998107
 20
-165.0614148892902
 30
0.0
 10
91.76769745969698
 20
-165.3700954447686
 30
0.0
 10
92.04571666535664
 20
-165.3700954447686
 30
0.0
 10
92.31029999862382
 20
-165.3700954447686
 30
0.0
 10
92.36232094045108
 20
-165.0889756531722
 30
0.0
 10
92.36232094045108
 20
-164.7420545378075
 30
0.0
 10
92.36232094045108
 20
-164.4223496767764
 30
0.0
 10
92.32166881372514
 20
-164.113669121298
 30
0.0
 10
92.04571666535664
 20
-164.113669121298
 30
0.0
  0
HATCH
  5
100
330
F8
100
AcDbEntity
  8
_U+30EC_U+30A4_U+30E4_U+30FC 1
 62
   179
420
  2234388
100
AcDbHatch
 10
0.0
 20
0.0
 30
0.0
210
0.0
220
0.0
230
1.0
  2
SOLID
 70
     1
 71
     0
 91
        2
 92
        1
 93
        1
 72
     4
 94
        3
 73
     0
 74
     1
 95
       29
 96
       25
 40
0.0
 40
0.0
 40
0.0
 40
0.0
 40
1.0
 40
1.0
 40
1.0
 40
2.0
 40
2.0
 40
2.0
 40
3.0
 40
3.0
 40
3.0
 40
4.0
 40
4.0
 40
4.0
 40
5.0
 40
5.0
 40
5.0
 40
6.0
 40
6.0
 40
6.0
 40
7.0
 40
7.0
 40
7.0
 40
8.0
 40
8.0
 40
8.0
 40
8.0
 10
92.47084144823646
 20
-165.3363335090131
 10
92.35543074948059
 20
-165.5457953145163
 10
92.17008461237415
 20
-165.5647433396852
 10
92.04571666535664
 20
-165.5647433396852
 10
91.87415091019119
 20
-165.5647433396852
 10
91.72256670884019
 20
-165.5182345506343
 10
91.62093639202533
 20
-165.3363335090131
 10
91.51000431740029
 20
-165.1416856140965
 10
91.4896782540373
 20
-164.9050075542599
 10
91.4896782540373
 20
-164.7420545378075
 10
91.4896782540373
 20
-164.5980495465241
 10
91.50793726010913
 20
-164.3462130665523
 10
91.62093639202533
 20
-164.1474310570534
 10
91.73600258123267
 20
-163.9445149329722
 10
91.90791284594664
 20
-163.9210882836725
 10
92.04571666535664
 20
-163.9210882836725
 10
92.21555987277945
 20
-163.9210882836725
 10
92.3692111314216
 20
-163.9655300154322
 10
92.47084144823646
 20
-164.1474310570534
 10
92.57729489873068
 20
-164.3400118946789
 10
92.60209958622448
 20
-164.568421725351
 10
92.60209958622448
 20
-164.7420545378075
 10
92.60209958622448
 20
-164.9132757834245
 10
92.57936195602183
 20
-165.1437526713877
 10
92.47084144823646
 20
-165.3363335090131
 97
        0
 97
        0
 92
        1
 93
        1
 72
     4
 94
        3
 73
     0
 74
     1
 95
       17
 96
       13
 40
0.0
 40
0.0
 40
0.0
 40
0.0
 40
1.0
 40
1.0
 40
1.0
 40
2.0
 40
2.0
 40
2.0
 40
3.0
 40
3.0
 40
3.0
 40
4.0
 40
4.0
 40
4.0
 40
4.0
 10
92.04571666535664
 20
-164.113669121298
 10
91.7790662747983
 20
-164.113669121298
 10
91.7294568998107
 20
-164.397200479734
 10
91.7294568998107
 20
-164.7420545378075
 10
91.7294568998107
 20
-165.0614148892902
 10
91.76769745969698
 20
-165.3700954447686
 10
92.04571666535664
 20
-165.3700954447686
 10
92.31029999862382
 20
-165.3700954447686
 10
92.36232094045108
 20
-165.0889756531722
 10
92.36232094045108
 20
-164.7420545378075
 10
92.36232094045108
 20
-164.4223496767764
 10
92.32166881372514
 20
-164.113669121298
 10
92.04571666535664
 20
-164.113669121298
 97
        0
 97
        0
 75
     2
 76
     1
 98
        0
  0
ENDBLK
  5
FB
330
F8
100
AcDbEntity
  8
0
100
AcDbBlockEnd
  0
BLOCK
  5
10F
330
10D
100
AcDbEntity
  8
0
100
AcDbBlockBegin
  2
block 6
 70
     0
 10
0.0
 20
0.0
 30
0.0
  3
block 6
  1

  0
SPLINE
  5
111
330
10D
100
AcDbEntity
  8
_U+30EC_U+30A4_U+30E4_U+30FC 1
370
     0
100
AcDbSpline
210
0.0
220
0.0
230
1.0
 70
    11
 71
     3
 72
    44
 73
    40
 74
     0
 42
0.0000000001
 43
0.0000000001
 12
1.0
 22
0.0
 32
0.0
 13
1.0
 23
0.0
 33
0.0
 40
0.0
 40
0.0
 40
0.0
 40
0.0
 40
1.0
 40
1.0
 40
1.0
 40
2.0
 40
2.0
 40
2.0
 40
3.0
 40
3.0
 40
3.0
 40
4.0
 40
4.0
 40
4.0
 40
5.0
 40
5.0
 40
5.0
 40
6.0
 40
6.0
 40
6.0
 40
7.0
 40
7.0
 40
7.0
 40
8.0
 40
8.0
 40
8.0
 40
9.0
 40
9.0
 40
9.0
 40
10.0
 40
10.0
 40
10.0
 40
11.0
 40
11.0
 40
11.0
 40
12.0
 40
12.0
 40
12.0
 40
13.0
 40
13.0
 40
13.0
 40
13.0
 10
80.40560029456874
 20
-152.1901936468483
 30
0.0
 10
80.56441919643876
 20
-152.4230821016512
 30
0.0
 10
80.63848874937163
 20
-152.5226453611749
 30
0.0
 10
80.78214923110654
 20
-152.5743217934536
 30
0.0
 10
80.78214923110654
 20
-152.5743217934536
 30
0.0
 10
80.78214923110654
 20
-151.7426757433144
 30
0.0
 10
80.78214923110654
 20
-151.7426757433144
 30
0.0
 10
80.78214923110654
 20
-151.7426757433144
 30
0.0
 10
80.98747692202744
 20
-151.7426757433144
 30
0.0
 10
80.98747692202744
 20
-151.7426757433144
 30
0.0
 10
80.98747692202744
 20
-151.7426757433144
 30
0.0
 10
80.98747692202744
 20
-152.8413166935605
 30
0.0
 10
80.98747692202744
 20
-152.8413166935605
 30
0.0
 10
80.6298760106585
 20
-152.8072102482565
 30
0.0
 10
80.55167234314334
 20
-152.737274809906
 30
0.0
 10
80.2533270741207
 20
-152.3259304089671
 30
0.0
 10
80.05454506462178
 20
-152.0523898274383
 30
0.0
 10
79.98667668356237
 20
-151.9821098795392
 30
0.0
 10
79.8492173737009
 20
-151.9821098795392
 30
0.0
 10
79.7307060890083
 20
-151.9821098795392
 30
0.0
 10
79.5997924605688
 20
-152.0589355088603
 30
0.0
 10
79.5997924605688
 20
-152.269430843009
 30
0.0
 10
79.5997924605688
 20
-152.5474500486687
 30
0.0
 10
79.83026934853201
 20
-152.5564072969304
 30
0.0
 10
79.94671357593346
 20
-152.5608859210612
 30
0.0
 10
79.94671357593346
 20
-152.5608859210612
 30
0.0
 10
79.94671357593346
 20
-152.8006645668346
 30
0.0
 10
79.94671357593346
 20
-152.8006645668346
 30
0.0
 10
79.81958955252775
 20
-152.7913628090244
 30
0.0
 10
79.70762394925713
 20
-152.7803385034716
 30
0.0
 10
79.58911266456452
 20
-152.6942111163403
 30
0.0
 10
79.42822670540336
 20
-152.5767333602933
 30
0.0
 10
79.39446476964791
 20
-152.3779513507944
 30
0.0
 10
79.39446476964791
 20
-152.2535834037769
 30
0.0
 10
79.39446476964791
 20
-151.9573051920454
 30
0.0
 10
79.57843286856026
 20
-151.7357855523438
 30
0.0
 10
79.85128443099204
 20
-151.7357855523438
 30
0.0
 10
80.08003877121263
 20
-151.7357855523438
 30
0.0
 10
80.17925752118782
 20
-151.8601534993614
 30
0.0
 10
80.40560029456874
 20
-152.1901936468483
 30
0.0
  0
HATCH
  5
112
330
10D
100
AcDbEntity
  8
_U+30EC_U+30A4_U+30E4_U+30FC 1
 62
   179
420
  2234388
100
AcDbHatch
 10
0.0
 20
0.0
 30
0.0
210
0.0
220
0.0
230
1.0
  2
SOLID
 70
     1
 71
     0
 91
        1
 92
        1
 93
        1
 72
     4
 94
        3
 73
     0
 74
     1
 95
       44
 96
       40
 40
0.0
 40
0.0
 40
0.0
 40
0.0
 40
1.0
 40
1.0
 40
1.0
 40
2.0
 40
2.0
 40
2.0
 40
3.0
 40
3.0
 40
3.0
 40
4.0
 40
4.0
 40
4.0
 40
5.0
 40
5.0
 40
5.0
 40
6.0
 40
6.0
 40
6.0
 40
7.0
 40
7.0
 40
7.0
 40
8.0
 40
8.0
 40
8.0
 40
9.0
 40
9.0
 40
9.0
 40
10.0
 40
10.0
 40
10.0
 40
11.0
 40
11.0
 40
11.0
 40
12.0
 40
12.0
 40
12.0
 40
13.0
 40
13.0
 40
13.0
 40
13.0
 10
80.40560029456874
 20
-152.1901936468483
 10
80.56441919643876
 20
-152.4230821016512
 10
80.63848874937163
 20
-152.5226453611749
 10
80.78214923110654
 20
-152.5743217934536
 10
80.78214923110654
 20
-152.5743217934536
 10
80.78214923110654
 20
-151.7426757433144
 10
80.78214923110654
 20
-151.7426757433144
 10
80.78214923110654
 20
-151.7426757433144
 10
80.98747692202744
 20
-151.7426757433144
 10
80.98747692202744
 20
-151.7426757433144
 10
80.98747692202744
 20
-151.7426757433144
 10
80.98747692202744
 20
-152.8413166935605
 10
80.98747692202744
 20
-152.8413166935605
 10
80.6298760106585
 20
-152.8072102482565
 10
80.55167234314334
 20
-152.737274809906
 10
80.2533270741207
 20
-152.3259304089671
 10
80.05454506462178
 20
-152.0523898274383
 10
79.98667668356237
 20
-151.9821098795392
 10
79.8492173737009
 20
-151.9821098795392
 10
79.7307060890083
 20
-151.9821098795392
 10
79.5997924605688
 20
-152.0589355088603
 10
79.5997924605688
 20
-152.269430843009
 10
79.5997924605688
 20
-152.5474500486687
 10
79.83026934853201
 20
-152.5564072969304
 10
79.94671357593346
 20
-152.5608859210612
 10
79.94671357593346
 20
-152.5608859210612
 10
79.94671357593346
 20
-152.8006645668346
 10
79.94671357593346
 20
-152.8006645668346
 10
79.81958955252775
 20
-152.7913628090244
 10
79.70762394925713
 20
-152.7803385034716
 10
79.58911266456452
 20
-152.6942111163403
 10
79.42822670540336
 20
-152.5767333602933
 10
79.39446476964791
 20
-152.3779513507944
 10
79.39446476964791
 20
-152.2535834037769
 10
79.39446476964791
 20
-151.9573051920454
 10
79.57843286856026
 20
-151.7357855523438
 10
79.85128443099204
 20
-151.7357855523438
 10
80.08003877121263
 20
-151.7357855523438
 10
80.17925752118782
 20
-151.8601534993614
 10
80.40560029456874
 20
-152.1901936468483
 97
        0
 97
        0
 75
     2
 76
     1
 98
        0
  0
SPLINE
  5
113
330
10D
100
AcDbEntity
  8
_U+30EC_U+30A4_U+30E4_U+30FC 1
370
     0
100
AcDbSpline
210
0.0
220
0.0
230
1.0
 70
    11
 71
     3
 72
    26
 73
    22
 74
     0
 42
0.0000000001
 43
0.0000000001
 12
1.0
 22
0.0
 32
0.0
 13
1.0
 23
0.0
 33
0.0
 40
0.0
 40
0.0
 40
0.0
 40
0.0
 40
1.0
 40
1.0
 40
1.0
 40
2.0
 40
2.0
 40
2.0
 40
3.0
 40
3.0
 40
3.0
 40
4.0
 40
4.0
 40
4.0
 40
5.0
 40
5.0
 40
5.0
 40
6.0
 40
6.0
 40
6.0
 40
7.0
 40
7.0
 40
7.0
 40
7.0
 10
80.98747692202744
 20
-151.0839734865346
 30
0.0
 10
80.98747692202744
 20
-151.0839734865346
 30
0.0
 10
79.88332381900487
 20
-151.0839734865346
 30
0.0
 10
79.88332381900487
 20
-151.0839734865346
 30
0.0
 10
79.88332381900487
 20
-151.0839734865346
 30
0.0
 10
79.88332381900487
 20
-151.4364067546756
 30
0.0
 10
79.88332381900487
 20
-151.4364067546756
 30
0.0
 10
79.88332381900487
 20
-151.4364067546756
 30
0.0
 10
79.73518471313912
 20
-151.4364067546756
 30
0.0
 10
79.73518471313912
 20
-151.4364067546756
 30
0.0
 10
79.72037080255255
 20
-151.0815619196949
 30
0.0
 10
79.55741778610023
 20
-151.0319525447073
 30
0.0
 10
79.44304061598994
 20
-151.000257666243
 30
0.0
 10
79.44304061598994
 20
-151.000257666243
 30
0.0
 10
79.44304061598994
 20
-150.8441948407612
 30
0.0
 10
79.44304061598994
 20
-150.8441948407612
 30
0.0
 10
79.44304061598994
 20
-150.8441948407612
 30
0.0
 10
80.98747692202744
 20
-150.8441948407612
 30
0.0
 10
80.98747692202744
 20
-150.8441948407612
 30
0.0
 10
80.98747692202744
 20
-150.8441948407612
 30
0.0
 10
80.98747692202744
 20
-151.0839734865346
 30
0.0
 10
80.98747692202744
 20
-151.0839734865346
 30
0.0
  0
HATCH
  5
114
330
10D
100
AcDbEntity
  8
_U+30EC_U+30A4_U+30E4_U+30FC 1
 62
   179
420
  2234388
100
AcDbHatch
 10
0.0
 20
0.0
 30
0.0
210
0.0
220
0.0
230
1.0
  2
SOLID
 70
     1
 71
     0
 91
        1
 92
        1
 93
        1
 72
     4
 94
        3
 73
     0
 74
     1
 95
       26
 96
       22
 40
0.0
 40
0.0
 40
0.0
 40
0.0
 40
1.0
 40
1.0
 40
1.0
 40
2.0
 40
2.0
 40
2.0
 40
3.0
 40
3.0
 40
3.0
 40
4.0
 40
4.0
 40
4.0
 40
5.0
 40
5.0
 40
5.0
 40
6.0
 40
6.0
 40
6.0
 40
7.0
 40
7.0
 40
7.0
 40
7.0
 10
80.98747692202744
 20
-151.0839734865346
 10
80.98747692202744
 20
-151.0839734865346
 10
79.88332381900487
 20
-151.0839734865346
 10
79.88332381900487
 20
-151.0839734865346
 10
79.88332381900487
 20
-151.0839734865346
 10
79.88332381900487
 20
-151.4364067546756
 10
79.88332381900487
 20
-151.4364067546756
 10
79.88332381900487
 20
-151.4364067546756
 10
79.73518471313912
 20
-151.4364067546756
 10
79.73518471313912
 20
-151.4364067546756
 10
79.72037080255255
 20
-151.0815619196949
 10
79.55741778610023
 20
-151.0319525447073
 10
79.44304061598994
 20
-151.000257666243
 10
79.44304061598994
 20
-151.000257666243
 10
79.44304061598994
 20
-150.8441948407612
 10
79.44304061598994
 20
-150.8441948407612
 10
79.44304061598994
 20
-150.8441948407612
 10
80.98747692202744
 20
-150.8441948407612
 10
80.98747692202744
 20
-150.8441948407612
 10
80.98747692202744
 20
-150.8441948407612
 10
80.98747692202744
 20
-151.0839734865346
 10
80.98747692202744
 20
-151.0839734865346
 97
        0
 97
        0
 75
     2
 76
     1
 98
        0
  0
ENDBLK
  5
110
330
10D
100
AcDbEntity
  8
0
100
AcDbBlockEnd
  0
BLOCK
  5
11F
330
11D
100
AcDbEntity
  8
0
100
AcDbBlockBegin
  2
block 7
 70
     0
 10
0.0
 20
0.0
 30
0.0
  3
block 7
  1

  0
SPLINE
  5
121
330
11D
100
AcDbEntity
  8
_U+30EC_U+30A4_U+30E4_U+30FC 1
370
     0
100
AcDbSpline
210
0.0
220
0.0
230
1.0
 70
    11
 71
     3
 72
    26
 73
    22
 74
     0
 42
0.0000000001
 43
0.0000000001
 12
1.0
 22
0.0
 32
0.0
 13
1.0
 23
0.0
 33
0.0
 40
0.0
 40
0.0
 40
0.0
 40
0.0
 40
1.0
 40
1.0
 40
1.0
 40
2.0
 40
2.0
 40
2.0
 40
3.0
 40
3.0
 40
3.0
 40
4.0
 40
4.0
 40
4.0
 40
5.0
 40
5.0
 40
5.0
 40
6.0
 40
6.0
 40
6.0
 40
7.0
 40
7.0
 40
7.0
 40
7.0
 10
129.771234776585
 20
-154.8418836418451
 30
0.0
 10
129.771234776585
 20
-154.8418836418451
 30
0.0
 10
128.6670816735624
 20
-154.8418836418451
 30
0.0
 10
128.6670816735624
 20
-154.8418836418451
 30
0.0
 10
128.6670816735624
 20
-154.8418836418451
 30
0.0
 10
128.6670816735624
 20
-155.1943169099862
 30
0.0
 10
128.6670816735624
 20
-155.1943169099862
 30
0.0
 10
128.6670816735624
 20
-155.1943169099862
 30
0.0
 10
128.5189425676967
 20
-155.1943169099862
 30
0.0
 10
128.5189425676967
 20
-155.1943169099862
 30
0.0
 10
128.5041286571101
 20
-154.8394720750054
 30
0.0
 10
128.3411756406578
 20
-154.7898627000178
 30
0.0
 10
128.2267984705475
 20
-154.7581678215535
 30
0.0
 10
128.2267984705475
 20
-154.7581678215535
 30
0.0
 10
128.2267984705475
 20
-154.6021049960717
 30
0.0
 10
128.2267984705475
 20
-154.6021049960717
 30
0.0
 10
128.2267984705475
 20
-154.6021049960717
 30
0.0
 10
129.771234776585
 20
-154.6021049960717
 30
0.0
 10
129.771234776585
 20
-154.6021049960717
 30
0.0
 10
129.771234776585
 20
-154.6021049960717
 30
0.0
 10
129.771234776585
 20
-154.8418836418451
 30
0.0
 10
129.771234776585
 20
-154.8418836418451
 30
0.0
  0
HATCH
  5
122
330
11D
100
AcDbEntity
  8
_U+30EC_U+30A4_U+30E4_U+30FC 1
 62
   179
420
  2234388
100
AcDbHatch
 10
0.0
 20
0.0
 30
0.0
210
0.0
220
0.0
230
1.0
  2
SOLID
 70
     1
 71
     0
 91
        1
 92
        1
 93
        1
 72
     4
 94
        3
 73
     0
 74
     1
 95
       26
 96
       22
 40
0.0
 40
0.0
 40
0.0
 40
0.0
 40
1.0
 40
1.0
 40
1.0
 40
2.0
 40
2.0
 40
2.0
 40
3.0
 40
3.0
 40
3.0
 40
4.0
 40
4.0
 40
4.0
 40
5.0
 40
5.0
 40
5.0
 40
6.0
 40
6.0
 40
6.0
 40
7.0
 40
7.0
 40
7.0
 40
7.0
 10
129.771234776585
 20
-154.8418836418451
 10
129.771234776585
 20
-154.8418836418451
 10
128.6670816735624
 20
-154.8418836418451
 10
128.6670816735624
 20
-154.8418836418451
 10
128.6670816735624
 20
-154.8418836418451
 10
128.6670816735624
 20
-155.1943169099862
 10
128.6670816735624
 20
-155.1943169099862
 10
128.6670816735624
 20
-155.1943169099862
 10
128.5189425676967
 20
-155.1943169099862
 10
128.5189425676967
 20
-155.1943169099862
 10
128.5041286571101
 20
-154.8394720750054
 10
128.3411756406578
 20
-154.7898627000178
 10
128.2267984705475
 20
-154.7581678215535
 10
128.2267984705475
 20
-154.7581678215535
 10
128.2267984705475
 20
-154.6021049960717
 10
128.2267984705475
 20
-154.6021049960717
 10
128.2267984705475
 20
-154.6021049960717
 10
129.771234776585
 20
-154.6021049960717
 10
129.771234776585
 20
-154.6021049960717
 10
129.771234776585
 20
-154.6021049960717
 10
129.771234776585
 20
-154.8418836418451
 10
129.771234776585
 20
-154.8418836418451
 97
        0
 97
        0
 75
     2
 76
     1
 98
        0
  0
SPLINE
  5
123
330
11D
100
AcDbEntity
  8
_U+30EC_U+30A4_U+30E4_U+30FC 1
370
     0
100
AcDbSpline
210
0.0
220
0.0
230
1.0
 70
    11
 71
     3
 72
    29
 73
    25
 74
     0
 42
0.0000000001
 43
0.0000000001
 12
1.0
 22
0.0
 32
0.0
 13
1.0
 23
0.0
 33
0.0
 40
0.0
 40
0.0
 40
0.0
 40
0.0
 40
1.0
 40
1.0
 40
1.0
 40
2.0
 40
2.0
 40
2.0
 40
3.0
 40
3.0
 40
3.0
 40
4.0
 40
4.0
 40
4.0
 40
5.0
 40
5.0
 40
5.0
 40
6.0
 40
6.0
 40
6.0
 40
7.0
 40
7.0
 40
7.0
 40
8.0
 40
8.0
 40
8.0
 40
8.0
 10
129.5934678495461
 20
-153.1069335554733
 30
0.0
 10
129.8029296550493
 20
-153.2223442542291
 30
0.0
 10
129.8218776802181
 20
-153.4076903913356
 30
0.0
 10
129.8218776802181
 20
-153.5320583383531
 30
0.0
 10
129.8218776802181
 20
-153.7036240935186
 30
0.0
 10
129.7753688911673
 20
-153.8552082948695
 30
0.0
 10
129.5934678495461
 20
-153.9568386116844
 30
0.0
 10
129.3988199546295
 20
-154.0677706863094
 30
0.0
 10
129.1617973852443
 20
-154.0880967496724
 30
0.0
 10
128.9991888783405
 20
-154.0880967496724
 30
0.0
 10
128.8551838870571
 20
-154.0880967496724
 30
0.0
 10
128.6033474070853
 20
-154.0701822531491
 30
0.0
 10
128.4045653975864
 20
-153.9568386116844
 30
0.0
 10
128.2016492735052
 20
-153.8417724224771
 30
0.0
 10
128.1782226242055
 20
-153.6698621577631
 30
0.0
 10
128.1782226242055
 20
-153.5320583383531
 30
0.0
 10
128.1782226242055
 20
-153.3622151309303
 30
0.0
 10
128.2226643559652
 20
-153.2085638722882
 30
0.0
 10
128.4045653975864
 20
-153.1069335554733
 30
0.0
 10
128.5971462352118
 20
-153.0004801049791
 30
0.0
 10
128.8255560658839
 20
-152.9756754174853
 30
0.0
 10
128.9991888783405
 20
-152.9756754174853
 30
0.0
 10
129.1704101239574
 20
-152.9756754174853
 30
0.0
 10
129.4008870119206
 20
-152.9984130476879
 30
0.0
 10
129.5934678495461
 20
-153.1069335554733
 30
0.0
  0
SPLINE
  5
124
330
11D
100
AcDbEntity
  8
_U+30EC_U+30A4_U+30E4_U+30FC 1
370
     0
100
AcDbSpline
210
0.0
220
0.0
230
1.0
 70
    11
 71
     3
 72
    17
 73
    13
 74
     0
 42
0.0000000001
 43
0.0000000001
 12
1.0
 22
0.0
 32
0.0
 13
1.0
 23
0.0
 33
0.0
 40
0.0
 40
0.0
 40
0.0
 40
0.0
 40
1.0
 40
1.0
 40
1.0
 40
2.0
 40
2.0
 40
2.0
 40
3.0
 40
3.0
 40
3.0
 40
4.0
 40
4.0
 40
4.0
 40
4.0
 10
128.3708034618309
 20
-153.5320583383531
 30
0.0
 10
128.3708034618309
 20
-153.7987087289114
 30
0.0
 10
128.654334820267
 20
-153.848318103899
 30
0.0
 10
128.9991888783405
 20
-153.848318103899
 30
0.0
 10
129.3185492298231
 20
-153.848318103899
 30
0.0
 10
129.6272297853015
 20
-153.8100775440128
 30
0.0
 10
129.6272297853015
 20
-153.5320583383531
 30
0.0
 10
129.6272297853015
 20
-153.2674750050859
 30
0.0
 10
129.3461099937051
 20
-153.2154540632586
 30
0.0
 10
128.9991888783405
 20
-153.2154540632586
 30
0.0
 10
128.6794840173093
 20
-153.2154540632586
 30
0.0
 10
128.3708034618309
 20
-153.2561061899846
 30
0.0
 10
128.3708034618309
 20
-153.5320583383531
 30
0.0
  0
HATCH
  5
125
330
11D
100
AcDbEntity
  8
_U+30EC_U+30A4_U+30E4_U+30FC 1
 62
   179
420
  2234388
100
AcDbHatch
 10
0.0
 20
0.0
 30
0.0
210
0.0
220
0.0
230
1.0
  2
SOLID
 70
     1
 71
     0
 91
        2
 92
        1
 93
        1
 72
     4
 94
        3
 73
     0
 74
     1
 95
       29
 96
       25
 40
0.0
 40
0.0
 40
0.0
 40
0.0
 40
1.0
 40
1.0
 40
1.0
 40
2.0
 40
2.0
 40
2.0
 40
3.0
 40
3.0
 40
3.0
 40
4.0
 40
4.0
 40
4.0
 40
5.0
 40
5.0
 40
5.0
 40
6.0
 40
6.0
 40
6.0
 40
7.0
 40
7.0
 40
7.0
 40
8.0
 40
8.0
 40
8.0
 40
8.0
 10
129.5934678495461
 20
-153.1069335554733
 10
129.8029296550493
 20
-153.2223442542291
 10
129.8218776802181
 20
-153.4076903913356
 10
129.8218776802181
 20
-153.5320583383531
 10
129.8218776802181
 20
-153.7036240935186
 10
129.7753688911673
 20
-153.8552082948695
 10
129.5934678495461
 20
-153.9568386116844
 10
129.3988199546295
 20
-154.0677706863094
 10
129.1617973852443
 20
-154.0880967496724
 10
128.9991888783405
 20
-154.0880967496724
 10
128.8551838870571
 20
-154.0880967496724
 10
128.6033474070853
 20
-154.0701822531491
 10
128.4045653975864
 20
-153.9568386116844
 10
128.2016492735052
 20
-153.8417724224771
 10
128.1782226242055
 20
-153.6698621577631
 10
128.1782226242055
 20
-153.5320583383531
 10
128.1782226242055
 20
-153.3622151309303
 10
128.2226643559652
 20
-153.2085638722882
 10
128.4045653975864
 20
-153.1069335554733
 10
128.5971462352118
 20
-153.0004801049791
 10
128.8255560658839
 20
-152.9756754174853
 10
128.9991888783405
 20
-152.9756754174853
 10
129.1704101239574
 20
-152.9756754174853
 10
129.4008870119206
 20
-152.9984130476879
 10
129.5934678495461
 20
-153.1069335554733
 97
        0
 97
        0
 92
        1
 93
        1
 72
     4
 94
        3
 73
     0
 74
     1
 95
       17
 96
       13
 40
0.0
 40
0.0
 40
0.0
 40
0.0
 40
1.0
 40
1.0
 40
1.0
 40
2.0
 40
2.0
 40
2.0
 40
3.0
 40
3.0
 40
3.0
 40
4.0
 40
4.0
 40
4.0
 40
4.0
 10
128.3708034618309
 20
-153.5320583383531
 10
128.3708034618309
 20
-153.7987087289114
 10
128.654334820267
 20
-153.848318103899
 10
128.9991888783405
 20
-153.848318103899
 10
129.3185492298231
 20
-153.848318103899
 10
129.6272297853015
 20
-153.8100775440128
 10
129.6272297853015
 20
-153.5320583383531
 10
129.6272297853015
 20
-153.2674750050859
 10
129.3461099937051
 20
-153.2154540632586
 10
128.9991888783405
 20
-153.2154540632586
 10
128.6794840173093
 20
-153.2154540632586
 10
128.3708034618309
 20
-153.2561061899846
 10
128.3708034618309
 20
-153.5320583383531
 97
        0
 97
        0
 75
     2
 76
     1
 98
        0
  0
ENDBLK
  5
120
330
11D
100
AcDbEntity
  8
0
100
AcDbBlockEnd
  0
BLOCK
  5
131
330
12F
100
AcDbEntity
  8
0
100
AcDbBlockBegin
  2
block 8
 70
     0
 10
0.0
 20
0.0
 30
0.0
  3
block 8
  1

  0
SPLINE
  5
133
330
12F
100
AcDbEntity
  8
_U+30EC_U+30A4_U+30E4_U+30FC 1
370
     0
100
AcDbSpline
210
0.0
220
0.0
230
1.0
 70
    11
 71
     3
 72
    26
 73
    22
 74
     0
 42
0.0000000001
 43
0.0000000001
 12
1.0
 22
0.0
 32
0.0
 13
1.0
 23
0.0
 33
0.0
 40
0.0
 40
0.0
 40
0.0
 40
0.0
 40
1.0
 40
1.0
 40
1.0
 40
2.0
 40
2.0
 40
2.0
 40
3.0
 40
3.0
 40
3.0
 40
4.0
 40
4.0
 40
4.0
 40
5.0
 40
5.0
 40
5.0
 40
6.0
 40
6.0
 40
6.0
 40
7.0
 40
7.0
 40
7.0
 40
7.0
 10
129.7174912870151
 20
-147.2705972939115
 30
0.0
 10
129.7174912870151
 20
-147.2705972939115
 30
0.0
 10
128.613682693541
 20
-147.2705972939115
 30
0.0
 10
128.613682693541
 20
-147.2705972939115
 30
0.0
 10
128.613682693541
 20
-147.2705972939115
 30
0.0
 10
128.613682693541
 20
-147.6230305620526
 30
0.0
 10
128.613682693541
 20
-147.6230305620526
 30
0.0
 10
128.613682693541
 20
-147.6230305620526
 30
0.0
 10
128.4655435876753
 20
-147.6230305620526
 30
0.0
 10
128.4655435876753
 20
-147.6230305620526
 30
0.0
 10
128.4503851675402
 20
-147.2681857270719
 30
0.0
 10
128.2877766606364
 20
-147.2185763520843
 30
0.0
 10
128.1733994905261
 20
-147.18688147362
 30
0.0
 10
128.1733994905261
 20
-147.18688147362
 30
0.0
 10
128.1733994905261
 20
-147.0308186481381
 30
0.0
 10
128.1733994905261
 20
-147.0308186481381
 30
0.0
 10
128.1733994905261
 20
-147.0308186481381
 30
0.0
 10
129.7174912870151
 20
-147.0308186481381
 30
0.0
 10
129.7174912870151
 20
-147.0308186481381
 30
0.0
 10
129.7174912870151
 20
-147.0308186481381
 30
0.0
 10
129.7174912870151
 20
-147.2705972939115
 30
0.0
 10
129.7174912870151
 20
-147.2705972939115
 30
0.0
  0
HATCH
  5
134
330
12F
100
AcDbEntity
  8
_U+30EC_U+30A4_U+30E4_U+30FC 1
 62
   179
420
  2234388
100
AcDbHatch
 10
0.0
 20
0.0
 30
0.0
210
0.0
220
0.0
230
1.0
  2
SOLID
 70
     1
 71
     0
 91
        1
 92
        1
 93
        1
 72
     4
 94
        3
 73
     0
 74
     1
 95
       26
 96
       22
 40
0.0
 40
0.0
 40
0.0
 40
0.0
 40
1.0
 40
1.0
 40
1.0
 40
2.0
 40
2.0
 40
2.0
 40
3.0
 40
3.0
 40
3.0
 40
4.0
 40
4.0
 40
4.0
 40
5.0
 40
5.0
 40
5.0
 40
6.0
 40
6.0
 40
6.0
 40
7.0
 40
7.0
 40
7.0
 40
7.0
 10
129.7174912870151
 20
-147.2705972939115
 10
129.7174912870151
 20
-147.2705972939115
 10
128.613682693541
 20
-147.2705972939115
 10
128.613682693541
 20
-147.2705972939115
 10
128.613682693541
 20
-147.2705972939115
 10
128.613682693541
 20
-147.6230305620526
 10
128.613682693541
 20
-147.6230305620526
 10
128.613682693541
 20
-147.6230305620526
 10
128.4655435876753
 20
-147.6230305620526
 10
128.4655435876753
 20
-147.6230305620526
 10
128.4503851675402
 20
-147.2681857270719
 10
128.2877766606364
 20
-147.2185763520843
 10
128.1733994905261
 20
-147.18688147362
 10
128.1733994905261
 20
-147.18688147362
 10
128.1733994905261
 20
-147.0308186481381
 10
128.1733994905261
 20
-147.0308186481381
 10
128.1733994905261
 20
-147.0308186481381
 10
129.7174912870151
 20
-147.0308186481381
 10
129.7174912870151
 20
-147.0308186481381
 10
129.7174912870151
 20
-147.0308186481381
 10
129.7174912870151
 20
-147.2705972939115
 10
129.7174912870151
 20
-147.2705972939115
 97
        0
 97
        0
 75
     2
 76
     1
 98
        0
  0
ENDBLK
  5
132
330
12F
100
AcDbEntity
  8
0
100
AcDbBlockEnd
  0
ENDSEC
  0
SECTION
  2
ENTITIES
  0
POLYLINE
  5
41
330
1F
100
AcDbEntity
  8
_U+30EC_U+30A4_U+30E4_U+30FC 1
370
     0
100
AcDb2dPolyline
 66
     1
 10
0.0
 20
0.0
 30
0.0
  0
VERTEX
  5
42
330
41
100
AcDbEntity
  8
_U+30EC_U+30A4_U+30E4_U+30FC 1
370
     0
100
AcDbVertex
100
AcDb2dVertex
 10
87.31779681248076
 20
-142.1598519711604
 30
0.0
  0
VERTEX
  5
43
330
41
100
AcDbEntity
  8
_U+30EC_U+30A4_U+30E4_U+30FC 1
370
     0
100
AcDbVertex
100
AcDb2dVertex
 10
89.41752868112327
 20
-142.1598519711604
 30
0.0
  0
VERTEX
  5
44
330
41
100
AcDbEntity
  8
_U+30EC_U+30A4_U+30E4_U+30FC 1
370
     0
100
AcDbVertex
100
AcDb2dVertex
 10
89.41752868112327
 20
-141.1600852613408
 30
0.0
  0
VERTEX
  5
45
330
41
100
AcDbEntity
  8
_U+30EC_U+30A4_U+30E4_U+30FC 1
370
     0
100
AcDbVertex
100
AcDb2dVertex
 10
86.41750723479785
 20
-141.1600852613408
 30
0.0
  0
VERTEX
  5
46
330
41
100
AcDbEntity
  8
_U+30EC_U+30A4_U+30E4_U+30FC 1
370
     0
100
AcDbVertex
100
AcDb2dVertex
 10
86.41750723479785
 20
-162.1591803251286
 30
0.0
  0
VERTEX
  5
47
330
41
100
AcDbEntity
  8
_U+30EC_U+30A4_U+30E4_U+30FC 1
370
     0
100
AcDbVertex
100
AcDb2dVertex
 10
96.41804883453807
 20
-162.1591803251286
 30
0.0
  0
VERTEX
  5
48
330
41
100
AcDbEntity
  8
_U+30EC_U+30A4_U+30E4_U+30FC 1
370
     0
100
AcDbVertex
100
AcDb2dVertex
 10
96.41804883453807
 20
-159.1595141542748
 30
0.0
  0
VERTEX
  5
49
330
41
100
AcDbEntity
  8
_U+30EC_U+30A4_U+30E4_U+30FC 1
370
     0
100
AcDbVertex
100
AcDb2dVertex
 10
93.41802738821266
 20
-159.1595141542748
 30
0.0
  0
VERTEX
  5
4A
330
41
100
AcDbEntity
  8
_U+30EC_U+30A4_U+30E4_U+30FC 1
370
     0
100
AcDbVertex
100
AcDb2dVertex
 10
93.41802738821266
 20
-160.1589363545458
 30
0.0
  0
VERTEX
  5
4B
330
41
100
AcDbEntity
  8
_U+30EC_U+30A4_U+30E4_U+30FC 1
370
     0
100
AcDbVertex
100
AcDb2dVertex
 10
95.41757157377474
 20
-160.1589363545458
 30
0.0
  0
VERTEX
  5
4C
330
41
100
AcDbEntity
  8
_U+30EC_U+30A4_U+30E4_U+30FC 1
370
     0
100
AcDbVertex
100
AcDb2dVertex
 10
95.41757157377474
 20
-161.1594136153091
 30
0.0
  0
VERTEX
  5
4D
330
41
100
AcDbEntity
  8
_U+30EC_U+30A4_U+30E4_U+30FC 1
370
     0
100
AcDbVertex
100
AcDb2dVertex
 10
87.31779681248076
 20
-161.1594136153091
 30
0.0
  0
VERTEX
  5
4E
330
41
100
AcDbEntity
  8
_U+30EC_U+30A4_U+30E4_U+30FC 1
370
     0
100
AcDbVertex
100
AcDb2dVertex
 10
87.31779681248076
 20
-149.1596723395547
 30
0.0
  0
VERTEX
  5
4F
330
41
100
AcDbEntity
  8
_U+30EC_U+30A4_U+30E4_U+30FC 1
370
     0
100
AcDbVertex
100
AcDb2dVertex
 10
126.4179080223235
 20
-149.1596723395547
 30
0.0
  0
VERTEX
  5
50
330
41
100
AcDbEntity
  8
_U+30EC_U+30A4_U+30E4_U+30FC 1
370
     0
100
AcDbVertex
100
AcDb2dVertex
 10
126.4179080223235
 20
-148.2590274863999
 30
0.0
  0
VERTEX
  5
51
330
41
100
AcDbEntity
  8
_U+30EC_U+30A4_U+30E4_U+30FC 1
370
     0
100
AcDbVertex
100
AcDb2dVertex
 10
87.31779681248076
 20
-148.2590274863999
 30
0.0
  0
VERTEX
  5
52
330
41
100
AcDbEntity
  8
_U+30EC_U+30A4_U+30E4_U+30FC 1
370
     0
100
AcDbVertex
100
AcDb2dVertex
 10
87.31779681248076
 20
-142.1598519711604
 30
0.0
  0
SEQEND
  5
54
330
41
100
AcDbEntity
  8
_U+30EC_U+30A4_U+30E4_U+30FC 1
370
     0
  0
HATCH
  5
53
330
1F
100
AcDbEntity
  8
_U+30EC_U+30A4_U+30E4_U+30FC 1
 62
     9
420
 13224394
100
AcDbHatch
 10
0.0
 20
0.0
 30
0.0
210
0.0
220
0.0
230
1.0
  2
SOLID
 70
     1
 71
     0
 91
        1
 92
        1
 93
       16
 72
     1
 10
87.31779681248076
 20
-142.1598519711604
 11
89.41752868112327
 21
-142.1598519711604
 72
     1
 10
89.41752868112327
 20
-142.1598519711604
 11
89.41752868112327
 21
-141.1600852613408
 72
     1
 10
89.41752868112327
 20
-141.1600852613408
 11
86.41750723479785
 21
-141.1600852613408
 72
     1
 10
86.41750723479785
 20
-141.1600852613408
 11
86.41750723479785
 21
-162.1591803251286
 72
     1
 10
86.41750723479785
 20
-162.1591803251286
 11
96.41804883453807
 21
-162.1591803251286
 72
     1
 10
96.41804883453807
 20
-162.1591803251286
 11
96.41804883453807
 21
-159.1595141542748
 72
     1
 10
96.41804883453807
 20
-159.1595141542748
 11
93.41802738821266
 21
-159.1595141542748
 72
     1
 10
93.41802738821266
 20
-159.1595141542748
 11
93.41802738821266
 21
-160.1589363545458
 72
     1
 10
93.41802738821266
 20
-160.1589363545458
 11
95.41757157377474
 21
-160.1589363545458
 72
     1
 10
95.41757157377474
 20
-160.1589363545458
 11
95.41757157377474
 21
-161.1594136153091
 72
     1
 10
95.41757157377474
 20
-161.1594136153091
 11
87.31779681248076
 21
-161.1594136153091
 72
     1
 10
87.31779681248076
 20
-161.1594136153091
 11
87.31779681248076
 21
-149.1596723395547
 72
     1
 10
87.31779681248076
 20
-149.1596723395547
 11
126.4179080223235
 21
-149.1596723395547
 72
     1
 10
126.4179080223235
 20
-149.1596723395547
 11
126.4179080223235
 21
-148.2590274863999
 72
     1
 10
126.4179080223235
 20
-148.2590274863999
 11
87.31779681248076
 21
-148.2590274863999
 72
     1
 10
87.31779681248076
 20
-148.2590274863999
 11
87.31779681248076
 21
-142.1598519711604
 97
        0
 75
     2
 76
     1
 98
        0
  0
POLYLINE
  5
55
330
1F
100
AcDbEntity
  8
_U+30EC_U+30A4_U+30E4_U+30FC 1
 62
   179
420
  2234388
370
    25
100
AcDb2dPolyline
 66
     1
 10
0.0
 20
0.0
 30
0.0
  0
VERTEX
  5
56
330
55
100
AcDbEntity
  8
_U+30EC_U+30A4_U+30E4_U+30FC 1
 62
   179
420
  2234388
370
    25
100
AcDbVertex
100
AcDb2dVertex
 10
87.31779681248076
 20
-149.160339826805
 30
0.0
  0
VERTEX
  5
57
330
55
100
AcDbEntity
  8
_U+30EC_U+30A4_U+30E4_U+30FC 1
 62
   179
420
  2234388
370
    25
100
AcDbVertex
100
AcDb2dVertex
 10
126.4179080223235
 20
-149.160339826805
 30
0.0
  0
SEQEND
  5
58
330
55
100
AcDbEntity
  8
_U+30EC_U+30A4_U+30E4_U+30FC 1
 62
   179
420
  2234388
370
    25
  0
POLYLINE
  5
59
330
1F
100
AcDbEntity
  8
_U+30EC_U+30A4_U+30E4_U+30FC 1
 62
   179
420
  2234388
370
    25
100
AcDb2dPolyline
 66
     1
 10
0.0
 20
0.0
 30
0.0
  0
VERTEX
  5
5A
330
59
100
AcDbEntity
  8
_U+30EC_U+30A4_U+30E4_U+30FC 1
 62
   179
420
  2234388
370
    25
100
AcDbVertex
100
AcDb2dVertex
 10
93.41798432451877
 20
-159.1600739822912
 30
0.0
  0
VERTEX
  5
5B
330
59
100
AcDbEntity
  8
_U+30EC_U+30A4_U+30E4_U+30FC 1
 62
   179
420
  2234388
370
    25
100
AcDbVertex
100
AcDb2dVertex
 10
96.4180057708445
 20
-159.1600739822912
 30
0.0
  0
SEQEND
  5
5C
330
59
100
AcDbEntity
  8
_U+30EC_U+30A4_U+30E4_U+30FC 1
 62
   179
420
  2234388
370
    25
  0
POLYLINE
  5
5D
330
1F
100
AcDbEntity
  8
_U+30EC_U+30A4_U+30E4_U+30FC 1
 62
   179
420
  2234388
370
    25
100
AcDb2dPolyline
 66
     1
 10
0.0
 20
0.0
 30
0.0
  0
VERTEX
  5
5E
330
5D
100
AcDbEntity
  8
_U+30EC_U+30A4_U+30E4_U+30FC 1
 62
   179
420
  2234388
370
    25
100
AcDbVertex
100
AcDb2dVertex
 10
86.41760412810805
 20
-162.1600631308467
 30
0.0
  0
VERTEX
  5
5F
330
5D
100
AcDbEntity
  8
_U+30EC_U+30A4_U+30E4_U+30FC 1
 62
   179
420
  2234388
370
    25
100
AcDbVertex
100
AcDb2dVertex
 10
96.4181457278486
 20
-162.1600631308467
 30
0.0
  0
SEQEND
  5
60
330
5D
100
AcDbEntity
  8
_U+30EC_U+30A4_U+30E4_U+30FC 1
 62
   179
420
  2234388
370
    25
  0
POLYLINE
  5
61
330
1F
100
AcDbEntity
  8
_U+30EC_U+30A4_U+30E4_U+30FC 1
 62
   179
420
  2234388
370
    25
100
AcDb2dPolyline
 66
     1
 10
0.0
 20
0.0
 30
0.0
  0
VERTEX
  5
62
330
61
100
AcDbEntity
  8
_U+30EC_U+30A4_U+30E4_U+30FC 1
 62
   179
420
  2234388
370
    25
100
AcDbVertex
100
AcDb2dVertex
 10
86.41760412810805
 20
-141.160117559111
 30
0.0
  0
VERTEX
  5
63
330
61
100
AcDbEntity
  8
_U+30EC_U+30A4_U+30E4_U+30FC 1
 62
   179
420
  2234388
370
    25
100
AcDbVertex
100
AcDb2dVertex
 10
86.41760412810805
 20
-162.1599231738426
 30
0.0
  0
SEQEND
  5
64
330
61
100
AcDbEntity
  8
_U+30EC_U+30A4_U+30E4_U+30FC 1
 62
   179
420
  2234388
370
    25
  0
POLYLINE
  5
65
330
1F
100
AcDbEntity
  8
_U+30EC_U+30A4_U+30E4_U+30FC 1
 62
   179
420
  2234388
370
    25
100
AcDb2dPolyline
 66
     1
 10
0.0
 20
0.0
 30
0.0
  0
VERTEX
  5
66
330
65
100
AcDbEntity
  8
_U+30EC_U+30A4_U+30E4_U+30FC 1
 62
   179
420
  2234388
370
    25
100
AcDbVertex
100
AcDb2dVertex
 10
126.4179080223235
 20
-148.2597703351139
 30
0.0
  0
VERTEX
  5
67
330
65
100
AcDbEntity
  8
_U+30EC_U+30A4_U+30E4_U+30FC 1
 62
   179
420
  2234388
370
    25
100
AcDbVertex
100
AcDb2dVertex
 10
126.4179080223235
 20
-149.1604151882687
 30
0.0
  0
SEQEND
  5
68
330
65
100
AcDbEntity
  8
_U+30EC_U+30A4_U+30E4_U+30FC 1
 62
   179
420
  2234388
370
    25
  0
POLYLINE
  5
69
330
1F
100
AcDbEntity
  8
_U+30EC_U+30A4_U+30E4_U+30FC 1
 62
   179
420
  2234388
370
    25
100
AcDb2dPolyline
 66
     1
 10
0.0
 20
0.0
 30
0.0
  0
VERTEX
  5
6A
330
69
100
AcDbEntity
  8
_U+30EC_U+30A4_U+30E4_U+30FC 1
 62
   179
420
  2234388
370
    25
100
AcDbVertex
100
AcDb2dVertex
 10
86.41760412810805
 20
-141.160117559111
 30
0.0
  0
VERTEX
  5
6B
330
69
100
AcDbEntity
  8
_U+30EC_U+30A4_U+30E4_U+30FC 1
 62
   179
420
  2234388
370
    25
100
AcDbVertex
100
AcDb2dVertex
 10
89.41762557443379
 20
-141.160117559111
 30
0.0
  0
SEQEND
  5
6C
330
69
100
AcDbEntity
  8
_U+30EC_U+30A4_U+30E4_U+30FC 1
 62
   179
420
  2234388
370
    25
  0
POLYLINE
  5
6D
330
1F
100
AcDbEntity
  8
_U+30EC_U+30A4_U+30E4_U+30FC 1
 62
   179
420
  2234388
370
    25
100
AcDb2dPolyline
 66
     1
 10
0.0
 20
0.0
 30
0.0
  0
VERTEX
  5
6E
330
6D
100
AcDbEntity
  8
_U+30EC_U+30A4_U+30E4_U+30FC 1
 62
   179
420
  2234388
370
    25
100
AcDbVertex
100
AcDb2dVertex
 10
89.41759327666362
 20
-141.160117559111
 30
0.0
  0
VERTEX
  5
6F
330
6D
100
AcDbEntity
  8
_U+30EC_U+30A4_U+30E4_U+30FC 1
 62
   179
420
  2234388
370
    25
100
AcDbVertex
100
AcDb2dVertex
 10
89.41759327666362
 20
-142.1598950348539
 30
0.0
  0
SEQEND
  5
70
330
6D
100
AcDbEntity
  8
_U+30EC_U+30A4_U+30E4_U+30FC 1
 62
   179
420
  2234388
370
    25
  0
POLYLINE
  5
71
330
1F
100
AcDbEntity
  8
_U+30EC_U+30A4_U+30E4_U+30FC 1
 62
   179
420
  2234388
370
    25
100
AcDb2dPolyline
 66
     1
 10
0.0
 20
0.0
 30
0.0
  0
VERTEX
  5
72
330
71
100
AcDbEntity
  8
_U+30EC_U+30A4_U+30E4_U+30FC 1
 62
   179
420
  2234388
370
    25
100
AcDbVertex
100
AcDb2dVertex
 10
87.31779681248076
 20
-142.1598519711604
 30
0.0
  0
VERTEX
  5
73
330
71
100
AcDbEntity
  8
_U+30EC_U+30A4_U+30E4_U+30FC 1
 62
   179
420
  2234388
370
    25
100
AcDbVertex
100
AcDb2dVertex
 10
89.41752868112327
 20
-142.1598519711604
 30
0.0
  0
SEQEND
  5
74
330
71
100
AcDbEntity
  8
_U+30EC_U+30A4_U+30E4_U+30FC 1
 62
   179
420
  2234388
370
    25
  0
POLYLINE
  5
75
330
1F
100
AcDbEntity
  8
_U+30EC_U+30A4_U+30E4_U+30FC 1
 62
   179
420
  2234388
370
    25
100
AcDb2dPolyline
 66
     1
 10
0.0
 20
0.0
 30
0.0
  0
VERTEX
  5
76
330
75
100
AcDbEntity
  8
_U+30EC_U+30A4_U+30E4_U+30FC 1
 62
   179
420
  2234388
370
    25
100
AcDbVertex
100
AcDb2dVertex
 10
96.41801653676822
 20
-159.1600739822912
 30
0.0
  0
VERTEX
  5
77
330
75
100
AcDbEntity
  8
_U+30EC_U+30A4_U+30E4_U+30FC 1
 62
   179
420
  2234388
370
    25
100
AcDbVertex
100
AcDb2dVertex
 10
96.41801653676822
 20
-162.1601061945403
 30
0.0
  0
SEQEND
  5
78
330
75
100
AcDbEntity
  8
_U+30EC_U+30A4_U+30E4_U+30FC 1
 62
   179
420
  2234388
370
    25
  0
POLYLINE
  5
79
330
1F
100
AcDbEntity
  8
_U+30EC_U+30A4_U+30E4_U+30FC 1
 62
   179
420
  2234388
370
    25
100
AcDb2dPolyline
 66
     1
 10
0.0
 20
0.0
 30
0.0
  0
VERTEX
  5
7A
330
79
100
AcDbEntity
  8
_U+30EC_U+30A4_U+30E4_U+30FC 1
 62
   179
420
  2234388
370
    25
100
AcDbVertex
100
AcDb2dVertex
 10
93.41798432451877
 20
-159.1600739822912
 30
0.0
  0
VERTEX
  5
7B
330
79
100
AcDbEntity
  8
_U+30EC_U+30A4_U+30E4_U+30FC 1
 62
   179
420
  2234388
370
    25
100
AcDbVertex
100
AcDb2dVertex
 10
93.41798432451877
 20
-160.159851458034
 30
0.0
  0
SEQEND
  5
7C
330
79
100
AcDbEntity
  8
_U+30EC_U+30A4_U+30E4_U+30FC 1
 62
   179
420
  2234388
370
    25
  0
POLYLINE
  5
7D
330
1F
100
AcDbEntity
  8
_U+30EC_U+30A4_U+30E4_U+30FC 1
 62
   179
420
  2234388
370
    25
100
AcDb2dPolyline
 66
     1
 10
0.0
 20
0.0
 30
0.0
  0
VERTEX
  5
7E
330
7D
100
AcDbEntity
  8
_U+30EC_U+30A4_U+30E4_U+30FC 1
 62
   179
420
  2234388
370
    25
100
AcDbVertex
100
AcDb2dVertex
 10
93.41798432451877
 20
-160.159851458034
 30
0.0
  0
VERTEX
  5
7F
330
7D
100
AcDbEntity
  8
_U+30EC_U+30A4_U+30E4_U+30FC 1
 62
   179
420
  2234388
370
    25
100
AcDbVertex
100
AcDb2dVertex
 10
95.41752851008117
 20
-160.159851458034
 30
0.0
  0
SEQEND
  5
80
330
7D
100
AcDbEntity
  8
_U+30EC_U+30A4_U+30E4_U+30FC 1
 62
   179
420
  2234388
370
    25
  0
POLYLINE
  5
81
330
1F
100
AcDbEntity
  8
_U+30EC_U+30A4_U+30E4_U+30FC 1
 62
   179
420
  2234388
370
    25
100
AcDb2dPolyline
 66
     1
 10
0.0
 20
0.0
 30
0.0
  0
VERTEX
  5
82
330
81
100
AcDbEntity
  8
_U+30EC_U+30A4_U+30E4_U+30FC 1
 62
   179
420
  2234388
370
    25
100
AcDbVertex
100
AcDb2dVertex
 10
87.31779681248076
 20
-161.1602964210272
 30
0.0
  0
VERTEX
  5
83
330
81
100
AcDbEntity
  8
_U+30EC_U+30A4_U+30E4_U+30FC 1
 62
   179
420
  2234388
370
    25
100
AcDbVertex
100
AcDb2dVertex
 10
95.41757157377474
 20
-161.1602964210272
 30
0.0
  0
SEQEND
  5
84
330
81
100
AcDbEntity
  8
_U+30EC_U+30A4_U+30E4_U+30FC 1
 62
   179
420
  2234388
370
    25
  0
POLYLINE
  5
85
330
1F
100
AcDbEntity
  8
_U+30EC_U+30A4_U+30E4_U+30FC 1
 62
   179
420
  2234388
370
    25
100
AcDb2dPolyline
 66
     1
 10
0.0
 20
0.0
 30
0.0
  0
VERTEX
  5
86
330
85
100
AcDbEntity
  8
_U+30EC_U+30A4_U+30E4_U+30FC 1
 62
   179
420
  2234388
370
    25
100
AcDbVertex
100
AcDb2dVertex
 10
95.41753927600456
 20
-160.159851458034
 30
0.0
  0
VERTEX
  5
87
330
85
100
AcDbEntity
  8
_U+30EC_U+30A4_U+30E4_U+30FC 1
 62
   179
420
  2234388
370
    25
100
AcDbVertex
100
AcDb2dVertex
 10
95.41753927600456
 20
-161.1603394847208
 30
0.0
  0
SEQEND
  5
88
330
85
100
AcDbEntity
  8
_U+30EC_U+30A4_U+30E4_U+30FC 1
 62
   179
420
  2234388
370
    25
  0
POLYLINE
  5
89
330
1F
100
AcDbEntity
  8
_U+30EC_U+30A4_U+30E4_U+30FC 1
 62
   179
420
  2234388
370
    25
100
AcDb2dPolyline
 66
     1
 10
0.0
 20
0.0
 30
0.0
  0
VERTEX
  5
8A
330
89
100
AcDbEntity
  8
_U+30EC_U+30A4_U+30E4_U+30FC 1
 62
   179
420
  2234388
370
    25
100
AcDbVertex
100
AcDb2dVertex
 10
87.31779681248076
 20
-142.1598519711604
 30
0.0
  0
VERTEX
  5
8B
330
89
100
AcDbEntity
  8
_U+30EC_U+30A4_U+30E4_U+30FC 1
 62
   179
420
  2234388
370
    25
100
AcDbVertex
100
AcDb2dVertex
 10
87.31779681248076
 20
-148.2597380373437
 30
0.0
  0
SEQEND
  5
8C
330
89
100
AcDbEntity
  8
_U+30EC_U+30A4_U+30E4_U+30FC 1
 62
   179
420
  2234388
370
    25
  0
POLYLINE
  5
8D
330
1F
100
AcDbEntity
  8
_U+30EC_U+30A4_U+30E4_U+30FC 1
 62
   179
420
  2234388
370
    25
100
AcDb2dPolyline
 66
     1
 10
0.0
 20
0.0
 30
0.0
  0
VERTEX
  5
8E
330
8D
100
AcDbEntity
  8
_U+30EC_U+30A4_U+30E4_U+30FC 1
 62
   179
420
  2234388
370
    25
100
AcDbVertex
100
AcDb2dVertex
 10
87.31779681248076
 20
-148.2597703351139
 30
0.0
  0
VERTEX
  5
8F
330
8D
100
AcDbEntity
  8
_U+30EC_U+30A4_U+30E4_U+30FC 1
 62
   179
420
  2234388
370
    25
100
AcDbVertex
100
AcDb2dVertex
 10
126.4179080223235
 20
-148.2597703351139
 30
0.0
  0
SEQEND
  5
90
330
8D
100
AcDbEntity
  8
_U+30EC_U+30A4_U+30E4_U+30FC 1
 62
   179
420
  2234388
370
    25
  0
POLYLINE
  5
91
330
1F
100
AcDbEntity
  8
_U+30EC_U+30A4_U+30E4_U+30FC 1
 62
   179
420
  2234388
370
    25
100
AcDb2dPolyline
 66
     1
 10
0.0
 20
0.0
 30
0.0
  0
VERTEX
  5
92
330
91
100
AcDbEntity
  8
_U+30EC_U+30A4_U+30E4_U+30FC 1
 62
   179
420
  2234388
370
    25
100
AcDbVertex
100
AcDb2dVertex
 10
87.31779681248076
 20
-149.160339826805
 30
0.0
  0
VERTEX
  5
93
330
91
100
AcDbEntity
  8
_U+30EC_U+30A4_U+30E4_U+30FC 1
 62
   179
420
  2234388
370
    25
100
AcDbVertex
100
AcDb2dVertex
 10
87.31779681248076
 20
-161.1604363780313
 30
0.0
  0
SEQEND
  5
94
330
91
100
AcDbEntity
  8
_U+30EC_U+30A4_U+30E4_U+30FC 1
 62
   179
420
  2234388
370
    25
  0
SPLINE
  5
95
330
1F
100
AcDbEntity
  8
_U+30EC_U+30A4_U+30E4_U+30FC 1
 62
   179
420
  2234388
370
     9
100
AcDbSpline
210
0.0
220
0.0
230
1.0
 70
    11
 71
     3
 72
    17
 73
    13
 74
     0
 42
0.0000000001
 43
0.0000000001
 12
1.0
 22
0.0
 32
0.0
 13
1.0
 23
0.0
 33
0.0
 40
0.0
 40
0.0
 40
0.0
 40
0.0
 40
1.0
 40
1.0
 40
1.0
 40
2.0
 40
2.0
 40
2.0
 40
3.0
 40
3.0
 40
3.0
 40
4.0
 40
4.0
 40
4.0
 40
4.0
 10
86.51783487488204
 20
-133.1599275891872
 30
0.0
 10
86.51783487488204
 20
-133.1049029547338
 30
0.0
 10
86.47302710172701
 20
-133.0600951815787
 30
0.0
 10
86.41763642587823
 20
-133.0600951815787
 30
0.0
 10
86.36261179142475
 20
-133.0600951815787
 30
0.0
 10
86.31780401826973
 20
-133.1049029547338
 30
0.0
 10
86.31780401826973
 20
-133.1599275891872
 30
0.0
 10
86.31780401826973
 20
-133.2149629895641
 30
0.0
 10
86.36261179142475
 20
-133.2597707627191
 30
0.0
 10
86.41763642587823
 20
-133.2597707627191
 30
0.0
 10
86.47302710172701
 20
-133.2597707627191
 30
0.0
 10
86.51783487488204
 20
-133.2149629895641
 30
0.0
 10
86.51783487488204
 20
-133.1599275891872
 30
0.0
  0
SPLINE
  5
96
330
1F
100
AcDbEntity
  8
_U+30EC_U+30A4_U+30E4_U+30FC 1
 62
   179
420
  2234388
370
     9
100
AcDbSpline
210
0.0
220
0.0
230
1.0
 70
    11
 71
     3
 72
    17
 73
    13
 74
     0
 42
0.0000000001
 43
0.0000000001
 12
1.0
 22
0.0
 32
0.0
 13
1.0
 23
0.0
 33
0.0
 40
0.0
 40
0.0
 40
0.0
 40
0.0
 40
1.0
 40
1.0
 40
1.0
 40
2.0
 40
2.0
 40
2.0
 40
3.0
 40
3.0
 40
3.0
 40
4.0
 40
4.0
 40
4.0
 40
4.0
 10
86.51783487488204
 20
-137.1596511497921
 30
0.0
 10
86.51783487488204
 20
-137.1046265153387
 30
0.0
 10
86.47302710172701
 20
-137.0598187421836
 30
0.0
 10
86.41763642587823
 20
-137.0598187421836
 30
0.0
 10
86.36261179142475
 20
-137.0598187421836
 30
0.0
 10
86.31780401826973
 20
-137.1046265153387
 30
0.0
 10
86.31780401826973
 20
-137.1596511497921
 30
0.0
 10
86.31780401826973
 20
-137.2153971011128
 30
0.0
 10
86.36261179142475
 20
-137.2601941083445
 30
0.0
 10
86.41763642587823
 20
-137.2601941083445
 30
0.0
 10
86.47302710172701
 20
-137.2601941083445
 30
0.0
 10
86.51783487488204
 20
-137.2153971011128
 30
0.0
 10
86.51783487488204
 20
-137.1596511497921
 30
0.0
  0
SPLINE
  5
97
330
1F
100
AcDbEntity
  8
_U+30EC_U+30A4_U+30E4_U+30FC 1
 62
   179
420
  2234388
370
     9
100
AcDbSpline
210
0.0
220
0.0
230
1.0
 70
    11
 71
     3
 72
    17
 73
    13
 74
     0
 42
0.0000000001
 43
0.0000000001
 12
1.0
 22
0.0
 32
0.0
 13
1.0
 23
0.0
 33
0.0
 40
0.0
 40
0.0
 40
0.0
 40
0.0
 40
1.0
 40
1.0
 40
1.0
 40
2.0
 40
2.0
 40
2.0
 40
3.0
 40
3.0
 40
3.0
 40
4.0
 40
4.0
 40
4.0
 40
4.0
 10
89.51782402343761
 20
-137.1596511497921
 30
0.0
 10
89.51782402343761
 20
-137.1046265153387
 30
0.0
 10
89.47301625028257
 20
-137.0598187421836
 30
0.0
 10
89.41762557443379
 20
-137.0598187421836
 30
0.0
 10
89.36260093998031
 20
-137.0598187421836
 30
0.0
 10
89.31779316682528
 20
-137.1046265153387
 30
0.0
 10
89.31779316682528
 20
-137.1596511497921
 30
0.0
 10
89.31779316682528
 20
-137.2153971011128
 30
0.0
 10
89.36260093998031
 20
-137.2601941083445
 30
0.0
 10
89.41762557443379
 20
-137.2601941083445
 30
0.0
 10
89.47301625028257
 20
-137.2601941083445
 30
0.0
 10
89.51782402343761
 20
-137.2153971011128
 30
0.0
 10
89.51782402343761
 20
-137.1596511497921
 30
0.0
  0
SPLINE
  5
98
330
1F
100
AcDbEntity
  8
_U+30EC_U+30A4_U+30E4_U+30FC 1
 62
   179
420
  2234388
370
     9
100
AcDbSpline
210
0.0
220
0.0
230
1.0
 70
    11
 71
     3
 72
    17
 73
    13
 74
     0
 42
0.0000000001
 43
0.0000000001
 12
1.0
 22
0.0
 32
0.0
 13
1.0
 23
0.0
 33
0.0
 40
0.0
 40
0.0
 40
0.0
 40
0.0
 40
1.0
 40
1.0
 40
1.0
 40
2.0
 40
2.0
 40
2.0
 40
3.0
 40
3.0
 40
3.0
 40
4.0
 40
4.0
 40
4.0
 40
4.0
 10
126.5178157913957
 20
-133.1599275891872
 30
0.0
 10
126.5178157913957
 20
-133.1049029547338
 30
0.0
 10
126.4730080182407
 20
-133.0600951815787
 30
0.0
 10
126.4179726178638
 20
-133.0600951815787
 30
0.0
 10
126.362937217487
 20
-133.0600951815787
 30
0.0
 10
126.3181294443319
 20
-133.1049029547338
 30
0.0
 10
126.3181294443319
 20
-133.1599275891872
 30
0.0
 10
126.3181294443319
 20
-133.2149629895641
 30
0.0
 10
126.362937217487
 20
-133.2597707627191
 30
0.0
 10
126.4179726178638
 20
-133.2597707627191
 30
0.0
 10
126.4730080182407
 20
-133.2597707627191
 30
0.0
 10
126.5178157913957
 20
-133.2149629895641
 30
0.0
 10
126.5178157913957
 20
-133.1599275891872
 30
0.0
  0
SPLINE
  5
99
330
1F
100
AcDbEntity
  8
_U+30EC_U+30A4_U+30E4_U+30FC 1
 62
   179
420
  2234388
370
     9
100
AcDbSpline
210
0.0
220
0.0
230
1.0
 70
    11
 71
     3
 72
    17
 73
    13
 74
     0
 42
0.0000000001
 43
0.0000000001
 12
1.0
 22
0.0
 32
0.0
 13
1.0
 23
0.0
 33
0.0
 40
0.0
 40
0.0
 40
0.0
 40
0.0
 40
1.0
 40
1.0
 40
1.0
 40
2.0
 40
2.0
 40
2.0
 40
3.0
 40
3.0
 40
3.0
 40
4.0
 40
4.0
 40
4.0
 40
4.0
 10
130.5175931816176
 20
-149.160339826805
 30
0.0
 10
130.5175931816176
 20
-149.1046046414077
 30
0.0
 10
130.4727854084625
 20
-149.059807634176
 30
0.0
 10
130.4177500080857
 20
-149.059807634176
 30
0.0
 10
130.3627146077088
 20
-149.059807634176
 30
0.0
 10
130.3179068345538
 20
-149.1046046414077
 30
0.0
 10
130.3179068345538
 20
-149.160339826805
 30
0.0
 10
130.3179068345538
 20
-149.2153752271819
 30
0.0
 10
130.3627146077088
 20
-149.2601830003369
 30
0.0
 10
130.4177500080857
 20
-149.2601830003369
 30
0.0
 10
130.4727854084625
 20
-149.2601830003369
 30
0.0
 10
130.5175931816176
 20
-149.2153752271819
 30
0.0
 10
130.5175931816176
 20
-149.160339826805
 30
0.0
  0
SPLINE
  5
9A
330
1F
100
AcDbEntity
  8
_U+30EC_U+30A4_U+30E4_U+30FC 1
 62
   179
420
  2234388
370
     9
100
AcDbSpline
210
0.0
220
0.0
230
1.0
 70
    11
 71
     3
 72
    17
 73
    13
 74
     0
 42
0.0000000001
 43
0.0000000001
 12
1.0
 22
0.0
 32
0.0
 13
1.0
 23
0.0
 33
0.0
 40
0.0
 40
0.0
 40
0.0
 40
0.0
 40
1.0
 40
1.0
 40
1.0
 40
2.0
 40
2.0
 40
2.0
 40
3.0
 40
3.0
 40
3.0
 40
4.0
 40
4.0
 40
4.0
 40
4.0
 10
130.5175931816176
 20
-159.1600739822912
 30
0.0
 10
130.5175931816176
 20
-159.1050493478377
 30
0.0
 10
130.4727854084625
 20
-159.0602415746826
 30
0.0
 10
130.4177500080857
 20
-159.0602415746826
 30
0.0
 10
130.3627146077088
 20
-159.0602415746826
 30
0.0
 10
130.3179068345538
 20
-159.1050493478377
 30
0.0
 10
130.3179068345538
 20
-159.1600739822912
 30
0.0
 10
130.3179068345538
 20
-159.215109382668
 30
0.0
 10
130.3627146077088
 20
-159.259917155823
 30
0.0
 10
130.4177500080857
 20
-159.259917155823
 30
0.0
 10
130.4727854084625
 20
-159.259917155823
 30
0.0
 10
130.5175931816176
 20
-159.215109382668
 30
0.0
 10
130.5175931816176
 20
-159.1600739822912
 30
0.0
  0
SPLINE
  5
9B
330
1F
100
AcDbEntity
  8
_U+30EC_U+30A4_U+30E4_U+30FC 1
 62
   179
420
  2234388
370
     9
100
AcDbSpline
210
0.0
220
0.0
230
1.0
 70
    11
 71
     3
 72
    17
 73
    13
 74
     0
 42
0.0000000001
 43
0.0000000001
 12
1.0
 22
0.0
 32
0.0
 13
1.0
 23
0.0
 33
0.0
 40
0.0
 40
0.0
 40
0.0
 40
0.0
 40
1.0
 40
1.0
 40
1.0
 40
2.0
 40
2.0
 40
2.0
 40
3.0
 40
3.0
 40
3.0
 40
4.0
 40
4.0
 40
4.0
 40
4.0
 10
130.5175931816176
 20
-162.1600631308467
 30
0.0
 10
130.5175931816176
 20
-162.1050384963932
 30
0.0
 10
130.4727854084625
 20
-162.0602307232382
 30
0.0
 10
130.4177500080857
 20
-162.0602307232382
 30
0.0
 10
130.3627146077088
 20
-162.0602307232382
 30
0.0
 10
130.3179068345538
 20
-162.1050384963932
 30
0.0
 10
130.3179068345538
 20
-162.1600631308467
 30
0.0
 10
130.3179068345538
 20
-162.2150985312236
 30
0.0
 10
130.3627146077088
 20
-162.2599063043786
 30
0.0
 10
130.4177500080857
 20
-162.2599063043786
 30
0.0
 10
130.4727854084625
 20
-162.2599063043786
 30
0.0
 10
130.5175931816176
 20
-162.2150985312236
 30
0.0
 10
130.5175931816176
 20
-162.1600631308467
 30
0.0
  0
SPLINE
  5
9C
330
1F
100
AcDbEntity
  8
_U+30EC_U+30A4_U+30E4_U+30FC 1
 62
   179
420
  2234388
370
     9
100
AcDbSpline
210
0.0
220
0.0
230
1.0
 70
    11
 71
     3
 72
    17
 73
    13
 74
     0
 42
0.0000000001
 43
0.0000000001
 12
1.0
 22
0.0
 32
0.0
 13
1.0
 23
0.0
 33
0.0
 40
0.0
 40
0.0
 40
0.0
 40
0.0
 40
1.0
 40
1.0
 40
1.0
 40
2.0
 40
2.0
 40
2.0
 40
3.0
 40
3.0
 40
3.0
 40
4.0
 40
4.0
 40
4.0
 40
4.0
 10
86.51783487488204
 20
-166.1598189892218
 30
0.0
 10
86.51783487488204
 20
-166.1047943547683
 30
0.0
 10
86.47302710172701
 20
-166.0599865816133
 30
0.0
 10
86.41763642587823
 20
-166.0599865816133
 30
0.0
 10
86.36261179142475
 20
-166.0599865816133
 30
0.0
 10
86.31780401826973
 20
-166.1047943547683
 30
0.0
 10
86.31780401826973
 20
-166.1598189892218
 30
0.0
 10
86.31780401826973
 20
-166.2155649405425
 30
0.0
 10
86.36261179142475
 20
-166.2603619477741
 30
0.0
 10
86.41763642587823
 20
-166.2603619477741
 30
0.0
 10
86.47302710172701
 20
-166.2603619477741
 30
0.0
 10
86.51783487488204
 20
-166.2155649405425
 30
0.0
 10
86.51783487488204
 20
-166.1598189892218
 30
0.0
  0
SPLINE
  5
9D
330
1F
100
AcDbEntity
  8
_U+30EC_U+30A4_U+30E4_U+30FC 1
 62
   179
420
  2234388
370
     9
100
AcDbSpline
210
0.0
220
0.0
230
1.0
 70
    11
 71
     3
 72
    17
 73
    13
 74
     0
 42
0.0000000001
 43
0.0000000001
 12
1.0
 22
0.0
 32
0.0
 13
1.0
 23
0.0
 33
0.0
 40
0.0
 40
0.0
 40
0.0
 40
0.0
 40
1.0
 40
1.0
 40
1.0
 40
2.0
 40
2.0
 40
2.0
 40
3.0
 40
3.0
 40
3.0
 40
4.0
 40
4.0
 40
4.0
 40
4.0
 10
96.51791353991675
 20
-166.1598189892218
 30
0.0
 10
96.51791353991675
 20
-166.1047943547683
 30
0.0
 10
96.47310576676172
 20
-166.0599865816133
 30
0.0
 10
96.41807036638485
 20
-166.0599865816133
 30
0.0
 10
96.36303496600799
 20
-166.0599865816133
 30
0.0
 10
96.31823795877635
 20
-166.1047943547683
 30
0.0
 10
96.31823795877635
 20
-166.1598189892218
 30
0.0
 10
96.31823795877635
 20
-166.2155649405425
 30
0.0
 10
96.36303496600799
 20
-166.2603619477741
 30
0.0
 10
96.41807036638485
 20
-166.2603619477741
 30
0.0
 10
96.47310576676172
 20
-166.2603619477741
 30
0.0
 10
96.51791353991675
 20
-166.2155649405425
 30
0.0
 10
96.51791353991675
 20
-166.1598189892218
 30
0.0
  0
SPLINE
  5
9E
330
1F
100
AcDbEntity
  8
_U+30EC_U+30A4_U+30E4_U+30FC 1
 62
   179
420
  2234388
370
     9
100
AcDbSpline
210
0.0
220
0.0
230
1.0
 70
    11
 71
     3
 72
    17
 73
    13
 74
     0
 42
0.0000000001
 43
0.0000000001
 12
1.0
 22
0.0
 32
0.0
 13
1.0
 23
0.0
 33
0.0
 40
0.0
 40
0.0
 40
0.0
 40
0.0
 40
1.0
 40
1.0
 40
1.0
 40
2.0
 40
2.0
 40
2.0
 40
3.0
 40
3.0
 40
3.0
 40
4.0
 40
4.0
 40
4.0
 40
4.0
 10
81.73434132545943
 20
-141.160117559111
 30
0.0
 10
81.73434132545943
 20
-141.1050929246576
 30
0.0
 10
81.6895335523044
 20
-141.0602851515025
 30
0.0
 10
81.63449815192753
 20
-141.0602851515025
 30
0.0
 10
81.57911824200214
 20
-141.0602851515025
 30
0.0
 10
81.53431046884711
 20
-141.1050929246576
 30
0.0
 10
81.53431046884711
 20
-141.160117559111
 30
0.0
 10
81.53431046884711
 20
-141.2151529594879
 30
0.0
 10
81.57911824200214
 20
-141.2599607326429
 30
0.0
 10
81.63449815192753
 20
-141.2599607326429
 30
0.0
 10
81.6895335523044
 20
-141.2599607326429
 30
0.0
 10
81.73434132545943
 20
-141.2151529594879
 30
0.0
 10
81.73434132545943
 20
-141.160117559111
 30
0.0
  0
SPLINE
  5
9F
330
1F
100
AcDbEntity
  8
_U+30EC_U+30A4_U+30E4_U+30FC 1
 62
   179
420
  2234388
370
     9
100
AcDbSpline
210
0.0
220
0.0
230
1.0
 70
    11
 71
     3
 72
    17
 73
    13
 74
     0
 42
0.0000000001
 43
0.0000000001
 12
1.0
 22
0.0
 32
0.0
 13
1.0
 23
0.0
 33
0.0
 40
0.0
 40
0.0
 40
0.0
 40
0.0
 40
1.0
 40
1.0
 40
1.0
 40
2.0
 40
2.0
 40
2.0
 40
3.0
 40
3.0
 40
3.0
 40
4.0
 40
4.0
 40
4.0
 40
4.0
 10
81.73434132545943
 20
-162.1600631308467
 30
0.0
 10
81.73434132545943
 20
-162.1050384963932
 30
0.0
 10
81.6895335523044
 20
-162.0602307232382
 30
0.0
 10
81.63449815192753
 20
-162.0602307232382
 30
0.0
 10
81.57911824200214
 20
-162.0602307232382
 30
0.0
 10
81.53431046884711
 20
-162.1050384963932
 30
0.0
 10
81.53431046884711
 20
-162.1600631308467
 30
0.0
 10
81.53431046884711
 20
-162.2150985312236
 30
0.0
 10
81.57911824200214
 20
-162.2599063043786
 30
0.0
 10
81.63449815192753
 20
-162.2599063043786
 30
0.0
 10
81.6895335523044
 20
-162.2599063043786
 30
0.0
 10
81.73434132545943
 20
-162.2150985312236
 30
0.0
 10
81.73434132545943
 20
-162.1600631308467
 30
0.0
  0
POLYLINE
  5
A0
330
1F
100
AcDbEntity
  8
_U+30EC_U+30A4_U+30E4_U+30FC 1
 62
   179
420
  2234388
370
     9
100
AcDb2dPolyline
 66
     1
 10
0.0
 20
0.0
 30
0.0
  0
VERTEX
  5
A1
330
A0
100
AcDbEntity
  8
_U+30EC_U+30A4_U+30E4_U+30FC 1
 62
   179
420
  2234388
370
     9
100
AcDbVertex
100
AcDb2dVertex
 10
130.4176854125453
 20
-159.1600739822912
 30
0.0
  0
VERTEX
  5
A2
330
A0
100
AcDbEntity
  8
_U+30EC_U+30A4_U+30E4_U+30FC 1
 62
   179
420
  2234388
370
     9
100
AcDbVertex
100
AcDb2dVertex
 10
130.4176854125453
 20
-162.1601061945403
 30
0.0
  0
SEQEND
  5
A3
330
A0
100
AcDbEntity
  8
_U+30EC_U+30A4_U+30E4_U+30FC 1
 62
   179
420
  2234388
370
     9
  0
POLYLINE
  5
A4
330
1F
100
AcDbEntity
  8
_U+30EC_U+30A4_U+30E4_U+30FC 1
 62
   179
420
  2234388
370
     9
100
AcDb2dPolyline
 66
     1
 10
0.0
 20
0.0
 30
0.0
  0
VERTEX
  5
A5
330
A4
100
AcDbEntity
  8
_U+30EC_U+30A4_U+30E4_U+30FC 1
 62
   179
420
  2234388
370
     9
100
AcDbVertex
100
AcDb2dVertex
 10
98.95776246034086
 20
-159.1600739822912
 30
0.0
  0
VERTEX
  5
A6
330
A4
100
AcDbEntity
  8
_U+30EC_U+30A4_U+30E4_U+30FC 1
 62
   179
420
  2234388
370
     9
100
AcDbVertex
100
AcDb2dVertex
 10
131.4182488006958
 20
-159.1600739822912
 30
0.0
  0
SEQEND
  5
A7
330
A4
100
AcDbEntity
  8
_U+30EC_U+30A4_U+30E4_U+30FC 1
 62
   179
420
  2234388
370
     9
  0
POLYLINE
  5
A8
330
1F
100
AcDbEntity
  8
_U+30EC_U+30A4_U+30E4_U+30FC 1
 62
   179
420
  2234388
370
     9
100
AcDb2dPolyline
 66
     1
 10
0.0
 20
0.0
 30
0.0
  0
VERTEX
  5
A9
330
A8
100
AcDbEntity
  8
_U+30EC_U+30A4_U+30E4_U+30FC 1
 62
   179
420
  2234388
370
     9
100
AcDbVertex
100
AcDb2dVertex
 10
98.95776246034086
 20
-162.1600631308467
 30
0.0
  0
VERTEX
  5
AA
330
A8
100
AcDbEntity
  8
_U+30EC_U+30A4_U+30E4_U+30FC 1
 62
   179
420
  2234388
370
     9
100
AcDbVertex
100
AcDb2dVertex
 10
131.4182488006958
 20
-162.1600631308467
 30
0.0
  0
SEQEND
  5
AB
330
A8
100
AcDbEntity
  8
_U+30EC_U+30A4_U+30E4_U+30FC 1
 62
   179
420
  2234388
370
     9
  0
INSERT
  5
AD
330
1F
100
AcDbEntity
  8
_U+30EC_U+30A4_U+30E4_U+30FC 1
100
AcDbBlockReference
  2
block 2
 10
0.0
 20
0.0
 30
0.0
  0
POLYLINE
  5
B2
330
1F
100
AcDbEntity
  8
_U+30EC_U+30A4_U+30E4_U+30FC 1
 62
   179
420
  2234388
370
     9
100
AcDb2dPolyline
 66
     1
 10
0.0
 20
0.0
 30
0.0
  0
VERTEX
  5
B3
330
B2
100
AcDbEntity
  8
_U+30EC_U+30A4_U+30E4_U+30FC 1
 62
   179
420
  2234388
370
     9
100
AcDbVertex
100
AcDb2dVertex
 10
86.41760412810805
 20
-137.1596511497921
 30
0.0
  0
VERTEX
  5
B4
330
B2
100
AcDbEntity
  8
_U+30EC_U+30A4_U+30E4_U+30FC 1
 62
   179
420
  2234388
370
     9
100
AcDbVertex
100
AcDb2dVertex
 10
89.41762557443379
 20
-137.1596511497921
 30
0.0
  0
SEQEND
  5
B5
330
B2
100
AcDbEntity
  8
_U+30EC_U+30A4_U+30E4_U+30FC 1
 62
   179
420
  2234388
370
     9
  0
POLYLINE
  5
B6
330
1F
100
AcDbEntity
  8
_U+30EC_U+30A4_U+30E4_U+30FC 1
 62
   179
420
  2234388
370
     9
100
AcDb2dPolyline
 66
     1
 10
0.0
 20
0.0
 30
0.0
  0
VERTEX
  5
B7
330
B6
100
AcDbEntity
  8
_U+30EC_U+30A4_U+30E4_U+30FC 1
 62
   179
420
  2234388
370
     9
100
AcDbVertex
100
AcDb2dVertex
 10
86.41760412810805
 20
-138.619736446058
 30
0.0
  0
VERTEX
  5
B8
330
B6
100
AcDbEntity
  8
_U+30EC_U+30A4_U+30E4_U+30FC 1
 62
   179
420
  2234388
370
     9
100
AcDbVertex
100
AcDb2dVertex
 10
86.41760412810805
 20
-136.1598198444323
 30
0.0
  0
SEQEND
  5
B9
330
B6
100
AcDbEntity
  8
_U+30EC_U+30A4_U+30E4_U+30FC 1
 62
   179
420
  2234388
370
     9
  0
POLYLINE
  5
BA
330
1F
100
AcDbEntity
  8
_U+30EC_U+30A4_U+30E4_U+30FC 1
 62
   179
420
  2234388
370
     9
100
AcDb2dPolyline
 66
     1
 10
0.0
 20
0.0
 30
0.0
  0
VERTEX
  5
BB
330
BA
100
AcDbEntity
  8
_U+30EC_U+30A4_U+30E4_U+30FC 1
 62
   179
420
  2234388
370
     9
100
AcDbVertex
100
AcDb2dVertex
 10
89.41759327666362
 20
-138.619736446058
 30
0.0
  0
VERTEX
  5
BC
330
BA
100
AcDbEntity
  8
_U+30EC_U+30A4_U+30E4_U+30FC 1
 62
   179
420
  2234388
370
     9
100
AcDbVertex
100
AcDb2dVertex
 10
89.41759327666362
 20
-136.1598198444323
 30
0.0
  0
SEQEND
  5
BD
330
BA
100
AcDbEntity
  8
_U+30EC_U+30A4_U+30E4_U+30FC 1
 62
   179
420
  2234388
370
     9
  0
INSERT
  5
BF
330
1F
100
AcDbEntity
  8
_U+30EC_U+30A4_U+30E4_U+30FC 1
100
AcDbBlockReference
  2
block 3
 10
0.0
 20
0.0
 30
0.0
  0
POLYLINE
  5
C4
330
1F
100
AcDbEntity
  8
_U+30EC_U+30A4_U+30E4_U+30FC 1
 62
   179
420
  2234388
370
     9
100
AcDb2dPolyline
 66
     1
 10
0.0
 20
0.0
 30
0.0
  0
VERTEX
  5
C5
330
C4
100
AcDbEntity
  8
_U+30EC_U+30A4_U+30E4_U+30FC 1
 62
   179
420
  2234388
370
     9
100
AcDbVertex
100
AcDb2dVertex
 10
86.41760412810805
 20
-133.1599275891872
 30
0.0
  0
VERTEX
  5
C6
330
C4
100
AcDbEntity
  8
_U+30EC_U+30A4_U+30E4_U+30FC 1
 62
   179
420
  2234388
370
     9
100
AcDbVertex
100
AcDb2dVertex
 10
126.4180156815574
 20
-133.1599275891872
 30
0.0
  0
SEQEND
  5
C7
330
C4
100
AcDbEntity
  8
_U+30EC_U+30A4_U+30E4_U+30FC 1
 62
   179
420
  2234388
370
     9
  0
POLYLINE
  5
C8
330
1F
100
AcDbEntity
  8
_U+30EC_U+30A4_U+30E4_U+30FC 1
 62
   179
420
  2234388
370
     9
100
AcDb2dPolyline
 66
     1
 10
0.0
 20
0.0
 30
0.0
  0
VERTEX
  5
C9
330
C8
100
AcDbEntity
  8
_U+30EC_U+30A4_U+30E4_U+30FC 1
 62
   179
420
  2234388
370
     9
100
AcDbVertex
100
AcDb2dVertex
 10
86.41760412810805
 20
-138.619736446058
 30
0.0
  0
VERTEX
  5
CA
330
C8
100
AcDbEntity
  8
_U+30EC_U+30A4_U+30E4_U+30FC 1
 62
   179
420
  2234388
370
     9
100
AcDbVertex
100
AcDb2dVertex
 10
86.41760412810805
 20
-132.160031688287
 30
0.0
  0
SEQEND
  5
CB
330
C8
100
AcDbEntity
  8
_U+30EC_U+30A4_U+30E4_U+30FC 1
 62
   179
420
  2234388
370
     9
  0
POLYLINE
  5
CC
330
1F
100
AcDbEntity
  8
_U+30EC_U+30A4_U+30E4_U+30FC 1
 62
   179
420
  2234388
370
     9
100
AcDb2dPolyline
 66
     1
 10
0.0
 20
0.0
 30
0.0
  0
VERTEX
  5
CD
330
CC
100
AcDbEntity
  8
_U+30EC_U+30A4_U+30E4_U+30FC 1
 62
   179
420
  2234388
370
     9
100
AcDbVertex
100
AcDb2dVertex
 10
126.4179080223235
 20
-145.7200567093111
 30
0.0
  0
VERTEX
  5
CE
330
CC
100
AcDbEntity
  8
_U+30EC_U+30A4_U+30E4_U+30FC 1
 62
   179
420
  2234388
370
     9
100
AcDbVertex
100
AcDb2dVertex
 10
126.4179080223235
 20
-132.1599886245935
 30
0.0
  0
SEQEND
  5
CF
330
CC
100
AcDbEntity
  8
_U+30EC_U+30A4_U+30E4_U+30FC 1
 62
   179
420
  2234388
370
     9
  0
INSERT
  5
D1
330
1F
100
AcDbEntity
  8
_U+30EC_U+30A4_U+30E4_U+30FC 1
100
AcDbBlockReference
  2
block 4
 10
0.0
 20
0.0
 30
0.0
  0
POLYLINE
  5
EC
330
1F
100
AcDbEntity
  8
_U+30EC_U+30A4_U+30E4_U+30FC 1
 62
   179
420
  2234388
370
     9
100
AcDb2dPolyline
 66
     1
 10
0.0
 20
0.0
 30
0.0
  0
VERTEX
  5
ED
330
EC
100
AcDbEntity
  8
_U+30EC_U+30A4_U+30E4_U+30FC 1
 62
   179
420
  2234388
370
     9
100
AcDbVertex
100
AcDb2dVertex
 10
86.41760412810805
 20
-166.1598189892218
 30
0.0
  0
VERTEX
  5
EE
330
EC
100
AcDbEntity
  8
_U+30EC_U+30A4_U+30E4_U+30FC 1
 62
   179
420
  2234388
370
     9
100
AcDbVertex
100
AcDb2dVertex
 10
96.4181457278486
 20
-166.1598189892218
 30
0.0
  0
SEQEND
  5
EF
330
EC
100
AcDbEntity
  8
_U+30EC_U+30A4_U+30E4_U+30FC 1
 62
   179
420
  2234388
370
     9
  0
POLYLINE
  5
F0
330
1F
100
AcDbEntity
  8
_U+30EC_U+30A4_U+30E4_U+30FC 1
 62
   179
420
  2234388
370
     9
100
AcDb2dPolyline
 66
     1
 10
0.0
 20
0.0
 30
0.0
  0
VERTEX
  5
F1
330
F0
100
AcDbEntity
  8
_U+30EC_U+30A4_U+30E4_U+30FC 1
 62
   179
420
  2234388
370
     9
100
AcDbVertex
100
AcDb2dVertex
 10
86.41760412810805
 20
-164.6997767566495
 30
0.0
  0
VERTEX
  5
F2
330
F0
100
AcDbEntity
  8
_U+30EC_U+30A4_U+30E4_U+30FC 1
 62
   179
420
  2234388
370
     9
100
AcDbVertex
100
AcDb2dVertex
 10
86.41760412810805
 20
-167.160403909219
 30
0.0
  0
SEQEND
  5
F3
330
F0
100
AcDbEntity
  8
_U+30EC_U+30A4_U+30E4_U+30FC 1
 62
   179
420
  2234388
370
     9
  0
POLYLINE
  5
F4
330
1F
100
AcDbEntity
  8
_U+30EC_U+30A4_U+30E4_U+30FC 1
 62
   179
420
  2234388
370
     9
100
AcDb2dPolyline
 66
     1
 10
0.0
 20
0.0
 30
0.0
  0
VERTEX
  5
F5
330
F4
100
AcDbEntity
  8
_U+30EC_U+30A4_U+30E4_U+30FC 1
 62
   179
420
  2234388
370
     9
100
AcDbVertex
100
AcDb2dVertex
 10
96.41801653676822
 20
-164.6997767566495
 30
0.0
  0
VERTEX
  5
F6
330
F4
100
AcDbEntity
  8
_U+30EC_U+30A4_U+30E4_U+30FC 1
 62
   179
420
  2234388
370
     9
100
AcDbVertex
100
AcDb2dVertex
 10
96.41801653676822
 20
-167.160403909219
 30
0.0
  0
SEQEND
  5
F7
330
F4
100
AcDbEntity
  8
_U+30EC_U+30A4_U+30E4_U+30FC 1
 62
   179
420
  2234388
370
     9
  0
INSERT
  5
F9
330
1F
100
AcDbEntity
  8
_U+30EC_U+30A4_U+30E4_U+30FC 1
100
AcDbBlockReference
  2
block 5
 10
0.0
 20
0.0
 30
0.0
  0
POLYLINE
  5
101
330
1F
100
AcDbEntity
  8
_U+30EC_U+30A4_U+30E4_U+30FC 1
 62
   179
420
  2234388
370
     9
100
AcDb2dPolyline
 66
     1
 10
0.0
 20
0.0
 30
0.0
  0
VERTEX
  5
102
330
101
100
AcDbEntity
  8
_U+30EC_U+30A4_U+30E4_U+30FC 1
 62
   179
420
  2234388
370
     9
100
AcDbVertex
100
AcDb2dVertex
 10
81.63443355638718
 20
-141.160117559111
 30
0.0
  0
VERTEX
  5
103
330
101
100
AcDbEntity
  8
_U+30EC_U+30A4_U+30E4_U+30FC 1
 62
   179
420
  2234388
370
     9
100
AcDbVertex
100
AcDb2dVertex
 10
81.63443355638718
 20
-162.1599231738426
 30
0.0
  0
SEQEND
  5
104
330
101
100
AcDbEntity
  8
_U+30EC_U+30A4_U+30E4_U+30FC 1
 62
   179
420
  2234388
370
     9
  0
POLYLINE
  5
105
330
1F
100
AcDbEntity
  8
_U+30EC_U+30A4_U+30E4_U+30FC 1
 62
   179
420
  2234388
370
     9
100
AcDb2dPolyline
 66
     1
 10
0.0
 20
0.0
 30
0.0
  0
VERTEX
  5
106
330
105
100
AcDbEntity
  8
_U+30EC_U+30A4_U+30E4_U+30FC 1
 62
   179
420
  2234388
370
     9
100
AcDbVertex
100
AcDb2dVertex
 10
83.09412051348754
 20
-141.160117559111
 30
0.0
  0
VERTEX
  5
107
330
105
100
AcDbEntity
  8
_U+30EC_U+30A4_U+30E4_U+30FC 1
 62
   179
420
  2234388
370
     9
100
AcDbVertex
100
AcDb2dVertex
 10
80.63383787046655
 20
-141.160117559111
 30
0.0
  0
SEQEND
  5
108
330
105
100
AcDbEntity
  8
_U+30EC_U+30A4_U+30E4_U+30FC 1
 62
   179
420
  2234388
370
     9
  0
POLYLINE
  5
109
330
1F
100
AcDbEntity
  8
_U+30EC_U+30A4_U+30E4_U+30FC 1
 62
   179
420
  2234388
370
     9
100
AcDb2dPolyline
 66
     1
 10
0.0
 20
0.0
 30
0.0
  0
VERTEX
  5
10A
330
109
100
AcDbEntity
  8
_U+30EC_U+30A4_U+30E4_U+30FC 1
 62
   179
420
  2234388
370
     9
100
AcDbVertex
100
AcDb2dVertex
 10
83.09412051348754
 20
-162.1600631308467
 30
0.0
  0
VERTEX
  5
10B
330
109
100
AcDbEntity
  8
_U+30EC_U+30A4_U+30E4_U+30FC 1
 62
   179
420
  2234388
370
     9
100
AcDbVertex
100
AcDb2dVertex
 10
80.63383787046655
 20
-162.1600631308467
 30
0.0
  0
SEQEND
  5
10C
330
109
100
AcDbEntity
  8
_U+30EC_U+30A4_U+30E4_U+30FC 1
 62
   179
420
  2234388
370
     9
  0
INSERT
  5
10E
330
1F
100
AcDbEntity
  8
_U+30EC_U+30A4_U+30E4_U+30FC 1
100
AcDbBlockReference
  2
block 6
 10
0.0
 20
0.0
 30
0.0
  0
POLYLINE
  5
115
330
1F
100
AcDbEntity
  8
_U+30EC_U+30A4_U+30E4_U+30FC 1
 62
   179
420
  2234388
370
     9
100
AcDb2dPolyline
 66
     1
 10
0.0
 20
0.0
 30
0.0
  0
VERTEX
  5
116
330
115
100
AcDbEntity
  8
_U+30EC_U+30A4_U+30E4_U+30FC 1
 62
   179
420
  2234388
370
     9
100
AcDbVertex
100
AcDb2dVertex
 10
130.4176854125453
 20
-149.160339826805
 30
0.0
  0
VERTEX
  5
117
330
115
100
AcDbEntity
  8
_U+30EC_U+30A4_U+30E4_U+30FC 1
 62
   179
420
  2234388
370
     9
100
AcDbVertex
100
AcDb2dVertex
 10
130.4176854125453
 20
-159.1601816415251
 30
0.0
  0
SEQEND
  5
118
330
115
100
AcDbEntity
  8
_U+30EC_U+30A4_U+30E4_U+30FC 1
 62
   179
420
  2234388
370
     9
  0
POLYLINE
  5
119
330
1F
100
AcDbEntity
  8
_U+30EC_U+30A4_U+30E4_U+30FC 1
 62
   179
420
  2234388
370
     9
100
AcDb2dPolyline
 66
     1
 10
0.0
 20
0.0
 30
0.0
  0
VERTEX
  5
11A
330
119
100
AcDbEntity
  8
_U+30EC_U+30A4_U+30E4_U+30FC 1
 62
   179
420
  2234388
370
     9
100
AcDbVertex
100
AcDb2dVertex
 10
129.3104101917392
 20
-149.160339826805
 30
0.0
  0
VERTEX
  5
11B
330
119
100
AcDbEntity
  8
_U+30EC_U+30A4_U+30E4_U+30FC 1
 62
   179
420
  2234388
370
     9
100
AcDbVertex
100
AcDb2dVertex
 10
131.4182488006958
 20
-149.160339826805
 30
0.0
  0
SEQEND
  5
11C
330
119
100
AcDbEntity
  8
_U+30EC_U+30A4_U+30E4_U+30FC 1
 62
   179
420
  2234388
370
     9
  0
INSERT
  5
11E
330
1F
100
AcDbEntity
  8
_U+30EC_U+30A4_U+30E4_U+30FC 1
100
AcDbBlockReference
  2
block 7
 10
0.0
 20
0.0
 30
0.0
  0
POLYLINE
  5
126
330
1F
100
AcDbEntity
  8
_U+30EC_U+30A4_U+30E4_U+30FC 1
 62
   179
420
  2234388
370
     9
100
AcDb2dPolyline
 66
     1
 10
0.0
 20
0.0
 30
0.0
  0
VERTEX
  5
127
330
126
100
AcDbEntity
  8
_U+30EC_U+30A4_U+30E4_U+30FC 1
 62
   179
420
  2234388
370
     9
100
AcDbVertex
100
AcDb2dVertex
 10
129.3104101917392
 20
-148.2577248096695
 30
0.0
  0
VERTEX
  5
128
330
126
100
AcDbEntity
  8
_U+30EC_U+30A4_U+30E4_U+30FC 1
 62
   179
420
  2234388
370
     9
100
AcDbVertex
100
AcDb2dVertex
 10
131.4182488006958
 20
-148.2577248096695
 30
0.0
  0
SEQEND
  5
129
330
126
100
AcDbEntity
  8
_U+30EC_U+30A4_U+30E4_U+30FC 1
 62
   179
420
  2234388
370
     9
  0
SPLINE
  5
12A
330
1F
100
AcDbEntity
  8
_U+30EC_U+30A4_U+30E4_U+30FC 1
 62
   179
420
  2234388
370
     9
100
AcDbSpline
210
0.0
220
0.0
230
1.0
 70
    11
 71
     3
 72
    17
 73
    13
 74
     0
 42
0.0000000001
 43
0.0000000001
 12
1.0
 22
0.0
 32
0.0
 13
1.0
 23
0.0
 33
0.0
 40
0.0
 40
0.0
 40
0.0
 40
0.0
 40
1.0
 40
1.0
 40
1.0
 40
2.0
 40
2.0
 40
2.0
 40
3.0
 40
3.0
 40
3.0
 40
4.0
 40
4.0
 40
4.0
 40
4.0
 10
130.4176854125453
 20
-148.3438414308774
 30
0.0
 10
130.4726992810754
 20
-148.3438414308774
 30
0.0
 10
130.5175070542304
 20
-148.2990444236457
 30
0.0
 10
130.5175070542304
 20
-148.2440090232689
 30
0.0
 10
130.5175070542304
 20
-148.1886291133435
 30
0.0
 10
130.4726992810754
 20
-148.1438213401885
 30
0.0
 10
130.4176854125453
 20
-148.1438213401885
 30
0.0
 10
130.3626500121684
 20
-148.1438213401885
 30
0.0
 10
130.3178422390134
 20
-148.1886291133435
 30
0.0
 10
130.3178422390134
 20
-148.2440090232689
 30
0.0
 10
130.3178422390134
 20
-148.2990444236457
 30
0.0
 10
130.3626500121684
 20
-148.3438414308774
 30
0.0
 10
130.4176854125453
 20
-148.3438414308774
 30
0.0
  0
POLYLINE
  5
12B
330
1F
100
AcDbEntity
  8
_U+30EC_U+30A4_U+30E4_U+30FC 1
 62
   179
420
  2234388
370
     9
100
AcDb2dPolyline
 66
     1
 10
0.0
 20
0.0
 30
0.0
  0
VERTEX
  5
12C
330
12B
100
AcDbEntity
  8
_U+30EC_U+30A4_U+30E4_U+30FC 1
 62
   179
420
  2234388
370
     9
100
AcDbVertex
100
AcDb2dVertex
 10
130.418309836102
 20
-146.589265066163
 30
0.0
  0
VERTEX
  5
12D
330
12B
100
AcDbEntity
  8
_U+30EC_U+30A4_U+30E4_U+30FC 1
 62
   179
420
  2234388
370
     9
100
AcDbVertex
100
AcDb2dVertex
 10
130.418309836102
 20
-149.2435711805439
 30
0.0
  0
SEQEND
  5
12E
330
12B
100
AcDbEntity
  8
_U+30EC_U+30A4_U+30E4_U+30FC 1
 62
   179
420
  2234388
370
     9
  0
INSERT
  5
130
330
1F
100
AcDbEntity
  8
_U+30EC_U+30A4_U+30E4_U+30FC 1
100
AcDbBlockReference
  2
block 8
 10
0.0
 20
0.0
 30
0.0
  0
POLYLINE
  5
135
330
1F
100
AcDbEntity
  8
_U+30EC_U+30A4_U+30E4_U+30FC 1
  6
AI-Linetype-1
 62
   154
420
    23468
370
    25
100
AcDb2dPolyline
 66
     1
 10
0.0
 20
0.0
 30
0.0
  0
VERTEX
  5
136
330
135
100
AcDbEntity
  8
_U+30EC_U+30A4_U+30E4_U+30FC 1
  6
AI-Linetype-1
 62
   154
420
    23468
370
    25
100
AcDbVertex
100
AcDb2dVertex
 10
89.8981517990858
 20
-142.1543936480009
 30
0.0
  0
VERTEX
  5
137
330
135
100
AcDbEntity
  8
_U+30EC_U+30A4_U+30E4_U+30FC 1
  6
AI-Linetype-1
 62
   154
420
    23468
370
    25
100
AcDbVertex
100
AcDb2dVertex
 10
89.8981517990858
 20
-140.6653264859654
 30
0.0
  0
VERTEX
  5
138
330
135
100
AcDbEntity
  8
_U+30EC_U+30A4_U+30E4_U+30FC 1
  6
AI-Linetype-1
 62
   154
420
    23468
370
    25
100
AcDbVertex
100
AcDb2dVertex
 10
85.89271153316007
 20
-140.6653264859654
 30
0.0
  0
VERTEX
  5
139
330
135
100
AcDbEntity
  8
_U+30EC_U+30A4_U+30E4_U+30FC 1
  6
AI-Linetype-1
 62
   154
420
    23468
370
    25
100
AcDbVertex
100
AcDb2dVertex
 10
85.89271153316007
 20
-162.7086407572558
 30
0.0
  0
VERTEX
  5
13A
330
135
100
AcDbEntity
  8
_U+30EC_U+30A4_U+30E4_U+30FC 1
  6
AI-Linetype-1
 62
   154
420
    23468
370
    25
100
AcDbVertex
100
AcDb2dVertex
 10
96.94241389923988
 20
-162.7086407572558
 30
0.0
  0
VERTEX
  5
13B
330
135
100
AcDbEntity
  8
_U+30EC_U+30A4_U+30E4_U+30FC 1
  6
AI-Linetype-1
 62
   154
420
    23468
370
    25
100
AcDbVertex
100
AcDb2dVertex
 10
96.94241389923988
 20
-159.134655637164
 30
0.0
  0
SEQEND
  5
13D
330
135
100
AcDbEntity
  8
_U+30EC_U+30A4_U+30E4_U+30FC 1
  6
AI-Linetype-1
 62
   154
420
    23468
370
    25
  0
ENDSEC
  0
SECTION
  2
OBJECTS
  0
DICTIONARY
  5
C
330
0
100
AcDbDictionary
281
     1
  3
ACAD_GROUP
350
D
  3
ACAD_LAYOUT
350
1A
  3
ACAD_MATERIAL
350
3B
  3
ACAD_MLEADERSTYLE
350
13F
  3
ACAD_MLINESTYLE
350
17
  3
ACAD_PLOTSETTINGS
350
19
  3
ACAD_PLOTSTYLENAME
350
E
  3
ACAD_TABLESTYLE
350
13E
  3
ACAD_VISUALSTYLE
350
2A
  0
SUN
  5
3F
330
29
100
AcDbSun
 90
        1
290
     0
 63
     7
421
 16777215
 40
1.0
291
     1
 91
  2455826
 92
 54000000
292
     0
 70
     2
 71
   256
280
     1
  0
DICTIONARY
  5
D
102
{ACAD_REACTORS
330
C
102
}
330
C
100
AcDbDictionary
281
     1
  0
DICTIONARY
  5
1A
102
{ACAD_REACTORS
330
C
102
}
330
C
100
AcDbDictionary
281
     1
  3
Layout1
350
1E
  3
Layout2
350
26
  3
Model
350
22
  0
DICTIONARY
  5
3B
102
{ACAD_REACTORS
330
C
102
}
330
C
100
AcDbDictionary
281
     1
  3
ByBlock
350
3D
  3
ByLayer
350
3C
  3
Global
350
3E
  0
DICTIONARY
  5
13F
102
{ACAD_REACTORS
330
C
102
}
330
C
100
AcDbDictionary
281
     1
  0
DICTIONARY
  5
17
102
{ACAD_REACTORS
330
C
102
}
330
C
100
AcDbDictionary
281
     1
  3
Standard
350
18
  0
DICTIONARY
  5
19
102
{ACAD_REACTORS
330
C
102
}
330
C
100
AcDbDictionary
281
     1
  0
ACDBDICTIONARYWDFLT
  5
E
102
{ACAD_REACTORS
330
C
102
}
330
C
100
AcDbDictionary
281
     1
  3
Normal
350
F
100
AcDbDictionaryWithDefault
340
F
  0
DICTIONARY
  5
13E
102
{ACAD_REACTORS
330
C
102
}
330
C
100
AcDbDictionary
281
     1
  0
DICTIONARY
  5
2A
102
{ACAD_REACTORS
330
C
102
}
330
C
100
AcDbDictionary
281
     1
  3
2dWireframe
350
2F
  3
3D Hidden
350
31
  3
3dWireframe
350
30
  3
Basic
350
32
  3
Brighten
350
36
  3
ColorChange
350
3A
  3
Conceptual
350
34
  3
Dim
350
35
  3
Facepattern
350
39
  3
Flat
350
2B
  3
FlatWithEdges
350
2C
  3
Gouraud
350
2D
  3
GouraudWithEdges
350
2E
  3
Linepattern
350
38
  3
Realistic
350
33
  3
Thicken
350
37
  0
LAYOUT
  5
1E
102
{ACAD_REACTORS
330
1A
102
}
330
1A
100
AcDbPlotSettings
  1

  2
none_device
  4

  6

 40
0.0
 41
0.0
 42
0.0
 43
0.0
 44
0.0
 45
0.0
 46
0.0
 47
0.0
 48
0.0
 49
0.0
140
0.0
141
0.0
142
1.0
143
1.0
 70
   688
 72
     0
 73
     0
 74
     5
  7

 75
    16
 76
     0
 77
     2
 78
   300
147
1.0
148
0.0
149
0.0
100
AcDbLayout
  1
Layout1
 70
     1
 71
     1
 10
0.0
 20
0.0
 11
12.0
 21
9.0
 12
0.0
 22
0.0
 32
0.0
 14
1.000000000000000E+20
 24
1.000000000000000E+20
 34
1.000000000000000E+20
 15
-1.000000000000000E+20
 25
-1.000000000000000E+20
 35
-1.000000000000000E+20
146
0.0
 13
0.0
 23
0.0
 33
0.0
 16
1.0
 26
0.0
 36
0.0
 17
0.0
 27
1.0
 37
0.0
 76
     0
330
1B
  0
LAYOUT
  5
26
102
{ACAD_REACTORS
330
1A
102
}
330
1A
100
AcDbPlotSettings
  1

  2
none_device
  4

  6

 40
0.0
 41
0.0
 42
0.0
 43
0.0
 44
0.0
 45
0.0
 46
0.0
 47
0.0
 48
0.0
 49
0.0
140
0.0
141
0.0
142
1.0
143
1.0
 70
   688
 72
     0
 73
     0
 74
     5
  7

 75
    16
 76
     0
 77
     2
 78
   300
147
1.0
148
0.0
149
0.0
100
AcDbLayout
  1
Layout2
 70
     1
 71
     2
 10
0.0
 20
0.0
 11
0.0
 21
0.0
 12
0.0
 22
0.0
 32
0.0
 14
0.0
 24
0.0
 34
0.0
 15
0.0
 25
0.0
 35
0.0
146
0.0
 13
0.0
 23
0.0
 33
0.0
 16
1.0
 26
0.0
 36
0.0
 17
0.0
 27
1.0
 37
0.0
 76
     0
330
23
  0
LAYOUT
  5
22
102
{ACAD_REACTORS
330
1A
102
}
330
1A
100
AcDbPlotSettings
  1

  2
none_device
  4

  6

 40
0.0
 41
0.0
 42
0.0
 43
0.0
 44
0.0
 45
0.0
 46
0.0
 47
0.0
 48
0.0
 49
0.0
140
0.0
141
0.0
142
1.0
143
1.0
 70
  1712
 72
     0
 73
     0
 74
     0
  7

 75
     0
 76
     0
 77
     2
 78
   300
147
1.0
148
0.0
149
0.0
100
AcDbLayout
  1
Model
 70
     1
 71
     0
 10
0.0
 20
0.0
 11
12.0
 21
9.0
 12
0.0
 22
0.0
 32
0.0
 14
1.000000000000000E+20
 24
1.000000000000000E+20
 34
1.000000000000000E+20
 15
-1.000000000000000E+20
 25
-1.000000000000000E+20
 35
-1.000000000000000E+20
146
0.0
 13
0.0
 23
0.0
 33
0.0
 16
1.0
 26
0.0
 36
0.0
 17
0.0
 27
1.0
 37
0.0
 76
     0
330
1F
331
29
  0
MATERIAL
  5
3D
102
{ACAD_REACTORS
330
3B
102
}
330
3B
100
AcDbMaterial
  1
ByBlock
 72
     1
 94
      127
  0
MATERIAL
  5
3C
102
{ACAD_REACTORS
330
3B
102
}
330
3B
100
AcDbMaterial
  1
ByLayer
 72
     1
 94
      127
  0
MATERIAL
  5
3E
102
{ACAD_REACTORS
330
3B
102
}
330
3B
100
AcDbMaterial
  1
Global
 72
     1
 94
      127
  0
MLINESTYLE
  5
18
102
{ACAD_REACTORS
330
17
102
}
330
17
100
AcDbMlineStyle
  2
Standard
 70
     0
  3

 62
   256
 51
90.0
 52
90.0
 71
     2
 49
0.5
 62
   256
  6
BYLAYER
 49
-0.5
 62
   256
  6
BYLAYER
  0
ACDBPLACEHOLDER
  5
F
102
{ACAD_REACTORS
330
E
102
}
330
E
  0
VISUALSTYLE
  5
2F
102
{ACAD_REACTORS
330
2A
102
}
330
2A
100
AcDbVisualStyle
  2
2dWireframe
 70
     4
177
     2
291
     0
 71
     0
176
     1
 72
     2
176
     1
 73
     0
176
     1
 90
        0
176
     1
 40
-0.6
176
     1
 41
-30.0
176
     1
 62
     5
 63
     7
421
 16777215
176
     1
 74
     1
176
     1
 91
        4
176
     1
 64
     7
176
     1
 65
   257
176
     1
 75
     1
176
     1
175
     1
176
     1
 42
1.0
176
     1
 92
        0
176
     1
 66
   257
176
     1
 43
1.0
176
     1
 76
     1
176
     1
 77
     6
176
     1
 78
     2
176
     1
 67
     7
176
     1
 79
     5
176
     1
170
     0
176
     1
171
     0
176
     1
290
     0
176
     1
 93
        1
176
     1
 44
0.0
176
     1
173
     0
176
     1
  0
VISUALSTYLE
  5
31
102
{ACAD_REACTORS
330
2A
102
}
330
2A
100
AcDbVisualStyle
  2
3D Hidden
 70
     6
177
     2
291
     0
 71
     1
176
     1
 72
     2
176
     1
 73
     2
176
     1
 90
        0
176
     1
 40
-0.6
176
     1
 41
-30.0
176
     1
 62
     5
 63
     7
421
 16777215
176
     1
 74
     2
176
     1
 91
        2
176
     1
 64
     7
176
     1
 65
   257
176
     1
 75
     2
176
     1
175
     1
176
     1
 42
40.0
176
     1
 92
        0
176
     1
 66
   257
176
     1
 43
1.0
176
     1
 76
     1
176
     1
 77
     6
176
     1
 78
     2
176
     1
 67
     7
176
     1
 79
     3
176
     1
170
     0
176
     1
171
     0
176
     1
290
     0
176
     1
 93
        1
176
     1
 44
0.0
176
     1
173
     0
176
     1
  0
VISUALSTYLE
  5
30
102
{ACAD_REACTORS
330
2A
102
}
330
2A
100
AcDbVisualStyle
  2
3dWireframe
 70
     5
177
     2
291
     0
 71
     0
176
     1
 72
     2
176
     1
 73
     0
176
     1
 90
        0
176
     1
 40
-0.6
176
     1
 41
-30.0
176
     1
 62
     5
 63
     7
421
 16777215
176
     1
 74
     1
176
     1
 91
        4
176
     1
 64
     7
176
     1
 65
   257
176
     1
 75
     1
176
     1
175
     1
176
     1
 42
1.0
176
     1
 92
        0
176
     1
 66
   257
176
     1
 43
1.0
176
     1
 76
     1
176
     1
 77
     6
176
     1
 78
     2
176
     1
 67
     7
176
     1
 79
     5
176
     1
170
     0
176
     1
171
     0
176
     1
290
     0
176
     1
 93
        1
176
     1
 44
0.0
176
     1
173
     0
176
     1
  0
VISUALSTYLE
  5
32
102
{ACAD_REACTORS
330
2A
102
}
330
2A
100
AcDbVisualStyle
  2
Basic
 70
     7
177
     2
291
     1
 71
     1
176
     1
 72
     0
176
     1
 73
     1
176
     1
 90
        0
176
     1
 40
-0.6
176
     1
 41
-30.0
176
     1
 62
     5
 63
     7
421
 16777215
176
     1
 74
     0
176
     1
 91
        4
176
     1
 64
     7
176
     1
 65
   257
176
     1
 75
     1
176
     1
175
     1
176
     1
 42
1.0
176
     1
 92
        8
176
     1
 66
     7
176
     1
 43
1.0
176
     1
 76
     1
176
     1
 77
     6
176
     1
 78
     2
176
     1
 67
     7
176
     1
 79
     5
176
     1
170
     0
176
     1
171
     0
176
     1
290
     0
176
     1
 93
        1
176
     1
 44
0.0
176
     1
173
     0
176
     1
  0
VISUALSTYLE
  5
36
102
{ACAD_REACTORS
330
2A
102
}
330
2A
100
AcDbVisualStyle
  2
Brighten
 70
    12
177
     2
291
     1
 71
     2
176
     1
 72
     2
176
     1
 73
     0
176
     1
 90
        0
176
     1
 40
-0.6
176
     1
 41
-30.0
176
     1
 62
     5
 63
     7
421
 16777215
176
     1
 74
     1
176
     1
 91
        4
176
     1
 64
     7
176
     1
 65
   257
176
     1
 75
     1
176
     1
175
     1
176
     1
 42
1.0
176
     1
 92
        8
176
     1
 66
     7
176
     1
 43
1.0
176
     1
 76
     1
176
     1
 77
     6
176
     1
 78
     2
176
     1
 67
     7
176
     1
 79
     5
176
     1
170
     0
176
     1
171
     0
176
     1
290
     0
176
     1
 93
        1
176
     1
 44
50.0
176
     1
173
     0
176
     1
  0
VISUALSTYLE
  5
3A
102
{ACAD_REACTORS
330
2A
102
}
330
2A
100
AcDbVisualStyle
  2
ColorChange
 70
    16
177
     2
291
     1
 71
     2
176
     1
 72
     2
176
     1
 73
     3
176
     1
 90
        0
176
     1
 40
-0.6
176
     1
 41
-30.0
176
     1
 62
     5
 63
     8
421
  8421504
176
     1
 74
     1
176
     1
 91
        4
176
     1
 64
     7
176
     1
 65
   257
176
     1
 75
     1
176
     1
175
     1
176
     1
 42
1.0
176
     1
 92
        8
176
     1
 66
     8
424
  8421504
176
     1
 43
1.0
176
     1
 76
     1
176
     1
 77
     6
176
     1
 78
     2
176
     1
 67
     7
176
     1
 79
     5
176
     1
170
     0
176
     1
171
     0
176
     1
290
     0
176
     1
 93
        1
176
     1
 44
0.0
176
     1
173
     0
176
     1
  0
VISUALSTYLE
  5
34
102
{ACAD_REACTORS
330
2A
102
}
330
2A
100
AcDbVisualStyle
  2
Conceptual
 70
     9
177
     2
291
     0
 71
     3
176
     1
 72
     2
176
     1
 73
     0
176
     1
 90
        0
176
     1
 40
-0.6
176
     1
 41
-30.0
176
     1
 62
     5
 63
     7
421
 16777215
176
     1
 74
     2
176
     1
 91
        2
176
     1
 64
     7
176
     1
 65
   257
176
     1
 75
     1
176
     1
175
     1
176
     1
 42
40.0
176
     1
 92
        8
176
     1
 66
     7
176
     1
 43
1.0
176
     1
 76
     1
176
     1
 77
     6
176
     1
 78
     2
176
     1
 67
     7
176
     1
 79
     3
176
     1
170
     0
176
     1
171
     0
176
     1
290
     0
176
     1
 93
        1
176
     1
 44
0.0
176
     1
173
     0
176
     1
  0
VISUALSTYLE
  5
35
102
{ACAD_REACTORS
330
2A
102
}
330
2A
100
AcDbVisualStyle
  2
Dim
 70
    11
177
     2
291
     1
 71
     2
176
     1
 72
     2
176
     1
 73
     0
176
     1
 90
        0
176
     1
 40
-0.6
176
     1
 41
-30.0
176
     1
 62
     5
 63
     7
421
 16777215
176
     1
 74
     1
176
     1
 91
        4
176
     1
 64
     7
176
     1
 65
   257
176
     1
 75
     1
176
     1
175
     1
176
     1
 42
1.0
176
     1
 92
        8
176
     1
 66
     7
176
     1
 43
1.0
176
     1
 76
     1
176
     1
 77
     6
176
     1
 78
     2
176
     1
 67
     7
176
     1
 79
     5
176
     1
170
     0
176
     1
171
     0
176
     1
290
     0
176
     1
 93
        1
176
     1
 44
-50.0
176
     1
173
     0
176
     1
  0
VISUALSTYLE
  5
39
102
{ACAD_REACTORS
330
2A
102
}
330
2A
100
AcDbVisualStyle
  2
Facepattern
 70
    15
177
     2
291
     1
 71
     2
176
     1
 72
     2
176
     1
 73
     0
176
     1
 90
        0
176
     1
 40
-0.6
176
     1
 41
-30.0
176
     1
 62
     5
 63
     7
421
 16777215
176
     1
 74
     1
176
     1
 91
        4
176
     1
 64
     7
176
     1
 65
   257
176
     1
 75
     1
176
     1
175
     1
176
     1
 42
1.0
176
     1
 92
        8
176
     1
 66
     7
176
     1
 43
1.0
176
     1
 76
     1
176
     1
 77
     6
176
     1
 78
     2
176
     1
 67
     7
176
     1
 79
     5
176
     1
170
     0
176
     1
171
     0
176
     1
290
     0
176
     1
 93
        1
176
     1
 44
0.0
176
     1
173
     0
176
     1
  0
VISUALSTYLE
  5
2B
102
{ACAD_REACTORS
330
2A
102
}
330
2A
100
AcDbVisualStyle
  2
Flat
 70
     0
177
     2
291
     1
 71
     2
176
     1
 72
     1
176
     1
 73
     1
176
     1
 90
        2
176
     1
 40
-0.6
176
     1
 41
30.0
176
     1
 62
     5
 63
     7
421
 16777215
176
     1
 74
     0
176
     1
 91
        4
176
     1
 64
     7
176
     1
 65
   257
176
     1
 75
     1
176
     1
175
     1
176
     1
 42
1.0
176
     1
 92
        8
176
     1
 66
     7
176
     1
 43
1.0
176
     1
 76
     1
176
     1
 77
     6
176
     1
 78
     2
176
     1
 67
     7
176
     1
 79
     5
176
     1
170
     0
176
     1
171
     0
176
     1
290
     0
176
     1
 93
       13
176
     1
 44
0.0
176
     1
173
     0
176
     1
  0
VISUALSTYLE
  5
2C
102
{ACAD_REACTORS
330
2A
102
}
330
2A
100
AcDbVisualStyle
  2
FlatWithEdges
 70
     1
177
     2
291
     1
 71
     2
176
     1
 72
     1
176
     1
 73
     1
176
     1
 90
        2
176
     1
 40
-0.6
176
     1
 41
30.0
176
     1
 62
     5
 63
     7
421
 16777215
176
     1
 74
     1
176
     1
 91
        4
176
     1
 64
     7
176
     1
 65
   257
176
     1
 75
     1
176
     1
175
     1
176
     1
 42
1.0
176
     1
 92
        0
176
     1
 66
   257
176
     1
 43
1.0
176
     1
 76
     1
176
     1
 77
     6
176
     1
 78
     2
176
     1
 67
     7
176
     1
 79
     5
176
     1
170
     0
176
     1
171
     0
176
     1
290
     0
176
     1
 93
       13
176
     1
 44
0.0
176
     1
173
     0
176
     1
  0
VISUALSTYLE
  5
2D
102
{ACAD_REACTORS
330
2A
102
}
330
2A
100
AcDbVisualStyle
  2
Gouraud
 70
     2
177
     2
291
     1
 71
     2
176
     1
 72
     2
176
     1
 73
     1
176
     1
 90
        2
176
     1
 40
-0.6
176
     1
 41
30.0
176
     1
 62
     5
 63
     7
421
 16777215
176
     1
 74
     0
176
     1
 91
        4
176
     1
 64
     7
176
     1
 65
   257
176
     1
 75
     1
176
     1
175
     1
176
     1
 42
1.0
176
     1
 92
        0
176
     1
 66
     7
176
     1
 43
1.0
176
     1
 76
     1
176
     1
 77
     6
176
     1
 78
     2
176
     1
 67
     7
176
     1
 79
     5
176
     1
170
     0
176
     1
171
     0
176
     1
290
     0
176
     1
 93
       13
176
     1
 44
0.0
176
     1
173
     0
176
     1
  0
VISUALSTYLE
  5
2E
102
{ACAD_REACTORS
330
2A
102
}
330
2A
100
AcDbVisualStyle
  2
GouraudWithEdges
 70
     3
177
     2
291
     1
 71
     2
176
     1
 72
     2
176
     1
 73
     1
176
     1
 90
        2
176
     1
 40
-0.6
176
     1
 41
30.0
176
     1
 62
     5
 63
     7
421
 16777215
176
     1
 74
     1
176
     1
 91
        4
176
     1
 64
     7
176
     1
 65
   257
176
     1
 75
     1
176
     1
175
     1
176
     1
 42
1.0
176
     1
 92
        0
176
     1
 66
   257
176
     1
 43
1.0
176
     1
 76
     1
176
     1
 77
     6
176
     1
 78
     2
176
     1
 67
     7
176
     1
 79
     5
176
     1
170
     0
176
     1
171
     0
176
     1
290
     0
176
     1
 93
       13
176
     1
 44
0.0
176
     1
173
     0
176
     1
  0
VISUALSTYLE
  5
38
102
{ACAD_REACTORS
330
2A
102
}
330
2A
100
AcDbVisualStyle
  2
Linepattern
 70
    14
177
     2
291
     1
 71
     2
176
     1
 72
     2
176
     1
 73
     0
176
     1
 90
        0
176
     1
 40
-0.6
176
     1
 41
-30.0
176
     1
 62
     5
 63
     7
421
 16777215
176
     1
 74
     1
176
     1
 91
        4
176
     1
 64
     7
176
     1
 65
   257
176
     1
 75
     7
176
     1
175
     7
176
     1
 42
1.0
176
     1
 92
        8
176
     1
 66
     7
176
     1
 43
1.0
176
     1
 76
     1
176
     1
 77
     6
176
     1
 78
     2
176
     1
 67
     7
176
     1
 79
     5
176
     1
170
     0
176
     1
171
     0
176
     1
290
     0
176
     1
 93
        1
176
     1
 44
0.0
176
     1
173
     0
176
     1
  0
VISUALSTYLE
  5
33
102
{ACAD_REACTORS
330
2A
102
}
330
2A
100
AcDbVisualStyle
  2
Realistic
 70
     8
177
     2
291
     0
 71
     2
176
     1
 72
     2
176
     1
 73
     0
176
     1
 90
        0
176
     1
 40
-0.6
176
     1
 41
-30.0
176
     1
 62
     5
 63
     7
421
 16777215
176
     1
 74
     1
176
     1
 91
        0
176
     1
 64
     7
176
     1
 65
   257
176
     1
 75
     1
176
     1
175
     1
176
     1
 42
1.0
176
     1
 92
        8
176
     1
 66
     8
424
  7895160
176
     1
 43
1.0
176
     1
 76
     1
176
     1
 77
     6
176
     1
 78
     2
176
     1
 67
     7
176
     1
 79
     5
176
     1
170
     0
176
     1
171
     0
176
     1
290
     0
176
     1
 93
       13
176
     1
 44
0.0
176
     1
173
     0
176
     1
  0
VISUALSTYLE
  5
37
102
{ACAD_REACTORS
330
2A
102
}
330
2A
100
AcDbVisualStyle
  2
Thicken
 70
    13
177
     2
291
     1
 71
     2
176
     1
 72
     2
176
     1
 73
     0
176
     1
 90
        0
176
     1
 40
-0.6
176
     1
 41
-30.0
176
     1
 62
     5
 63
     7
421
 16777215
176
     1
 74
     1
176
     1
 91
        4
176
     1
 64
     7
176
     1
 65
   257
176
     1
 75
     1
176
     1
175
     1
176
     1
 42
1.0
176
     1
 92
       12
176
     1
 66
     7
176
     1
 43
1.0
176
     1
 76
     1
176
     1
 77
     6
176
     1
 78
     2
176
     1
 67
     7
176
     1
 79
     5
176
     1
170
     0
176
     1
171
     0
176
     1
290
     0
176
     1
 93
        1
176
     1
 44
0.0
176
     1
173
     0
176
     1
  0
ENDSEC
  0
EOF
