  0
SECTION
  2
HEADER
  9
$ACADVER
  1
AC1024
  9
$ACADMAINTVER
 70
     6
  9
$DWGCODEPAGE
  3
UNDEFINED
  9
$INSBASE
 10
0.0
 20
0.0
 30
0.0
  9
$EXTMIN
 10
1.000000000000000E+20
 20
1.000000000000000E+20
 30
1.000000000000000E+20
  9
$EXTMAX
 10
-1.000000000000000E+20
 20
-1.000000000000000E+20
 30
-1.000000000000000E+20
  9
$LIMMIN
 10
0.0
 20
0.0
  9
$LIMMAX
 10
12.0
 20
9.0
  9
$ORTHOMODE
 70
     0
  9
$REGENMODE
 70
     1
  9
$FILLMODE
 70
     1
  9
$QTEXTMODE
 70
     0
  9
$MIRRTEXT
 70
     1
  9
$LTSCALE
 40
1.0
  9
$ATTMODE
 70
     1
  9
$TEXTSIZE
 40
0.2
  9
$TRACEWID
 40
0.05
  9
$TEXTSTYLE
  7
Standard
  9
$CLAYER
  8
0
  9
$CELTYPE
  6
ByLayer
  9
$CECOLOR
 62
   256
  9
$CELTSCALE
 40
1.0
  9
$DISPSILH
 70
     0
  9
$DIMSCALE
 40
1.0
  9
$DIMASZ
 40
0.18
  9
$DIMEXO
 40
0.0625
  9
$DIMDLI
 40
0.38
  9
$DIMRND
 40
0.0
  9
$DIMDLE
 40
0.0
  9
$DIMEXE
 40
0.18
  9
$DIMTP
 40
0.0
  9
$DIMTM
 40
0.0
  9
$DIMTXT
 40
0.18
  9
$DIMCEN
 40
0.09
  9
$DIMTSZ
 40
0.0
  9
$DIMTOL
 70
     0
  9
$DIMLIM
 70
     0
  9
$DIMTIH
 70
     1
  9
$DIMTOH
 70
     1
  9
$DIMSE1
 70
     0
  9
$DIMSE2
 70
     0
  9
$DIMTAD
 70
     0
  9
$DIMZIN
 70
     0
  9
$DIMBLK
  1

  9
$DIMASO
 70
     1
  9
$DIMSHO
 70
     1
  9
$DIMPOST
  1

  9
$DIMAPOST
  1

  9
$DIMALT
 70
     0
  9
$DIMALTD
 70
     2
  9
$DIMALTF
 40
25.4
  9
$DIMLFAC
 40
1.0
  9
$DIMTOFL
 70
     0
  9
$DIMTVP
 40
0.0
  9
$DIMTIX
 70
     0
  9
$DIMSOXD
 70
     0
  9
$DIMSAH
 70
     0
  9
$DIMBLK1
  1

  9
$DIMBLK2
  1

  9
$DIMSTYLE
  2
Standard
  9
$DIMCLRD
 70
     0
  9
$DIMCLRE
 70
     0
  9
$DIMCLRT
 70
     0
  9
$DIMTFAC
 40
1.0
  9
$DIMGAP
 40
0.09
  9
$DIMJUST
 70
     0
  9
$DIMSD1
 70
     0
  9
$DIMSD2
 70
     0
  9
$DIMTOLJ
 70
     1
  9
$DIMTZIN
 70
     0
  9
$DIMALTZ
 70
     0
  9
$DIMALTTZ
 70
     0
  9
$DIMUPT
 70
     0
  9
$DIMDEC
 70
     4
  9
$DIMTDEC
 70
     4
  9
$DIMALTU
 70
     2
  9
$DIMALTTD
 70
     2
  9
$DIMTXSTY
  7
Standard
  9
$DIMAUNIT
 70
     0
  9
$DIMADEC
 70
     0
  9
$DIMALTRND
 40
0.0
  9
$DIMAZIN
 70
     0
  9
$DIMDSEP
 70
    46
  9
$DIMATFIT
 70
     3
  9
$DIMFRAC
 70
     0
  9
$DIMLDRBLK
  1

  9
$DIMLUNIT
 70
     2
  9
$DIMLWD
 70
    -2
  9
$DIMLWE
 70
    -2
  9
$DIMTMOVE
 70
     0
  9
$DIMFXL
 40
1.0
  9
$DIMFXLON
 70
     0
  9
$DIMJOGANG
 40
0.7853981633974483
  9
$DIMTFILL
 70
     0
  9
$DIMTFILLCLR
 70
     0
  9
$DIMARCSYM
 70
     0
  9
$DIMLTYPE
  6

  9
$DIMLTEX1
  6

  9
$DIMLTEX2
  6

  9
$DIMTXTDIRECTION
 70
     0
  9
$LUNITS
 70
     2
  9
$LUPREC
 70
     4
  9
$SKETCHINC
 40
0.1
  9
$FILLETRAD
 40
0.5
  9
$AUNITS
 70
     0
  9
$AUPREC
 70
     0
  9
$MENU
  1
.
  9
$ELEVATION
 40
0.0
  9
$PELEVATION
 40
0.0
  9
$THICKNESS
 40
0.0
  9
$LIMCHECK
 70
     0
  9
$CHAMFERA
 40
0.5
  9
$CHAMFERB
 40
0.5
  9
$CHAMFERC
 40
1.0
  9
$CHAMFERD
 40
0.0
  9
$SKPOLY
 70
     0
  9
$TDCREATE
 40
2458263.580671296
  9
$TDUCREATE
 40
2458263.205671296
  9
$TDUPDATE
 40
2458263.580671296
  9
$TDUUPDATE
 40
2458263.205671296
  9
$TDINDWG
 40
0.0000000116
  9
$TDUSRTIMER
 40
0.0000000116
  9
$USRTIMER
 70
     1
  9
$ANGBASE
 50
0.0
  9
$ANGDIR
 70
     0
  9
$PDMODE
 70
     0
  9
$PDSIZE
 40
0.0
  9
$PLINEWID
 40
0.0
  9
$SPLFRAME
 70
     0
  9
$SPLINETYPE
 70
     6
  9
$SPLINESEGS
 70
     8
  9
$HANDSEED
  5
154
  9
$SURFTAB1
 70
     6
  9
$SURFTAB2
 70
     6
  9
$SURFTYPE
 70
     6
  9
$SURFU
 70
     6
  9
$SURFV
 70
     6
  9
$UCSBASE
  2

  9
$UCSNAME
  2

  9
$UCSORG
 10
0.0
 20
0.0
 30
0.0
  9
$UCSXDIR
 10
1.0
 20
0.0
 30
0.0
  9
$UCSYDIR
 10
0.0
 20
1.0
 30
0.0
  9
$UCSORTHOREF
  2

  9
$UCSORTHOVIEW
 70
     0
  9
$UCSORGTOP
 10
0.0
 20
0.0
 30
0.0
  9
$UCSORGBOTTOM
 10
0.0
 20
0.0
 30
0.0
  9
$UCSORGLEFT
 10
0.0
 20
0.0
 30
0.0
  9
$UCSORGRIGHT
 10
0.0
 20
0.0
 30
0.0
  9
$UCSORGFRONT
 10
0.0
 20
0.0
 30
0.0
  9
$UCSORGBACK
 10
0.0
 20
0.0
 30
0.0
  9
$PUCSBASE
  2

  9
$PUCSNAME
  2

  9
$PUCSORG
 10
0.0
 20
0.0
 30
0.0
  9
$PUCSXDIR
 10
1.0
 20
0.0
 30
0.0
  9
$PUCSYDIR
 10
0.0
 20
1.0
 30
0.0
  9
$PUCSORTHOREF
  2

  9
$PUCSORTHOVIEW
 70
     0
  9
$PUCSORGTOP
 10
0.0
 20
0.0
 30
0.0
  9
$PUCSORGBOTTOM
 10
0.0
 20
0.0
 30
0.0
  9
$PUCSORGLEFT
 10
0.0
 20
0.0
 30
0.0
  9
$PUCSORGRIGHT
 10
0.0
 20
0.0
 30
0.0
  9
$PUCSORGFRONT
 10
0.0
 20
0.0
 30
0.0
  9
$PUCSORGBACK
 10
0.0
 20
0.0
 30
0.0
  9
$USERI1
 70
     0
  9
$USERI2
 70
     0
  9
$USERI3
 70
     0
  9
$USERI4
 70
     0
  9
$USERI5
 70
     0
  9
$USERR1
 40
0.0
  9
$USERR2
 40
0.0
  9
$USERR3
 40
0.0
  9
$USERR4
 40
0.0
  9
$USERR5
 40
0.0
  9
$WORLDVIEW
 70
     1
  9
$SHADEDGE
 70
     3
  9
$SHADEDIF
 70
    70
  9
$TILEMODE
 70
     1
  9
$MAXACTVP
 70
    64
  9
$PINSBASE
 10
0.0
 20
0.0
 30
0.0
  9
$PLIMCHECK
 70
     0
  9
$PEXTMIN
 10
1.000000000000000E+20
 20
1.000000000000000E+20
 30
1.000000000000000E+20
  9
$PEXTMAX
 10
-1.000000000000000E+20
 20
-1.000000000000000E+20
 30
-1.000000000000000E+20
  9
$PLIMMIN
 10
0.0
 20
0.0
  9
$PLIMMAX
 10
12.0
 20
9.0
  9
$UNITMODE
 70
     0
  9
$VISRETAIN
 70
     1
  9
$PLINEGEN
 70
     0
  9
$PSLTSCALE
 70
     1
  9
$TREEDEPTH
 70
  3020
  9
$CMLSTYLE
  2
Standard
  9
$CMLJUST
 70
     0
  9
$CMLSCALE
 40
1.0
  9
$PROXYGRAPHICS
 70
     1
  9
$MEASUREMENT
 70
     0
  9
$CELWEIGHT
370
    -1
  9
$ENDCAPS
280
     0
  9
$JOINSTYLE
280
     0
  9
$LWDISPLAY
290
     1
  9
$INSUNITS
 70
     1
  9
$HYPERLINKBASE
  1

  9
$STYLESHEET
  1

  9
$XEDIT
290
     1
  9
$CEPSNTYPE
380
     0
  9
$PSTYLEMODE
290
     1
  9
$FINGERPRINTGUID
  2
{B166CE10-6C7D-E59F-88AB-F60AEA6965E5}
  9
$VERSIONGUID
  2
{FAEB1C32-E019-11D5-929B-00C0DF256EC4}
  9
$EXTNAMES
290
     1
  9
$PSVPSCALE
 40
0.0
  9
$OLESTARTUP
290
     0
  9
$SORTENTS
280
   127
  9
$INDEXCTL
280
     0
  9
$HIDETEXT
280
     1
  9
$XCLIPFRAME
280
     2
  9
$HALOGAP
280
     0
  9
$OBSCOLOR
 70
   257
  9
$OBSLTYPE
280
     0
  9
$INTERSECTIONDISPLAY
280
     0
  9
$INTERSECTIONCOLOR
 70
   257
  9
$DIMASSOC
280
     2
  9
$PROJECTNAME
  1

  9
$CAMERADISPLAY
290
     0
  9
$LENSLENGTH
 40
50.0
  9
$CAMERAHEIGHT
 40
0.0
  9
$STEPSPERSEC
 40
2.0
  9
$STEPSIZE
 40
6.0
  9
$3DDWFPREC
 40
2.0
  9
$PSOLWIDTH
 40
0.25
  9
$PSOLHEIGHT
 40
4.0
  9
$LOFTANG1
 40
1.570796326794897
  9
$LOFTANG2
 40
1.570796326794897
  9
$LOFTMAG1
 40
0.0
  9
$LOFTMAG2
 40
0.0
  9
$LOFTPARAM
 70
     7
  9
$LOFTNORMALS
280
     1
  9
$LATITUDE
 40
37.795
  9
$LONGITUDE
 40
-122.394
  9
$NORTHDIRECTION
 40
0.0
  9
$TIMEZONE
 70
 -8000
  9
$LIGHTGLYPHDISPLAY
280
     1
  9
$TILEMODELIGHTSYNCH
280
     1
  9
$CMATERIAL
347
3C
  9
$SOLIDHIST
280
     1
  9
$SHOWHIST
280
     1
  9
$DWFFRAME
280
     2
  9
$DGNFRAME
280
     2
  9
$REALWORLDSCALE
290
     1
  9
$INTERFERECOLOR
 62
   256
  9
$CSHADOW
280
     0
  9
$SHADOWPLANELOCATION
 40
0.0
  0
ENDSEC
  0
SECTION
  2
CLASSES
  0
CLASS
  1
ACDBDICTIONARYWDFLT
  2
AcDbDictionaryWithDefault
  3
ObjectDBX Classes
 90
        0
 91
        4
280
     0
281
     0
  0
CLASS
  1
VISUALSTYLE
  2
AcDbVisualStyle
  3
ObjectDBX Classes
 90
     4095
 91
        4
280
     0
281
     0
  0
CLASS
  1
MATERIAL
  2
AcDbMaterial
  3
ObjectDBX Classes
 90
     1153
 91
        4
280
     0
281
     0
  0
CLASS
  1
SUN
  2
AcDbSun
  3
SCENEOE
 90
     1024
 91
        4
280
     0
281
     0
  0
ENDSEC
  0
SECTION
  2
TABLES
  0
TABLE
  2
VPORT
  5
8
330
0
100
AcDbSymbolTable
 70
     1
  0
VPORT
  5
29
330
8
100
AcDbSymbolTableRecord
100
AcDbViewportTableRecord
  2
*Active
 70
     0
 10
0.0
 20
0.0
 11
1.0
 21
1.0
 12
0.0
 22
0.0
 13
0.0
 23
0.0
 14
0.5
 24
0.5
 15
0.5
 25
0.5
 16
0.0
 26
0.0
 36
1.0
 17
105.0007777515277
 27
-148.5000416295416
 37
0.0
 40
297.0000832590831
 41
0.7070757462376333
 42
50.0
 43
0.0
 44
0.0
 50
0.0
 51
0.0
 71
     0
 72
   100
 73
     1
 74
     3
 75
     0
 76
     0
 77
     0
 78
     0
281
     0
 65
     1
110
0.0
120
0.0
130
0.0
111
1.0
121
0.0
131
0.0
112
0.0
122
1.0
132
0.0
 79
     0
146
0.0
 60
     3
 61
     5
292
     1
282
     1
141
0.0
142
0.0
 63
   250
361
3F
  0
ENDTAB
  0
TABLE
  2
LTYPE
  5
5
330
0
100
AcDbSymbolTable
 70
     2
  0
LTYPE
  5
14
330
5
100
AcDbSymbolTableRecord
100
AcDbLinetypeTableRecord
  2
ByBlock
 70
     0
  3

 72
    65
 73
     0
 40
0.0
  0
LTYPE
  5
15
330
5
100
AcDbSymbolTableRecord
100
AcDbLinetypeTableRecord
  2
ByLayer
 70
     0
  3

 72
    65
 73
     0
 40
0.0
  0
LTYPE
  5
16
330
5
100
AcDbSymbolTableRecord
100
AcDbLinetypeTableRecord
  2
Continuous
 70
     0
  3
Solid line
 72
    65
 73
     0
 40
0.0
  0
LTYPE
  5
150
330
5
100
AcDbSymbolTableRecord
100
AcDbLinetypeTableRecord
  2
AI-Linetype-1
 70
     0
  3
Adobe Illustrator Linetype No. 1
 72
    65
 73
     2
 40
1.380066645462674
 49
0.6900333227313368
 74
     0
 49
-0.6900333227313368
 74
     0
  0
ENDTAB
  0
TABLE
  2
LAYER
  5
2
330
0
100
AcDbSymbolTable
 70
     2
  0
LAYER
  5
10
330
2
100
AcDbSymbolTableRecord
100
AcDbLayerTableRecord
  2
0
 70
     0
 62
     7
  6
Continuous
370
    -3
390
F
347
3E
  0
LAYER
  5
40
330
2
100
AcDbSymbolTableRecord
100
AcDbLayerTableRecord
  2
_U+30EC_U+30A4_U+30E4_U+30FC 1
 70
     0
 62
     7
  6
Continuous
370
    -3
390
F
347
3E
  0
ENDTAB
  0
TABLE
  2
STYLE
  5
3
330
0
100
AcDbSymbolTable
 70
     1
  0
STYLE
  5
11
330
3
100
AcDbSymbolTableRecord
100
AcDbTextStyleTableRecord
  2
Standard
 70
     0
 40
0.0
 41
1.0
 50
0.0
 71
     0
 42
0.2
  3
txt
  4

  0
ENDTAB
  0
TABLE
  2
VIEW
  5
6
330
0
100
AcDbSymbolTable
 70
     0
  0
ENDTAB
  0
TABLE
  2
UCS
  5
7
330
0
100
AcDbSymbolTable
 70
     0
  0
ENDTAB
  0
TABLE
  2
APPID
  5
9
330
0
100
AcDbSymbolTable
 70
     1
  0
APPID
  5
12
330
9
100
AcDbSymbolTableRecord
100
AcDbRegAppTableRecord
  2
ACAD
 70
     0
  0
ENDTAB
  0
TABLE
  2
DIMSTYLE
  5
A
330
0
100
AcDbSymbolTable
 70
     1
100
AcDbDimStyleTable
  0
DIMSTYLE
105
27
330
A
100
AcDbSymbolTableRecord
100
AcDbDimStyleTableRecord
  2
Standard
 70
     0
178
     0
340
11
  0
ENDTAB
  0
TABLE
  2
BLOCK_RECORD
  5
1
330
0
100
AcDbSymbolTable
 70
     8
  0
BLOCK_RECORD
  5
1F
330
1
100
AcDbSymbolTableRecord
100
AcDbBlockTableRecord
  2
*Model_Space
340
22
 70
     0
280
     1
281
     0
  0
BLOCK_RECORD
  5
1B
330
1
100
AcDbSymbolTableRecord
100
AcDbBlockTableRecord
  2
*Paper_Space
340
1E
 70
     0
280
     1
281
     0
  0
BLOCK_RECORD
  5
23
330
1
100
AcDbSymbolTableRecord
100
AcDbBlockTableRecord
  2
*Paper_Space0
340
26
 70
     0
280
     1
281
     0
  0
BLOCK_RECORD
  5
AC
330
1
100
AcDbSymbolTableRecord
100
AcDbBlockTableRecord
  2
block 2
340
0
102
{BLKREFS
331
AD
102
}
 70
     0
280
     1
281
     0
  0
BLOCK_RECORD
  5
BE
330
1
100
AcDbSymbolTableRecord
100
AcDbBlockTableRecord
  2
block 3
340
0
102
{BLKREFS
331
BF
102
}
 70
     0
280
     1
281
     0
  0
BLOCK_RECORD
  5
D0
330
1
100
AcDbSymbolTableRecord
100
AcDbBlockTableRecord
  2
block 4
340
0
102
{BLKREFS
331
D1
102
}
 70
     0
280
     1
281
     0
  0
BLOCK_RECORD
  5
F8
330
1
100
AcDbSymbolTableRecord
100
AcDbBlockTableRecord
  2
block 5
340
0
102
{BLKREFS
331
F9
102
}
 70
     0
280
     1
281
     0
  0
BLOCK_RECORD
  5
10D
330
1
100
AcDbSymbolTableRecord
100
AcDbBlockTableRecord
  2
block 6
340
0
102
{BLKREFS
331
10E
102
}
 70
     0
280
     1
281
     0
  0
BLOCK_RECORD
  5
128
330
1
100
AcDbSymbolTableRecord
100
AcDbBlockTableRecord
  2
block 7
340
0
102
{BLKREFS
331
129
102
}
 70
     0
280
     1
281
     0
  0
BLOCK_RECORD
  5
143
330
1
100
AcDbSymbolTableRecord
100
AcDbBlockTableRecord
  2
block 8
340
0
102
{BLKREFS
331
144
102
}
 70
     0
280
     1
281
     0
  0
ENDTAB
  0
ENDSEC
  0
SECTION
  2
BLOCKS
  0
BLOCK
  5
20
330
1F
100
AcDbEntity
  8
0
100
AcDbBlockBegin
  2
*Model_Space
 70
     0
 10
0.0
 20
0.0
 30
0.0
  3
*Model_Space
  1

  0
ENDBLK
  5
21
330
1F
100
AcDbEntity
  8
0
100
AcDbBlockEnd
  0
BLOCK
  5
1C
330
1B
100
AcDbEntity
 67
     1
  8
0
100
AcDbBlockBegin
  2
*Paper_Space
 70
     0
 10
0.0
 20
0.0
 30
0.0
  3
*Paper_Space
  1

  0
ENDBLK
  5
1D
330
1B
100
AcDbEntity
 67
     1
  8
0
100
AcDbBlockEnd
  0
BLOCK
  5
24
330
23
100
AcDbEntity
  8
0
100
AcDbBlockBegin
  2
*Paper_Space0
 70
     0
 10
0.0
 20
0.0
 30
0.0
  3
*Paper_Space0
  1

  0
ENDBLK
  5
25
330
23
100
AcDbEntity
  8
0
100
AcDbBlockEnd
  0
BLOCK
  5
AE
330
AC
100
AcDbEntity
  8
0
100
AcDbBlockBegin
  2
block 2
 70
     0
 10
0.0
 20
0.0
 30
0.0
  3
block 2
  1

  0
SPLINE
  5
B0
330
AC
100
AcDbEntity
  8
_U+30EC_U+30A4_U+30E4_U+30FC 1
370
     0
100
AcDbSpline
210
0.0
220
0.0
230
1.0
 70
    11
 71
     3
 72
    62
 73
    58
 74
     0
 42
0.0000000001
 43
0.0000000001
 12
1.0
 22
0.0
 32
0.0
 13
1.0
 23
0.0
 33
0.0
 40
0.0
 40
0.0
 40
0.0
 40
0.0
 40
1.0
 40
1.0
 40
1.0
 40
2.0
 40
2.0
 40
2.0
 40
3.0
 40
3.0
 40
3.0
 40
4.0
 40
4.0
 40
4.0
 40
5.0
 40
5.0
 40
5.0
 40
6.0
 40
6.0
 40
6.0
 40
7.0
 40
7.0
 40
7.0
 40
8.0
 40
8.0
 40
8.0
 40
9.0
 40
9.0
 40
9.0
 40
10.0
 40
10.0
 40
10.0
 40
11.0
 40
11.0
 40
11.0
 40
12.0
 40
12.0
 40
12.0
 40
13.0
 40
13.0
 40
13.0
 40
14.0
 40
14.0
 40
14.0
 40
15.0
 40
15.0
 40
15.0
 40
16.0
 40
16.0
 40
16.0
 40
17.0
 40
17.0
 40
17.0
 40
18.0
 40
18.0
 40
18.0
 40
19.0
 40
19.0
 40
19.0
 40
19.0
 10
129.8900905708261
 20
-160.0501789964458
 30
0.0
 10
129.8900905708261
 20
-160.1518093132607
 30
0.0
 10
129.8690754883661
 20
-160.3846977680635
 30
0.0
 10
129.6830403321626
 20
-160.5180229633427
 30
0.0
 10
129.5707302193434
 20
-160.5972601595035
 30
0.0
 10
129.4715114693682
 20
-160.6017387836343
 30
0.0
 10
129.3867621204311
 20
-160.6062174077651
 30
0.0
 10
129.3867621204311
 20
-160.6062174077651
 30
0.0
 10
129.3867621204311
 20
-160.3712618956711
 30
0.0
 10
129.3867621204311
 20
-160.3712618956711
 30
0.0
 10
129.460831673364
 20
-160.3688503288314
 30
0.0
 10
129.6954426759095
 20
-160.3574815137301
 30
0.0
 10
129.6954426759095
 20
-160.0546576205766
 30
0.0
 10
129.6954426759095
 20
-159.9075520433564
 30
0.0
 10
129.6258517471074
 20
-159.7449435364527
 30
0.0
 10
129.3974419164354
 20
-159.7449435364527
 30
0.0
 10
129.2809976890339
 20
-159.7449435364527
 30
0.0
 10
129.2324218426919
 20
-159.7855956631786
 30
0.0
 10
129.2007269642276
 20
-159.8193575989341
 30
0.0
 10
129.1266574112947
 20
-159.8985947950948
 30
0.0
 10
129.1139105579993
 20
-160.0229627421123
 30
0.0
 10
129.1139105579993
 20
-160.0818738749101
 30
0.0
 10
129.1139105579993
 20
-160.1021999382731
 30
0.0
 10
129.1159776152905
 20
-160.1404404981593
 30
0.0
 10
129.1201117298727
 20
-160.1700683193325
 30
0.0
 10
129.1201117298727
 20
-160.1700683193325
 30
0.0
 10
128.9254638349561
 20
-160.1700683193325
 30
0.0
 10
128.9254638349561
 20
-160.1700683193325
 30
0.0
 10
128.9320095163781
 20
-160.1294161926066
 30
0.0
 10
128.9340765736693
 20
-160.0839409322012
 30
0.0
 10
128.9340765736693
 20
-160.0773952507793
 30
0.0
 10
128.9340765736693
 20
-160.0071153028802
 30
0.0
 10
128.9127169816607
 20
-159.7945529114403
 30
0.0
 10
128.676038921824
 20
-159.7945529114403
 30
0.0
 10
128.4982719947852
 20
-159.7945529114403
 30
0.0
 10
128.4431504670212
 20
-159.9347682976899
 30
0.0
 10
128.4431504670212
 20
-160.052246053737
 30
0.0
 10
128.4431504670212
 20
-160.3350883930759
 30
0.0
 10
128.676038921824
 20
-160.3440456413376
 30
0.0
 10
128.7476969079173
 20
-160.3485242654684
 30
0.0
 10
128.7476969079173
 20
-160.3485242654684
 30
0.0
 10
128.7476969079173
 20
-160.5655652810392
 30
0.0
 10
128.7476969079173
 20
-160.5655652810392
 30
0.0
 10
128.6229844513512
 20
-160.5566080327775
 30
0.0
 10
128.2464355148134
 20
-160.5273247211529
 30
0.0
 10
128.2464355148134
 20
-160.0388101813445
 30
0.0
 10
128.2464355148134
 20
-159.7990315355711
 30
0.0
 10
128.3735595382191
 20
-159.5413383932744
 30
0.0
 10
128.6694932404021
 20
-159.5413383932744
 30
0.0
 10
128.8558729061541
 20
-159.5413383932744
 30
0.0
 10
128.9382106882516
 20
-159.6433132196378
 30
0.0
 10
128.999533387889
 20
-159.7494221605835
 30
0.0
 10
129.027094151771
 20
-159.6839653463637
 30
0.0
 10
129.1073648765773
 20
-159.4893174514471
 30
0.0
 10
129.3846950631399
 20
-159.4893174514471
 30
0.0
 10
129.7230034397915
 20
-159.4893174514471
 30
0.0
 10
129.8900905708261
 20
-159.7539007847143
 30
0.0
 10
129.8900905708261
 20
-160.0501789964458
 30
0.0
  0
HATCH
  5
B1
330
AC
100
AcDbEntity
  8
_U+30EC_U+30A4_U+30E4_U+30FC 1
 62
   179
420
  2234388
100
AcDbHatch
 10
0.0
 20
0.0
 30
0.0
210
0.0
220
0.0
230
1.0
  2
SOLID
 70
     1
 71
     0
 91
        1
 92
        1
 93
        1
 72
     4
 94
        3
 73
     0
 74
     1
 95
       62
 96
       58
 40
0.0
 40
0.0
 40
0.0
 40
0.0
 40
1.0
 40
1.0
 40
1.0
 40
2.0
 40
2.0
 40
2.0
 40
3.0
 40
3.0
 40
3.0
 40
4.0
 40
4.0
 40
4.0
 40
5.0
 40
5.0
 40
5.0
 40
6.0
 40
6.0
 40
6.0
 40
7.0
 40
7.0
 40
7.0
 40
8.0
 40
8.0
 40
8.0
 40
9.0
 40
9.0
 40
9.0
 40
10.0
 40
10.0
 40
10.0
 40
11.0
 40
11.0
 40
11.0
 40
12.0
 40
12.0
 40
12.0
 40
13.0
 40
13.0
 40
13.0
 40
14.0
 40
14.0
 40
14.0
 40
15.0
 40
15.0
 40
15.0
 40
16.0
 40
16.0
 40
16.0
 40
17.0
 40
17.0
 40
17.0
 40
18.0
 40
18.0
 40
18.0
 40
19.0
 40
19.0
 40
19.0
 40
19.0
 10
129.8900905708261
 20
-160.0501789964458
 10
129.8900905708261
 20
-160.1518093132607
 10
129.8690754883661
 20
-160.3846977680635
 10
129.6830403321626
 20
-160.5180229633427
 10
129.5707302193434
 20
-160.5972601595035
 10
129.4715114693682
 20
-160.6017387836343
 10
129.3867621204311
 20
-160.6062174077651
 10
129.3867621204311
 20
-160.6062174077651
 10
129.3867621204311
 20
-160.3712618956711
 10
129.3867621204311
 20
-160.3712618956711
 10
129.460831673364
 20
-160.3688503288314
 10
129.6954426759095
 20
-160.3574815137301
 10
129.6954426759095
 20
-160.0546576205766
 10
129.6954426759095
 20
-159.9075520433564
 10
129.6258517471074
 20
-159.7449435364527
 10
129.3974419164354
 20
-159.7449435364527
 10
129.2809976890339
 20
-159.7449435364527
 10
129.2324218426919
 20
-159.7855956631786
 10
129.2007269642276
 20
-159.8193575989341
 10
129.1266574112947
 20
-159.8985947950948
 10
129.1139105579993
 20
-160.0229627421123
 10
129.1139105579993
 20
-160.0818738749101
 10
129.1139105579993
 20
-160.1021999382731
 10
129.1159776152905
 20
-160.1404404981593
 10
129.1201117298727
 20
-160.1700683193325
 10
129.1201117298727
 20
-160.1700683193325
 10
128.9254638349561
 20
-160.1700683193325
 10
128.9254638349561
 20
-160.1700683193325
 10
128.9320095163781
 20
-160.1294161926066
 10
128.9340765736693
 20
-160.0839409322012
 10
128.9340765736693
 20
-160.0773952507793
 10
128.9340765736693
 20
-160.0071153028802
 10
128.9127169816607
 20
-159.7945529114403
 10
128.676038921824
 20
-159.7945529114403
 10
128.4982719947852
 20
-159.7945529114403
 10
128.4431504670212
 20
-159.9347682976899
 10
128.4431504670212
 20
-160.052246053737
 10
128.4431504670212
 20
-160.3350883930759
 10
128.676038921824
 20
-160.3440456413376
 10
128.7476969079173
 20
-160.3485242654684
 10
128.7476969079173
 20
-160.3485242654684
 10
128.7476969079173
 20
-160.5655652810392
 10
128.7476969079173
 20
-160.5655652810392
 10
128.6229844513512
 20
-160.5566080327775
 10
128.2464355148134
 20
-160.5273247211529
 10
128.2464355148134
 20
-160.0388101813445
 10
128.2464355148134
 20
-159.7990315355711
 10
128.3735595382191
 20
-159.5413383932744
 10
128.6694932404021
 20
-159.5413383932744
 10
128.8558729061541
 20
-159.5413383932744
 10
128.9382106882516
 20
-159.6433132196378
 10
128.999533387889
 20
-159.7494221605835
 10
129.027094151771
 20
-159.6839653463637
 10
129.1073648765773
 20
-159.4893174514471
 10
129.3846950631399
 20
-159.4893174514471
 10
129.7230034397915
 20
-159.4893174514471
 10
129.8900905708261
 20
-159.7539007847143
 10
129.8900905708261
 20
-160.0501789964458
 97
        0
 97
        0
 75
     2
 76
     1
 98
        0
  0
ENDBLK
  5
AF
330
AC
100
AcDbEntity
  8
0
100
AcDbBlockEnd
  0
BLOCK
  5
C0
330
BE
100
AcDbEntity
  8
0
100
AcDbBlockBegin
  2
block 3
 70
     0
 10
0.0
 20
0.0
 30
0.0
  3
block 3
  1

  0
SPLINE
  5
C2
330
BE
100
AcDbEntity
  8
_U+30EC_U+30A4_U+30E4_U+30FC 1
370
     0
100
AcDbSpline
210
0.0
220
0.0
230
1.0
 70
    11
 71
     3
 72
    62
 73
    58
 74
     0
 42
0.0000000001
 43
0.0000000001
 12
1.0
 22
0.0
 32
0.0
 13
1.0
 23
0.0
 33
0.0
 40
0.0
 40
0.0
 40
0.0
 40
0.0
 40
1.0
 40
1.0
 40
1.0
 40
2.0
 40
2.0
 40
2.0
 40
3.0
 40
3.0
 40
3.0
 40
4.0
 40
4.0
 40
4.0
 40
5.0
 40
5.0
 40
5.0
 40
6.0
 40
6.0
 40
6.0
 40
7.0
 40
7.0
 40
7.0
 40
8.0
 40
8.0
 40
8.0
 40
9.0
 40
9.0
 40
9.0
 40
10.0
 40
10.0
 40
10.0
 40
11.0
 40
11.0
 40
11.0
 40
12.0
 40
12.0
 40
12.0
 40
13.0
 40
13.0
 40
13.0
 40
14.0
 40
14.0
 40
14.0
 40
15.0
 40
15.0
 40
15.0
 40
16.0
 40
16.0
 40
16.0
 40
17.0
 40
17.0
 40
17.0
 40
18.0
 40
18.0
 40
18.0
 40
19.0
 40
19.0
 40
19.0
 40
19.0
 10
87.97671438772805
 20
-137.4450127152047
 30
0.0
 10
87.87508407091318
 20
-137.4450127152047
 30
0.0
 10
87.64219561611029
 20
-137.4239976327447
 30
0.0
 10
87.50869816605686
 20
-137.2379624765412
 30
0.0
 10
87.42963322467037
 20
-137.1256523637221
 30
0.0
 10
87.42515460053954
 20
-137.0264336137469
 30
0.0
 10
87.42067597640873
 20
-136.9416842648097
 30
0.0
 10
87.42067597640873
 20
-136.9416842648097
 30
0.0
 10
87.65563148850276
 20
-136.9416842648097
 30
0.0
 10
87.65563148850276
 20
-136.9416842648097
 30
0.0
 10
87.65804305534243
 20
-137.0157538177426
 30
0.0
 10
87.6692396156695
 20
-137.2503648202881
 30
0.0
 10
87.97223576359723
 20
-137.2503648202881
 30
0.0
 10
88.11916908604313
 20
-137.2503648202881
 30
0.0
 10
88.28194984772118
 20
-137.1807738914861
 30
0.0
 10
88.28194984772118
 20
-136.952364060814
 30
0.0
 10
88.28194984772118
 20
-136.8359198334126
 30
0.0
 10
88.24129772099523
 20
-136.7873439870705
 30
0.0
 10
88.20736353046553
 20
-136.7556491086062
 30
0.0
 10
88.12829858907904
 20
-136.6815795556734
 30
0.0
 10
88.00393064206152
 20
-136.6688327023779
 30
0.0
 10
87.94501950926374
 20
-136.6688327023779
 30
0.0
 10
87.92469344590077
 20
-136.6688327023779
 30
0.0
 10
87.88628063124024
 20
-136.6708997596691
 30
0.0
 10
87.85699731961562
 20
-136.6750338742514
 30
0.0
 10
87.85699731961562
 20
-136.6750338742514
 30
0.0
 10
87.85699731961562
 20
-136.4803859793348
 30
0.0
 10
87.85699731961562
 20
-136.4803859793348
 30
0.0
 10
87.89764944634156
 20
-136.4869316607567
 30
0.0
 10
87.94278019719833
 20
-136.4889987180479
 30
0.0
 10
87.94967038816884
 20
-136.4889987180479
 30
0.0
 10
88.01977808129367
 20
-136.4889987180479
 30
0.0
 10
88.23216821795933
 20
-136.4676391260394
 30
0.0
 10
88.23216821795933
 20
-136.2309610662027
 30
0.0
 10
88.23216821795933
 20
-136.0531941391638
 30
0.0
 10
88.09212508648392
 20
-135.9980726113998
 30
0.0
 10
87.97447507566264
 20
-135.9980726113998
 30
0.0
 10
87.69180499109788
 20
-135.9980726113998
 30
0.0
 10
87.68284774283623
 20
-136.2309610662027
 30
0.0
 10
87.67836911870542
 20
-136.3026190522959
 30
0.0
 10
87.67836911870542
 20
-136.3026190522959
 30
0.0
 10
87.46132810313468
 20
-136.3026190522959
 30
0.0
 10
87.46132810313468
 20
-136.3026190522959
 30
0.0
 10
87.47028535139633
 20
-136.1779065957298
 30
0.0
 10
87.49974091779521
 20
-135.801357659192
 30
0.0
 10
87.98808320282937
 20
-135.801357659192
 30
0.0
 10
88.2276895938285
 20
-135.801357659192
 30
0.0
 10
88.48538273612519
 20
-135.9284816825977
 30
0.0
 10
88.48538273612519
 20
-136.2244153847807
 30
0.0
 10
88.48538273612519
 20
-136.4107950505327
 30
0.0
 10
88.38375241931031
 20
-136.4931328326302
 30
0.0
 10
88.27747122359035
 20
-136.5544555322676
 30
0.0
 10
88.34292803781011
 20
-136.5820162961496
 30
0.0
 10
88.53740367795245
 20
-136.662287020956
 30
0.0
 10
88.53740367795245
 20
-136.9396172075186
 30
0.0
 10
88.53740367795245
 20
-137.2779255841701
 30
0.0
 10
88.27299259945953
 20
-137.4450127152047
 30
0.0
 10
87.97671438772805
 20
-137.4450127152047
 30
0.0
  0
HATCH
  5
C3
330
BE
100
AcDbEntity
  8
_U+30EC_U+30A4_U+30E4_U+30FC 1
 62
   179
420
  2234388
100
AcDbHatch
 10
0.0
 20
0.0
 30
0.0
210
0.0
220
0.0
230
1.0
  2
SOLID
 70
     1
 71
     0
 91
        1
 92
        1
 93
        1
 72
     4
 94
        3
 73
     0
 74
     1
 95
       62
 96
       58
 40
0.0
 40
0.0
 40
0.0
 40
0.0
 40
1.0
 40
1.0
 40
1.0
 40
2.0
 40
2.0
 40
2.0
 40
3.0
 40
3.0
 40
3.0
 40
4.0
 40
4.0
 40
4.0
 40
5.0
 40
5.0
 40
5.0
 40
6.0
 40
6.0
 40
6.0
 40
7.0
 40
7.0
 40
7.0
 40
8.0
 40
8.0
 40
8.0
 40
9.0
 40
9.0
 40
9.0
 40
10.0
 40
10.0
 40
10.0
 40
11.0
 40
11.0
 40
11.0
 40
12.0
 40
12.0
 40
12.0
 40
13.0
 40
13.0
 40
13.0
 40
14.0
 40
14.0
 40
14.0
 40
15.0
 40
15.0
 40
15.0
 40
16.0
 40
16.0
 40
16.0
 40
17.0
 40
17.0
 40
17.0
 40
18.0
 40
18.0
 40
18.0
 40
19.0
 40
19.0
 40
19.0
 40
19.0
 10
87.97671438772805
 20
-137.4450127152047
 10
87.87508407091318
 20
-137.4450127152047
 10
87.64219561611029
 20
-137.4239976327447
 10
87.50869816605686
 20
-137.2379624765412
 10
87.42963322467037
 20
-137.1256523637221
 10
87.42515460053954
 20
-137.0264336137469
 10
87.42067597640873
 20
-136.9416842648097
 10
87.42067597640873
 20
-136.9416842648097
 10
87.65563148850276
 20
-136.9416842648097
 10
87.65563148850276
 20
-136.9416842648097
 10
87.65804305534243
 20
-137.0157538177426
 10
87.6692396156695
 20
-137.2503648202881
 10
87.97223576359723
 20
-137.2503648202881
 10
88.11916908604313
 20
-137.2503648202881
 10
88.28194984772118
 20
-137.1807738914861
 10
88.28194984772118
 20
-136.952364060814
 10
88.28194984772118
 20
-136.8359198334126
 10
88.24129772099523
 20
-136.7873439870705
 10
88.20736353046553
 20
-136.7556491086062
 10
88.12829858907904
 20
-136.6815795556734
 10
88.00393064206152
 20
-136.6688327023779
 10
87.94501950926374
 20
-136.6688327023779
 10
87.92469344590077
 20
-136.6688327023779
 10
87.88628063124024
 20
-136.6708997596691
 10
87.85699731961562
 20
-136.6750338742514
 10
87.85699731961562
 20
-136.6750338742514
 10
87.85699731961562
 20
-136.4803859793348
 10
87.85699731961562
 20
-136.4803859793348
 10
87.89764944634156
 20
-136.4869316607567
 10
87.94278019719833
 20
-136.4889987180479
 10
87.94967038816884
 20
-136.4889987180479
 10
88.01977808129367
 20
-136.4889987180479
 10
88.23216821795933
 20
-136.4676391260394
 10
88.23216821795933
 20
-136.2309610662027
 10
88.23216821795933
 20
-136.0531941391638
 10
88.09212508648392
 20
-135.9980726113998
 10
87.97447507566264
 20
-135.9980726113998
 10
87.69180499109788
 20
-135.9980726113998
 10
87.68284774283623
 20
-136.2309610662027
 10
87.67836911870542
 20
-136.3026190522959
 10
87.67836911870542
 20
-136.3026190522959
 10
87.46132810313468
 20
-136.3026190522959
 10
87.46132810313468
 20
-136.3026190522959
 10
87.47028535139633
 20
-136.1779065957298
 10
87.49974091779521
 20
-135.801357659192
 10
87.98808320282937
 20
-135.801357659192
 10
88.2276895938285
 20
-135.801357659192
 10
88.48538273612519
 20
-135.9284816825977
 10
88.48538273612519
 20
-136.2244153847807
 10
88.48538273612519
 20
-136.4107950505327
 10
88.38375241931031
 20
-136.4931328326302
 10
88.27747122359035
 20
-136.5544555322676
 10
88.34292803781011
 20
-136.5820162961496
 10
88.53740367795245
 20
-136.662287020956
 10
88.53740367795245
 20
-136.9396172075186
 10
88.53740367795245
 20
-137.2779255841701
 10
88.27299259945953
 20
-137.4450127152047
 10
87.97671438772805
 20
-137.4450127152047
 97
        0
 97
        0
 75
     2
 76
     1
 98
        0
  0
ENDBLK
  5
C1
330
BE
100
AcDbEntity
  8
0
100
AcDbBlockEnd
  0
BLOCK
  5
D2
330
D0
100
AcDbEntity
  8
0
100
AcDbBlockBegin
  2
block 4
 70
     0
 10
0.0
 20
0.0
 30
0.0
  3
block 4
  1

  0
POLYLINE
  5
D4
330
D0
100
AcDbEntity
  8
_U+30EC_U+30A4_U+30E4_U+30FC 1
370
     0
100
AcDb2dPolyline
 66
     1
 10
0.0
 20
0.0
 30
0.0
  0
VERTEX
  5
D5
330
D4
100
AcDbEntity
  8
_U+30EC_U+30A4_U+30E4_U+30FC 1
370
     0
100
AcDbVertex
100
AcDb2dVertex
 10
106.2116047911554
 20
-133.0473483282833
 30
0.0
  0
VERTEX
  5
D6
330
D4
100
AcDbEntity
  8
_U+30EC_U+30A4_U+30E4_U+30FC 1
370
     0
100
AcDbVertex
100
AcDb2dVertex
 10
106.2116047911554
 20
-133.394269443648
 30
0.0
  0
VERTEX
  5
D7
330
D4
100
AcDbEntity
  8
_U+30EC_U+30A4_U+30E4_U+30FC 1
370
     0
100
AcDbVertex
100
AcDb2dVertex
 10
105.9787163363525
 20
-133.394269443648
 30
0.0
  0
VERTEX
  5
D8
330
D4
100
AcDbEntity
  8
_U+30EC_U+30A4_U+30E4_U+30FC 1
370
     0
100
AcDbVertex
100
AcDb2dVertex
 10
105.9787163363525
 20
-133.0473483282833
 30
0.0
  0
VERTEX
  5
D9
330
D4
100
AcDbEntity
  8
_U+30EC_U+30A4_U+30E4_U+30FC 1
370
     0
100
AcDbVertex
100
AcDb2dVertex
 10
105.2779839146527
 20
-133.0473483282833
 30
0.0
  0
VERTEX
  5
DA
330
D4
100
AcDbEntity
  8
_U+30EC_U+30A4_U+30E4_U+30FC 1
370
     0
100
AcDbVertex
100
AcDb2dVertex
 10
105.2779839146527
 20
-132.8230726121936
 30
0.0
  0
VERTEX
  5
DB
330
D4
100
AcDbEntity
  8
_U+30EC_U+30A4_U+30E4_U+30FC 1
370
     0
100
AcDbVertex
100
AcDb2dVertex
 10
106.0035210238463
 20
-131.8498331376105
 30
0.0
  0
VERTEX
  5
DC
330
D4
100
AcDbEntity
  8
_U+30EC_U+30A4_U+30E4_U+30FC 1
370
     0
100
AcDbVertex
100
AcDb2dVertex
 10
106.2116047911554
 20
-131.8498331376105
 30
0.0
  0
VERTEX
  5
DD
330
D4
100
AcDbEntity
  8
_U+30EC_U+30A4_U+30E4_U+30FC 1
370
     0
100
AcDbVertex
100
AcDb2dVertex
 10
106.2116047911554
 20
-132.8485663187844
 30
0.0
  0
VERTEX
  5
DE
330
D4
100
AcDbEntity
  8
_U+30EC_U+30A4_U+30E4_U+30FC 1
370
     0
100
AcDbVertex
100
AcDb2dVertex
 10
106.433124430857
 20
-132.8485663187844
 30
0.0
  0
VERTEX
  5
DF
330
D4
100
AcDbEntity
  8
_U+30EC_U+30A4_U+30E4_U+30FC 1
370
     0
100
AcDbVertex
100
AcDb2dVertex
 10
106.433124430857
 20
-133.0473483282833
 30
0.0
  0
VERTEX
  5
E0
330
D4
100
AcDbEntity
  8
_U+30EC_U+30A4_U+30E4_U+30FC 1
370
     0
100
AcDbVertex
100
AcDb2dVertex
 10
106.2116047911554
 20
-133.0473483282833
 30
0.0
  0
SEQEND
  5
E1
330
D4
100
AcDbEntity
  8
_U+30EC_U+30A4_U+30E4_U+30FC 1
370
     0
  0
POLYLINE
  5
E2
330
D0
100
AcDbEntity
  8
_U+30EC_U+30A4_U+30E4_U+30FC 1
370
     0
100
AcDb2dPolyline
 66
     1
 10
0.0
 20
0.0
 30
0.0
  0
VERTEX
  5
E3
330
E2
100
AcDbEntity
  8
_U+30EC_U+30A4_U+30E4_U+30FC 1
370
     0
100
AcDbVertex
100
AcDb2dVertex
 10
105.9787163363525
 20
-132.1926201383928
 30
0.0
  0
VERTEX
  5
E4
330
E2
100
AcDbEntity
  8
_U+30EC_U+30A4_U+30E4_U+30FC 1
370
     0
100
AcDbVertex
100
AcDb2dVertex
 10
105.4905463060926
 20
-132.8485663187844
 30
0.0
  0
VERTEX
  5
E5
330
E2
100
AcDbEntity
  8
_U+30EC_U+30A4_U+30E4_U+30FC 1
370
     0
100
AcDbVertex
100
AcDb2dVertex
 10
105.9787163363525
 20
-132.8485663187844
 30
0.0
  0
VERTEX
  5
E6
330
E2
100
AcDbEntity
  8
_U+30EC_U+30A4_U+30E4_U+30FC 1
370
     0
100
AcDbVertex
100
AcDb2dVertex
 10
105.9787163363525
 20
-132.1926201383928
 30
0.0
  0
SEQEND
  5
E7
330
E2
100
AcDbEntity
  8
_U+30EC_U+30A4_U+30E4_U+30FC 1
370
     0
  0
HATCH
  5
E8
330
D0
100
AcDbEntity
  8
_U+30EC_U+30A4_U+30E4_U+30FC 1
 62
   179
420
  2234388
100
AcDbHatch
 10
0.0
 20
0.0
 30
0.0
210
0.0
220
0.0
230
1.0
  2
SOLID
 70
     1
 71
     0
 91
        2
 92
        1
 93
       11
 72
     1
 10
106.2116047911554
 20
-133.0473483282833
 11
106.2116047911554
 21
-133.394269443648
 72
     1
 10
106.2116047911554
 20
-133.394269443648
 11
105.9787163363525
 21
-133.394269443648
 72
     1
 10
105.9787163363525
 20
-133.394269443648
 11
105.9787163363525
 21
-133.0473483282833
 72
     1
 10
105.9787163363525
 20
-133.0473483282833
 11
105.2779839146527
 21
-133.0473483282833
 72
     1
 10
105.2779839146527
 20
-133.0473483282833
 11
105.2779839146527
 21
-132.8230726121936
 72
     1
 10
105.2779839146527
 20
-132.8230726121936
 11
106.0035210238463
 21
-131.8498331376105
 72
     1
 10
106.0035210238463
 20
-131.8498331376105
 11
106.2116047911554
 21
-131.8498331376105
 72
     1
 10
106.2116047911554
 20
-131.8498331376105
 11
106.2116047911554
 21
-132.8485663187844
 72
     1
 10
106.2116047911554
 20
-132.8485663187844
 11
106.433124430857
 21
-132.8485663187844
 72
     1
 10
106.433124430857
 20
-132.8485663187844
 11
106.433124430857
 21
-133.0473483282833
 72
     1
 10
106.433124430857
 20
-133.0473483282833
 11
106.2116047911554
 21
-133.0473483282833
 97
        0
 92
        1
 93
        3
 72
     1
 10
105.9787163363525
 20
-132.1926201383928
 11
105.4905463060926
 21
-132.8485663187844
 72
     1
 10
105.4905463060926
 20
-132.8485663187844
 11
105.9787163363525
 21
-132.8485663187844
 72
     1
 10
105.9787163363525
 20
-132.8485663187844
 11
105.9787163363525
 21
-132.1926201383928
 97
        0
 75
     2
 76
     1
 98
        0
  0
SPLINE
  5
E9
330
D0
100
AcDbEntity
  8
_U+30EC_U+30A4_U+30E4_U+30FC 1
370
     0
100
AcDbSpline
210
0.0
220
0.0
230
1.0
 70
    11
 71
     3
 72
    29
 73
    25
 74
     0
 42
0.0000000001
 43
0.0000000001
 12
1.0
 22
0.0
 32
0.0
 13
1.0
 23
0.0
 33
0.0
 40
0.0
 40
0.0
 40
0.0
 40
0.0
 40
1.0
 40
1.0
 40
1.0
 40
2.0
 40
2.0
 40
2.0
 40
3.0
 40
3.0
 40
3.0
 40
4.0
 40
4.0
 40
4.0
 40
5.0
 40
5.0
 40
5.0
 40
6.0
 40
6.0
 40
6.0
 40
7.0
 40
7.0
 40
7.0
 40
8.0
 40
8.0
 40
8.0
 40
8.0
 10
107.5393445911707
 20
-133.2165025166091
 30
0.0
 10
107.4239338924149
 20
-133.4259643221123
 30
0.0
 10
107.2385877553084
 20
-133.4449123472811
 30
0.0
 10
107.1142198082909
 20
-133.4449123472811
 30
0.0
 10
106.9426540531255
 20
-133.4449123472811
 30
0.0
 10
106.7910698517745
 20
-133.3984035582303
 30
0.0
 10
106.6894395349596
 20
-133.2165025166091
 30
0.0
 10
106.5785074603345
 20
-133.0218546216925
 30
0.0
 10
106.5581813969716
 20
-132.7851765618558
 30
0.0
 10
106.5581813969716
 20
-132.6222235454035
 30
0.0
 10
106.5581813969716
 20
-132.47821855412
 30
0.0
 10
106.5760958934949
 20
-132.2263820741483
 30
0.0
 10
106.6894395349596
 20
-132.0276000646494
 30
0.0
 10
106.8045057241669
 20
-131.8246839405681
 30
0.0
 10
106.9764159888809
 20
-131.8012572912684
 30
0.0
 10
107.1142198082909
 20
-131.8012572912684
 30
0.0
 10
107.2840630157137
 20
-131.8012572912684
 30
0.0
 10
107.4377142743559
 20
-131.8456990230282
 30
0.0
 10
107.5393445911707
 20
-132.0276000646494
 30
0.0
 10
107.6457980416649
 20
-132.2201809022748
 30
0.0
 10
107.6706027291587
 20
-132.4485907329469
 30
0.0
 10
107.6706027291587
 20
-132.6222235454035
 30
0.0
 10
107.6706027291587
 20
-132.7934447910204
 30
0.0
 10
107.6478650989561
 20
-133.0239216789836
 30
0.0
 10
107.5393445911707
 20
-133.2165025166091
 30
0.0
  0
SPLINE
  5
EA
330
D0
100
AcDbEntity
  8
_U+30EC_U+30A4_U+30E4_U+30FC 1
370
     0
100
AcDbSpline
210
0.0
220
0.0
230
1.0
 70
    11
 71
     3
 72
    17
 73
    13
 74
     0
 42
0.0000000001
 43
0.0000000001
 12
1.0
 22
0.0
 32
0.0
 13
1.0
 23
0.0
 33
0.0
 40
0.0
 40
0.0
 40
0.0
 40
0.0
 40
1.0
 40
1.0
 40
1.0
 40
2.0
 40
2.0
 40
2.0
 40
3.0
 40
3.0
 40
3.0
 40
4.0
 40
4.0
 40
4.0
 40
4.0
 10
107.1142198082909
 20
-131.9938381288939
 30
0.0
 10
106.8475694177326
 20
-131.9938381288939
 30
0.0
 10
106.797960042745
 20
-132.27736948733
 30
0.0
 10
106.797960042745
 20
-132.6222235454035
 30
0.0
 10
106.797960042745
 20
-132.9415838968861
 30
0.0
 10
106.8362006026312
 20
-133.2502644523645
 30
0.0
 10
107.1142198082909
 20
-133.2502644523645
 30
0.0
 10
107.3788031415581
 20
-133.2502644523645
 30
0.0
 10
107.4308240833854
 20
-132.9691446607681
 30
0.0
 10
107.4308240833854
 20
-132.6222235454035
 30
0.0
 10
107.4308240833854
 20
-132.3025186843723
 30
0.0
 10
107.3901719566594
 20
-131.9938381288939
 30
0.0
 10
107.1142198082909
 20
-131.9938381288939
 30
0.0
  0
HATCH
  5
EB
330
D0
100
AcDbEntity
  8
_U+30EC_U+30A4_U+30E4_U+30FC 1
 62
   179
420
  2234388
100
AcDbHatch
 10
0.0
 20
0.0
 30
0.0
210
0.0
220
0.0
230
1.0
  2
SOLID
 70
     1
 71
     0
 91
        2
 92
        1
 93
        1
 72
     4
 94
        3
 73
     0
 74
     1
 95
       29
 96
       25
 40
0.0
 40
0.0
 40
0.0
 40
0.0
 40
1.0
 40
1.0
 40
1.0
 40
2.0
 40
2.0
 40
2.0
 40
3.0
 40
3.0
 40
3.0
 40
4.0
 40
4.0
 40
4.0
 40
5.0
 40
5.0
 40
5.0
 40
6.0
 40
6.0
 40
6.0
 40
7.0
 40
7.0
 40
7.0
 40
8.0
 40
8.0
 40
8.0
 40
8.0
 10
107.5393445911707
 20
-133.2165025166091
 10
107.4239338924149
 20
-133.4259643221123
 10
107.2385877553084
 20
-133.4449123472811
 10
107.1142198082909
 20
-133.4449123472811
 10
106.9426540531255
 20
-133.4449123472811
 10
106.7910698517745
 20
-133.3984035582303
 10
106.6894395349596
 20
-133.2165025166091
 10
106.5785074603345
 20
-133.0218546216925
 10
106.5581813969716
 20
-132.7851765618558
 10
106.5581813969716
 20
-132.6222235454035
 10
106.5581813969716
 20
-132.47821855412
 10
106.5760958934949
 20
-132.2263820741483
 10
106.6894395349596
 20
-132.0276000646494
 10
106.8045057241669
 20
-131.8246839405681
 10
106.9764159888809
 20
-131.8012572912684
 10
107.1142198082909
 20
-131.8012572912684
 10
107.2840630157137
 20
-131.8012572912684
 10
107.4377142743559
 20
-131.8456990230282
 10
107.5393445911707
 20
-132.0276000646494
 10
107.6457980416649
 20
-132.2201809022748
 10
107.6706027291587
 20
-132.4485907329469
 10
107.6706027291587
 20
-132.6222235454035
 10
107.6706027291587
 20
-132.7934447910204
 10
107.6478650989561
 20
-133.0239216789836
 10
107.5393445911707
 20
-133.2165025166091
 97
        0
 97
        0
 92
        1
 93
        1
 72
     4
 94
        3
 73
     0
 74
     1
 95
       17
 96
       13
 40
0.0
 40
0.0
 40
0.0
 40
0.0
 40
1.0
 40
1.0
 40
1.0
 40
2.0
 40
2.0
 40
2.0
 40
3.0
 40
3.0
 40
3.0
 40
4.0
 40
4.0
 40
4.0
 40
4.0
 10
107.1142198082909
 20
-131.9938381288939
 10
106.8475694177326
 20
-131.9938381288939
 10
106.797960042745
 20
-132.27736948733
 10
106.797960042745
 20
-132.6222235454035
 10
106.797960042745
 20
-132.9415838968861
 10
106.8362006026312
 20
-133.2502644523645
 10
107.1142198082909
 20
-133.2502644523645
 10
107.3788031415581
 20
-133.2502644523645
 10
107.4308240833854
 20
-132.9691446607681
 10
107.4308240833854
 20
-132.6222235454035
 10
107.4308240833854
 20
-132.3025186843723
 10
107.3901719566594
 20
-131.9938381288939
 10
107.1142198082909
 20
-131.9938381288939
 97
        0
 97
        0
 75
     2
 76
     1
 98
        0
  0
ENDBLK
  5
D3
330
D0
100
AcDbEntity
  8
0
100
AcDbBlockEnd
  0
BLOCK
  5
FA
330
F8
100
AcDbEntity
  8
0
100
AcDbBlockBegin
  2
block 5
 70
     0
 10
0.0
 20
0.0
 30
0.0
  3
block 5
  1

  0
SPLINE
  5
FC
330
F8
100
AcDbEntity
  8
_U+30EC_U+30A4_U+30E4_U+30FC 1
370
     0
100
AcDbSpline
210
0.0
220
0.0
230
1.0
 70
    11
 71
     3
 72
    26
 73
    22
 74
     0
 42
0.0000000001
 43
0.0000000001
 12
1.0
 22
0.0
 32
0.0
 13
1.0
 23
0.0
 33
0.0
 40
0.0
 40
0.0
 40
0.0
 40
0.0
 40
1.0
 40
1.0
 40
1.0
 40
2.0
 40
2.0
 40
2.0
 40
3.0
 40
3.0
 40
3.0
 40
4.0
 40
4.0
 40
4.0
 40
5.0
 40
5.0
 40
5.0
 40
6.0
 40
6.0
 40
6.0
 40
7.0
 40
7.0
 40
7.0
 40
7.0
 10
90.80479327156964
 20
-164.8939832487071
 30
0.0
 10
90.80479327156964
 20
-164.8939832487071
 30
0.0
 10
90.80479327156964
 20
-163.7898301456845
 30
0.0
 10
90.80479327156964
 20
-163.7898301456845
 30
0.0
 10
90.80479327156964
 20
-163.7898301456845
 30
0.0
 10
90.45201549388005
 20
-163.7898301456845
 30
0.0
 10
90.45201549388005
 20
-163.7898301456845
 30
0.0
 10
90.45201549388005
 20
-163.7898301456845
 30
0.0
 10
90.45201549388005
 20
-163.6416910398187
 30
0.0
 10
90.45201549388005
 20
-163.6416910398187
 30
0.0
 10
90.80703258363505
 20
-163.6268771292322
 30
0.0
 10
90.85681421339692
 20
-163.4639241127799
 30
0.0
 10
90.88850909186121
 20
-163.3495469426696
 30
0.0
 10
90.88850909186121
 20
-163.3495469426696
 30
0.0
 10
91.04439966256876
 20
-163.3495469426696
 30
0.0
 10
91.04439966256876
 20
-163.3495469426696
 30
0.0
 10
91.04439966256876
 20
-163.3495469426696
 30
0.0
 10
91.04439966256876
 20
-164.8939832487071
 30
0.0
 10
91.04439966256876
 20
-164.8939832487071
 30
0.0
 10
91.04439966256876
 20
-164.8939832487071
 30
0.0
 10
90.80479327156964
 20
-164.8939832487071
 30
0.0
 10
90.80479327156964
 20
-164.8939832487071
 30
0.0
  0
HATCH
  5
FD
330
F8
100
AcDbEntity
  8
_U+30EC_U+30A4_U+30E4_U+30FC 1
 62
   179
420
  2234388
100
AcDbHatch
 10
0.0
 20
0.0
 30
0.0
210
0.0
220
0.0
230
1.0
  2
SOLID
 70
     1
 71
     0
 91
        1
 92
        1
 93
        1
 72
     4
 94
        3
 73
     0
 74
     1
 95
       26
 96
       22
 40
0.0
 40
0.0
 40
0.0
 40
0.0
 40
1.0
 40
1.0
 40
1.0
 40
2.0
 40
2.0
 40
2.0
 40
3.0
 40
3.0
 40
3.0
 40
4.0
 40
4.0
 40
4.0
 40
5.0
 40
5.0
 40
5.0
 40
6.0
 40
6.0
 40
6.0
 40
7.0
 40
7.0
 40
7.0
 40
7.0
 10
90.80479327156964
 20
-164.8939832487071
 10
90.80479327156964
 20
-164.8939832487071
 10
90.80479327156964
 20
-163.7898301456845
 10
90.80479327156964
 20
-163.7898301456845
 10
90.80479327156964
 20
-163.7898301456845
 10
90.45201549388005
 20
-163.7898301456845
 10
90.45201549388005
 20
-163.7898301456845
 10
90.45201549388005
 20
-163.7898301456845
 10
90.45201549388005
 20
-163.6416910398187
 10
90.45201549388005
 20
-163.6416910398187
 10
90.80703258363505
 20
-163.6268771292322
 10
90.85681421339692
 20
-163.4639241127799
 10
90.88850909186121
 20
-163.3495469426696
 10
90.88850909186121
 20
-163.3495469426696
 10
91.04439966256876
 20
-163.3495469426696
 10
91.04439966256876
 20
-163.3495469426696
 10
91.04439966256876
 20
-163.3495469426696
 10
91.04439966256876
 20
-164.8939832487071
 10
91.04439966256876
 20
-164.8939832487071
 10
91.04439966256876
 20
-164.8939832487071
 10
90.80479327156964
 20
-164.8939832487071
 10
90.80479327156964
 20
-164.8939832487071
 97
        0
 97
        0
 75
     2
 76
     1
 98
        0
  0
SPLINE
  5
FE
330
F8
100
AcDbEntity
  8
_U+30EC_U+30A4_U+30E4_U+30FC 1
370
     0
100
AcDbSpline
210
0.0
220
0.0
230
1.0
 70
    11
 71
     3
 72
    29
 73
    25
 74
     0
 42
0.0000000001
 43
0.0000000001
 12
1.0
 22
0.0
 32
0.0
 13
1.0
 23
0.0
 33
0.0
 40
0.0
 40
0.0
 40
0.0
 40
0.0
 40
1.0
 40
1.0
 40
1.0
 40
2.0
 40
2.0
 40
2.0
 40
3.0
 40
3.0
 40
3.0
 40
4.0
 40
4.0
 40
4.0
 40
5.0
 40
5.0
 40
5.0
 40
6.0
 40
6.0
 40
6.0
 40
7.0
 40
7.0
 40
7.0
 40
8.0
 40
8.0
 40
8.0
 40
8.0
 10
92.53957110316719
 20
-164.7162163216682
 30
0.0
 10
92.4243326591856
 20
-164.9256781271714
 30
0.0
 10
92.23898652207914
 20
-164.9446261523402
 30
0.0
 10
92.11461857506163
 20
-164.9446261523402
 30
0.0
 10
91.94270831034765
 20
-164.9446261523402
 30
0.0
 10
91.79129636377093
 20
-164.8981173632894
 30
0.0
 10
91.68949379218179
 20
-164.7162163216682
 30
0.0
 10
91.57873397233101
 20
-164.5215684267516
 30
0.0
 10
91.55840790896804
 20
-164.2848903669149
 30
0.0
 10
91.55840790896804
 20
-164.1219373504626
 30
0.0
 10
91.55840790896804
 20
-163.9779323591791
 30
0.0
 10
91.57649466026561
 20
-163.7260958792074
 30
0.0
 10
91.68949379218179
 20
-163.5273138697085
 30
0.0
 10
91.80490449093767
 20
-163.3243977456272
 30
0.0
 10
91.97664250087738
 20
-163.3009710963275
 30
0.0
 10
92.11461857506163
 20
-163.3009710963275
 30
0.0
 10
92.28411727293592
 20
-163.3009710963275
 30
0.0
 10
92.43794078635233
 20
-163.3454128280873
 30
0.0
 10
92.53957110316719
 20
-163.5273138697085
 30
0.0
 10
92.64585229888715
 20
-163.7198947073339
 30
0.0
 10
92.67065698638095
 20
-163.948304538006
 30
0.0
 10
92.67065698638095
 20
-164.1219373504626
 30
0.0
 10
92.67065698638095
 20
-164.2931585960795
 30
0.0
 10
92.64809161095256
 20
-164.5236354840427
 30
0.0
 10
92.53957110316719
 20
-164.7162163216682
 30
0.0
  0
SPLINE
  5
FF
330
F8
100
AcDbEntity
  8
_U+30EC_U+30A4_U+30E4_U+30FC 1
370
     0
100
AcDbSpline
210
0.0
220
0.0
230
1.0
 70
    11
 71
     3
 72
    17
 73
    13
 74
     0
 42
0.0000000001
 43
0.0000000001
 12
1.0
 22
0.0
 32
0.0
 13
1.0
 23
0.0
 33
0.0
 40
0.0
 40
0.0
 40
0.0
 40
0.0
 40
1.0
 40
1.0
 40
1.0
 40
2.0
 40
2.0
 40
2.0
 40
3.0
 40
3.0
 40
3.0
 40
4.0
 40
4.0
 40
4.0
 40
4.0
 10
92.11461857506163
 20
-163.493551933953
 30
0.0
 10
91.84779592972903
 20
-163.493551933953
 30
0.0
 10
91.79801429996716
 20
-163.7770832923891
 30
0.0
 10
91.79801429996716
 20
-164.1219373504626
 30
0.0
 10
91.79801429996716
 20
-164.4412977019452
 30
0.0
 10
91.8364271146277
 20
-164.7499782574236
 30
0.0
 10
92.11461857506163
 20
-164.7499782574236
 30
0.0
 10
92.37902965355455
 20
-164.7499782574236
 30
0.0
 10
92.43105059538182
 20
-164.4688584658272
 30
0.0
 10
92.43105059538182
 20
-164.1219373504626
 30
0.0
 10
92.43105059538182
 20
-163.8022324894314
 30
0.0
 10
92.39039846865587
 20
-163.493551933953
 30
0.0
 10
92.11461857506163
 20
-163.493551933953
 30
0.0
  0
HATCH
  5
100
330
F8
100
AcDbEntity
  8
_U+30EC_U+30A4_U+30E4_U+30FC 1
 62
   179
420
  2234388
100
AcDbHatch
 10
0.0
 20
0.0
 30
0.0
210
0.0
220
0.0
230
1.0
  2
SOLID
 70
     1
 71
     0
 91
        2
 92
        1
 93
        1
 72
     4
 94
        3
 73
     0
 74
     1
 95
       29
 96
       25
 40
0.0
 40
0.0
 40
0.0
 40
0.0
 40
1.0
 40
1.0
 40
1.0
 40
2.0
 40
2.0
 40
2.0
 40
3.0
 40
3.0
 40
3.0
 40
4.0
 40
4.0
 40
4.0
 40
5.0
 40
5.0
 40
5.0
 40
6.0
 40
6.0
 40
6.0
 40
7.0
 40
7.0
 40
7.0
 40
8.0
 40
8.0
 40
8.0
 40
8.0
 10
92.53957110316719
 20
-164.7162163216682
 10
92.4243326591856
 20
-164.9256781271714
 10
92.23898652207914
 20
-164.9446261523402
 10
92.11461857506163
 20
-164.9446261523402
 10
91.94270831034765
 20
-164.9446261523402
 10
91.79129636377093
 20
-164.8981173632894
 10
91.68949379218179
 20
-164.7162163216682
 10
91.57873397233101
 20
-164.5215684267516
 10
91.55840790896804
 20
-164.2848903669149
 10
91.55840790896804
 20
-164.1219373504626
 10
91.55840790896804
 20
-163.9779323591791
 10
91.57649466026561
 20
-163.7260958792074
 10
91.68949379218179
 20
-163.5273138697085
 10
91.80490449093767
 20
-163.3243977456272
 10
91.97664250087738
 20
-163.3009710963275
 10
92.11461857506163
 20
-163.3009710963275
 10
92.28411727293592
 20
-163.3009710963275
 10
92.43794078635233
 20
-163.3454128280873
 10
92.53957110316719
 20
-163.5273138697085
 10
92.64585229888715
 20
-163.7198947073339
 10
92.67065698638095
 20
-163.948304538006
 10
92.67065698638095
 20
-164.1219373504626
 10
92.67065698638095
 20
-164.2931585960795
 10
92.64809161095256
 20
-164.5236354840427
 10
92.53957110316719
 20
-164.7162163216682
 97
        0
 97
        0
 92
        1
 93
        1
 72
     4
 94
        3
 73
     0
 74
     1
 95
       17
 96
       13
 40
0.0
 40
0.0
 40
0.0
 40
0.0
 40
1.0
 40
1.0
 40
1.0
 40
2.0
 40
2.0
 40
2.0
 40
3.0
 40
3.0
 40
3.0
 40
4.0
 40
4.0
 40
4.0
 40
4.0
 10
92.11461857506163
 20
-163.493551933953
 10
91.84779592972903
 20
-163.493551933953
 10
91.79801429996716
 20
-163.7770832923891
 10
91.79801429996716
 20
-164.1219373504626
 10
91.79801429996716
 20
-164.4412977019452
 10
91.8364271146277
 20
-164.7499782574236
 10
92.11461857506163
 20
-164.7499782574236
 10
92.37902965355455
 20
-164.7499782574236
 10
92.43105059538182
 20
-164.4688584658272
 10
92.43105059538182
 20
-164.1219373504626
 10
92.43105059538182
 20
-163.8022324894314
 10
92.39039846865587
 20
-163.493551933953
 10
92.11461857506163
 20
-163.493551933953
 97
        0
 97
        0
 75
     2
 76
     1
 98
        0
  0
ENDBLK
  5
FB
330
F8
100
AcDbEntity
  8
0
100
AcDbBlockEnd
  0
BLOCK
  5
10F
330
10D
100
AcDbEntity
  8
0
100
AcDbBlockBegin
  2
block 6
 70
     0
 10
0.0
 20
0.0
 30
0.0
  3
block 6
  1

  0
SPLINE
  5
111
330
10D
100
AcDbEntity
  8
_U+30EC_U+30A4_U+30E4_U+30FC 1
370
     0
100
AcDbSpline
210
0.0
220
0.0
230
1.0
 70
    11
 71
     3
 72
    26
 73
    22
 74
     0
 42
0.0000000001
 43
0.0000000001
 12
1.0
 22
0.0
 32
0.0
 13
1.0
 23
0.0
 33
0.0
 40
0.0
 40
0.0
 40
0.0
 40
0.0
 40
1.0
 40
1.0
 40
1.0
 40
2.0
 40
2.0
 40
2.0
 40
3.0
 40
3.0
 40
3.0
 40
4.0
 40
4.0
 40
4.0
 40
5.0
 40
5.0
 40
5.0
 40
6.0
 40
6.0
 40
6.0
 40
7.0
 40
7.0
 40
7.0
 40
7.0
 10
81.12011309820956
 20
-153.3939100093946
 30
0.0
 10
81.12011309820956
 20
-153.3939100093946
 30
0.0
 10
80.01595999518699
 20
-153.3939100093946
 30
0.0
 10
80.01595999518699
 20
-153.3939100093946
 30
0.0
 10
80.01595999518699
 20
-153.3939100093946
 30
0.0
 10
80.01595999518699
 20
-153.7466877870842
 30
0.0
 10
80.01595999518699
 20
-153.7466877870842
 30
0.0
 10
80.01595999518699
 20
-153.7466877870842
 30
0.0
 10
79.86782088932124
 20
-153.7466877870842
 30
0.0
 10
79.86782088932124
 20
-153.7466877870842
 30
0.0
 10
79.85300697873467
 20
-153.3914984425549
 30
0.0
 10
79.69005396228235
 20
-153.3418890675673
 30
0.0
 10
79.57567679217206
 20
-153.310194189103
 30
0.0
 10
79.57567679217206
 20
-153.310194189103
 30
0.0
 10
79.57567679217206
 20
-153.1544758731697
 30
0.0
 10
79.57567679217206
 20
-153.1544758731697
 30
0.0
 10
79.57567679217206
 20
-153.1544758731697
 30
0.0
 10
81.12011309820956
 20
-153.1544758731697
 30
0.0
 10
81.12011309820956
 20
-153.1544758731697
 30
0.0
 10
81.12011309820956
 20
-153.1544758731697
 30
0.0
 10
81.12011309820956
 20
-153.3939100093946
 30
0.0
 10
81.12011309820956
 20
-153.3939100093946
 30
0.0
  0
HATCH
  5
112
330
10D
100
AcDbEntity
  8
_U+30EC_U+30A4_U+30E4_U+30FC 1
 62
   179
420
  2234388
100
AcDbHatch
 10
0.0
 20
0.0
 30
0.0
210
0.0
220
0.0
230
1.0
  2
SOLID
 70
     1
 71
     0
 91
        1
 92
        1
 93
        1
 72
     4
 94
        3
 73
     0
 74
     1
 95
       26
 96
       22
 40
0.0
 40
0.0
 40
0.0
 40
0.0
 40
1.0
 40
1.0
 40
1.0
 40
2.0
 40
2.0
 40
2.0
 40
3.0
 40
3.0
 40
3.0
 40
4.0
 40
4.0
 40
4.0
 40
5.0
 40
5.0
 40
5.0
 40
6.0
 40
6.0
 40
6.0
 40
7.0
 40
7.0
 40
7.0
 40
7.0
 10
81.12011309820956
 20
-153.3939100093946
 10
81.12011309820956
 20
-153.3939100093946
 10
80.01595999518699
 20
-153.3939100093946
 10
80.01595999518699
 20
-153.3939100093946
 10
80.01595999518699
 20
-153.3939100093946
 10
80.01595999518699
 20
-153.7466877870842
 10
80.01595999518699
 20
-153.7466877870842
 10
80.01595999518699
 20
-153.7466877870842
 10
79.86782088932124
 20
-153.7466877870842
 10
79.86782088932124
 20
-153.7466877870842
 10
79.85300697873467
 20
-153.3914984425549
 10
79.69005396228235
 20
-153.3418890675673
 10
79.57567679217206
 20
-153.310194189103
 10
79.57567679217206
 20
-153.310194189103
 10
79.57567679217206
 20
-153.1544758731697
 10
79.57567679217206
 20
-153.1544758731697
 10
79.57567679217206
 20
-153.1544758731697
 10
81.12011309820956
 20
-153.1544758731697
 10
81.12011309820956
 20
-153.1544758731697
 10
81.12011309820956
 20
-153.1544758731697
 10
81.12011309820956
 20
-153.3939100093946
 10
81.12011309820956
 20
-153.3939100093946
 97
        0
 97
        0
 75
     2
 76
     1
 98
        0
  0
SPLINE
  5
113
330
10D
100
AcDbEntity
  8
_U+30EC_U+30A4_U+30E4_U+30FC 1
370
     0
100
AcDbSpline
210
0.0
220
0.0
230
1.0
 70
    11
 71
     3
 72
    32
 73
    28
 74
     0
 42
0.0000000001
 43
0.0000000001
 12
1.0
 22
0.0
 32
0.0
 13
1.0
 23
0.0
 33
0.0
 40
0.0
 40
0.0
 40
0.0
 40
0.0
 40
1.0
 40
1.0
 40
1.0
 40
2.0
 40
2.0
 40
2.0
 40
3.0
 40
3.0
 40
3.0
 40
4.0
 40
4.0
 40
4.0
 40
5.0
 40
5.0
 40
5.0
 40
6.0
 40
6.0
 40
6.0
 40
7.0
 40
7.0
 40
7.0
 40
8.0
 40
8.0
 40
8.0
 40
9.0
 40
9.0
 40
9.0
 40
9.0
 10
81.17075600184273
 20
-152.1292154567594
 30
0.0
 10
81.17075600184273
 20
-152.3145615938658
 30
0.0
 10
81.10116507304069
 20
-152.5770778698418
 30
0.0
 10
80.7690578682626
 20
-152.6177299965678
 30
0.0
 10
80.7690578682626
 20
-152.6177299965678
 30
0.0
 10
80.7690578682626
 20
-152.3893201658957
 30
0.0
 10
80.7690578682626
 20
-152.3893201658957
 30
0.0
 10
80.8283135106089
 20
-152.3779513507944
 30
0.0
 10
80.97610810692612
 20
-152.344189415039
 30
0.0
 10
80.97610810692612
 20
-152.1271483994682
 30
0.0
 10
80.97610810692612
 20
-151.8150227485046
 30
0.0
 10
80.6464124689877
 20
-151.7743706217786
 30
0.0
 10
80.44108477806681
 20
-151.7605902398376
 30
0.0
 10
80.52135550287313
 20
-151.8580864420702
 30
0.0
 10
80.57854408792828
 20
-151.9304334472604
 30
0.0
 10
80.57854408792828
 20
-152.1247368326285
 30
0.0
 10
80.57854408792828
 20
-152.3169731607055
 30
0.0
 10
80.47277965653112
 20
-152.6404676267705
 30
0.0
 10
80.06660289882016
 20
-152.6404676267705
 30
0.0
 10
79.74724254733749
 20
-152.6404676267705
 30
0.0
 10
79.52710094583003
 20
-152.427560725782
 30
0.0
 10
79.52710094583003
 20
-152.0885633300334
 30
0.0
 10
79.52710094583003
 20
-151.5394151096846
 30
0.0
 10
80.08141680940673
 20
-151.5280462945833
 30
0.0
 10
80.29501272949223
 20
-151.5280462945833
 30
0.0
 10
80.52548961745543
 20
-151.5280462945833
 30
0.0
 10
81.17075600184273
 20
-151.5483723579462
 30
0.0
 10
81.17075600184273
 20
-152.1292154567594
 30
0.0
  0
SPLINE
  5
114
330
10D
100
AcDbEntity
  8
_U+30EC_U+30A4_U+30E4_U+30FC 1
370
     0
100
AcDbSpline
210
0.0
220
0.0
230
1.0
 70
    11
 71
     3
 72
    17
 73
    13
 74
     0
 42
0.0000000001
 43
0.0000000001
 12
1.0
 22
0.0
 32
0.0
 13
1.0
 23
0.0
 33
0.0
 40
0.0
 40
0.0
 40
0.0
 40
0.0
 40
1.0
 40
1.0
 40
1.0
 40
2.0
 40
2.0
 40
2.0
 40
3.0
 40
3.0
 40
3.0
 40
4.0
 40
4.0
 40
4.0
 40
4.0
 10
79.7196817834555
 20
-152.0864962727423
 30
0.0
 10
79.7196817834555
 20
-152.2129312770509
 30
0.0
 10
79.77687036851064
 20
-152.400688980997
 30
0.0
 10
80.06246878423786
 20
-152.400688980997
 30
0.0
 10
80.28881155761877
 20
-152.400688980997
 30
0.0
 10
80.38389619301167
 20
-152.2515163464857
 30
0.0
 10
80.38389619301167
 20
-152.1068223361052
 30
0.0
 10
80.38389619301167
 20
-151.8263915636059
 30
0.0
 10
80.17443438750848
 20
-151.78573943688
 30
0.0
 10
80.05799016010704
 20
-151.78573943688
 30
0.0
 10
79.88263479990782
 20
-151.78573943688
 30
0.0
 10
79.7196817834555
 20
-151.8873697536948
 30
0.0
 10
79.7196817834555
 20
-152.0864962727423
 30
0.0
  0
HATCH
  5
115
330
10D
100
AcDbEntity
  8
_U+30EC_U+30A4_U+30E4_U+30FC 1
 62
   179
420
  2234388
100
AcDbHatch
 10
0.0
 20
0.0
 30
0.0
210
0.0
220
0.0
230
1.0
  2
SOLID
 70
     1
 71
     0
 91
        2
 92
        1
 93
        1
 72
     4
 94
        3
 73
     0
 74
     1
 95
       32
 96
       28
 40
0.0
 40
0.0
 40
0.0
 40
0.0
 40
1.0
 40
1.0
 40
1.0
 40
2.0
 40
2.0
 40
2.0
 40
3.0
 40
3.0
 40
3.0
 40
4.0
 40
4.0
 40
4.0
 40
5.0
 40
5.0
 40
5.0
 40
6.0
 40
6.0
 40
6.0
 40
7.0
 40
7.0
 40
7.0
 40
8.0
 40
8.0
 40
8.0
 40
9.0
 40
9.0
 40
9.0
 40
9.0
 10
81.17075600184273
 20
-152.1292154567594
 10
81.17075600184273
 20
-152.3145615938658
 10
81.10116507304069
 20
-152.5770778698418
 10
80.7690578682626
 20
-152.6177299965678
 10
80.7690578682626
 20
-152.6177299965678
 10
80.7690578682626
 20
-152.3893201658957
 10
80.7690578682626
 20
-152.3893201658957
 10
80.8283135106089
 20
-152.3779513507944
 10
80.97610810692612
 20
-152.344189415039
 10
80.97610810692612
 20
-152.1271483994682
 10
80.97610810692612
 20
-151.8150227485046
 10
80.6464124689877
 20
-151.7743706217786
 10
80.44108477806681
 20
-151.7605902398376
 10
80.52135550287313
 20
-151.8580864420702
 10
80.57854408792828
 20
-151.9304334472604
 10
80.57854408792828
 20
-152.1247368326285
 10
80.57854408792828
 20
-152.3169731607055
 10
80.47277965653112
 20
-152.6404676267705
 10
80.06660289882016
 20
-152.6404676267705
 10
79.74724254733749
 20
-152.6404676267705
 10
79.52710094583003
 20
-152.427560725782
 10
79.52710094583003
 20
-152.0885633300334
 10
79.52710094583003
 20
-151.5394151096846
 10
80.08141680940673
 20
-151.5280462945833
 10
80.29501272949223
 20
-151.5280462945833
 10
80.52548961745543
 20
-151.5280462945833
 10
81.17075600184273
 20
-151.5483723579462
 10
81.17075600184273
 20
-152.1292154567594
 97
        0
 97
        0
 92
        1
 93
        1
 72
     4
 94
        3
 73
     0
 74
     1
 95
       17
 96
       13
 40
0.0
 40
0.0
 40
0.0
 40
0.0
 40
1.0
 40
1.0
 40
1.0
 40
2.0
 40
2.0
 40
2.0
 40
3.0
 40
3.0
 40
3.0
 40
4.0
 40
4.0
 40
4.0
 40
4.0
 10
79.7196817834555
 20
-152.0864962727423
 10
79.7196817834555
 20
-152.2129312770509
 10
79.77687036851064
 20
-152.400688980997
 10
80.06246878423786
 20
-152.400688980997
 10
80.28881155761877
 20
-152.400688980997
 10
80.38389619301167
 20
-152.2515163464857
 10
80.38389619301167
 20
-152.1068223361052
 10
80.38389619301167
 20
-151.8263915636059
 10
80.17443438750848
 20
-151.78573943688
 10
80.05799016010704
 20
-151.78573943688
 10
79.88263479990782
 20
-151.78573943688
 10
79.7196817834555
 20
-151.8873697536948
 10
79.7196817834555
 20
-152.0864962727423
 97
        0
 97
        0
 75
     2
 76
     1
 98
        0
  0
POLYLINE
  5
116
330
10D
100
AcDbEntity
  8
_U+30EC_U+30A4_U+30E4_U+30FC 1
370
     0
100
AcDb2dPolyline
 66
     1
 10
0.0
 20
0.0
 30
0.0
  0
VERTEX
  5
117
330
116
100
AcDbEntity
  8
_U+30EC_U+30A4_U+30E4_U+30FC 1
370
     0
100
AcDbVertex
100
AcDb2dVertex
 10
81.12011309820956
 20
-151.2965358779745
 30
0.0
  0
VERTEX
  5
118
330
116
100
AcDbEntity
  8
_U+30EC_U+30A4_U+30E4_U+30FC 1
370
     0
100
AcDbVertex
100
AcDb2dVertex
 10
80.8682766182378
 20
-151.2965358779745
 30
0.0
  0
VERTEX
  5
119
330
116
100
AcDbEntity
  8
_U+30EC_U+30A4_U+30E4_U+30FC 1
370
     0
100
AcDbVertex
100
AcDb2dVertex
 10
80.8682766182378
 20
-151.0274739205765
 30
0.0
  0
VERTEX
  5
11A
330
116
100
AcDbEntity
  8
_U+30EC_U+30A4_U+30E4_U+30FC 1
370
     0
100
AcDbVertex
100
AcDb2dVertex
 10
81.12011309820956
 20
-151.0274739205765
 30
0.0
  0
VERTEX
  5
11B
330
116
100
AcDbEntity
  8
_U+30EC_U+30A4_U+30E4_U+30FC 1
370
     0
100
AcDbVertex
100
AcDb2dVertex
 10
81.12011309820956
 20
-151.2965358779745
 30
0.0
  0
SEQEND
  5
11C
330
116
100
AcDbEntity
  8
_U+30EC_U+30A4_U+30E4_U+30FC 1
370
     0
  0
HATCH
  5
11D
330
10D
100
AcDbEntity
  8
_U+30EC_U+30A4_U+30E4_U+30FC 1
 62
   179
420
  2234388
100
AcDbHatch
 10
0.0
 20
0.0
 30
0.0
210
0.0
220
0.0
230
1.0
  2
SOLID
 70
     1
 71
     0
 91
        1
 92
        1
 93
        4
 72
     1
 10
81.12011309820956
 20
-151.2965358779745
 11
80.8682766182378
 21
-151.2965358779745
 72
     1
 10
80.8682766182378
 20
-151.2965358779745
 11
80.8682766182378
 21
-151.0274739205765
 72
     1
 10
80.8682766182378
 20
-151.0274739205765
 11
81.12011309820956
 21
-151.0274739205765
 72
     1
 10
81.12011309820956
 20
-151.0274739205765
 11
81.12011309820956
 21
-151.2965358779745
 97
        0
 75
     2
 76
     1
 98
        0
  0
SPLINE
  5
11E
330
10D
100
AcDbEntity
  8
_U+30EC_U+30A4_U+30E4_U+30FC 1
370
     0
100
AcDbSpline
210
0.0
220
0.0
230
1.0
 70
    11
 71
     3
 72
    53
 73
    49
 74
     0
 42
0.0000000001
 43
0.0000000001
 12
1.0
 22
0.0
 32
0.0
 13
1.0
 23
0.0
 33
0.0
 40
0.0
 40
0.0
 40
0.0
 40
0.0
 40
1.0
 40
1.0
 40
1.0
 40
2.0
 40
2.0
 40
2.0
 40
3.0
 40
3.0
 40
3.0
 40
4.0
 40
4.0
 40
4.0
 40
5.0
 40
5.0
 40
5.0
 40
6.0
 40
6.0
 40
6.0
 40
7.0
 40
7.0
 40
7.0
 40
8.0
 40
8.0
 40
8.0
 40
9.0
 40
9.0
 40
9.0
 40
10.0
 40
10.0
 40
10.0
 40
11.0
 40
11.0
 40
11.0
 40
12.0
 40
12.0
 40
12.0
 40
13.0
 40
13.0
 40
13.0
 40
14.0
 40
14.0
 40
14.0
 40
15.0
 40
15.0
 40
15.0
 40
16.0
 40
16.0
 40
16.0
 40
16.0
 10
81.17075600184273
 20
-150.2605956655599
 30
0.0
 10
81.17075600184273
 20
-150.3446559954
 30
0.0
 10
81.15387503396501
 20
-150.4528319936368
 30
0.0
 10
81.09048527703641
 20
-150.5616970109707
 30
0.0
 10
80.98058673105695
 20
-150.7470431480771
 30
0.0
 10
80.84932859306892
 20
-150.7694362687313
 30
0.0
 10
80.7414971043806
 20
-150.7897623320942
 30
0.0
 10
80.7414971043806
 20
-150.7897623320942
 30
0.0
 10
80.7414971043806
 20
-150.5523952531605
 30
0.0
 10
80.7414971043806
 20
-150.5523952531605
 30
0.0
 10
80.94027911387951
 20
-150.4934841203628
 30
0.0
 10
80.96990693505266
 20
-150.3580918677924
 30
0.0
 10
80.96990693505266
 20
-150.2585286082687
 30
0.0
 10
80.96990693505266
 20
-150.1093559737574
 30
0.0
 10
80.87034367552894
 20
-149.9464029573051
 30
0.0
 10
80.63779973027458
 20
-149.9464029573051
 30
0.0
 10
80.38182913572052
 20
-149.9464029573051
 30
0.0
 10
80.31189369736995
 20
-150.138639285382
 30
0.0
 10
80.31189369736995
 20
-150.2674858565304
 30
0.0
 10
80.31189369736995
 20
-150.3015923018343
 30
0.0
 10
80.31189369736995
 20
-150.4528319936368
 30
0.0
 10
80.44108477806681
 20
-150.5479166290297
 30
0.0
 10
80.44108477806681
 20
-150.5479166290297
 30
0.0
 10
80.42213675289794
 20
-150.7356743329758
 30
0.0
 10
80.42213675289794
 20
-150.7356743329758
 30
0.0
 10
80.42213675289794
 20
-150.7356743329758
 30
0.0
 10
79.57567679217206
 20
-150.6068277618275
 30
0.0
 10
79.57567679217206
 20
-150.6068277618275
 30
0.0
 10
79.57567679217206
 20
-150.6068277618275
 30
0.0
 10
79.57567679217206
 20
-149.7748372021396
 30
0.0
 10
79.57567679217206
 20
-149.7748372021396
 30
0.0
 10
79.57567679217206
 20
-149.7748372021396
 30
0.0
 10
79.77032468708867
 20
-149.7748372021396
 30
0.0
 10
79.77032468708867
 20
-149.7748372021396
 30
0.0
 10
79.77032468708867
 20
-149.7748372021396
 30
0.0
 10
79.77032468708867
 20
-150.4328504398223
 30
0.0
 10
79.77032468708867
 20
-150.4328504398223
 30
0.0
 10
79.77032468708867
 20
-150.4328504398223
 30
0.0
 10
80.19338241267735
 20
-150.5027858781729
 30
0.0
 10
80.19338241267735
 20
-150.5027858781729
 30
0.0
 10
80.1596204769219
 20
-150.4369845544047
 30
0.0
 10
80.11931285974448
 20
-150.3487901099822
 30
0.0
 10
80.11931285974448
 20
-150.2223551056736
 30
0.0
 10
80.11931285974448
 20
-149.9512260909844
 30
0.0
 10
80.3056925254965
 20
-149.69766706327
 30
0.0
 10
80.61885170510571
 20
-149.69766706327
 30
0.0
 10
80.93614499929721
 20
-149.69766706327
 30
0.0
 10
81.17075600184273
 20
-149.9374457090434
 30
0.0
 10
81.17075600184273
 20
-150.2605956655599
 30
0.0
  0
HATCH
  5
11F
330
10D
100
AcDbEntity
  8
_U+30EC_U+30A4_U+30E4_U+30FC 1
 62
   179
420
  2234388
100
AcDbHatch
 10
0.0
 20
0.0
 30
0.0
210
0.0
220
0.0
230
1.0
  2
SOLID
 70
     1
 71
     0
 91
        1
 92
        1
 93
        1
 72
     4
 94
        3
 73
     0
 74
     1
 95
       53
 96
       49
 40
0.0
 40
0.0
 40
0.0
 40
0.0
 40
1.0
 40
1.0
 40
1.0
 40
2.0
 40
2.0
 40
2.0
 40
3.0
 40
3.0
 40
3.0
 40
4.0
 40
4.0
 40
4.0
 40
5.0
 40
5.0
 40
5.0
 40
6.0
 40
6.0
 40
6.0
 40
7.0
 40
7.0
 40
7.0
 40
8.0
 40
8.0
 40
8.0
 40
9.0
 40
9.0
 40
9.0
 40
10.0
 40
10.0
 40
10.0
 40
11.0
 40
11.0
 40
11.0
 40
12.0
 40
12.0
 40
12.0
 40
13.0
 40
13.0
 40
13.0
 40
14.0
 40
14.0
 40
14.0
 40
15.0
 40
15.0
 40
15.0
 40
16.0
 40
16.0
 40
16.0
 40
16.0
 10
81.17075600184273
 20
-150.2605956655599
 10
81.17075600184273
 20
-150.3446559954
 10
81.15387503396501
 20
-150.4528319936368
 10
81.09048527703641
 20
-150.5616970109707
 10
80.98058673105695
 20
-150.7470431480771
 10
80.84932859306892
 20
-150.7694362687313
 10
80.7414971043806
 20
-150.7897623320942
 10
80.7414971043806
 20
-150.7897623320942
 10
80.7414971043806
 20
-150.5523952531605
 10
80.7414971043806
 20
-150.5523952531605
 10
80.94027911387951
 20
-150.4934841203628
 10
80.96990693505266
 20
-150.3580918677924
 10
80.96990693505266
 20
-150.2585286082687
 10
80.96990693505266
 20
-150.1093559737574
 10
80.87034367552894
 20
-149.9464029573051
 10
80.63779973027458
 20
-149.9464029573051
 10
80.38182913572052
 20
-149.9464029573051
 10
80.31189369736995
 20
-150.138639285382
 10
80.31189369736995
 20
-150.2674858565304
 10
80.31189369736995
 20
-150.3015923018343
 10
80.31189369736995
 20
-150.4528319936368
 10
80.44108477806681
 20
-150.5479166290297
 10
80.44108477806681
 20
-150.5479166290297
 10
80.42213675289794
 20
-150.7356743329758
 10
80.42213675289794
 20
-150.7356743329758
 10
80.42213675289794
 20
-150.7356743329758
 10
79.57567679217206
 20
-150.6068277618275
 10
79.57567679217206
 20
-150.6068277618275
 10
79.57567679217206
 20
-150.6068277618275
 10
79.57567679217206
 20
-149.7748372021396
 10
79.57567679217206
 20
-149.7748372021396
 10
79.57567679217206
 20
-149.7748372021396
 10
79.77032468708867
 20
-149.7748372021396
 10
79.77032468708867
 20
-149.7748372021396
 10
79.77032468708867
 20
-149.7748372021396
 10
79.77032468708867
 20
-150.4328504398223
 10
79.77032468708867
 20
-150.4328504398223
 10
79.77032468708867
 20
-150.4328504398223
 10
80.19338241267735
 20
-150.5027858781729
 10
80.19338241267735
 20
-150.5027858781729
 10
80.1596204769219
 20
-150.4369845544047
 10
80.11931285974448
 20
-150.3487901099822
 10
80.11931285974448
 20
-150.2223551056736
 10
80.11931285974448
 20
-149.9512260909844
 10
80.3056925254965
 20
-149.69766706327
 10
80.61885170510571
 20
-149.69766706327
 10
80.93614499929721
 20
-149.69766706327
 10
81.17075600184273
 20
-149.9374457090434
 10
81.17075600184273
 20
-150.2605956655599
 97
        0
 97
        0
 75
     2
 76
     1
 98
        0
  0
ENDBLK
  5
110
330
10D
100
AcDbEntity
  8
0
100
AcDbBlockEnd
  0
BLOCK
  5
12A
330
128
100
AcDbEntity
  8
0
100
AcDbBlockBegin
  2
block 7
 70
     0
 10
0.0
 20
0.0
 30
0.0
  3
block 7
  1

  0
SPLINE
  5
12C
330
128
100
AcDbEntity
  8
_U+30EC_U+30A4_U+30E4_U+30FC 1
370
     0
100
AcDbSpline
210
0.0
220
0.0
230
1.0
 70
    11
 71
     3
 72
    29
 73
    25
 74
     0
 42
0.0000000001
 43
0.0000000001
 12
1.0
 22
0.0
 32
0.0
 13
1.0
 23
0.0
 33
0.0
 40
0.0
 40
0.0
 40
0.0
 40
0.0
 40
1.0
 40
1.0
 40
1.0
 40
2.0
 40
2.0
 40
2.0
 40
3.0
 40
3.0
 40
3.0
 40
4.0
 40
4.0
 40
4.0
 40
5.0
 40
5.0
 40
5.0
 40
6.0
 40
6.0
 40
6.0
 40
7.0
 40
7.0
 40
7.0
 40
8.0
 40
8.0
 40
8.0
 40
8.0
 10
129.8904350803746
 20
-155.2139539542521
 30
0.0
 10
129.8904350803746
 20
-155.4985188413337
 30
0.0
 10
129.7529757705132
 20
-155.7699923655714
 30
0.0
 10
129.4039875978573
 20
-155.7699923655714
 30
0.0
 10
129.1480170033033
 20
-155.7699923655714
 30
0.0
 10
129.0529323679104
 20
-155.6184081642204
 30
0.0
 10
128.9916096682729
 20
-155.5054090323042
 30
0.0
 10
128.9323540259266
 20
-155.6387342275834
 30
0.0
 10
128.8179768558163
 20
-155.7203829905838
 30
0.0
 10
128.6570908966552
 20
-155.7203829905838
 30
0.0
 10
128.3821722769322
 20
-155.7203829905838
 30
0.0
 10
128.2467800243619
 20
-155.5078205991439
 30
0.0
 10
128.2467800243619
 20
-155.2139539542521
 30
0.0
 10
128.2467800243619
 20
-154.9107855515501
 30
0.0
 10
128.3907850156454
 20
-154.7075249179204
 30
0.0
 10
128.6570908966552
 20
-154.7075249179204
 30
0.0
 10
128.8179768558163
 20
-154.7075249179204
 30
0.0
 10
128.9323540259266
 20
-154.7908962286634
 30
0.0
 10
128.9916096682729
 20
-154.9245659334911
 30
0.0
 10
129.0422525719061
 20
-154.8294812980982
 30
0.0
 10
129.137337207299
 20
-154.6599826002239
 30
0.0
 10
129.3998534832751
 20
-154.6599826002239
 30
0.0
 10
129.7743353625217
 20
-154.6599826002239
 30
0.0
 10
129.8904350803746
 20
-154.9583278692465
 30
0.0
 10
129.8904350803746
 20
-155.2139539542521
 30
0.0
  0
SPLINE
  5
12D
330
128
100
AcDbEntity
  8
_U+30EC_U+30A4_U+30E4_U+30FC 1
370
     0
100
AcDbSpline
210
0.0
220
0.0
230
1.0
 70
    11
 71
     3
 72
    17
 73
    13
 74
     0
 42
0.0000000001
 43
0.0000000001
 12
1.0
 22
0.0
 32
0.0
 13
1.0
 23
0.0
 33
0.0
 40
0.0
 40
0.0
 40
0.0
 40
0.0
 40
1.0
 40
1.0
 40
1.0
 40
2.0
 40
2.0
 40
2.0
 40
3.0
 40
3.0
 40
3.0
 40
4.0
 40
4.0
 40
4.0
 40
4.0
 10
128.4393608619874
 20
-155.2139539542521
 30
0.0
 10
128.4393608619874
 20
-155.3903428430969
 30
0.0
 10
128.5344454973803
 20
-155.4806043448104
 30
0.0
 10
128.6698377499506
 20
-155.4806043448104
 30
0.0
 10
128.7924831492255
 20
-155.4806043448104
 30
0.0
 10
128.9109944339181
 20
-155.4037787154894
 30
0.0
 10
128.9109944339181
 20
-155.2139539542521
 30
0.0
 10
128.9109944339181
 20
-155.0237846834663
 30
0.0
 10
128.7924831492255
 20
-154.9469590541452
 30
0.0
 10
128.6698377499506
 20
-154.9469590541452
 30
0.0
 10
128.5344454973803
 20
-154.9469590541452
 30
0.0
 10
128.4393608619874
 20
-155.0396321226984
 30
0.0
 10
128.4393608619874
 20
-155.2139539542521
 30
0.0
  0
SPLINE
  5
12E
330
128
100
AcDbEntity
  8
_U+30EC_U+30A4_U+30E4_U+30FC 1
370
     0
100
AcDbSpline
210
0.0
220
0.0
230
1.0
 70
    11
 71
     3
 72
    17
 73
    13
 74
     0
 42
0.0000000001
 43
0.0000000001
 12
1.0
 22
0.0
 32
0.0
 13
1.0
 23
0.0
 33
0.0
 40
0.0
 40
0.0
 40
0.0
 40
0.0
 40
1.0
 40
1.0
 40
1.0
 40
2.0
 40
2.0
 40
2.0
 40
3.0
 40
3.0
 40
3.0
 40
4.0
 40
4.0
 40
4.0
 40
4.0
 10
129.0994411569613
 20
-155.2139539542521
 30
0.0
 10
129.0994411569613
 20
-155.3676052128942
 30
0.0
 10
129.1862575631895
 20
-155.530213719798
 30
0.0
 10
129.3891736872708
 20
-155.530213719798
 30
0.0
 10
129.5945013781917
 20
-155.530213719798
 30
0.0
 10
129.695787185458
 20
-155.3948214672277
 30
0.0
 10
129.695787185458
 20
-155.2139539542521
 30
0.0
 10
129.695787185458
 20
-155.0148274352046
 30
0.0
 10
129.5731417861831
 20
-154.8973496791576
 30
0.0
 10
129.3953748591442
 20
-154.8973496791576
 30
0.0
 10
129.1735107098941
 20
-154.8973496791576
 30
0.0
 10
129.0994411569613
 20
-155.0713270011627
 30
0.0
 10
129.0994411569613
 20
-155.2139539542521
 30
0.0
  0
HATCH
  5
12F
330
128
100
AcDbEntity
  8
_U+30EC_U+30A4_U+30E4_U+30FC 1
 62
   179
420
  2234388
100
AcDbHatch
 10
0.0
 20
0.0
 30
0.0
210
0.0
220
0.0
230
1.0
  2
SOLID
 70
     1
 71
     0
 91
        3
 92
        1
 93
        1
 72
     4
 94
        3
 73
     0
 74
     1
 95
       29
 96
       25
 40
0.0
 40
0.0
 40
0.0
 40
0.0
 40
1.0
 40
1.0
 40
1.0
 40
2.0
 40
2.0
 40
2.0
 40
3.0
 40
3.0
 40
3.0
 40
4.0
 40
4.0
 40
4.0
 40
5.0
 40
5.0
 40
5.0
 40
6.0
 40
6.0
 40
6.0
 40
7.0
 40
7.0
 40
7.0
 40
8.0
 40
8.0
 40
8.0
 40
8.0
 10
129.8904350803746
 20
-155.2139539542521
 10
129.8904350803746
 20
-155.4985188413337
 10
129.7529757705132
 20
-155.7699923655714
 10
129.4039875978573
 20
-155.7699923655714
 10
129.1480170033033
 20
-155.7699923655714
 10
129.0529323679104
 20
-155.6184081642204
 10
128.9916096682729
 20
-155.5054090323042
 10
128.9323540259266
 20
-155.6387342275834
 10
128.8179768558163
 20
-155.7203829905838
 10
128.6570908966552
 20
-155.7203829905838
 10
128.3821722769322
 20
-155.7203829905838
 10
128.2467800243619
 20
-155.5078205991439
 10
128.2467800243619
 20
-155.2139539542521
 10
128.2467800243619
 20
-154.9107855515501
 10
128.3907850156454
 20
-154.7075249179204
 10
128.6570908966552
 20
-154.7075249179204
 10
128.8179768558163
 20
-154.7075249179204
 10
128.9323540259266
 20
-154.7908962286634
 10
128.9916096682729
 20
-154.9245659334911
 10
129.0422525719061
 20
-154.8294812980982
 10
129.137337207299
 20
-154.6599826002239
 10
129.3998534832751
 20
-154.6599826002239
 10
129.7743353625217
 20
-154.6599826002239
 10
129.8904350803746
 20
-154.9583278692465
 10
129.8904350803746
 20
-155.2139539542521
 97
        0
 97
        0
 92
        1
 93
        1
 72
     4
 94
        3
 73
     0
 74
     1
 95
       17
 96
       13
 40
0.0
 40
0.0
 40
0.0
 40
0.0
 40
1.0
 40
1.0
 40
1.0
 40
2.0
 40
2.0
 40
2.0
 40
3.0
 40
3.0
 40
3.0
 40
4.0
 40
4.0
 40
4.0
 40
4.0
 10
128.4393608619874
 20
-155.2139539542521
 10
128.4393608619874
 20
-155.3903428430969
 10
128.5344454973803
 20
-155.4806043448104
 10
128.6698377499506
 20
-155.4806043448104
 10
128.7924831492255
 20
-155.4806043448104
 10
128.9109944339181
 20
-155.4037787154894
 10
128.9109944339181
 20
-155.2139539542521
 10
128.9109944339181
 20
-155.0237846834663
 10
128.7924831492255
 20
-154.9469590541452
 10
128.6698377499506
 20
-154.9469590541452
 10
128.5344454973803
 20
-154.9469590541452
 10
128.4393608619874
 20
-155.0396321226984
 10
128.4393608619874
 20
-155.2139539542521
 97
        0
 97
        0
 92
        1
 93
        1
 72
     4
 94
        3
 73
     0
 74
     1
 95
       17
 96
       13
 40
0.0
 40
0.0
 40
0.0
 40
0.0
 40
1.0
 40
1.0
 40
1.0
 40
2.0
 40
2.0
 40
2.0
 40
3.0
 40
3.0
 40
3.0
 40
4.0
 40
4.0
 40
4.0
 40
4.0
 10
129.0994411569613
 20
-155.2139539542521
 10
129.0994411569613
 20
-155.3676052128942
 10
129.1862575631895
 20
-155.530213719798
 10
129.3891736872708
 20
-155.530213719798
 10
129.5945013781917
 20
-155.530213719798
 10
129.695787185458
 20
-155.3948214672277
 10
129.695787185458
 20
-155.2139539542521
 10
129.695787185458
 20
-155.0148274352046
 10
129.5731417861831
 20
-154.8973496791576
 10
129.3953748591442
 20
-154.8973496791576
 10
129.1735107098941
 20
-154.8973496791576
 10
129.0994411569613
 20
-155.0713270011627
 10
129.0994411569613
 20
-155.2139539542521
 97
        0
 97
        0
 75
     2
 76
     1
 98
        0
  0
POLYLINE
  5
130
330
128
100
AcDbEntity
  8
_U+30EC_U+30A4_U+30E4_U+30FC 1
370
     0
100
AcDb2dPolyline
 66
     1
 10
0.0
 20
0.0
 30
0.0
  0
VERTEX
  5
131
330
130
100
AcDbEntity
  8
_U+30EC_U+30A4_U+30E4_U+30FC 1
370
     0
100
AcDbVertex
100
AcDb2dVertex
 10
129.8397921767414
 20
-154.426405126324
 30
0.0
  0
VERTEX
  5
132
330
130
100
AcDbEntity
  8
_U+30EC_U+30A4_U+30E4_U+30FC 1
370
     0
100
AcDbVertex
100
AcDb2dVertex
 10
129.5879556967697
 20
-154.426405126324
 30
0.0
  0
VERTEX
  5
133
330
130
100
AcDbEntity
  8
_U+30EC_U+30A4_U+30E4_U+30FC 1
370
     0
100
AcDbVertex
100
AcDb2dVertex
 10
129.5879556967697
 20
-154.157343168926
 30
0.0
  0
VERTEX
  5
134
330
130
100
AcDbEntity
  8
_U+30EC_U+30A4_U+30E4_U+30FC 1
370
     0
100
AcDbVertex
100
AcDb2dVertex
 10
129.8397921767414
 20
-154.157343168926
 30
0.0
  0
VERTEX
  5
135
330
130
100
AcDbEntity
  8
_U+30EC_U+30A4_U+30E4_U+30FC 1
370
     0
100
AcDbVertex
100
AcDb2dVertex
 10
129.8397921767414
 20
-154.426405126324
 30
0.0
  0
SEQEND
  5
136
330
130
100
AcDbEntity
  8
_U+30EC_U+30A4_U+30E4_U+30FC 1
370
     0
  0
HATCH
  5
137
330
128
100
AcDbEntity
  8
_U+30EC_U+30A4_U+30E4_U+30FC 1
 62
   179
420
  2234388
100
AcDbHatch
 10
0.0
 20
0.0
 30
0.0
210
0.0
220
0.0
230
1.0
  2
SOLID
 70
     1
 71
     0
 91
        1
 92
        1
 93
        4
 72
     1
 10
129.8397921767414
 20
-154.426405126324
 11
129.5879556967697
 21
-154.426405126324
 72
     1
 10
129.5879556967697
 20
-154.426405126324
 11
129.5879556967697
 21
-154.157343168926
 72
     1
 10
129.5879556967697
 20
-154.157343168926
 11
129.8397921767414
 21
-154.157343168926
 72
     1
 10
129.8397921767414
 20
-154.157343168926
 11
129.8397921767414
 21
-154.426405126324
 97
        0
 75
     2
 76
     1
 98
        0
  0
SPLINE
  5
138
330
128
100
AcDbEntity
  8
_U+30EC_U+30A4_U+30E4_U+30FC 1
370
     0
100
AcDbSpline
210
0.0
220
0.0
230
1.0
 70
    11
 71
     3
 72
    53
 73
    49
 74
     0
 42
0.0000000001
 43
0.0000000001
 12
1.0
 22
0.0
 32
0.0
 13
1.0
 23
0.0
 33
0.0
 40
0.0
 40
0.0
 40
0.0
 40
0.0
 40
1.0
 40
1.0
 40
1.0
 40
2.0
 40
2.0
 40
2.0
 40
3.0
 40
3.0
 40
3.0
 40
4.0
 40
4.0
 40
4.0
 40
5.0
 40
5.0
 40
5.0
 40
6.0
 40
6.0
 40
6.0
 40
7.0
 40
7.0
 40
7.0
 40
8.0
 40
8.0
 40
8.0
 40
9.0
 40
9.0
 40
9.0
 40
10.0
 40
10.0
 40
10.0
 40
11.0
 40
11.0
 40
11.0
 40
12.0
 40
12.0
 40
12.0
 40
13.0
 40
13.0
 40
13.0
 40
14.0
 40
14.0
 40
14.0
 40
15.0
 40
15.0
 40
15.0
 40
16.0
 40
16.0
 40
16.0
 40
16.0
 10
129.8904350803746
 20
-153.3904649139093
 30
0.0
 10
129.8904350803746
 20
-153.4741807342009
 30
0.0
 10
129.8735541124969
 20
-153.5823567324377
 30
0.0
 10
129.8101643555683
 20
-153.6912217497716
 30
0.0
 10
129.7002658095888
 20
-153.8765678868781
 30
0.0
 10
129.5690076716008
 20
-153.8989610075322
 30
0.0
 10
129.4611761829125
 20
-153.9192870708952
 30
0.0
 10
129.4611761829125
 20
-153.9192870708952
 30
0.0
 10
129.4611761829125
 20
-153.6819199919615
 30
0.0
 10
129.4611761829125
 20
-153.6819199919615
 30
0.0
 10
129.6599581924114
 20
-153.6233533687122
 30
0.0
 10
129.6895860135845
 20
-153.4876166065934
 30
0.0
 10
129.6895860135845
 20
-153.3880533470697
 30
0.0
 10
129.6895860135845
 20
-153.2388807125583
 30
0.0
 10
129.5900227540608
 20
-153.075927696106
 30
0.0
 10
129.3574788088065
 20
-153.075927696106
 30
0.0
 10
129.1015082142524
 20
-153.075927696106
 30
0.0
 10
129.0315727759018
 20
-153.268164024183
 30
0.0
 10
129.0315727759018
 20
-153.3970105953313
 30
0.0
 10
129.0315727759018
 20
-153.4311170406353
 30
0.0
 10
129.0315727759018
 20
-153.5823567324377
 30
0.0
 10
129.1607638565987
 20
-153.6774413678307
 30
0.0
 10
129.1607638565987
 20
-153.6774413678307
 30
0.0
 10
129.1418158314298
 20
-153.8651990717768
 30
0.0
 10
129.1418158314298
 20
-153.8651990717768
 30
0.0
 10
129.1418158314298
 20
-153.8651990717768
 30
0.0
 10
128.295355870704
 20
-153.7363525006284
 30
0.0
 10
128.295355870704
 20
-153.7363525006284
 30
0.0
 10
128.295355870704
 20
-153.7363525006284
 30
0.0
 10
128.295355870704
 20
-152.9043619409406
 30
0.0
 10
128.295355870704
 20
-152.9043619409406
 30
0.0
 10
128.295355870704
 20
-152.9043619409406
 30
0.0
 10
128.4900037656206
 20
-152.9043619409406
 30
0.0
 10
128.4900037656206
 20
-152.9043619409406
 30
0.0
 10
128.4900037656206
 20
-152.9043619409406
 30
0.0
 10
128.4900037656206
 20
-153.5620306690748
 30
0.0
 10
128.4900037656206
 20
-153.5620306690748
 30
0.0
 10
128.4900037656206
 20
-153.5620306690748
 30
0.0
 10
128.9130614912092
 20
-153.6323106169739
 30
0.0
 10
128.9130614912092
 20
-153.6323106169739
 30
0.0
 10
128.8792995554538
 20
-153.5668538027541
 30
0.0
 10
128.8389919382764
 20
-153.4786593583317
 30
0.0
 10
128.8389919382764
 20
-153.3518798444745
 30
0.0
 10
128.8389919382764
 20
-153.0807508297854
 30
0.0
 10
129.0253716040284
 20
-152.8275363116195
 30
0.0
 10
129.3385307836376
 20
-152.8275363116195
 30
0.0
 10
129.6558240778291
 20
-152.8275363116195
 30
0.0
 10
129.8904350803746
 20
-153.0669704478444
 30
0.0
 10
129.8904350803746
 20
-153.3904649139093
 30
0.0
  0
HATCH
  5
139
330
128
100
AcDbEntity
  8
_U+30EC_U+30A4_U+30E4_U+30FC 1
 62
   179
420
  2234388
100
AcDbHatch
 10
0.0
 20
0.0
 30
0.0
210
0.0
220
0.0
230
1.0
  2
SOLID
 70
     1
 71
     0
 91
        1
 92
        1
 93
        1
 72
     4
 94
        3
 73
     0
 74
     1
 95
       53
 96
       49
 40
0.0
 40
0.0
 40
0.0
 40
0.0
 40
1.0
 40
1.0
 40
1.0
 40
2.0
 40
2.0
 40
2.0
 40
3.0
 40
3.0
 40
3.0
 40
4.0
 40
4.0
 40
4.0
 40
5.0
 40
5.0
 40
5.0
 40
6.0
 40
6.0
 40
6.0
 40
7.0
 40
7.0
 40
7.0
 40
8.0
 40
8.0
 40
8.0
 40
9.0
 40
9.0
 40
9.0
 40
10.0
 40
10.0
 40
10.0
 40
11.0
 40
11.0
 40
11.0
 40
12.0
 40
12.0
 40
12.0
 40
13.0
 40
13.0
 40
13.0
 40
14.0
 40
14.0
 40
14.0
 40
15.0
 40
15.0
 40
15.0
 40
16.0
 40
16.0
 40
16.0
 40
16.0
 10
129.8904350803746
 20
-153.3904649139093
 10
129.8904350803746
 20
-153.4741807342009
 10
129.8735541124969
 20
-153.5823567324377
 10
129.8101643555683
 20
-153.6912217497716
 10
129.7002658095888
 20
-153.8765678868781
 10
129.5690076716008
 20
-153.8989610075322
 10
129.4611761829125
 20
-153.9192870708952
 10
129.4611761829125
 20
-153.9192870708952
 10
129.4611761829125
 20
-153.6819199919615
 10
129.4611761829125
 20
-153.6819199919615
 10
129.6599581924114
 20
-153.6233533687122
 10
129.6895860135845
 20
-153.4876166065934
 10
129.6895860135845
 20
-153.3880533470697
 10
129.6895860135845
 20
-153.2388807125583
 10
129.5900227540608
 20
-153.075927696106
 10
129.3574788088065
 20
-153.075927696106
 10
129.1015082142524
 20
-153.075927696106
 10
129.0315727759018
 20
-153.268164024183
 10
129.0315727759018
 20
-153.3970105953313
 10
129.0315727759018
 20
-153.4311170406353
 10
129.0315727759018
 20
-153.5823567324377
 10
129.1607638565987
 20
-153.6774413678307
 10
129.1607638565987
 20
-153.6774413678307
 10
129.1418158314298
 20
-153.8651990717768
 10
129.1418158314298
 20
-153.8651990717768
 10
129.1418158314298
 20
-153.8651990717768
 10
128.295355870704
 20
-153.7363525006284
 10
128.295355870704
 20
-153.7363525006284
 10
128.295355870704
 20
-153.7363525006284
 10
128.295355870704
 20
-152.9043619409406
 10
128.295355870704
 20
-152.9043619409406
 10
128.295355870704
 20
-152.9043619409406
 10
128.4900037656206
 20
-152.9043619409406
 10
128.4900037656206
 20
-152.9043619409406
 10
128.4900037656206
 20
-152.9043619409406
 10
128.4900037656206
 20
-153.5620306690748
 10
128.4900037656206
 20
-153.5620306690748
 10
128.4900037656206
 20
-153.5620306690748
 10
128.9130614912092
 20
-153.6323106169739
 10
128.9130614912092
 20
-153.6323106169739
 10
128.8792995554538
 20
-153.5668538027541
 10
128.8389919382764
 20
-153.4786593583317
 10
128.8389919382764
 20
-153.3518798444745
 10
128.8389919382764
 20
-153.0807508297854
 10
129.0253716040284
 20
-152.8275363116195
 10
129.3385307836376
 20
-152.8275363116195
 10
129.6558240778291
 20
-152.8275363116195
 10
129.8904350803746
 20
-153.0669704478444
 10
129.8904350803746
 20
-153.3904649139093
 97
        0
 97
        0
 75
     2
 76
     1
 98
        0
  0
ENDBLK
  5
12B
330
128
100
AcDbEntity
  8
0
100
AcDbBlockEnd
  0
BLOCK
  5
145
330
143
100
AcDbEntity
  8
0
100
AcDbBlockBegin
  2
block 8
 70
     0
 10
0.0
 20
0.0
 30
0.0
  3
block 8
  1

  0
SPLINE
  5
147
330
143
100
AcDbEntity
  8
_U+30EC_U+30A4_U+30E4_U+30FC 1
370
     0
100
AcDbSpline
210
0.0
220
0.0
230
1.0
 70
    11
 71
     3
 72
    26
 73
    22
 74
     0
 42
0.0000000001
 43
0.0000000001
 12
1.0
 22
0.0
 32
0.0
 13
1.0
 23
0.0
 33
0.0
 40
0.0
 40
0.0
 40
0.0
 40
0.0
 40
1.0
 40
1.0
 40
1.0
 40
2.0
 40
2.0
 40
2.0
 40
3.0
 40
3.0
 40
3.0
 40
4.0
 40
4.0
 40
4.0
 40
5.0
 40
5.0
 40
5.0
 40
6.0
 40
6.0
 40
6.0
 40
7.0
 40
7.0
 40
7.0
 40
7.0
 10
129.7781249675555
 20
-148.1539197763296
 30
0.0
 10
129.7781249675555
 20
-148.1539197763296
 30
0.0
 10
128.6739718645329
 20
-148.1539197763296
 30
0.0
 10
128.6739718645329
 20
-148.1539197763296
 30
0.0
 10
128.6739718645329
 20
-148.1539197763296
 30
0.0
 10
128.6739718645329
 20
-148.5063530444706
 30
0.0
 10
128.6739718645329
 20
-148.5063530444706
 30
0.0
 10
128.6739718645329
 20
-148.5063530444706
 30
0.0
 10
128.5258327586671
 20
-148.5063530444706
 30
0.0
 10
128.5258327586671
 20
-148.5063530444706
 30
0.0
 10
128.5110188480806
 20
-148.1515082094899
 30
0.0
 10
128.3480658316283
 20
-148.1018988345023
 30
0.0
 10
128.233688661518
 20
-148.070203956038
 30
0.0
 10
128.233688661518
 20
-148.070203956038
 30
0.0
 10
128.233688661518
 20
-147.9141411305562
 30
0.0
 10
128.233688661518
 20
-147.9141411305562
 30
0.0
 10
128.233688661518
 20
-147.9141411305562
 30
0.0
 10
129.7781249675555
 20
-147.9141411305562
 30
0.0
 10
129.7781249675555
 20
-147.9141411305562
 30
0.0
 10
129.7781249675555
 20
-147.9141411305562
 30
0.0
 10
129.7781249675555
 20
-148.1539197763296
 30
0.0
 10
129.7781249675555
 20
-148.1539197763296
 30
0.0
  0
HATCH
  5
148
330
143
100
AcDbEntity
  8
_U+30EC_U+30A4_U+30E4_U+30FC 1
 62
   179
420
  2234388
100
AcDbHatch
 10
0.0
 20
0.0
 30
0.0
210
0.0
220
0.0
230
1.0
  2
SOLID
 70
     1
 71
     0
 91
        1
 92
        1
 93
        1
 72
     4
 94
        3
 73
     0
 74
     1
 95
       26
 96
       22
 40
0.0
 40
0.0
 40
0.0
 40
0.0
 40
1.0
 40
1.0
 40
1.0
 40
2.0
 40
2.0
 40
2.0
 40
3.0
 40
3.0
 40
3.0
 40
4.0
 40
4.0
 40
4.0
 40
5.0
 40
5.0
 40
5.0
 40
6.0
 40
6.0
 40
6.0
 40
7.0
 40
7.0
 40
7.0
 40
7.0
 10
129.7781249675555
 20
-148.1539197763296
 10
129.7781249675555
 20
-148.1539197763296
 10
128.6739718645329
 20
-148.1539197763296
 10
128.6739718645329
 20
-148.1539197763296
 10
128.6739718645329
 20
-148.1539197763296
 10
128.6739718645329
 20
-148.5063530444706
 10
128.6739718645329
 20
-148.5063530444706
 10
128.6739718645329
 20
-148.5063530444706
 10
128.5258327586671
 20
-148.5063530444706
 10
128.5258327586671
 20
-148.5063530444706
 10
128.5110188480806
 20
-148.1515082094899
 10
128.3480658316283
 20
-148.1018988345023
 10
128.233688661518
 20
-148.070203956038
 10
128.233688661518
 20
-148.070203956038
 10
128.233688661518
 20
-147.9141411305562
 10
128.233688661518
 20
-147.9141411305562
 10
128.233688661518
 20
-147.9141411305562
 10
129.7781249675555
 20
-147.9141411305562
 10
129.7781249675555
 20
-147.9141411305562
 10
129.7781249675555
 20
-147.9141411305562
 10
129.7781249675555
 20
-148.1539197763296
 10
129.7781249675555
 20
-148.1539197763296
 97
        0
 97
        0
 75
     2
 76
     1
 98
        0
  0
ENDBLK
  5
146
330
143
100
AcDbEntity
  8
0
100
AcDbBlockEnd
  0
ENDSEC
  0
SECTION
  2
ENTITIES
  0
POLYLINE
  5
41
330
1F
100
AcDbEntity
  8
_U+30EC_U+30A4_U+30E4_U+30FC 1
370
     0
100
AcDb2dPolyline
 66
     1
 10
0.0
 20
0.0
 30
0.0
  0
VERTEX
  5
42
330
41
100
AcDbEntity
  8
_U+30EC_U+30A4_U+30E4_U+30FC 1
370
     0
100
AcDbVertex
100
AcDb2dVertex
 10
87.38668795626205
 20
-143.041484203606
 30
0.0
  0
VERTEX
  5
43
330
41
100
AcDbEntity
  8
_U+30EC_U+30A4_U+30E4_U+30FC 1
370
     0
100
AcDbVertex
100
AcDb2dVertex
 10
89.48641982490487
 20
-143.041484203606
 30
0.0
  0
VERTEX
  5
44
330
41
100
AcDbEntity
  8
_U+30EC_U+30A4_U+30E4_U+30FC 1
370
     0
100
AcDbVertex
100
AcDb2dVertex
 10
89.48641982490487
 20
-142.0417174937865
 30
0.0
  0
VERTEX
  5
45
330
41
100
AcDbEntity
  8
_U+30EC_U+30A4_U+30E4_U+30FC 1
370
     0
100
AcDbVertex
100
AcDb2dVertex
 10
86.48639837857914
 20
-142.0417174937865
 30
0.0
  0
VERTEX
  5
46
330
41
100
AcDbEntity
  8
_U+30EC_U+30A4_U+30E4_U+30FC 1
370
     0
100
AcDbVertex
100
AcDb2dVertex
 10
86.48639837857914
 20
-161.5415070023935
 30
0.0
  0
VERTEX
  5
47
330
41
100
AcDbEntity
  8
_U+30EC_U+30A4_U+30E4_U+30FC 1
370
     0
100
AcDbVertex
100
AcDb2dVertex
 10
96.48693997831968
 20
-161.5415070023935
 30
0.0
  0
VERTEX
  5
48
330
41
100
AcDbEntity
  8
_U+30EC_U+30A4_U+30E4_U+30FC 1
370
     0
100
AcDbVertex
100
AcDb2dVertex
 10
96.48693997831968
 20
-158.5418408315397
 30
0.0
  0
VERTEX
  5
49
330
41
100
AcDbEntity
  8
_U+30EC_U+30A4_U+30E4_U+30FC 1
370
     0
100
AcDbVertex
100
AcDb2dVertex
 10
93.48691853199394
 20
-158.5418408315397
 30
0.0
  0
VERTEX
  5
4A
330
41
100
AcDbEntity
  8
_U+30EC_U+30A4_U+30E4_U+30FC 1
370
     0
100
AcDbVertex
100
AcDb2dVertex
 10
93.48691853199394
 20
-159.5412630318106
 30
0.0
  0
VERTEX
  5
4B
330
41
100
AcDbEntity
  8
_U+30EC_U+30A4_U+30E4_U+30FC 1
370
     0
100
AcDbVertex
100
AcDb2dVertex
 10
95.48646271755666
 20
-159.5412630318106
 30
0.0
  0
VERTEX
  5
4C
330
41
100
AcDbEntity
  8
_U+30EC_U+30A4_U+30E4_U+30FC 1
370
     0
100
AcDbVertex
100
AcDb2dVertex
 10
95.48646271755666
 20
-160.5410297416302
 30
0.0
  0
VERTEX
  5
4D
330
41
100
AcDbEntity
  8
_U+30EC_U+30A4_U+30E4_U+30FC 1
370
     0
100
AcDbVertex
100
AcDb2dVertex
 10
87.38668795626205
 20
-160.5410297416302
 30
0.0
  0
VERTEX
  5
4E
330
41
100
AcDbEntity
  8
_U+30EC_U+30A4_U+30E4_U+30FC 1
370
     0
100
AcDbVertex
100
AcDb2dVertex
 10
87.38668795626205
 20
-150.0413045720003
 30
0.0
  0
VERTEX
  5
4F
330
41
100
AcDbEntity
  8
_U+30EC_U+30A4_U+30E4_U+30FC 1
370
     0
100
AcDbVertex
100
AcDb2dVertex
 10
126.4853995960642
 20
-150.0413045720003
 30
0.0
  0
VERTEX
  5
50
330
41
100
AcDbEntity
  8
_U+30EC_U+30A4_U+30E4_U+30FC 1
370
     0
100
AcDbVertex
100
AcDb2dVertex
 10
126.4853995960642
 20
-149.1413702697893
 30
0.0
  0
VERTEX
  5
51
330
41
100
AcDbEntity
  8
_U+30EC_U+30A4_U+30E4_U+30FC 1
370
     0
100
AcDbVertex
100
AcDb2dVertex
 10
87.38668795626205
 20
-149.1413702697893
 30
0.0
  0
VERTEX
  5
52
330
41
100
AcDbEntity
  8
_U+30EC_U+30A4_U+30E4_U+30FC 1
370
     0
100
AcDbVertex
100
AcDb2dVertex
 10
87.38668795626205
 20
-143.041484203606
 30
0.0
  0
SEQEND
  5
54
330
41
100
AcDbEntity
  8
_U+30EC_U+30A4_U+30E4_U+30FC 1
370
     0
  0
HATCH
  5
53
330
1F
100
AcDbEntity
  8
_U+30EC_U+30A4_U+30E4_U+30FC 1
 62
     9
420
 13224394
100
AcDbHatch
 10
0.0
 20
0.0
 30
0.0
210
0.0
220
0.0
230
1.0
  2
SOLID
 70
     1
 71
     0
 91
        1
 92
        1
 93
       16
 72
     1
 10
87.38668795626205
 20
-143.041484203606
 11
89.48641982490487
 21
-143.041484203606
 72
     1
 10
89.48641982490487
 20
-143.041484203606
 11
89.48641982490487
 21
-142.0417174937865
 72
     1
 10
89.48641982490487
 20
-142.0417174937865
 11
86.48639837857914
 21
-142.0417174937865
 72
     1
 10
86.48639837857914
 20
-142.0417174937865
 11
86.48639837857914
 21
-161.5415070023935
 72
     1
 10
86.48639837857914
 20
-161.5415070023935
 11
96.48693997831968
 21
-161.5415070023935
 72
     1
 10
96.48693997831968
 20
-161.5415070023935
 11
96.48693997831968
 21
-158.5418408315397
 72
     1
 10
96.48693997831968
 20
-158.5418408315397
 11
93.48691853199394
 21
-158.5418408315397
 72
     1
 10
93.48691853199394
 20
-158.5418408315397
 11
93.48691853199394
 21
-159.5412630318106
 72
     1
 10
93.48691853199394
 20
-159.5412630318106
 11
95.48646271755666
 21
-159.5412630318106
 72
     1
 10
95.48646271755666
 20
-159.5412630318106
 11
95.48646271755666
 21
-160.5410297416302
 72
     1
 10
95.48646271755666
 20
-160.5410297416302
 11
87.38668795626205
 21
-160.5410297416302
 72
     1
 10
87.38668795626205
 20
-160.5410297416302
 11
87.38668795626205
 21
-150.0413045720003
 72
     1
 10
87.38668795626205
 20
-150.0413045720003
 11
126.4853995960642
 21
-150.0413045720003
 72
     1
 10
126.4853995960642
 20
-150.0413045720003
 11
126.4853995960642
 21
-149.1413702697893
 72
     1
 10
126.4853995960642
 20
-149.1413702697893
 11
87.38668795626205
 21
-149.1413702697893
 72
     1
 10
87.38668795626205
 20
-149.1413702697893
 11
87.38668795626205
 21
-143.041484203606
 97
        0
 75
     2
 76
     1
 98
        0
  0
POLYLINE
  5
55
330
1F
100
AcDbEntity
  8
_U+30EC_U+30A4_U+30E4_U+30FC 1
 62
   179
420
  2234388
370
    25
100
AcDb2dPolyline
 66
     1
 10
0.0
 20
0.0
 30
0.0
  0
VERTEX
  5
56
330
55
100
AcDbEntity
  8
_U+30EC_U+30A4_U+30E4_U+30FC 1
 62
   179
420
  2234388
370
    25
100
AcDbVertex
100
AcDb2dVertex
 10
87.38668795626205
 20
-150.0412292105366
 30
0.0
  0
VERTEX
  5
57
330
55
100
AcDbEntity
  8
_U+30EC_U+30A4_U+30E4_U+30FC 1
 62
   179
420
  2234388
370
    25
100
AcDbVertex
100
AcDb2dVertex
 10
126.4853995960642
 20
-150.0412292105366
 30
0.0
  0
SEQEND
  5
58
330
55
100
AcDbEntity
  8
_U+30EC_U+30A4_U+30E4_U+30FC 1
 62
   179
420
  2234388
370
    25
  0
POLYLINE
  5
59
330
1F
100
AcDbEntity
  8
_U+30EC_U+30A4_U+30E4_U+30FC 1
 62
   179
420
  2234388
370
    25
100
AcDb2dPolyline
 66
     1
 10
0.0
 20
0.0
 30
0.0
  0
VERTEX
  5
5A
330
59
100
AcDbEntity
  8
_U+30EC_U+30A4_U+30E4_U+30FC 1
 62
   179
420
  2234388
370
    25
100
AcDbVertex
100
AcDb2dVertex
 10
93.48691853199394
 20
-158.541657810842
 30
0.0
  0
VERTEX
  5
5B
330
59
100
AcDbEntity
  8
_U+30EC_U+30A4_U+30E4_U+30FC 1
 62
   179
420
  2234388
370
    25
100
AcDbVertex
100
AcDb2dVertex
 10
96.48693997831968
 20
-158.541657810842
 30
0.0
  0
SEQEND
  5
5C
330
59
100
AcDbEntity
  8
_U+30EC_U+30A4_U+30E4_U+30FC 1
 62
   179
420
  2234388
370
    25
  0
POLYLINE
  5
5D
330
1F
100
AcDbEntity
  8
_U+30EC_U+30A4_U+30E4_U+30FC 1
 62
   179
420
  2234388
370
    25
100
AcDb2dPolyline
 66
     1
 10
0.0
 20
0.0
 30
0.0
  0
VERTEX
  5
5E
330
5D
100
AcDbEntity
  8
_U+30EC_U+30A4_U+30E4_U+30FC 1
 62
   179
420
  2234388
370
    25
100
AcDbVertex
100
AcDb2dVertex
 10
86.48650603781306
 20
-161.5416469593976
 30
0.0
  0
VERTEX
  5
5F
330
5D
100
AcDbEntity
  8
_U+30EC_U+30A4_U+30E4_U+30FC 1
 62
   179
420
  2234388
370
    25
100
AcDbVertex
100
AcDb2dVertex
 10
96.48704763755359
 20
-161.5416469593976
 30
0.0
  0
SEQEND
  5
60
330
5D
100
AcDbEntity
  8
_U+30EC_U+30A4_U+30E4_U+30FC 1
 62
   179
420
  2234388
370
    25
  0
POLYLINE
  5
61
330
1F
100
AcDbEntity
  8
_U+30EC_U+30A4_U+30E4_U+30FC 1
 62
   179
420
  2234388
370
    25
100
AcDb2dPolyline
 66
     1
 10
0.0
 20
0.0
 30
0.0
  0
VERTEX
  5
62
330
61
100
AcDbEntity
  8
_U+30EC_U+30A4_U+30E4_U+30FC 1
 62
   179
420
  2234388
370
    25
100
AcDbVertex
100
AcDb2dVertex
 10
86.48650603781306
 20
-142.0417067278631
 30
0.0
  0
VERTEX
  5
63
330
61
100
AcDbEntity
  8
_U+30EC_U+30A4_U+30E4_U+30FC 1
 62
   179
420
  2234388
370
    25
100
AcDbVertex
100
AcDb2dVertex
 10
86.48650603781306
 20
-161.5415070023935
 30
0.0
  0
SEQEND
  5
64
330
61
100
AcDbEntity
  8
_U+30EC_U+30A4_U+30E4_U+30FC 1
 62
   179
420
  2234388
370
    25
  0
POLYLINE
  5
65
330
1F
100
AcDbEntity
  8
_U+30EC_U+30A4_U+30E4_U+30FC 1
 62
   179
420
  2234388
370
    25
100
AcDb2dPolyline
 66
     1
 10
0.0
 20
0.0
 30
0.0
  0
VERTEX
  5
66
330
65
100
AcDbEntity
  8
_U+30EC_U+30A4_U+30E4_U+30FC 1
 62
   179
420
  2234388
370
    25
100
AcDbVertex
100
AcDb2dVertex
 10
126.4854426597578
 20
-149.1413595038659
 30
0.0
  0
VERTEX
  5
67
330
65
100
AcDbEntity
  8
_U+30EC_U+30A4_U+30E4_U+30FC 1
 62
   179
420
  2234388
370
    25
100
AcDbVertex
100
AcDb2dVertex
 10
126.4854426597578
 20
-150.0413045720003
 30
0.0
  0
SEQEND
  5
68
330
65
100
AcDbEntity
  8
_U+30EC_U+30A4_U+30E4_U+30FC 1
 62
   179
420
  2234388
370
    25
  0
POLYLINE
  5
69
330
1F
100
AcDbEntity
  8
_U+30EC_U+30A4_U+30E4_U+30FC 1
 62
   179
420
  2234388
370
    25
100
AcDb2dPolyline
 66
     1
 10
0.0
 20
0.0
 30
0.0
  0
VERTEX
  5
6A
330
69
100
AcDbEntity
  8
_U+30EC_U+30A4_U+30E4_U+30FC 1
 62
   179
420
  2234388
370
    25
100
AcDbVertex
100
AcDb2dVertex
 10
86.48650603781306
 20
-142.0417067278631
 30
0.0
  0
VERTEX
  5
6B
330
69
100
AcDbEntity
  8
_U+30EC_U+30A4_U+30E4_U+30FC 1
 62
   179
420
  2234388
370
    25
100
AcDbVertex
100
AcDb2dVertex
 10
89.48652748413879
 20
-142.0417067278631
 30
0.0
  0
SEQEND
  5
6C
330
69
100
AcDbEntity
  8
_U+30EC_U+30A4_U+30E4_U+30FC 1
 62
   179
420
  2234388
370
    25
  0
POLYLINE
  5
6D
330
1F
100
AcDbEntity
  8
_U+30EC_U+30A4_U+30E4_U+30FC 1
 62
   179
420
  2234388
370
    25
100
AcDb2dPolyline
 66
     1
 10
0.0
 20
0.0
 30
0.0
  0
VERTEX
  5
6E
330
6D
100
AcDbEntity
  8
_U+30EC_U+30A4_U+30E4_U+30FC 1
 62
   179
420
  2234388
370
    25
100
AcDbVertex
100
AcDb2dVertex
 10
89.48646288859844
 20
-142.0417067278631
 30
0.0
  0
VERTEX
  5
6F
330
6D
100
AcDbEntity
  8
_U+30EC_U+30A4_U+30E4_U+30FC 1
 62
   179
420
  2234388
370
    25
100
AcDbVertex
100
AcDb2dVertex
 10
89.48646288859844
 20
-143.041484203606
 30
0.0
  0
SEQEND
  5
70
330
6D
100
AcDbEntity
  8
_U+30EC_U+30A4_U+30E4_U+30FC 1
 62
   179
420
  2234388
370
    25
  0
POLYLINE
  5
71
330
1F
100
AcDbEntity
  8
_U+30EC_U+30A4_U+30E4_U+30FC 1
 62
   179
420
  2234388
370
    25
100
AcDb2dPolyline
 66
     1
 10
0.0
 20
0.0
 30
0.0
  0
VERTEX
  5
72
330
71
100
AcDbEntity
  8
_U+30EC_U+30A4_U+30E4_U+30FC 1
 62
   179
420
  2234388
370
    25
100
AcDbVertex
100
AcDb2dVertex
 10
87.38668795626205
 20
-143.041484203606
 30
0.0
  0
VERTEX
  5
73
330
71
100
AcDbEntity
  8
_U+30EC_U+30A4_U+30E4_U+30FC 1
 62
   179
420
  2234388
370
    25
100
AcDbVertex
100
AcDb2dVertex
 10
89.48641982490487
 20
-143.041484203606
 30
0.0
  0
SEQEND
  5
74
330
71
100
AcDbEntity
  8
_U+30EC_U+30A4_U+30E4_U+30FC 1
 62
   179
420
  2234388
370
    25
  0
POLYLINE
  5
75
330
1F
100
AcDbEntity
  8
_U+30EC_U+30A4_U+30E4_U+30FC 1
 62
   179
420
  2234388
370
    25
100
AcDb2dPolyline
 66
     1
 10
0.0
 20
0.0
 30
0.0
  0
VERTEX
  5
76
330
75
100
AcDbEntity
  8
_U+30EC_U+30A4_U+30E4_U+30FC 1
 62
   179
420
  2234388
370
    25
100
AcDbVertex
100
AcDb2dVertex
 10
96.4869076805495
 20
-158.541657810842
 30
0.0
  0
VERTEX
  5
77
330
75
100
AcDbEntity
  8
_U+30EC_U+30A4_U+30E4_U+30FC 1
 62
   179
420
  2234388
370
    25
100
AcDbVertex
100
AcDb2dVertex
 10
96.4869076805495
 20
-161.5416900230911
 30
0.0
  0
SEQEND
  5
78
330
75
100
AcDbEntity
  8
_U+30EC_U+30A4_U+30E4_U+30FC 1
 62
   179
420
  2234388
370
    25
  0
POLYLINE
  5
79
330
1F
100
AcDbEntity
  8
_U+30EC_U+30A4_U+30E4_U+30FC 1
 62
   179
420
  2234388
370
    25
100
AcDb2dPolyline
 66
     1
 10
0.0
 20
0.0
 30
0.0
  0
VERTEX
  5
7A
330
79
100
AcDbEntity
  8
_U+30EC_U+30A4_U+30E4_U+30FC 1
 62
   179
420
  2234388
370
    25
100
AcDbVertex
100
AcDb2dVertex
 10
93.48691853199394
 20
-158.541657810842
 30
0.0
  0
VERTEX
  5
7B
330
79
100
AcDbEntity
  8
_U+30EC_U+30A4_U+30E4_U+30FC 1
 62
   179
420
  2234388
370
    25
100
AcDbVertex
100
AcDb2dVertex
 10
93.48691853199394
 20
-159.5414352865849
 30
0.0
  0
SEQEND
  5
7C
330
79
100
AcDbEntity
  8
_U+30EC_U+30A4_U+30E4_U+30FC 1
 62
   179
420
  2234388
370
    25
  0
POLYLINE
  5
7D
330
1F
100
AcDbEntity
  8
_U+30EC_U+30A4_U+30E4_U+30FC 1
 62
   179
420
  2234388
370
    25
100
AcDb2dPolyline
 66
     1
 10
0.0
 20
0.0
 30
0.0
  0
VERTEX
  5
7E
330
7D
100
AcDbEntity
  8
_U+30EC_U+30A4_U+30E4_U+30FC 1
 62
   179
420
  2234388
370
    25
100
AcDbVertex
100
AcDb2dVertex
 10
93.48691853199394
 20
-159.5414245206615
 30
0.0
  0
VERTEX
  5
7F
330
7D
100
AcDbEntity
  8
_U+30EC_U+30A4_U+30E4_U+30FC 1
 62
   179
420
  2234388
370
    25
100
AcDbVertex
100
AcDb2dVertex
 10
95.48646271755666
 20
-159.5414245206615
 30
0.0
  0
SEQEND
  5
80
330
7D
100
AcDbEntity
  8
_U+30EC_U+30A4_U+30E4_U+30FC 1
 62
   179
420
  2234388
370
    25
  0
POLYLINE
  5
81
330
1F
100
AcDbEntity
  8
_U+30EC_U+30A4_U+30E4_U+30FC 1
 62
   179
420
  2234388
370
    25
100
AcDb2dPolyline
 66
     1
 10
0.0
 20
0.0
 30
0.0
  0
VERTEX
  5
82
330
81
100
AcDbEntity
  8
_U+30EC_U+30A4_U+30E4_U+30FC 1
 62
   179
420
  2234388
370
    25
100
AcDbVertex
100
AcDb2dVertex
 10
87.38668795626205
 20
-160.5412019964044
 30
0.0
  0
VERTEX
  5
83
330
81
100
AcDbEntity
  8
_U+30EC_U+30A4_U+30E4_U+30FC 1
 62
   179
420
  2234388
370
    25
100
AcDbVertex
100
AcDb2dVertex
 10
95.48646271755666
 20
-160.5412019964044
 30
0.0
  0
SEQEND
  5
84
330
81
100
AcDbEntity
  8
_U+30EC_U+30A4_U+30E4_U+30FC 1
 62
   179
420
  2234388
370
    25
  0
POLYLINE
  5
85
330
1F
100
AcDbEntity
  8
_U+30EC_U+30A4_U+30E4_U+30FC 1
 62
   179
420
  2234388
370
    25
100
AcDb2dPolyline
 66
     1
 10
0.0
 20
0.0
 30
0.0
  0
VERTEX
  5
86
330
85
100
AcDbEntity
  8
_U+30EC_U+30A4_U+30E4_U+30FC 1
 62
   179
420
  2234388
370
    25
100
AcDbVertex
100
AcDb2dVertex
 10
95.48646271755666
 20
-159.5414245206615
 30
0.0
  0
VERTEX
  5
87
330
85
100
AcDbEntity
  8
_U+30EC_U+30A4_U+30E4_U+30FC 1
 62
   179
420
  2234388
370
    25
100
AcDbVertex
100
AcDb2dVertex
 10
95.48646271755666
 20
-160.5412019964044
 30
0.0
  0
SEQEND
  5
88
330
85
100
AcDbEntity
  8
_U+30EC_U+30A4_U+30E4_U+30FC 1
 62
   179
420
  2234388
370
    25
  0
POLYLINE
  5
89
330
1F
100
AcDbEntity
  8
_U+30EC_U+30A4_U+30E4_U+30FC 1
 62
   179
420
  2234388
370
    25
100
AcDb2dPolyline
 66
     1
 10
0.0
 20
0.0
 30
0.0
  0
VERTEX
  5
8A
330
89
100
AcDbEntity
  8
_U+30EC_U+30A4_U+30E4_U+30FC 1
 62
   179
420
  2234388
370
    25
100
AcDbVertex
100
AcDb2dVertex
 10
87.38668795626205
 20
-149.1413595038659
 30
0.0
  0
VERTEX
  5
8B
330
89
100
AcDbEntity
  8
_U+30EC_U+30A4_U+30E4_U+30FC 1
 62
   179
420
  2234388
370
    25
100
AcDbVertex
100
AcDb2dVertex
 10
126.4853995960642
 20
-149.1413595038659
 30
0.0
  0
SEQEND
  5
8C
330
89
100
AcDbEntity
  8
_U+30EC_U+30A4_U+30E4_U+30FC 1
 62
   179
420
  2234388
370
    25
  0
POLYLINE
  5
8D
330
1F
100
AcDbEntity
  8
_U+30EC_U+30A4_U+30E4_U+30FC 1
 62
   179
420
  2234388
370
    25
100
AcDb2dPolyline
 66
     1
 10
0.0
 20
0.0
 30
0.0
  0
VERTEX
  5
8E
330
8D
100
AcDbEntity
  8
_U+30EC_U+30A4_U+30E4_U+30FC 1
 62
   179
420
  2234388
370
    25
100
AcDbVertex
100
AcDb2dVertex
 10
87.38668795626205
 20
-143.041484203606
 30
0.0
  0
VERTEX
  5
8F
330
8D
100
AcDbEntity
  8
_U+30EC_U+30A4_U+30E4_U+30FC 1
 62
   179
420
  2234388
370
    25
100
AcDbVertex
100
AcDb2dVertex
 10
87.38668795626205
 20
-149.1413702697893
 30
0.0
  0
SEQEND
  5
90
330
8D
100
AcDbEntity
  8
_U+30EC_U+30A4_U+30E4_U+30FC 1
 62
   179
420
  2234388
370
    25
  0
POLYLINE
  5
91
330
1F
100
AcDbEntity
  8
_U+30EC_U+30A4_U+30E4_U+30FC 1
 62
   179
420
  2234388
370
    25
100
AcDb2dPolyline
 66
     1
 10
0.0
 20
0.0
 30
0.0
  0
VERTEX
  5
92
330
91
100
AcDbEntity
  8
_U+30EC_U+30A4_U+30E4_U+30FC 1
 62
   179
420
  2234388
370
    25
100
AcDbVertex
100
AcDb2dVertex
 10
87.38668795626205
 20
-150.0412292105366
 30
0.0
  0
VERTEX
  5
93
330
91
100
AcDbEntity
  8
_U+30EC_U+30A4_U+30E4_U+30FC 1
 62
   179
420
  2234388
370
    25
100
AcDbVertex
100
AcDb2dVertex
 10
87.38668795626205
 20
-160.5413096556383
 30
0.0
  0
SEQEND
  5
94
330
91
100
AcDbEntity
  8
_U+30EC_U+30A4_U+30E4_U+30FC 1
 62
   179
420
  2234388
370
    25
  0
SPLINE
  5
95
330
1F
100
AcDbEntity
  8
_U+30EC_U+30A4_U+30E4_U+30FC 1
 62
   179
420
  2234388
370
     9
100
AcDbSpline
210
0.0
220
0.0
230
1.0
 70
    11
 71
     3
 72
    17
 73
    13
 74
     0
 42
0.0000000001
 43
0.0000000001
 12
1.0
 22
0.0
 32
0.0
 13
1.0
 23
0.0
 33
0.0
 40
0.0
 40
0.0
 40
0.0
 40
0.0
 40
1.0
 40
1.0
 40
1.0
 40
2.0
 40
2.0
 40
2.0
 40
3.0
 40
3.0
 40
3.0
 40
4.0
 40
4.0
 40
4.0
 40
4.0
 10
86.58672601866365
 20
-134.0415275238627
 30
0.0
 10
86.58672601866365
 20
-133.9861476139373
 30
0.0
 10
86.54191824550863
 20
-133.9413398407823
 30
0.0
 10
86.48652756965984
 20
-133.9413398407823
 30
0.0
 10
86.43150293520637
 20
-133.9413398407823
 30
0.0
 10
86.38669516205134
 20
-133.9861476139373
 30
0.0
 10
86.38669516205134
 20
-134.0415275238627
 30
0.0
 10
86.38669516205134
 20
-134.0965629242395
 30
0.0
 10
86.43150293520637
 20
-134.1413706973946
 30
0.0
 10
86.48652756965984
 20
-134.1413706973946
 30
0.0
 10
86.54191824550863
 20
-134.1413706973946
 30
0.0
 10
86.58672601866365
 20
-134.0965629242395
 30
0.0
 10
86.58672601866365
 20
-134.0415275238627
 30
0.0
  0
SPLINE
  5
96
330
1F
100
AcDbEntity
  8
_U+30EC_U+30A4_U+30E4_U+30FC 1
 62
   179
420
  2234388
370
     9
100
AcDbSpline
210
0.0
220
0.0
230
1.0
 70
    11
 71
     3
 72
    17
 73
    13
 74
     0
 42
0.0000000001
 43
0.0000000001
 12
1.0
 22
0.0
 32
0.0
 13
1.0
 23
0.0
 33
0.0
 40
0.0
 40
0.0
 40
0.0
 40
0.0
 40
1.0
 40
1.0
 40
1.0
 40
2.0
 40
2.0
 40
2.0
 40
3.0
 40
3.0
 40
3.0
 40
4.0
 40
4.0
 40
4.0
 40
4.0
 10
86.58672601866365
 20
-138.0412833822377
 30
0.0
 10
86.58672601866365
 20
-137.9862587477843
 30
0.0
 10
86.54191824550863
 20
-137.9414509746292
 30
0.0
 10
86.48652756965984
 20
-137.9414509746292
 30
0.0
 10
86.43150293520637
 20
-137.9414509746292
 30
0.0
 10
86.38669516205134
 20
-137.9862587477843
 30
0.0
 10
86.38669516205134
 20
-138.0412833822377
 30
0.0
 10
86.38669516205134
 20
-138.0963187826146
 30
0.0
 10
86.43150293520637
 20
-138.1411265557696
 30
0.0
 10
86.48652756965984
 20
-138.1411265557696
 30
0.0
 10
86.54191824550863
 20
-138.1411265557696
 30
0.0
 10
86.58672601866365
 20
-138.0963187826146
 30
0.0
 10
86.58672601866365
 20
-138.0412833822377
 30
0.0
  0
SPLINE
  5
97
330
1F
100
AcDbEntity
  8
_U+30EC_U+30A4_U+30E4_U+30FC 1
 62
   179
420
  2234388
370
     9
100
AcDbSpline
210
0.0
220
0.0
230
1.0
 70
    11
 71
     3
 72
    17
 73
    13
 74
     0
 42
0.0000000001
 43
0.0000000001
 12
1.0
 22
0.0
 32
0.0
 13
1.0
 23
0.0
 33
0.0
 40
0.0
 40
0.0
 40
0.0
 40
0.0
 40
1.0
 40
1.0
 40
1.0
 40
2.0
 40
2.0
 40
2.0
 40
3.0
 40
3.0
 40
3.0
 40
4.0
 40
4.0
 40
4.0
 40
4.0
 10
89.58674746498939
 20
-138.0412833822377
 30
0.0
 10
89.58674746498939
 20
-137.9862587477843
 30
0.0
 10
89.54193969183436
 20
-137.9414509746292
 30
0.0
 10
89.48654901598557
 20
-137.9414509746292
 30
0.0
 10
89.4315243815321
 20
-137.9414509746292
 30
0.0
 10
89.38671660837707
 20
-137.9862587477843
 30
0.0
 10
89.38671660837707
 20
-138.0412833822377
 30
0.0
 10
89.38671660837707
 20
-138.0963187826146
 30
0.0
 10
89.4315243815321
 20
-138.1411265557696
 30
0.0
 10
89.48654901598557
 20
-138.1411265557696
 30
0.0
 10
89.54193969183436
 20
-138.1411265557696
 30
0.0
 10
89.58674746498939
 20
-138.0963187826146
 30
0.0
 10
89.58674746498939
 20
-138.0412833822377
 30
0.0
  0
SPLINE
  5
98
330
1F
100
AcDbEntity
  8
_U+30EC_U+30A4_U+30E4_U+30FC 1
 62
   179
420
  2234388
370
     9
100
AcDbSpline
210
0.0
220
0.0
230
1.0
 70
    11
 71
     3
 72
    17
 73
    13
 74
     0
 42
0.0000000001
 43
0.0000000001
 12
1.0
 22
0.0
 32
0.0
 13
1.0
 23
0.0
 33
0.0
 40
0.0
 40
0.0
 40
0.0
 40
0.0
 40
1.0
 40
1.0
 40
1.0
 40
2.0
 40
2.0
 40
2.0
 40
3.0
 40
3.0
 40
3.0
 40
4.0
 40
4.0
 40
4.0
 40
4.0
 10
126.5853396629066
 20
-134.0415275238627
 30
0.0
 10
126.5853396629066
 20
-133.9861476139373
 30
0.0
 10
126.5405318897516
 20
-133.9413398407823
 30
0.0
 10
126.4854964893747
 20
-133.9413398407823
 30
0.0
 10
126.4304610889979
 20
-133.9413398407823
 30
0.0
 10
126.3856640817662
 20
-133.9861476139373
 30
0.0
 10
126.3856640817662
 20
-134.0415275238627
 30
0.0
 10
126.3856640817662
 20
-134.0965629242395
 30
0.0
 10
126.4304610889979
 20
-134.1413706973946
 30
0.0
 10
126.4854964893747
 20
-134.1413706973946
 30
0.0
 10
126.5405318897516
 20
-134.1413706973946
 30
0.0
 10
126.5853396629066
 20
-134.0965629242395
 30
0.0
 10
126.5853396629066
 20
-134.0415275238627
 30
0.0
  0
SPLINE
  5
99
330
1F
100
AcDbEntity
  8
_U+30EC_U+30A4_U+30E4_U+30FC 1
 62
   179
420
  2234388
370
     9
100
AcDbSpline
210
0.0
220
0.0
230
1.0
 70
    11
 71
     3
 72
    17
 73
    13
 74
     0
 42
0.0000000001
 43
0.0000000001
 12
1.0
 22
0.0
 32
0.0
 13
1.0
 23
0.0
 33
0.0
 40
0.0
 40
0.0
 40
0.0
 40
0.0
 40
1.0
 40
1.0
 40
1.0
 40
2.0
 40
2.0
 40
2.0
 40
3.0
 40
3.0
 40
3.0
 40
4.0
 40
4.0
 40
4.0
 40
4.0
 10
130.5850739894349
 20
-150.0412292105366
 30
0.0
 10
130.5850739894349
 20
-149.9862045760831
 30
0.0
 10
130.5402662162799
 20
-149.9413968029281
 30
0.0
 10
130.485230815903
 20
-149.9413968029281
 30
0.0
 10
130.4301954155261
 20
-149.9413968029281
 30
0.0
 10
130.3853984082945
 20
-149.9862045760831
 30
0.0
 10
130.3853984082945
 20
-150.0412292105366
 30
0.0
 10
130.3853984082945
 20
-150.0962646109134
 30
0.0
 10
130.4301954155261
 20
-150.1410723840685
 30
0.0
 10
130.485230815903
 20
-150.1410723840685
 30
0.0
 10
130.5402662162799
 20
-150.1410723840685
 30
0.0
 10
130.5850739894349
 20
-150.0962646109134
 30
0.0
 10
130.5850739894349
 20
-150.0412292105366
 30
0.0
  0
SPLINE
  5
9A
330
1F
100
AcDbEntity
  8
_U+30EC_U+30A4_U+30E4_U+30FC 1
 62
   179
420
  2234388
370
     9
100
AcDbSpline
210
0.0
220
0.0
230
1.0
 70
    11
 71
     3
 72
    17
 73
    13
 74
     0
 42
0.0000000001
 43
0.0000000001
 12
1.0
 22
0.0
 32
0.0
 13
1.0
 23
0.0
 33
0.0
 40
0.0
 40
0.0
 40
0.0
 40
0.0
 40
1.0
 40
1.0
 40
1.0
 40
2.0
 40
2.0
 40
2.0
 40
3.0
 40
3.0
 40
3.0
 40
4.0
 40
4.0
 40
4.0
 40
4.0
 10
130.5850739894349
 20
-158.541657810842
 30
0.0
 10
130.5850739894349
 20
-158.4859226254447
 30
0.0
 10
130.5402662162799
 20
-158.4411256182131
 30
0.0
 10
130.485230815903
 20
-158.4411256182131
 30
0.0
 10
130.4301954155261
 20
-158.4411256182131
 30
0.0
 10
130.3853984082945
 20
-158.4859226254447
 30
0.0
 10
130.3853984082945
 20
-158.541657810842
 30
0.0
 10
130.3853984082945
 20
-158.5966932112189
 30
0.0
 10
130.4301954155261
 20
-158.6415009843739
 30
0.0
 10
130.485230815903
 20
-158.6415009843739
 30
0.0
 10
130.5402662162799
 20
-158.6415009843739
 30
0.0
 10
130.5850739894349
 20
-158.5966932112189
 30
0.0
 10
130.5850739894349
 20
-158.541657810842
 30
0.0
  0
SPLINE
  5
9B
330
1F
100
AcDbEntity
  8
_U+30EC_U+30A4_U+30E4_U+30FC 1
 62
   179
420
  2234388
370
     9
100
AcDbSpline
210
0.0
220
0.0
230
1.0
 70
    11
 71
     3
 72
    17
 73
    13
 74
     0
 42
0.0000000001
 43
0.0000000001
 12
1.0
 22
0.0
 32
0.0
 13
1.0
 23
0.0
 33
0.0
 40
0.0
 40
0.0
 40
0.0
 40
0.0
 40
1.0
 40
1.0
 40
1.0
 40
2.0
 40
2.0
 40
2.0
 40
3.0
 40
3.0
 40
3.0
 40
4.0
 40
4.0
 40
4.0
 40
4.0
 10
130.5850739894349
 20
-161.5416469593976
 30
0.0
 10
130.5850739894349
 20
-161.4859117740003
 30
0.0
 10
130.5402662162799
 20
-161.4411147667686
 30
0.0
 10
130.485230815903
 20
-161.4411147667686
 30
0.0
 10
130.4301954155261
 20
-161.4411147667686
 30
0.0
 10
130.3853984082945
 20
-161.4859117740003
 30
0.0
 10
130.3853984082945
 20
-161.5416469593976
 30
0.0
 10
130.3853984082945
 20
-161.5966823597744
 30
0.0
 10
130.4301954155261
 20
-161.6414901329295
 30
0.0
 10
130.485230815903
 20
-161.6414901329295
 30
0.0
 10
130.5402662162799
 20
-161.6414901329295
 30
0.0
 10
130.5850739894349
 20
-161.5966823597744
 30
0.0
 10
130.5850739894349
 20
-161.5416469593976
 30
0.0
  0
SPLINE
  5
9C
330
1F
100
AcDbEntity
  8
_U+30EC_U+30A4_U+30E4_U+30FC 1
 62
   179
420
  2234388
370
     9
100
AcDbSpline
210
0.0
220
0.0
230
1.0
 70
    11
 71
     3
 72
    17
 73
    13
 74
     0
 42
0.0000000001
 43
0.0000000001
 12
1.0
 22
0.0
 32
0.0
 13
1.0
 23
0.0
 33
0.0
 40
0.0
 40
0.0
 40
0.0
 40
0.0
 40
1.0
 40
1.0
 40
1.0
 40
2.0
 40
2.0
 40
2.0
 40
3.0
 40
3.0
 40
3.0
 40
4.0
 40
4.0
 40
4.0
 40
4.0
 10
86.58672601866365
 20
-165.5414028177726
 30
0.0
 10
86.58672601866365
 20
-165.4863781833192
 30
0.0
 10
86.54191824550863
 20
-165.4415704101641
 30
0.0
 10
86.48652756965984
 20
-165.4415704101641
 30
0.0
 10
86.43150293520637
 20
-165.4415704101641
 30
0.0
 10
86.38669516205134
 20
-165.4863781833192
 30
0.0
 10
86.38669516205134
 20
-165.5414028177726
 30
0.0
 10
86.38669516205134
 20
-165.5964382181495
 30
0.0
 10
86.43150293520637
 20
-165.6412459913045
 30
0.0
 10
86.48652756965984
 20
-165.6412459913045
 30
0.0
 10
86.54191824550863
 20
-165.6412459913045
 30
0.0
 10
86.58672601866365
 20
-165.5964382181495
 30
0.0
 10
86.58672601866365
 20
-165.5414028177726
 30
0.0
  0
SPLINE
  5
9D
330
1F
100
AcDbEntity
  8
_U+30EC_U+30A4_U+30E4_U+30FC 1
 62
   179
420
  2234388
370
     9
100
AcDbSpline
210
0.0
220
0.0
230
1.0
 70
    11
 71
     3
 72
    17
 73
    13
 74
     0
 42
0.0000000001
 43
0.0000000001
 12
1.0
 22
0.0
 32
0.0
 13
1.0
 23
0.0
 33
0.0
 40
0.0
 40
0.0
 40
0.0
 40
0.0
 40
1.0
 40
1.0
 40
1.0
 40
2.0
 40
2.0
 40
2.0
 40
3.0
 40
3.0
 40
3.0
 40
4.0
 40
4.0
 40
4.0
 40
4.0
 10
96.58678315185158
 20
-165.5414028177726
 30
0.0
 10
96.58678315185158
 20
-165.4863781833192
 30
0.0
 10
96.54197537869655
 20
-165.4415704101641
 30
0.0
 10
96.48693997831968
 20
-165.4415704101641
 30
0.0
 10
96.43190457794282
 20
-165.4415704101641
 30
0.0
 10
96.38710757071117
 20
-165.4863781833192
 30
0.0
 10
96.38710757071117
 20
-165.5414028177726
 30
0.0
 10
96.38710757071117
 20
-165.5964382181495
 30
0.0
 10
96.43190457794282
 20
-165.6412459913045
 30
0.0
 10
96.48693997831968
 20
-165.6412459913045
 30
0.0
 10
96.54197537869655
 20
-165.6412459913045
 30
0.0
 10
96.58678315185158
 20
-165.5964382181495
 30
0.0
 10
96.58678315185158
 20
-165.5414028177726
 30
0.0
  0
SPLINE
  5
9E
330
1F
100
AcDbEntity
  8
_U+30EC_U+30A4_U+30E4_U+30FC 1
 62
   179
420
  2234388
370
     9
100
AcDbSpline
210
0.0
220
0.0
230
1.0
 70
    11
 71
     3
 72
    17
 73
    13
 74
     0
 42
0.0000000001
 43
0.0000000001
 12
1.0
 22
0.0
 32
0.0
 13
1.0
 23
0.0
 33
0.0
 40
0.0
 40
0.0
 40
0.0
 40
0.0
 40
1.0
 40
1.0
 40
1.0
 40
2.0
 40
2.0
 40
2.0
 40
3.0
 40
3.0
 40
3.0
 40
4.0
 40
4.0
 40
4.0
 40
4.0
 10
81.86712822456903
 20
-142.0417067278631
 30
0.0
 10
81.86712822456903
 20
-141.9859715424658
 30
0.0
 10
81.822320451414
 20
-141.9411745352341
 30
0.0
 10
81.76728505103713
 20
-141.9411745352341
 30
0.0
 10
81.71224965066027
 20
-141.9411745352341
 30
0.0
 10
81.66745264342863
 20
-141.9859715424658
 30
0.0
 10
81.66745264342863
 20
-142.0417067278631
 30
0.0
 10
81.66745264342863
 20
-142.0967421282399
 30
0.0
 10
81.71224965066027
 20
-142.141549901395
 30
0.0
 10
81.76728505103713
 20
-142.141549901395
 30
0.0
 10
81.822320451414
 20
-142.141549901395
 30
0.0
 10
81.86712822456903
 20
-142.0967421282399
 30
0.0
 10
81.86712822456903
 20
-142.0417067278631
 30
0.0
  0
SPLINE
  5
9F
330
1F
100
AcDbEntity
  8
_U+30EC_U+30A4_U+30E4_U+30FC 1
 62
   179
420
  2234388
370
     9
100
AcDbSpline
210
0.0
220
0.0
230
1.0
 70
    11
 71
     3
 72
    17
 73
    13
 74
     0
 42
0.0000000001
 43
0.0000000001
 12
1.0
 22
0.0
 32
0.0
 13
1.0
 23
0.0
 33
0.0
 40
0.0
 40
0.0
 40
0.0
 40
0.0
 40
1.0
 40
1.0
 40
1.0
 40
2.0
 40
2.0
 40
2.0
 40
3.0
 40
3.0
 40
3.0
 40
4.0
 40
4.0
 40
4.0
 40
4.0
 10
81.86712822456903
 20
-161.5416469593976
 30
0.0
 10
81.86712822456903
 20
-161.4859117740003
 30
0.0
 10
81.822320451414
 20
-161.4411147667686
 30
0.0
 10
81.76728505103713
 20
-161.4411147667686
 30
0.0
 10
81.71224965066027
 20
-161.4411147667686
 30
0.0
 10
81.66745264342863
 20
-161.4859117740003
 30
0.0
 10
81.66745264342863
 20
-161.5416469593976
 30
0.0
 10
81.66745264342863
 20
-161.5966823597744
 30
0.0
 10
81.71224965066027
 20
-161.6414901329295
 30
0.0
 10
81.76728505103713
 20
-161.6414901329295
 30
0.0
 10
81.822320451414
 20
-161.6414901329295
 30
0.0
 10
81.86712822456903
 20
-161.5966823597744
 30
0.0
 10
81.86712822456903
 20
-161.5416469593976
 30
0.0
  0
POLYLINE
  5
A0
330
1F
100
AcDbEntity
  8
_U+30EC_U+30A4_U+30E4_U+30FC 1
 62
   179
420
  2234388
370
     9
100
AcDb2dPolyline
 66
     1
 10
0.0
 20
0.0
 30
0.0
  0
VERTEX
  5
A1
330
A0
100
AcDbEntity
  8
_U+30EC_U+30A4_U+30E4_U+30FC 1
 62
   179
420
  2234388
370
     9
100
AcDbVertex
100
AcDb2dVertex
 10
130.4851662203627
 20
-158.541657810842
 30
0.0
  0
VERTEX
  5
A2
330
A0
100
AcDbEntity
  8
_U+30EC_U+30A4_U+30E4_U+30FC 1
 62
   179
420
  2234388
370
     9
100
AcDbVertex
100
AcDb2dVertex
 10
130.4851662203627
 20
-161.5416900230911
 30
0.0
  0
SEQEND
  5
A3
330
A0
100
AcDbEntity
  8
_U+30EC_U+30A4_U+30E4_U+30FC 1
 62
   179
420
  2234388
370
     9
  0
POLYLINE
  5
A4
330
1F
100
AcDbEntity
  8
_U+30EC_U+30A4_U+30E4_U+30FC 1
 62
   179
420
  2234388
370
     9
100
AcDb2dPolyline
 66
     1
 10
0.0
 20
0.0
 30
0.0
  0
VERTEX
  5
A5
330
A4
100
AcDbEntity
  8
_U+30EC_U+30A4_U+30E4_U+30FC 1
 62
   179
420
  2234388
370
     9
100
AcDbVertex
100
AcDb2dVertex
 10
99.02663207227567
 20
-158.541657810842
 30
0.0
  0
VERTEX
  5
A6
330
A4
100
AcDbEntity
  8
_U+30EC_U+30A4_U+30E4_U+30FC 1
 62
   179
420
  2234388
370
     9
100
AcDbVertex
100
AcDb2dVertex
 10
131.4857080766663
 20
-158.541657810842
 30
0.0
  0
SEQEND
  5
A7
330
A4
100
AcDbEntity
  8
_U+30EC_U+30A4_U+30E4_U+30FC 1
 62
   179
420
  2234388
370
     9
  0
POLYLINE
  5
A8
330
1F
100
AcDbEntity
  8
_U+30EC_U+30A4_U+30E4_U+30FC 1
 62
   179
420
  2234388
370
     9
100
AcDb2dPolyline
 66
     1
 10
0.0
 20
0.0
 30
0.0
  0
VERTEX
  5
A9
330
A8
100
AcDbEntity
  8
_U+30EC_U+30A4_U+30E4_U+30FC 1
 62
   179
420
  2234388
370
     9
100
AcDbVertex
100
AcDb2dVertex
 10
99.02663207227567
 20
-161.5416469593976
 30
0.0
  0
VERTEX
  5
AA
330
A8
100
AcDbEntity
  8
_U+30EC_U+30A4_U+30E4_U+30FC 1
 62
   179
420
  2234388
370
     9
100
AcDbVertex
100
AcDb2dVertex
 10
131.4857080766663
 20
-161.5416469593976
 30
0.0
  0
SEQEND
  5
AB
330
A8
100
AcDbEntity
  8
_U+30EC_U+30A4_U+30E4_U+30FC 1
 62
   179
420
  2234388
370
     9
  0
INSERT
  5
AD
330
1F
100
AcDbEntity
  8
_U+30EC_U+30A4_U+30E4_U+30FC 1
100
AcDbBlockReference
  2
block 2
 10
0.0
 20
0.0
 30
0.0
  0
POLYLINE
  5
B2
330
1F
100
AcDbEntity
  8
_U+30EC_U+30A4_U+30E4_U+30FC 1
 62
   179
420
  2234388
370
     9
100
AcDb2dPolyline
 66
     1
 10
0.0
 20
0.0
 30
0.0
  0
VERTEX
  5
B3
330
B2
100
AcDbEntity
  8
_U+30EC_U+30A4_U+30E4_U+30FC 1
 62
   179
420
  2234388
370
     9
100
AcDbVertex
100
AcDb2dVertex
 10
86.48650603781306
 20
-138.0412833822377
 30
0.0
  0
VERTEX
  5
B4
330
B2
100
AcDbEntity
  8
_U+30EC_U+30A4_U+30E4_U+30FC 1
 62
   179
420
  2234388
370
     9
100
AcDbVertex
100
AcDb2dVertex
 10
89.48652748413879
 20
-138.0412833822377
 30
0.0
  0
SEQEND
  5
B5
330
B2
100
AcDbEntity
  8
_U+30EC_U+30A4_U+30E4_U+30FC 1
 62
   179
420
  2234388
370
     9
  0
POLYLINE
  5
B6
330
1F
100
AcDbEntity
  8
_U+30EC_U+30A4_U+30E4_U+30FC 1
 62
   179
420
  2234388
370
     9
100
AcDb2dPolyline
 66
     1
 10
0.0
 20
0.0
 30
0.0
  0
VERTEX
  5
B7
330
B6
100
AcDbEntity
  8
_U+30EC_U+30A4_U+30E4_U+30FC 1
 62
   179
420
  2234388
370
     9
100
AcDbVertex
100
AcDb2dVertex
 10
86.48650603781306
 20
-139.50132561481
 30
0.0
  0
VERTEX
  5
B8
330
B6
100
AcDbEntity
  8
_U+30EC_U+30A4_U+30E4_U+30FC 1
 62
   179
420
  2234388
370
     9
100
AcDbVertex
100
AcDb2dVertex
 10
86.48650603781306
 20
-137.0414090131843
 30
0.0
  0
SEQEND
  5
B9
330
B6
100
AcDbEntity
  8
_U+30EC_U+30A4_U+30E4_U+30FC 1
 62
   179
420
  2234388
370
     9
  0
POLYLINE
  5
BA
330
1F
100
AcDbEntity
  8
_U+30EC_U+30A4_U+30E4_U+30FC 1
 62
   179
420
  2234388
370
     9
100
AcDb2dPolyline
 66
     1
 10
0.0
 20
0.0
 30
0.0
  0
VERTEX
  5
BB
330
BA
100
AcDbEntity
  8
_U+30EC_U+30A4_U+30E4_U+30FC 1
 62
   179
420
  2234388
370
     9
100
AcDbVertex
100
AcDb2dVertex
 10
89.48646288859844
 20
-139.50132561481
 30
0.0
  0
VERTEX
  5
BC
330
BA
100
AcDbEntity
  8
_U+30EC_U+30A4_U+30E4_U+30FC 1
 62
   179
420
  2234388
370
     9
100
AcDbVertex
100
AcDb2dVertex
 10
89.48646288859844
 20
-137.0414090131843
 30
0.0
  0
SEQEND
  5
BD
330
BA
100
AcDbEntity
  8
_U+30EC_U+30A4_U+30E4_U+30FC 1
 62
   179
420
  2234388
370
     9
  0
INSERT
  5
BF
330
1F
100
AcDbEntity
  8
_U+30EC_U+30A4_U+30E4_U+30FC 1
100
AcDbBlockReference
  2
block 3
 10
0.0
 20
0.0
 30
0.0
  0
POLYLINE
  5
C4
330
1F
100
AcDbEntity
  8
_U+30EC_U+30A4_U+30E4_U+30FC 1
 62
   179
420
  2234388
370
     9
100
AcDb2dPolyline
 66
     1
 10
0.0
 20
0.0
 30
0.0
  0
VERTEX
  5
C5
330
C4
100
AcDbEntity
  8
_U+30EC_U+30A4_U+30E4_U+30FC 1
 62
   179
420
  2234388
370
     9
100
AcDbVertex
100
AcDb2dVertex
 10
86.48650603781306
 20
-134.0415275238627
 30
0.0
  0
VERTEX
  5
C6
330
C4
100
AcDbEntity
  8
_U+30EC_U+30A4_U+30E4_U+30FC 1
 62
   179
420
  2234388
370
     9
100
AcDbVertex
100
AcDb2dVertex
 10
126.4855072552981
 20
-134.0415275238627
 30
0.0
  0
SEQEND
  5
C7
330
C4
100
AcDbEntity
  8
_U+30EC_U+30A4_U+30E4_U+30FC 1
 62
   179
420
  2234388
370
     9
  0
POLYLINE
  5
C8
330
1F
100
AcDbEntity
  8
_U+30EC_U+30A4_U+30E4_U+30FC 1
 62
   179
420
  2234388
370
     9
100
AcDb2dPolyline
 66
     1
 10
0.0
 20
0.0
 30
0.0
  0
VERTEX
  5
C9
330
C8
100
AcDbEntity
  8
_U+30EC_U+30A4_U+30E4_U+30FC 1
 62
   179
420
  2234388
370
     9
100
AcDbVertex
100
AcDb2dVertex
 10
86.48650603781306
 20
-139.50132561481
 30
0.0
  0
VERTEX
  5
CA
330
C8
100
AcDbEntity
  8
_U+30EC_U+30A4_U+30E4_U+30FC 1
 62
   179
420
  2234388
370
     9
100
AcDbVertex
100
AcDb2dVertex
 10
86.48650603781306
 20
-133.0412655815672
 30
0.0
  0
SEQEND
  5
CB
330
C8
100
AcDbEntity
  8
_U+30EC_U+30A4_U+30E4_U+30FC 1
 62
   179
420
  2234388
370
     9
  0
POLYLINE
  5
CC
330
1F
100
AcDbEntity
  8
_U+30EC_U+30A4_U+30E4_U+30FC 1
 62
   179
420
  2234388
370
     9
100
AcDb2dPolyline
 66
     1
 10
0.0
 20
0.0
 30
0.0
  0
VERTEX
  5
CD
330
CC
100
AcDbEntity
  8
_U+30EC_U+30A4_U+30E4_U+30FC 1
 62
   179
420
  2234388
370
     9
100
AcDbVertex
100
AcDb2dVertex
 10
126.4854426597578
 20
-146.6016458780631
 30
0.0
  0
VERTEX
  5
CE
330
CC
100
AcDbEntity
  8
_U+30EC_U+30A4_U+30E4_U+30FC 1
 62
   179
420
  2234388
370
     9
100
AcDbVertex
100
AcDb2dVertex
 10
126.4854426597578
 20
-133.0415777933455
 30
0.0
  0
SEQEND
  5
CF
330
CC
100
AcDbEntity
  8
_U+30EC_U+30A4_U+30E4_U+30FC 1
 62
   179
420
  2234388
370
     9
  0
INSERT
  5
D1
330
1F
100
AcDbEntity
  8
_U+30EC_U+30A4_U+30E4_U+30FC 1
100
AcDbBlockReference
  2
block 4
 10
0.0
 20
0.0
 30
0.0
  0
POLYLINE
  5
EC
330
1F
100
AcDbEntity
  8
_U+30EC_U+30A4_U+30E4_U+30FC 1
 62
   179
420
  2234388
370
     9
100
AcDb2dPolyline
 66
     1
 10
0.0
 20
0.0
 30
0.0
  0
VERTEX
  5
ED
330
EC
100
AcDbEntity
  8
_U+30EC_U+30A4_U+30E4_U+30FC 1
 62
   179
420
  2234388
370
     9
100
AcDbVertex
100
AcDb2dVertex
 10
86.48650603781306
 20
-165.5414028177726
 30
0.0
  0
VERTEX
  5
EE
330
EC
100
AcDbEntity
  8
_U+30EC_U+30A4_U+30E4_U+30FC 1
 62
   179
420
  2234388
370
     9
100
AcDbVertex
100
AcDb2dVertex
 10
96.48704763755359
 20
-165.5414028177726
 30
0.0
  0
SEQEND
  5
EF
330
EC
100
AcDbEntity
  8
_U+30EC_U+30A4_U+30E4_U+30FC 1
 62
   179
420
  2234388
370
     9
  0
POLYLINE
  5
F0
330
1F
100
AcDbEntity
  8
_U+30EC_U+30A4_U+30E4_U+30FC 1
 62
   179
420
  2234388
370
     9
100
AcDb2dPolyline
 66
     1
 10
0.0
 20
0.0
 30
0.0
  0
VERTEX
  5
F1
330
F0
100
AcDbEntity
  8
_U+30EC_U+30A4_U+30E4_U+30FC 1
 62
   179
420
  2234388
370
     9
100
AcDbVertex
100
AcDb2dVertex
 10
86.48650603781306
 20
-164.0813928829705
 30
0.0
  0
VERTEX
  5
F2
330
F0
100
AcDbEntity
  8
_U+30EC_U+30A4_U+30E4_U+30FC 1
 62
   179
420
  2234388
370
     9
100
AcDbVertex
100
AcDb2dVertex
 10
86.48650603781306
 20
-166.5413202505196
 30
0.0
  0
SEQEND
  5
F3
330
F0
100
AcDbEntity
  8
_U+30EC_U+30A4_U+30E4_U+30FC 1
 62
   179
420
  2234388
370
     9
  0
POLYLINE
  5
F4
330
1F
100
AcDbEntity
  8
_U+30EC_U+30A4_U+30E4_U+30FC 1
 62
   179
420
  2234388
370
     9
100
AcDb2dPolyline
 66
     1
 10
0.0
 20
0.0
 30
0.0
  0
VERTEX
  5
F5
330
F4
100
AcDbEntity
  8
_U+30EC_U+30A4_U+30E4_U+30FC 1
 62
   179
420
  2234388
370
     9
100
AcDbVertex
100
AcDb2dVertex
 10
96.4869076805495
 20
-164.0813928829705
 30
0.0
  0
VERTEX
  5
F6
330
F4
100
AcDbEntity
  8
_U+30EC_U+30A4_U+30E4_U+30FC 1
 62
   179
420
  2234388
370
     9
100
AcDbVertex
100
AcDb2dVertex
 10
96.4869076805495
 20
-166.5413202505196
 30
0.0
  0
SEQEND
  5
F7
330
F4
100
AcDbEntity
  8
_U+30EC_U+30A4_U+30E4_U+30FC 1
 62
   179
420
  2234388
370
     9
  0
INSERT
  5
F9
330
1F
100
AcDbEntity
  8
_U+30EC_U+30A4_U+30E4_U+30FC 1
100
AcDbBlockReference
  2
block 5
 10
0.0
 20
0.0
 30
0.0
  0
POLYLINE
  5
101
330
1F
100
AcDbEntity
  8
_U+30EC_U+30A4_U+30E4_U+30FC 1
 62
   179
420
  2234388
370
     9
100
AcDb2dPolyline
 66
     1
 10
0.0
 20
0.0
 30
0.0
  0
VERTEX
  5
102
330
101
100
AcDbEntity
  8
_U+30EC_U+30A4_U+30E4_U+30FC 1
 62
   179
420
  2234388
370
     9
100
AcDbVertex
100
AcDb2dVertex
 10
81.76722045549678
 20
-142.0417067278631
 30
0.0
  0
VERTEX
  5
103
330
101
100
AcDbEntity
  8
_U+30EC_U+30A4_U+30E4_U+30FC 1
 62
   179
420
  2234388
370
     9
100
AcDbVertex
100
AcDb2dVertex
 10
81.76722045549678
 20
-161.5415070023935
 30
0.0
  0
SEQEND
  5
104
330
101
100
AcDbEntity
  8
_U+30EC_U+30A4_U+30E4_U+30FC 1
 62
   179
420
  2234388
370
     9
  0
POLYLINE
  5
105
330
1F
100
AcDbEntity
  8
_U+30EC_U+30A4_U+30E4_U+30FC 1
 62
   179
420
  2234388
370
     9
100
AcDb2dPolyline
 66
     1
 10
0.0
 20
0.0
 30
0.0
  0
VERTEX
  5
106
330
105
100
AcDbEntity
  8
_U+30EC_U+30A4_U+30E4_U+30FC 1
 62
   179
420
  2234388
370
     9
100
AcDbVertex
100
AcDb2dVertex
 10
83.22723039029889
 20
-142.0417067278631
 30
0.0
  0
VERTEX
  5
107
330
105
100
AcDbEntity
  8
_U+30EC_U+30A4_U+30E4_U+30FC 1
 62
   179
420
  2234388
370
     9
100
AcDbVertex
100
AcDb2dVertex
 10
80.76694774727821
 20
-142.0417067278631
 30
0.0
  0
SEQEND
  5
108
330
105
100
AcDbEntity
  8
_U+30EC_U+30A4_U+30E4_U+30FC 1
 62
   179
420
  2234388
370
     9
  0
POLYLINE
  5
109
330
1F
100
AcDbEntity
  8
_U+30EC_U+30A4_U+30E4_U+30FC 1
 62
   179
420
  2234388
370
     9
100
AcDb2dPolyline
 66
     1
 10
0.0
 20
0.0
 30
0.0
  0
VERTEX
  5
10A
330
109
100
AcDbEntity
  8
_U+30EC_U+30A4_U+30E4_U+30FC 1
 62
   179
420
  2234388
370
     9
100
AcDbVertex
100
AcDb2dVertex
 10
83.22723039029889
 20
-161.5416469593976
 30
0.0
  0
VERTEX
  5
10B
330
109
100
AcDbEntity
  8
_U+30EC_U+30A4_U+30E4_U+30FC 1
 62
   179
420
  2234388
370
     9
100
AcDbVertex
100
AcDb2dVertex
 10
80.76694774727821
 20
-161.5416469593976
 30
0.0
  0
SEQEND
  5
10C
330
109
100
AcDbEntity
  8
_U+30EC_U+30A4_U+30E4_U+30FC 1
 62
   179
420
  2234388
370
     9
  0
INSERT
  5
10E
330
1F
100
AcDbEntity
  8
_U+30EC_U+30A4_U+30E4_U+30FC 1
100
AcDbBlockReference
  2
block 6
 10
0.0
 20
0.0
 30
0.0
  0
POLYLINE
  5
120
330
1F
100
AcDbEntity
  8
_U+30EC_U+30A4_U+30E4_U+30FC 1
 62
   179
420
  2234388
370
     9
100
AcDb2dPolyline
 66
     1
 10
0.0
 20
0.0
 30
0.0
  0
VERTEX
  5
121
330
120
100
AcDbEntity
  8
_U+30EC_U+30A4_U+30E4_U+30FC 1
 62
   179
420
  2234388
370
     9
100
AcDbVertex
100
AcDb2dVertex
 10
130.4851662203627
 20
-158.541657810842
 30
0.0
  0
VERTEX
  5
122
330
120
100
AcDbEntity
  8
_U+30EC_U+30A4_U+30E4_U+30FC 1
 62
   179
420
  2234388
370
     9
100
AcDbVertex
100
AcDb2dVertex
 10
130.4851662203627
 20
-150.041132317226
 30
0.0
  0
SEQEND
  5
123
330
120
100
AcDbEntity
  8
_U+30EC_U+30A4_U+30E4_U+30FC 1
 62
   179
420
  2234388
370
     9
  0
POLYLINE
  5
124
330
1F
100
AcDbEntity
  8
_U+30EC_U+30A4_U+30E4_U+30FC 1
 62
   179
420
  2234388
370
     9
100
AcDb2dPolyline
 66
     1
 10
0.0
 20
0.0
 30
0.0
  0
VERTEX
  5
125
330
124
100
AcDbEntity
  8
_U+30EC_U+30A4_U+30E4_U+30FC 1
 62
   179
420
  2234388
370
     9
100
AcDbVertex
100
AcDb2dVertex
 10
129.37790176548
 20
-150.0412292105366
 30
0.0
  0
VERTEX
  5
126
330
124
100
AcDbEntity
  8
_U+30EC_U+30A4_U+30E4_U+30FC 1
 62
   179
420
  2234388
370
     9
100
AcDbVertex
100
AcDb2dVertex
 10
131.4857403744365
 20
-150.0412292105366
 30
0.0
  0
SEQEND
  5
127
330
124
100
AcDbEntity
  8
_U+30EC_U+30A4_U+30E4_U+30FC 1
 62
   179
420
  2234388
370
     9
  0
INSERT
  5
129
330
1F
100
AcDbEntity
  8
_U+30EC_U+30A4_U+30E4_U+30FC 1
100
AcDbBlockReference
  2
block 7
 10
0.0
 20
0.0
 30
0.0
  0
POLYLINE
  5
13A
330
1F
100
AcDbEntity
  8
_U+30EC_U+30A4_U+30E4_U+30FC 1
 62
   179
420
  2234388
370
     9
100
AcDb2dPolyline
 66
     1
 10
0.0
 20
0.0
 30
0.0
  0
VERTEX
  5
13B
330
13A
100
AcDbEntity
  8
_U+30EC_U+30A4_U+30E4_U+30FC 1
 62
   179
420
  2234388
370
     9
100
AcDbVertex
100
AcDb2dVertex
 10
129.37790176548
 20
-149.1413595038659
 30
0.0
  0
VERTEX
  5
13C
330
13A
100
AcDbEntity
  8
_U+30EC_U+30A4_U+30E4_U+30FC 1
 62
   179
420
  2234388
370
     9
100
AcDbVertex
100
AcDb2dVertex
 10
131.4857403744365
 20
-149.1413595038659
 30
0.0
  0
SEQEND
  5
13D
330
13A
100
AcDbEntity
  8
_U+30EC_U+30A4_U+30E4_U+30FC 1
 62
   179
420
  2234388
370
     9
  0
SPLINE
  5
13E
330
1F
100
AcDbEntity
  8
_U+30EC_U+30A4_U+30E4_U+30FC 1
 62
   179
420
  2234388
370
     9
100
AcDbSpline
210
0.0
220
0.0
230
1.0
 70
    11
 71
     3
 72
    17
 73
    13
 74
     0
 42
0.0000000001
 43
0.0000000001
 12
1.0
 22
0.0
 32
0.0
 13
1.0
 23
0.0
 33
0.0
 40
0.0
 40
0.0
 40
0.0
 40
0.0
 40
1.0
 40
1.0
 40
1.0
 40
2.0
 40
2.0
 40
2.0
 40
3.0
 40
3.0
 40
3.0
 40
4.0
 40
4.0
 40
4.0
 40
4.0
 10
130.4851662203627
 20
-149.2271639132954
 30
0.0
 10
130.5401908548161
 20
-149.2271639132954
 30
0.0
 10
130.5849986279712
 20
-149.1823669060638
 30
0.0
 10
130.5849986279712
 20
-149.1273315056869
 30
0.0
 10
130.5849986279712
 20
-149.0719515957615
 30
0.0
 10
130.5401908548161
 20
-149.0271438226065
 30
0.0
 10
130.4851662203627
 20
-149.0271438226065
 30
0.0
 10
130.4301308199858
 20
-149.0271438226065
 30
0.0
 10
130.3853230468308
 20
-149.0719515957615
 30
0.0
 10
130.3853230468308
 20
-149.1273315056869
 30
0.0
 10
130.3853230468308
 20
-149.1823669060638
 30
0.0
 10
130.4301308199858
 20
-149.2271639132954
 30
0.0
 10
130.4851662203627
 20
-149.2271639132954
 30
0.0
  0
POLYLINE
  5
13F
330
1F
100
AcDbEntity
  8
_U+30EC_U+30A4_U+30E4_U+30FC 1
 62
   179
420
  2234388
370
     9
100
AcDb2dPolyline
 66
     1
 10
0.0
 20
0.0
 30
0.0
  0
VERTEX
  5
140
330
13F
100
AcDbEntity
  8
_U+30EC_U+30A4_U+30E4_U+30FC 1
 62
   179
420
  2234388
370
     9
100
AcDbVertex
100
AcDb2dVertex
 10
130.4858660053831
 20
-147.4725444848875
 30
0.0
  0
VERTEX
  5
141
330
13F
100
AcDbEntity
  8
_U+30EC_U+30A4_U+30E4_U+30FC 1
 62
   179
420
  2234388
370
     9
100
AcDbVertex
100
AcDb2dVertex
 10
130.4858660053831
 20
-150.1264953237965
 30
0.0
  0
SEQEND
  5
142
330
13F
100
AcDbEntity
  8
_U+30EC_U+30A4_U+30E4_U+30FC 1
 62
   179
420
  2234388
370
     9
  0
INSERT
  5
144
330
1F
100
AcDbEntity
  8
_U+30EC_U+30A4_U+30E4_U+30FC 1
100
AcDbBlockReference
  2
block 8
 10
0.0
 20
0.0
 30
0.0
  0
POLYLINE
  5
149
330
1F
100
AcDbEntity
  8
_U+30EC_U+30A4_U+30E4_U+30FC 1
  6
AI-Linetype-1
 62
   154
420
    23468
370
    25
100
AcDb2dPolyline
 66
     1
 10
0.0
 20
0.0
 30
0.0
  0
VERTEX
  5
14A
330
149
100
AcDbEntity
  8
_U+30EC_U+30A4_U+30E4_U+30FC 1
  6
AI-Linetype-1
 62
   154
420
    23468
370
    25
100
AcDbVertex
100
AcDb2dVertex
 10
89.9665477103914
 20
-142.9850061694947
 30
0.0
  0
VERTEX
  5
14B
330
149
100
AcDbEntity
  8
_U+30EC_U+30A4_U+30E4_U+30FC 1
  6
AI-Linetype-1
 62
   154
420
    23468
370
    25
100
AcDbVertex
100
AcDb2dVertex
 10
89.9665477103914
 20
-141.4959390074591
 30
0.0
  0
VERTEX
  5
14C
330
149
100
AcDbEntity
  8
_U+30EC_U+30A4_U+30E4_U+30FC 1
  6
AI-Linetype-1
 62
   154
420
    23468
370
    25
100
AcDbVertex
100
AcDb2dVertex
 10
85.96110744446567
 20
-141.4959390074591
 30
0.0
  0
VERTEX
  5
14D
330
149
100
AcDbEntity
  8
_U+30EC_U+30A4_U+30E4_U+30FC 1
  6
AI-Linetype-1
 62
   154
420
    23468
370
    25
100
AcDbVertex
100
AcDb2dVertex
 10
85.96110744446567
 20
-162.1542495322153
 30
0.0
  0
VERTEX
  5
14E
330
149
100
AcDbEntity
  8
_U+30EC_U+30A4_U+30E4_U+30FC 1
  6
AI-Linetype-1
 62
   154
420
    23468
370
    25
100
AcDbVertex
100
AcDb2dVertex
 10
97.01080981054548
 20
-162.1542495322153
 30
0.0
  0
VERTEX
  5
14F
330
149
100
AcDbEntity
  8
_U+30EC_U+30A4_U+30E4_U+30FC 1
  6
AI-Linetype-1
 62
   154
420
    23468
370
    25
100
AcDbVertex
100
AcDb2dVertex
 10
97.01080981054548
 20
-158.5802536462002
 30
0.0
  0
SEQEND
  5
151
330
149
100
AcDbEntity
  8
_U+30EC_U+30A4_U+30E4_U+30FC 1
  6
AI-Linetype-1
 62
   154
420
    23468
370
    25
  0
ENDSEC
  0
SECTION
  2
OBJECTS
  0
DICTIONARY
  5
C
330
0
100
AcDbDictionary
281
     1
  3
ACAD_GROUP
350
D
  3
ACAD_LAYOUT
350
1A
  3
ACAD_MATERIAL
350
3B
  3
ACAD_MLEADERSTYLE
350
153
  3
ACAD_MLINESTYLE
350
17
  3
ACAD_PLOTSETTINGS
350
19
  3
ACAD_PLOTSTYLENAME
350
E
  3
ACAD_TABLESTYLE
350
152
  3
ACAD_VISUALSTYLE
350
2A
  0
SUN
  5
3F
330
29
100
AcDbSun
 90
        1
290
     0
 63
     7
421
 16777215
 40
1.0
291
     1
 91
  2455826
 92
 54000000
292
     0
 70
     2
 71
   256
280
     1
  0
DICTIONARY
  5
D
102
{ACAD_REACTORS
330
C
102
}
330
C
100
AcDbDictionary
281
     1
  0
DICTIONARY
  5
1A
102
{ACAD_REACTORS
330
C
102
}
330
C
100
AcDbDictionary
281
     1
  3
Layout1
350
1E
  3
Layout2
350
26
  3
Model
350
22
  0
DICTIONARY
  5
3B
102
{ACAD_REACTORS
330
C
102
}
330
C
100
AcDbDictionary
281
     1
  3
ByBlock
350
3D
  3
ByLayer
350
3C
  3
Global
350
3E
  0
DICTIONARY
  5
153
102
{ACAD_REACTORS
330
C
102
}
330
C
100
AcDbDictionary
281
     1
  0
DICTIONARY
  5
17
102
{ACAD_REACTORS
330
C
102
}
330
C
100
AcDbDictionary
281
     1
  3
Standard
350
18
  0
DICTIONARY
  5
19
102
{ACAD_REACTORS
330
C
102
}
330
C
100
AcDbDictionary
281
     1
  0
ACDBDICTIONARYWDFLT
  5
E
102
{ACAD_REACTORS
330
C
102
}
330
C
100
AcDbDictionary
281
     1
  3
Normal
350
F
100
AcDbDictionaryWithDefault
340
F
  0
DICTIONARY
  5
152
102
{ACAD_REACTORS
330
C
102
}
330
C
100
AcDbDictionary
281
     1
  0
DICTIONARY
  5
2A
102
{ACAD_REACTORS
330
C
102
}
330
C
100
AcDbDictionary
281
     1
  3
2dWireframe
350
2F
  3
3D Hidden
350
31
  3
3dWireframe
350
30
  3
Basic
350
32
  3
Brighten
350
36
  3
ColorChange
350
3A
  3
Conceptual
350
34
  3
Dim
350
35
  3
Facepattern
350
39
  3
Flat
350
2B
  3
FlatWithEdges
350
2C
  3
Gouraud
350
2D
  3
GouraudWithEdges
350
2E
  3
Linepattern
350
38
  3
Realistic
350
33
  3
Thicken
350
37
  0
LAYOUT
  5
1E
102
{ACAD_REACTORS
330
1A
102
}
330
1A
100
AcDbPlotSettings
  1

  2
none_device
  4

  6

 40
0.0
 41
0.0
 42
0.0
 43
0.0
 44
0.0
 45
0.0
 46
0.0
 47
0.0
 48
0.0
 49
0.0
140
0.0
141
0.0
142
1.0
143
1.0
 70
   688
 72
     0
 73
     0
 74
     5
  7

 75
    16
 76
     0
 77
     2
 78
   300
147
1.0
148
0.0
149
0.0
100
AcDbLayout
  1
Layout1
 70
     1
 71
     1
 10
0.0
 20
0.0
 11
12.0
 21
9.0
 12
0.0
 22
0.0
 32
0.0
 14
1.000000000000000E+20
 24
1.000000000000000E+20
 34
1.000000000000000E+20
 15
-1.000000000000000E+20
 25
-1.000000000000000E+20
 35
-1.000000000000000E+20
146
0.0
 13
0.0
 23
0.0
 33
0.0
 16
1.0
 26
0.0
 36
0.0
 17
0.0
 27
1.0
 37
0.0
 76
     0
330
1B
  0
LAYOUT
  5
26
102
{ACAD_REACTORS
330
1A
102
}
330
1A
100
AcDbPlotSettings
  1

  2
none_device
  4

  6

 40
0.0
 41
0.0
 42
0.0
 43
0.0
 44
0.0
 45
0.0
 46
0.0
 47
0.0
 48
0.0
 49
0.0
140
0.0
141
0.0
142
1.0
143
1.0
 70
   688
 72
     0
 73
     0
 74
     5
  7

 75
    16
 76
     0
 77
     2
 78
   300
147
1.0
148
0.0
149
0.0
100
AcDbLayout
  1
Layout2
 70
     1
 71
     2
 10
0.0
 20
0.0
 11
0.0
 21
0.0
 12
0.0
 22
0.0
 32
0.0
 14
0.0
 24
0.0
 34
0.0
 15
0.0
 25
0.0
 35
0.0
146
0.0
 13
0.0
 23
0.0
 33
0.0
 16
1.0
 26
0.0
 36
0.0
 17
0.0
 27
1.0
 37
0.0
 76
     0
330
23
  0
LAYOUT
  5
22
102
{ACAD_REACTORS
330
1A
102
}
330
1A
100
AcDbPlotSettings
  1

  2
none_device
  4

  6

 40
0.0
 41
0.0
 42
0.0
 43
0.0
 44
0.0
 45
0.0
 46
0.0
 47
0.0
 48
0.0
 49
0.0
140
0.0
141
0.0
142
1.0
143
1.0
 70
  1712
 72
     0
 73
     0
 74
     0
  7

 75
     0
 76
     0
 77
     2
 78
   300
147
1.0
148
0.0
149
0.0
100
AcDbLayout
  1
Model
 70
     1
 71
     0
 10
0.0
 20
0.0
 11
12.0
 21
9.0
 12
0.0
 22
0.0
 32
0.0
 14
1.000000000000000E+20
 24
1.000000000000000E+20
 34
1.000000000000000E+20
 15
-1.000000000000000E+20
 25
-1.000000000000000E+20
 35
-1.000000000000000E+20
146
0.0
 13
0.0
 23
0.0
 33
0.0
 16
1.0
 26
0.0
 36
0.0
 17
0.0
 27
1.0
 37
0.0
 76
     0
330
1F
331
29
  0
MATERIAL
  5
3D
102
{ACAD_REACTORS
330
3B
102
}
330
3B
100
AcDbMaterial
  1
ByBlock
 72
     1
 94
      127
  0
MATERIAL
  5
3C
102
{ACAD_REACTORS
330
3B
102
}
330
3B
100
AcDbMaterial
  1
ByLayer
 72
     1
 94
      127
  0
MATERIAL
  5
3E
102
{ACAD_REACTORS
330
3B
102
}
330
3B
100
AcDbMaterial
  1
Global
 72
     1
 94
      127
  0
MLINESTYLE
  5
18
102
{ACAD_REACTORS
330
17
102
}
330
17
100
AcDbMlineStyle
  2
Standard
 70
     0
  3

 62
   256
 51
90.0
 52
90.0
 71
     2
 49
0.5
 62
   256
  6
BYLAYER
 49
-0.5
 62
   256
  6
BYLAYER
  0
ACDBPLACEHOLDER
  5
F
102
{ACAD_REACTORS
330
E
102
}
330
E
  0
VISUALSTYLE
  5
2F
102
{ACAD_REACTORS
330
2A
102
}
330
2A
100
AcDbVisualStyle
  2
2dWireframe
 70
     4
177
     2
291
     0
 71
     0
176
     1
 72
     2
176
     1
 73
     0
176
     1
 90
        0
176
     1
 40
-0.6
176
     1
 41
-30.0
176
     1
 62
     5
 63
     7
421
 16777215
176
     1
 74
     1
176
     1
 91
        4
176
     1
 64
     7
176
     1
 65
   257
176
     1
 75
     1
176
     1
175
     1
176
     1
 42
1.0
176
     1
 92
        0
176
     1
 66
   257
176
     1
 43
1.0
176
     1
 76
     1
176
     1
 77
     6
176
     1
 78
     2
176
     1
 67
     7
176
     1
 79
     5
176
     1
170
     0
176
     1
171
     0
176
     1
290
     0
176
     1
 93
        1
176
     1
 44
0.0
176
     1
173
     0
176
     1
  0
VISUALSTYLE
  5
31
102
{ACAD_REACTORS
330
2A
102
}
330
2A
100
AcDbVisualStyle
  2
3D Hidden
 70
     6
177
     2
291
     0
 71
     1
176
     1
 72
     2
176
     1
 73
     2
176
     1
 90
        0
176
     1
 40
-0.6
176
     1
 41
-30.0
176
     1
 62
     5
 63
     7
421
 16777215
176
     1
 74
     2
176
     1
 91
        2
176
     1
 64
     7
176
     1
 65
   257
176
     1
 75
     2
176
     1
175
     1
176
     1
 42
40.0
176
     1
 92
        0
176
     1
 66
   257
176
     1
 43
1.0
176
     1
 76
     1
176
     1
 77
     6
176
     1
 78
     2
176
     1
 67
     7
176
     1
 79
     3
176
     1
170
     0
176
     1
171
     0
176
     1
290
     0
176
     1
 93
        1
176
     1
 44
0.0
176
     1
173
     0
176
     1
  0
VISUALSTYLE
  5
30
102
{ACAD_REACTORS
330
2A
102
}
330
2A
100
AcDbVisualStyle
  2
3dWireframe
 70
     5
177
     2
291
     0
 71
     0
176
     1
 72
     2
176
     1
 73
     0
176
     1
 90
        0
176
     1
 40
-0.6
176
     1
 41
-30.0
176
     1
 62
     5
 63
     7
421
 16777215
176
     1
 74
     1
176
     1
 91
        4
176
     1
 64
     7
176
     1
 65
   257
176
     1
 75
     1
176
     1
175
     1
176
     1
 42
1.0
176
     1
 92
        0
176
     1
 66
   257
176
     1
 43
1.0
176
     1
 76
     1
176
     1
 77
     6
176
     1
 78
     2
176
     1
 67
     7
176
     1
 79
     5
176
     1
170
     0
176
     1
171
     0
176
     1
290
     0
176
     1
 93
        1
176
     1
 44
0.0
176
     1
173
     0
176
     1
  0
VISUALSTYLE
  5
32
102
{ACAD_REACTORS
330
2A
102
}
330
2A
100
AcDbVisualStyle
  2
Basic
 70
     7
177
     2
291
     1
 71
     1
176
     1
 72
     0
176
     1
 73
     1
176
     1
 90
        0
176
     1
 40
-0.6
176
     1
 41
-30.0
176
     1
 62
     5
 63
     7
421
 16777215
176
     1
 74
     0
176
     1
 91
        4
176
     1
 64
     7
176
     1
 65
   257
176
     1
 75
     1
176
     1
175
     1
176
     1
 42
1.0
176
     1
 92
        8
176
     1
 66
     7
176
     1
 43
1.0
176
     1
 76
     1
176
     1
 77
     6
176
     1
 78
     2
176
     1
 67
     7
176
     1
 79
     5
176
     1
170
     0
176
     1
171
     0
176
     1
290
     0
176
     1
 93
        1
176
     1
 44
0.0
176
     1
173
     0
176
     1
  0
VISUALSTYLE
  5
36
102
{ACAD_REACTORS
330
2A
102
}
330
2A
100
AcDbVisualStyle
  2
Brighten
 70
    12
177
     2
291
     1
 71
     2
176
     1
 72
     2
176
     1
 73
     0
176
     1
 90
        0
176
     1
 40
-0.6
176
     1
 41
-30.0
176
     1
 62
     5
 63
     7
421
 16777215
176
     1
 74
     1
176
     1
 91
        4
176
     1
 64
     7
176
     1
 65
   257
176
     1
 75
     1
176
     1
175
     1
176
     1
 42
1.0
176
     1
 92
        8
176
     1
 66
     7
176
     1
 43
1.0
176
     1
 76
     1
176
     1
 77
     6
176
     1
 78
     2
176
     1
 67
     7
176
     1
 79
     5
176
     1
170
     0
176
     1
171
     0
176
     1
290
     0
176
     1
 93
        1
176
     1
 44
50.0
176
     1
173
     0
176
     1
  0
VISUALSTYLE
  5
3A
102
{ACAD_REACTORS
330
2A
102
}
330
2A
100
AcDbVisualStyle
  2
ColorChange
 70
    16
177
     2
291
     1
 71
     2
176
     1
 72
     2
176
     1
 73
     3
176
     1
 90
        0
176
     1
 40
-0.6
176
     1
 41
-30.0
176
     1
 62
     5
 63
     8
421
  8421504
176
     1
 74
     1
176
     1
 91
        4
176
     1
 64
     7
176
     1
 65
   257
176
     1
 75
     1
176
     1
175
     1
176
     1
 42
1.0
176
     1
 92
        8
176
     1
 66
     8
424
  8421504
176
     1
 43
1.0
176
     1
 76
     1
176
     1
 77
     6
176
     1
 78
     2
176
     1
 67
     7
176
     1
 79
     5
176
     1
170
     0
176
     1
171
     0
176
     1
290
     0
176
     1
 93
        1
176
     1
 44
0.0
176
     1
173
     0
176
     1
  0
VISUALSTYLE
  5
34
102
{ACAD_REACTORS
330
2A
102
}
330
2A
100
AcDbVisualStyle
  2
Conceptual
 70
     9
177
     2
291
     0
 71
     3
176
     1
 72
     2
176
     1
 73
     0
176
     1
 90
        0
176
     1
 40
-0.6
176
     1
 41
-30.0
176
     1
 62
     5
 63
     7
421
 16777215
176
     1
 74
     2
176
     1
 91
        2
176
     1
 64
     7
176
     1
 65
   257
176
     1
 75
     1
176
     1
175
     1
176
     1
 42
40.0
176
     1
 92
        8
176
     1
 66
     7
176
     1
 43
1.0
176
     1
 76
     1
176
     1
 77
     6
176
     1
 78
     2
176
     1
 67
     7
176
     1
 79
     3
176
     1
170
     0
176
     1
171
     0
176
     1
290
     0
176
     1
 93
        1
176
     1
 44
0.0
176
     1
173
     0
176
     1
  0
VISUALSTYLE
  5
35
102
{ACAD_REACTORS
330
2A
102
}
330
2A
100
AcDbVisualStyle
  2
Dim
 70
    11
177
     2
291
     1
 71
     2
176
     1
 72
     2
176
     1
 73
     0
176
     1
 90
        0
176
     1
 40
-0.6
176
     1
 41
-30.0
176
     1
 62
     5
 63
     7
421
 16777215
176
     1
 74
     1
176
     1
 91
        4
176
     1
 64
     7
176
     1
 65
   257
176
     1
 75
     1
176
     1
175
     1
176
     1
 42
1.0
176
     1
 92
        8
176
     1
 66
     7
176
     1
 43
1.0
176
     1
 76
     1
176
     1
 77
     6
176
     1
 78
     2
176
     1
 67
     7
176
     1
 79
     5
176
     1
170
     0
176
     1
171
     0
176
     1
290
     0
176
     1
 93
        1
176
     1
 44
-50.0
176
     1
173
     0
176
     1
  0
VISUALSTYLE
  5
39
102
{ACAD_REACTORS
330
2A
102
}
330
2A
100
AcDbVisualStyle
  2
Facepattern
 70
    15
177
     2
291
     1
 71
     2
176
     1
 72
     2
176
     1
 73
     0
176
     1
 90
        0
176
     1
 40
-0.6
176
     1
 41
-30.0
176
     1
 62
     5
 63
     7
421
 16777215
176
     1
 74
     1
176
     1
 91
        4
176
     1
 64
     7
176
     1
 65
   257
176
     1
 75
     1
176
     1
175
     1
176
     1
 42
1.0
176
     1
 92
        8
176
     1
 66
     7
176
     1
 43
1.0
176
     1
 76
     1
176
     1
 77
     6
176
     1
 78
     2
176
     1
 67
     7
176
     1
 79
     5
176
     1
170
     0
176
     1
171
     0
176
     1
290
     0
176
     1
 93
        1
176
     1
 44
0.0
176
     1
173
     0
176
     1
  0
VISUALSTYLE
  5
2B
102
{ACAD_REACTORS
330
2A
102
}
330
2A
100
AcDbVisualStyle
  2
Flat
 70
     0
177
     2
291
     1
 71
     2
176
     1
 72
     1
176
     1
 73
     1
176
     1
 90
        2
176
     1
 40
-0.6
176
     1
 41
30.0
176
     1
 62
     5
 63
     7
421
 16777215
176
     1
 74
     0
176
     1
 91
        4
176
     1
 64
     7
176
     1
 65
   257
176
     1
 75
     1
176
     1
175
     1
176
     1
 42
1.0
176
     1
 92
        8
176
     1
 66
     7
176
     1
 43
1.0
176
     1
 76
     1
176
     1
 77
     6
176
     1
 78
     2
176
     1
 67
     7
176
     1
 79
     5
176
     1
170
     0
176
     1
171
     0
176
     1
290
     0
176
     1
 93
       13
176
     1
 44
0.0
176
     1
173
     0
176
     1
  0
VISUALSTYLE
  5
2C
102
{ACAD_REACTORS
330
2A
102
}
330
2A
100
AcDbVisualStyle
  2
FlatWithEdges
 70
     1
177
     2
291
     1
 71
     2
176
     1
 72
     1
176
     1
 73
     1
176
     1
 90
        2
176
     1
 40
-0.6
176
     1
 41
30.0
176
     1
 62
     5
 63
     7
421
 16777215
176
     1
 74
     1
176
     1
 91
        4
176
     1
 64
     7
176
     1
 65
   257
176
     1
 75
     1
176
     1
175
     1
176
     1
 42
1.0
176
     1
 92
        0
176
     1
 66
   257
176
     1
 43
1.0
176
     1
 76
     1
176
     1
 77
     6
176
     1
 78
     2
176
     1
 67
     7
176
     1
 79
     5
176
     1
170
     0
176
     1
171
     0
176
     1
290
     0
176
     1
 93
       13
176
     1
 44
0.0
176
     1
173
     0
176
     1
  0
VISUALSTYLE
  5
2D
102
{ACAD_REACTORS
330
2A
102
}
330
2A
100
AcDbVisualStyle
  2
Gouraud
 70
     2
177
     2
291
     1
 71
     2
176
     1
 72
     2
176
     1
 73
     1
176
     1
 90
        2
176
     1
 40
-0.6
176
     1
 41
30.0
176
     1
 62
     5
 63
     7
421
 16777215
176
     1
 74
     0
176
     1
 91
        4
176
     1
 64
     7
176
     1
 65
   257
176
     1
 75
     1
176
     1
175
     1
176
     1
 42
1.0
176
     1
 92
        0
176
     1
 66
     7
176
     1
 43
1.0
176
     1
 76
     1
176
     1
 77
     6
176
     1
 78
     2
176
     1
 67
     7
176
     1
 79
     5
176
     1
170
     0
176
     1
171
     0
176
     1
290
     0
176
     1
 93
       13
176
     1
 44
0.0
176
     1
173
     0
176
     1
  0
VISUALSTYLE
  5
2E
102
{ACAD_REACTORS
330
2A
102
}
330
2A
100
AcDbVisualStyle
  2
GouraudWithEdges
 70
     3
177
     2
291
     1
 71
     2
176
     1
 72
     2
176
     1
 73
     1
176
     1
 90
        2
176
     1
 40
-0.6
176
     1
 41
30.0
176
     1
 62
     5
 63
     7
421
 16777215
176
     1
 74
     1
176
     1
 91
        4
176
     1
 64
     7
176
     1
 65
   257
176
     1
 75
     1
176
     1
175
     1
176
     1
 42
1.0
176
     1
 92
        0
176
     1
 66
   257
176
     1
 43
1.0
176
     1
 76
     1
176
     1
 77
     6
176
     1
 78
     2
176
     1
 67
     7
176
     1
 79
     5
176
     1
170
     0
176
     1
171
     0
176
     1
290
     0
176
     1
 93
       13
176
     1
 44
0.0
176
     1
173
     0
176
     1
  0
VISUALSTYLE
  5
38
102
{ACAD_REACTORS
330
2A
102
}
330
2A
100
AcDbVisualStyle
  2
Linepattern
 70
    14
177
     2
291
     1
 71
     2
176
     1
 72
     2
176
     1
 73
     0
176
     1
 90
        0
176
     1
 40
-0.6
176
     1
 41
-30.0
176
     1
 62
     5
 63
     7
421
 16777215
176
     1
 74
     1
176
     1
 91
        4
176
     1
 64
     7
176
     1
 65
   257
176
     1
 75
     7
176
     1
175
     7
176
     1
 42
1.0
176
     1
 92
        8
176
     1
 66
     7
176
     1
 43
1.0
176
     1
 76
     1
176
     1
 77
     6
176
     1
 78
     2
176
     1
 67
     7
176
     1
 79
     5
176
     1
170
     0
176
     1
171
     0
176
     1
290
     0
176
     1
 93
        1
176
     1
 44
0.0
176
     1
173
     0
176
     1
  0
VISUALSTYLE
  5
33
102
{ACAD_REACTORS
330
2A
102
}
330
2A
100
AcDbVisualStyle
  2
Realistic
 70
     8
177
     2
291
     0
 71
     2
176
     1
 72
     2
176
     1
 73
     0
176
     1
 90
        0
176
     1
 40
-0.6
176
     1
 41
-30.0
176
     1
 62
     5
 63
     7
421
 16777215
176
     1
 74
     1
176
     1
 91
        0
176
     1
 64
     7
176
     1
 65
   257
176
     1
 75
     1
176
     1
175
     1
176
     1
 42
1.0
176
     1
 92
        8
176
     1
 66
     8
424
  7895160
176
     1
 43
1.0
176
     1
 76
     1
176
     1
 77
     6
176
     1
 78
     2
176
     1
 67
     7
176
     1
 79
     5
176
     1
170
     0
176
     1
171
     0
176
     1
290
     0
176
     1
 93
       13
176
     1
 44
0.0
176
     1
173
     0
176
     1
  0
VISUALSTYLE
  5
37
102
{ACAD_REACTORS
330
2A
102
}
330
2A
100
AcDbVisualStyle
  2
Thicken
 70
    13
177
     2
291
     1
 71
     2
176
     1
 72
     2
176
     1
 73
     0
176
     1
 90
        0
176
     1
 40
-0.6
176
     1
 41
-30.0
176
     1
 62
     5
 63
     7
421
 16777215
176
     1
 74
     1
176
     1
 91
        4
176
     1
 64
     7
176
     1
 65
   257
176
     1
 75
     1
176
     1
175
     1
176
     1
 42
1.0
176
     1
 92
       12
176
     1
 66
     7
176
     1
 43
1.0
176
     1
 76
     1
176
     1
 77
     6
176
     1
 78
     2
176
     1
 67
     7
176
     1
 79
     5
176
     1
170
     0
176
     1
171
     0
176
     1
290
     0
176
     1
 93
        1
176
     1
 44
0.0
176
     1
173
     0
176
     1
  0
ENDSEC
  0
EOF
