  0
SECTION
  2
HEADER
  9
$ACADVER
  1
AC1024
  9
$ACADMAINTVER
 70
     6
  9
$DWGCODEPAGE
  3
UNDEFINED
  9
$INSBASE
 10
0.0
 20
0.0
 30
0.0
  9
$EXTMIN
 10
1.000000000000000E+20
 20
1.000000000000000E+20
 30
1.000000000000000E+20
  9
$EXTMAX
 10
-1.000000000000000E+20
 20
-1.000000000000000E+20
 30
-1.000000000000000E+20
  9
$LIMMIN
 10
0.0
 20
0.0
  9
$LIMMAX
 10
12.0
 20
9.0
  9
$ORTHOMODE
 70
     0
  9
$REGENMODE
 70
     1
  9
$FILLMODE
 70
     1
  9
$QTEXTMODE
 70
     0
  9
$MIRRTEXT
 70
     1
  9
$LTSCALE
 40
1.0
  9
$ATTMODE
 70
     1
  9
$TEXTSIZE
 40
0.2
  9
$TRACEWID
 40
0.05
  9
$TEXTSTYLE
  7
Standard
  9
$CLAYER
  8
0
  9
$CELTYPE
  6
ByLayer
  9
$CECOLOR
 62
   256
  9
$CELTSCALE
 40
1.0
  9
$DISPSILH
 70
     0
  9
$DIMSCALE
 40
1.0
  9
$DIMASZ
 40
0.18
  9
$DIMEXO
 40
0.0625
  9
$DIMDLI
 40
0.38
  9
$DIMRND
 40
0.0
  9
$DIMDLE
 40
0.0
  9
$DIMEXE
 40
0.18
  9
$DIMTP
 40
0.0
  9
$DIMTM
 40
0.0
  9
$DIMTXT
 40
0.18
  9
$DIMCEN
 40
0.09
  9
$DIMTSZ
 40
0.0
  9
$DIMTOL
 70
     0
  9
$DIMLIM
 70
     0
  9
$DIMTIH
 70
     1
  9
$DIMTOH
 70
     1
  9
$DIMSE1
 70
     0
  9
$DIMSE2
 70
     0
  9
$DIMTAD
 70
     0
  9
$DIMZIN
 70
     0
  9
$DIMBLK
  1

  9
$DIMASO
 70
     1
  9
$DIMSHO
 70
     1
  9
$DIMPOST
  1

  9
$DIMAPOST
  1

  9
$DIMALT
 70
     0
  9
$DIMALTD
 70
     2
  9
$DIMALTF
 40
25.4
  9
$DIMLFAC
 40
1.0
  9
$DIMTOFL
 70
     0
  9
$DIMTVP
 40
0.0
  9
$DIMTIX
 70
     0
  9
$DIMSOXD
 70
     0
  9
$DIMSAH
 70
     0
  9
$DIMBLK1
  1

  9
$DIMBLK2
  1

  9
$DIMSTYLE
  2
Standard
  9
$DIMCLRD
 70
     0
  9
$DIMCLRE
 70
     0
  9
$DIMCLRT
 70
     0
  9
$DIMTFAC
 40
1.0
  9
$DIMGAP
 40
0.09
  9
$DIMJUST
 70
     0
  9
$DIMSD1
 70
     0
  9
$DIMSD2
 70
     0
  9
$DIMTOLJ
 70
     1
  9
$DIMTZIN
 70
     0
  9
$DIMALTZ
 70
     0
  9
$DIMALTTZ
 70
     0
  9
$DIMUPT
 70
     0
  9
$DIMDEC
 70
     4
  9
$DIMTDEC
 70
     4
  9
$DIMALTU
 70
     2
  9
$DIMALTTD
 70
     2
  9
$DIMTXSTY
  7
Standard
  9
$DIMAUNIT
 70
     0
  9
$DIMADEC
 70
     0
  9
$DIMALTRND
 40
0.0
  9
$DIMAZIN
 70
     0
  9
$DIMDSEP
 70
    46
  9
$DIMATFIT
 70
     3
  9
$DIMFRAC
 70
     0
  9
$DIMLDRBLK
  1

  9
$DIMLUNIT
 70
     2
  9
$DIMLWD
 70
    -2
  9
$DIMLWE
 70
    -2
  9
$DIMTMOVE
 70
     0
  9
$DIMFXL
 40
1.0
  9
$DIMFXLON
 70
     0
  9
$DIMJOGANG
 40
0.7853981633974483
  9
$DIMTFILL
 70
     0
  9
$DIMTFILLCLR
 70
     0
  9
$DIMARCSYM
 70
     0
  9
$DIMLTYPE
  6

  9
$DIMLTEX1
  6

  9
$DIMLTEX2
  6

  9
$DIMTXTDIRECTION
 70
     0
  9
$LUNITS
 70
     2
  9
$LUPREC
 70
     4
  9
$SKETCHINC
 40
0.1
  9
$FILLETRAD
 40
0.5
  9
$AUNITS
 70
     0
  9
$AUPREC
 70
     0
  9
$MENU
  1
.
  9
$ELEVATION
 40
0.0
  9
$PELEVATION
 40
0.0
  9
$THICKNESS
 40
0.0
  9
$LIMCHECK
 70
     0
  9
$CHAMFERA
 40
0.5
  9
$CHAMFERB
 40
0.5
  9
$CHAMFERC
 40
1.0
  9
$CHAMFERD
 40
0.0
  9
$SKPOLY
 70
     0
  9
$TDCREATE
 40
2458263.580567118
  9
$TDUCREATE
 40
2458263.205567129
  9
$TDUPDATE
 40
2458263.580567118
  9
$TDUUPDATE
 40
2458263.205567129
  9
$TDINDWG
 40
0.0000000116
  9
$TDUSRTIMER
 40
0.0000000116
  9
$USRTIMER
 70
     1
  9
$ANGBASE
 50
0.0
  9
$ANGDIR
 70
     0
  9
$PDMODE
 70
     0
  9
$PDSIZE
 40
0.0
  9
$PLINEWID
 40
0.0
  9
$SPLFRAME
 70
     0
  9
$SPLINETYPE
 70
     6
  9
$SPLINESEGS
 70
     8
  9
$HANDSEED
  5
15F
  9
$SURFTAB1
 70
     6
  9
$SURFTAB2
 70
     6
  9
$SURFTYPE
 70
     6
  9
$SURFU
 70
     6
  9
$SURFV
 70
     6
  9
$UCSBASE
  2

  9
$UCSNAME
  2

  9
$UCSORG
 10
0.0
 20
0.0
 30
0.0
  9
$UCSXDIR
 10
1.0
 20
0.0
 30
0.0
  9
$UCSYDIR
 10
0.0
 20
1.0
 30
0.0
  9
$UCSORTHOREF
  2

  9
$UCSORTHOVIEW
 70
     0
  9
$UCSORGTOP
 10
0.0
 20
0.0
 30
0.0
  9
$UCSORGBOTTOM
 10
0.0
 20
0.0
 30
0.0
  9
$UCSORGLEFT
 10
0.0
 20
0.0
 30
0.0
  9
$UCSORGRIGHT
 10
0.0
 20
0.0
 30
0.0
  9
$UCSORGFRONT
 10
0.0
 20
0.0
 30
0.0
  9
$UCSORGBACK
 10
0.0
 20
0.0
 30
0.0
  9
$PUCSBASE
  2

  9
$PUCSNAME
  2

  9
$PUCSORG
 10
0.0
 20
0.0
 30
0.0
  9
$PUCSXDIR
 10
1.0
 20
0.0
 30
0.0
  9
$PUCSYDIR
 10
0.0
 20
1.0
 30
0.0
  9
$PUCSORTHOREF
  2

  9
$PUCSORTHOVIEW
 70
     0
  9
$PUCSORGTOP
 10
0.0
 20
0.0
 30
0.0
  9
$PUCSORGBOTTOM
 10
0.0
 20
0.0
 30
0.0
  9
$PUCSORGLEFT
 10
0.0
 20
0.0
 30
0.0
  9
$PUCSORGRIGHT
 10
0.0
 20
0.0
 30
0.0
  9
$PUCSORGFRONT
 10
0.0
 20
0.0
 30
0.0
  9
$PUCSORGBACK
 10
0.0
 20
0.0
 30
0.0
  9
$USERI1
 70
     0
  9
$USERI2
 70
     0
  9
$USERI3
 70
     0
  9
$USERI4
 70
     0
  9
$USERI5
 70
     0
  9
$USERR1
 40
0.0
  9
$USERR2
 40
0.0
  9
$USERR3
 40
0.0
  9
$USERR4
 40
0.0
  9
$USERR5
 40
0.0
  9
$WORLDVIEW
 70
     1
  9
$SHADEDGE
 70
     3
  9
$SHADEDIF
 70
    70
  9
$TILEMODE
 70
     1
  9
$MAXACTVP
 70
    64
  9
$PINSBASE
 10
0.0
 20
0.0
 30
0.0
  9
$PLIMCHECK
 70
     0
  9
$PEXTMIN
 10
1.000000000000000E+20
 20
1.000000000000000E+20
 30
1.000000000000000E+20
  9
$PEXTMAX
 10
-1.000000000000000E+20
 20
-1.000000000000000E+20
 30
-1.000000000000000E+20
  9
$PLIMMIN
 10
0.0
 20
0.0
  9
$PLIMMAX
 10
12.0
 20
9.0
  9
$UNITMODE
 70
     0
  9
$VISRETAIN
 70
     1
  9
$PLINEGEN
 70
     0
  9
$PSLTSCALE
 70
     1
  9
$TREEDEPTH
 70
  3020
  9
$CMLSTYLE
  2
Standard
  9
$CMLJUST
 70
     0
  9
$CMLSCALE
 40
1.0
  9
$PROXYGRAPHICS
 70
     1
  9
$MEASUREMENT
 70
     0
  9
$CELWEIGHT
370
    -1
  9
$ENDCAPS
280
     0
  9
$JOINSTYLE
280
     0
  9
$LWDISPLAY
290
     1
  9
$INSUNITS
 70
     1
  9
$HYPERLINKBASE
  1

  9
$STYLESHEET
  1

  9
$XEDIT
290
     1
  9
$CEPSNTYPE
380
     0
  9
$PSTYLEMODE
290
     1
  9
$FINGERPRINTGUID
  2
{98177DFD-2A00-E29D-E1E9-D32ED975880F}
  9
$VERSIONGUID
  2
{FAEB1C32-E019-11D5-929B-00C0DF256EC4}
  9
$EXTNAMES
290
     1
  9
$PSVPSCALE
 40
0.0
  9
$OLESTARTUP
290
     0
  9
$SORTENTS
280
   127
  9
$INDEXCTL
280
     0
  9
$HIDETEXT
280
     1
  9
$XCLIPFRAME
280
     2
  9
$HALOGAP
280
     0
  9
$OBSCOLOR
 70
   257
  9
$OBSLTYPE
280
     0
  9
$INTERSECTIONDISPLAY
280
     0
  9
$INTERSECTIONCOLOR
 70
   257
  9
$DIMASSOC
280
     2
  9
$PROJECTNAME
  1

  9
$CAMERADISPLAY
290
     0
  9
$LENSLENGTH
 40
50.0
  9
$CAMERAHEIGHT
 40
0.0
  9
$STEPSPERSEC
 40
2.0
  9
$STEPSIZE
 40
6.0
  9
$3DDWFPREC
 40
2.0
  9
$PSOLWIDTH
 40
0.25
  9
$PSOLHEIGHT
 40
4.0
  9
$LOFTANG1
 40
1.570796326794897
  9
$LOFTANG2
 40
1.570796326794897
  9
$LOFTMAG1
 40
0.0
  9
$LOFTMAG2
 40
0.0
  9
$LOFTPARAM
 70
     7
  9
$LOFTNORMALS
280
     1
  9
$LATITUDE
 40
37.795
  9
$LONGITUDE
 40
-122.394
  9
$NORTHDIRECTION
 40
0.0
  9
$TIMEZONE
 70
 -8000
  9
$LIGHTGLYPHDISPLAY
280
     1
  9
$TILEMODELIGHTSYNCH
280
     1
  9
$CMATERIAL
347
3C
  9
$SOLIDHIST
280
     1
  9
$SHOWHIST
280
     1
  9
$DWFFRAME
280
     2
  9
$DGNFRAME
280
     2
  9
$REALWORLDSCALE
290
     1
  9
$INTERFERECOLOR
 62
   256
  9
$CSHADOW
280
     0
  9
$SHADOWPLANELOCATION
 40
0.0
  0
ENDSEC
  0
SECTION
  2
CLASSES
  0
CLASS
  1
ACDBDICTIONARYWDFLT
  2
AcDbDictionaryWithDefault
  3
ObjectDBX Classes
 90
        0
 91
        4
280
     0
281
     0
  0
CLASS
  1
VISUALSTYLE
  2
AcDbVisualStyle
  3
ObjectDBX Classes
 90
     4095
 91
        4
280
     0
281
     0
  0
CLASS
  1
MATERIAL
  2
AcDbMaterial
  3
ObjectDBX Classes
 90
     1153
 91
        4
280
     0
281
     0
  0
CLASS
  1
SUN
  2
AcDbSun
  3
SCENEOE
 90
     1024
 91
        4
280
     0
281
     0
  0
ENDSEC
  0
SECTION
  2
TABLES
  0
TABLE
  2
VPORT
  5
8
330
0
100
AcDbSymbolTable
 70
     1
  0
VPORT
  5
29
330
8
100
AcDbSymbolTableRecord
100
AcDbViewportTableRecord
  2
*Active
 70
     0
 10
0.0
 20
0.0
 11
1.0
 21
1.0
 12
0.0
 22
0.0
 13
0.0
 23
0.0
 14
0.5
 24
0.5
 15
0.5
 25
0.5
 16
0.0
 26
0.0
 36
1.0
 17
105.0007777515277
 27
-148.5000416295416
 37
0.0
 40
297.0000832590831
 41
0.7070757462376333
 42
50.0
 43
0.0
 44
0.0
 50
0.0
 51
0.0
 71
     0
 72
   100
 73
     1
 74
     3
 75
     0
 76
     0
 77
     0
 78
     0
281
     0
 65
     1
110
0.0
120
0.0
130
0.0
111
1.0
121
0.0
131
0.0
112
0.0
122
1.0
132
0.0
 79
     0
146
0.0
 60
     3
 61
     5
292
     1
282
     1
141
0.0
142
0.0
 63
   250
361
3F
  0
ENDTAB
  0
TABLE
  2
LTYPE
  5
5
330
0
100
AcDbSymbolTable
 70
     2
  0
LTYPE
  5
14
330
5
100
AcDbSymbolTableRecord
100
AcDbLinetypeTableRecord
  2
ByBlock
 70
     0
  3

 72
    65
 73
     0
 40
0.0
  0
LTYPE
  5
15
330
5
100
AcDbSymbolTableRecord
100
AcDbLinetypeTableRecord
  2
ByLayer
 70
     0
  3

 72
    65
 73
     0
 40
0.0
  0
LTYPE
  5
16
330
5
100
AcDbSymbolTableRecord
100
AcDbLinetypeTableRecord
  2
Continuous
 70
     0
  3
Solid line
 72
    65
 73
     0
 40
0.0
  0
LTYPE
  5
15B
330
5
100
AcDbSymbolTableRecord
100
AcDbLinetypeTableRecord
  2
AI-Linetype-1
 70
     0
  3
Adobe Illustrator Linetype No. 1
 72
    65
 73
     2
 40
1.380066645462674
 49
0.6900333227313368
 74
     0
 49
-0.6900333227313368
 74
     0
  0
ENDTAB
  0
TABLE
  2
LAYER
  5
2
330
0
100
AcDbSymbolTable
 70
     2
  0
LAYER
  5
10
330
2
100
AcDbSymbolTableRecord
100
AcDbLayerTableRecord
  2
0
 70
     0
 62
     7
  6
Continuous
370
    -3
390
F
347
3E
  0
LAYER
  5
40
330
2
100
AcDbSymbolTableRecord
100
AcDbLayerTableRecord
  2
_U+30EC_U+30A4_U+30E4_U+30FC 1
 70
     0
 62
     7
  6
Continuous
370
    -3
390
F
347
3E
  0
ENDTAB
  0
TABLE
  2
STYLE
  5
3
330
0
100
AcDbSymbolTable
 70
     1
  0
STYLE
  5
11
330
3
100
AcDbSymbolTableRecord
100
AcDbTextStyleTableRecord
  2
Standard
 70
     0
 40
0.0
 41
1.0
 50
0.0
 71
     0
 42
0.2
  3
txt
  4

  0
ENDTAB
  0
TABLE
  2
VIEW
  5
6
330
0
100
AcDbSymbolTable
 70
     0
  0
ENDTAB
  0
TABLE
  2
UCS
  5
7
330
0
100
AcDbSymbolTable
 70
     0
  0
ENDTAB
  0
TABLE
  2
APPID
  5
9
330
0
100
AcDbSymbolTable
 70
     1
  0
APPID
  5
12
330
9
100
AcDbSymbolTableRecord
100
AcDbRegAppTableRecord
  2
ACAD
 70
     0
  0
ENDTAB
  0
TABLE
  2
DIMSTYLE
  5
A
330
0
100
AcDbSymbolTable
 70
     1
100
AcDbDimStyleTable
  0
DIMSTYLE
105
27
330
A
100
AcDbSymbolTableRecord
100
AcDbDimStyleTableRecord
  2
Standard
 70
     0
178
     0
340
11
  0
ENDTAB
  0
TABLE
  2
BLOCK_RECORD
  5
1
330
0
100
AcDbSymbolTable
 70
     8
  0
BLOCK_RECORD
  5
1F
330
1
100
AcDbSymbolTableRecord
100
AcDbBlockTableRecord
  2
*Model_Space
340
22
 70
     0
280
     1
281
     0
  0
BLOCK_RECORD
  5
1B
330
1
100
AcDbSymbolTableRecord
100
AcDbBlockTableRecord
  2
*Paper_Space
340
1E
 70
     0
280
     1
281
     0
  0
BLOCK_RECORD
  5
23
330
1
100
AcDbSymbolTableRecord
100
AcDbBlockTableRecord
  2
*Paper_Space0
340
26
 70
     0
280
     1
281
     0
  0
BLOCK_RECORD
  5
9D
330
1
100
AcDbSymbolTableRecord
100
AcDbBlockTableRecord
  2
block 2
340
0
102
{BLKREFS
331
9E
102
}
 70
     0
280
     1
281
     0
  0
BLOCK_RECORD
  5
AF
330
1
100
AcDbSymbolTableRecord
100
AcDbBlockTableRecord
  2
block 3
340
0
102
{BLKREFS
331
B0
102
}
 70
     0
280
     1
281
     0
  0
BLOCK_RECORD
  5
C1
330
1
100
AcDbSymbolTableRecord
100
AcDbBlockTableRecord
  2
block 4
340
0
102
{BLKREFS
331
C2
102
}
 70
     0
280
     1
281
     0
  0
BLOCK_RECORD
  5
E9
330
1
100
AcDbSymbolTableRecord
100
AcDbBlockTableRecord
  2
block 5
340
0
102
{BLKREFS
331
EA
102
}
 70
     0
280
     1
281
     0
  0
BLOCK_RECORD
  5
FE
330
1
100
AcDbSymbolTableRecord
100
AcDbBlockTableRecord
  2
block 6
340
0
102
{BLKREFS
331
FF
102
}
 70
     0
280
     1
281
     0
  0
BLOCK_RECORD
  5
11D
330
1
100
AcDbSymbolTableRecord
100
AcDbBlockTableRecord
  2
block 7
340
0
102
{BLKREFS
331
11E
102
}
 70
     0
280
     1
281
     0
  0
BLOCK_RECORD
  5
12F
330
1
100
AcDbSymbolTableRecord
100
AcDbBlockTableRecord
  2
block 8
340
0
102
{BLKREFS
331
130
102
}
 70
     0
280
     1
281
     0
  0
ENDTAB
  0
ENDSEC
  0
SECTION
  2
BLOCKS
  0
BLOCK
  5
20
330
1F
100
AcDbEntity
  8
0
100
AcDbBlockBegin
  2
*Model_Space
 70
     0
 10
0.0
 20
0.0
 30
0.0
  3
*Model_Space
  1

  0
ENDBLK
  5
21
330
1F
100
AcDbEntity
  8
0
100
AcDbBlockEnd
  0
BLOCK
  5
1C
330
1B
100
AcDbEntity
 67
     1
  8
0
100
AcDbBlockBegin
  2
*Paper_Space
 70
     0
 10
0.0
 20
0.0
 30
0.0
  3
*Paper_Space
  1

  0
ENDBLK
  5
1D
330
1B
100
AcDbEntity
 67
     1
  8
0
100
AcDbBlockEnd
  0
BLOCK
  5
24
330
23
100
AcDbEntity
  8
0
100
AcDbBlockBegin
  2
*Paper_Space0
 70
     0
 10
0.0
 20
0.0
 30
0.0
  3
*Paper_Space0
  1

  0
ENDBLK
  5
25
330
23
100
AcDbEntity
  8
0
100
AcDbBlockEnd
  0
BLOCK
  5
9F
330
9D
100
AcDbEntity
  8
0
100
AcDbBlockBegin
  2
block 2
 70
     0
 10
0.0
 20
0.0
 30
0.0
  3
block 2
  1

  0
SPLINE
  5
A1
330
9D
100
AcDbEntity
  8
_U+30EC_U+30A4_U+30E4_U+30FC 1
370
     0
100
AcDbSpline
210
0.0
220
0.0
230
1.0
 70
    11
 71
     3
 72
    62
 73
    58
 74
     0
 42
0.0000000001
 43
0.0000000001
 12
1.0
 22
0.0
 32
0.0
 13
1.0
 23
0.0
 33
0.0
 40
0.0
 40
0.0
 40
0.0
 40
0.0
 40
1.0
 40
1.0
 40
1.0
 40
2.0
 40
2.0
 40
2.0
 40
3.0
 40
3.0
 40
3.0
 40
4.0
 40
4.0
 40
4.0
 40
5.0
 40
5.0
 40
5.0
 40
6.0
 40
6.0
 40
6.0
 40
7.0
 40
7.0
 40
7.0
 40
8.0
 40
8.0
 40
8.0
 40
9.0
 40
9.0
 40
9.0
 40
10.0
 40
10.0
 40
10.0
 40
11.0
 40
11.0
 40
11.0
 40
12.0
 40
12.0
 40
12.0
 40
13.0
 40
13.0
 40
13.0
 40
14.0
 40
14.0
 40
14.0
 40
15.0
 40
15.0
 40
15.0
 40
16.0
 40
16.0
 40
16.0
 40
17.0
 40
17.0
 40
17.0
 40
18.0
 40
18.0
 40
18.0
 40
19.0
 40
19.0
 40
19.0
 40
19.0
 10
129.3388752931861
 20
-162.1665011530348
 30
0.0
 10
129.3388752931861
 20
-162.2681314698496
 30
0.0
 10
129.3175157011776
 20
-162.5010199246525
 30
0.0
 10
129.1314805449741
 20
-162.6343451199317
 30
0.0
 10
129.0191704321549
 20
-162.7135823160924
 30
0.0
 10
128.9199516821797
 20
-162.7180609402233
 30
0.0
 10
128.8352023332426
 20
-162.7225395643541
 30
0.0
 10
128.8352023332426
 20
-162.7225395643541
 30
0.0
 10
128.8352023332426
 20
-162.48758405226
 30
0.0
 10
128.8352023332426
 20
-162.48758405226
 30
0.0
 10
128.9092718861755
 20
-162.4851724854204
 30
0.0
 10
129.1442273982695
 20
-162.4738036703191
 30
0.0
 10
129.1442273982695
 20
-162.1709797771656
 30
0.0
 10
129.1442273982695
 20
-162.0238741999454
 30
0.0
 10
129.0742919599189
 20
-161.8612656930416
 30
0.0
 10
128.8458821292469
 20
-161.8612656930416
 30
0.0
 10
128.7294379018454
 20
-161.8612656930416
 30
0.0
 10
128.6808620555034
 20
-161.9019178197676
 30
0.0
 10
128.6491671770391
 20
-161.9360242650716
 30
0.0
 10
128.5750976241062
 20
-162.0149169516838
 30
0.0
 10
128.5623507708108
 20
-162.1392848987013
 30
0.0
 10
128.5623507708108
 20
-162.1981960314991
 30
0.0
 10
128.5623507708108
 20
-162.218522094862
 30
0.0
 10
128.564417828102
 20
-162.2567626547483
 30
0.0
 10
128.5685519426843
 20
-162.2863904759215
 30
0.0
 10
128.5685519426843
 20
-162.2863904759215
 30
0.0
 10
128.3739040477676
 20
-162.2863904759215
 30
0.0
 10
128.3739040477676
 20
-162.2863904759215
 30
0.0
 10
128.3804497291896
 20
-162.2457383491955
 30
0.0
 10
128.3825167864808
 20
-162.2002630887902
 30
0.0
 10
128.3825167864808
 20
-162.1937174073682
 30
0.0
 10
128.3825167864808
 20
-162.1234374594692
 30
0.0
 10
128.3615017040208
 20
-161.9108750680292
 30
0.0
 10
128.1244791346355
 20
-161.9108750680292
 30
0.0
 10
127.9467122075967
 20
-161.9108750680292
 30
0.0
 10
127.8915906798327
 20
-162.0510904542789
 30
0.0
 10
127.8915906798327
 20
-162.1685682103259
 30
0.0
 10
127.8915906798327
 20
-162.4514105496649
 30
0.0
 10
128.1244791346355
 20
-162.4603677979266
 30
0.0
 10
128.1964816302773
 20
-162.4648464220574
 30
0.0
 10
128.1964816302773
 20
-162.4648464220574
 30
0.0
 10
128.1964816302773
 20
-162.6818874376281
 30
0.0
 10
128.1964816302773
 20
-162.6818874376281
 30
0.0
 10
128.0714246641627
 20
-162.6729301893665
 30
0.0
 10
127.6948757276249
 20
-162.6436468777419
 30
0.0
 10
127.6948757276249
 20
-162.1551323379335
 30
0.0
 10
127.6948757276249
 20
-161.9153536921601
 30
0.0
 10
127.8219997510306
 20
-161.6576605498634
 30
0.0
 10
128.1179334532136
 20
-161.6576605498634
 30
0.0
 10
128.3043131189656
 20
-161.6576605498634
 30
0.0
 10
128.3866509010631
 20
-161.7596353762268
 30
0.0
 10
128.4479736007005
 20
-161.8657443171725
 30
0.0
 10
128.4755343645825
 20
-161.8002875029527
 30
0.0
 10
128.5561495989374
 20
-161.6056396080361
 30
0.0
 10
128.8331352759514
 20
-161.6056396080361
 30
0.0
 10
129.1717881621515
 20
-161.6056396080361
 30
0.0
 10
129.3388752931861
 20
-161.8702229413033
 30
0.0
 10
129.3388752931861
 20
-162.1665011530348
 30
0.0
  0
HATCH
  5
A2
330
9D
100
AcDbEntity
  8
_U+30EC_U+30A4_U+30E4_U+30FC 1
 62
   179
420
  2234388
100
AcDbHatch
 10
0.0
 20
0.0
 30
0.0
210
0.0
220
0.0
230
1.0
  2
SOLID
 70
     1
 71
     0
 91
        1
 92
        1
 93
        1
 72
     4
 94
        3
 73
     0
 74
     1
 95
       62
 96
       58
 40
0.0
 40
0.0
 40
0.0
 40
0.0
 40
1.0
 40
1.0
 40
1.0
 40
2.0
 40
2.0
 40
2.0
 40
3.0
 40
3.0
 40
3.0
 40
4.0
 40
4.0
 40
4.0
 40
5.0
 40
5.0
 40
5.0
 40
6.0
 40
6.0
 40
6.0
 40
7.0
 40
7.0
 40
7.0
 40
8.0
 40
8.0
 40
8.0
 40
9.0
 40
9.0
 40
9.0
 40
10.0
 40
10.0
 40
10.0
 40
11.0
 40
11.0
 40
11.0
 40
12.0
 40
12.0
 40
12.0
 40
13.0
 40
13.0
 40
13.0
 40
14.0
 40
14.0
 40
14.0
 40
15.0
 40
15.0
 40
15.0
 40
16.0
 40
16.0
 40
16.0
 40
17.0
 40
17.0
 40
17.0
 40
18.0
 40
18.0
 40
18.0
 40
19.0
 40
19.0
 40
19.0
 40
19.0
 10
129.3388752931861
 20
-162.1665011530348
 10
129.3388752931861
 20
-162.2681314698496
 10
129.3175157011776
 20
-162.5010199246525
 10
129.1314805449741
 20
-162.6343451199317
 10
129.0191704321549
 20
-162.7135823160924
 10
128.9199516821797
 20
-162.7180609402233
 10
128.8352023332426
 20
-162.7225395643541
 10
128.8352023332426
 20
-162.7225395643541
 10
128.8352023332426
 20
-162.48758405226
 10
128.8352023332426
 20
-162.48758405226
 10
128.9092718861755
 20
-162.4851724854204
 10
129.1442273982695
 20
-162.4738036703191
 10
129.1442273982695
 20
-162.1709797771656
 10
129.1442273982695
 20
-162.0238741999454
 10
129.0742919599189
 20
-161.8612656930416
 10
128.8458821292469
 20
-161.8612656930416
 10
128.7294379018454
 20
-161.8612656930416
 10
128.6808620555034
 20
-161.9019178197676
 10
128.6491671770391
 20
-161.9360242650716
 10
128.5750976241062
 20
-162.0149169516838
 10
128.5623507708108
 20
-162.1392848987013
 10
128.5623507708108
 20
-162.1981960314991
 10
128.5623507708108
 20
-162.218522094862
 10
128.564417828102
 20
-162.2567626547483
 10
128.5685519426843
 20
-162.2863904759215
 10
128.5685519426843
 20
-162.2863904759215
 10
128.3739040477676
 20
-162.2863904759215
 10
128.3739040477676
 20
-162.2863904759215
 10
128.3804497291896
 20
-162.2457383491955
 10
128.3825167864808
 20
-162.2002630887902
 10
128.3825167864808
 20
-162.1937174073682
 10
128.3825167864808
 20
-162.1234374594692
 10
128.3615017040208
 20
-161.9108750680292
 10
128.1244791346355
 20
-161.9108750680292
 10
127.9467122075967
 20
-161.9108750680292
 10
127.8915906798327
 20
-162.0510904542789
 10
127.8915906798327
 20
-162.1685682103259
 10
127.8915906798327
 20
-162.4514105496649
 10
128.1244791346355
 20
-162.4603677979266
 10
128.1964816302773
 20
-162.4648464220574
 10
128.1964816302773
 20
-162.4648464220574
 10
128.1964816302773
 20
-162.6818874376281
 10
128.1964816302773
 20
-162.6818874376281
 10
128.0714246641627
 20
-162.6729301893665
 10
127.6948757276249
 20
-162.6436468777419
 10
127.6948757276249
 20
-162.1551323379335
 10
127.6948757276249
 20
-161.9153536921601
 10
127.8219997510306
 20
-161.6576605498634
 10
128.1179334532136
 20
-161.6576605498634
 10
128.3043131189656
 20
-161.6576605498634
 10
128.3866509010631
 20
-161.7596353762268
 10
128.4479736007005
 20
-161.8657443171725
 10
128.4755343645825
 20
-161.8002875029527
 10
128.5561495989374
 20
-161.6056396080361
 10
128.8331352759514
 20
-161.6056396080361
 10
129.1717881621515
 20
-161.6056396080361
 10
129.3388752931861
 20
-161.8702229413033
 10
129.3388752931861
 20
-162.1665011530348
 97
        0
 97
        0
 75
     2
 76
     1
 98
        0
  0
ENDBLK
  5
A0
330
9D
100
AcDbEntity
  8
0
100
AcDbBlockEnd
  0
BLOCK
  5
B1
330
AF
100
AcDbEntity
  8
0
100
AcDbBlockBegin
  2
block 3
 70
     0
 10
0.0
 20
0.0
 30
0.0
  3
block 3
  1

  0
SPLINE
  5
B3
330
AF
100
AcDbEntity
  8
_U+30EC_U+30A4_U+30E4_U+30FC 1
370
     0
100
AcDbSpline
210
0.0
220
0.0
230
1.0
 70
    11
 71
     3
 72
    62
 73
    58
 74
     0
 42
0.0000000001
 43
0.0000000001
 12
1.0
 22
0.0
 32
0.0
 13
1.0
 23
0.0
 33
0.0
 40
0.0
 40
0.0
 40
0.0
 40
0.0
 40
1.0
 40
1.0
 40
1.0
 40
2.0
 40
2.0
 40
2.0
 40
3.0
 40
3.0
 40
3.0
 40
4.0
 40
4.0
 40
4.0
 40
5.0
 40
5.0
 40
5.0
 40
6.0
 40
6.0
 40
6.0
 40
7.0
 40
7.0
 40
7.0
 40
8.0
 40
8.0
 40
8.0
 40
9.0
 40
9.0
 40
9.0
 40
10.0
 40
10.0
 40
10.0
 40
11.0
 40
11.0
 40
11.0
 40
12.0
 40
12.0
 40
12.0
 40
13.0
 40
13.0
 40
13.0
 40
14.0
 40
14.0
 40
14.0
 40
15.0
 40
15.0
 40
15.0
 40
16.0
 40
16.0
 40
16.0
 40
17.0
 40
17.0
 40
17.0
 40
18.0
 40
18.0
 40
18.0
 40
19.0
 40
19.0
 40
19.0
 40
19.0
 10
87.42481009099103
 20
-135.5648518541296
 30
0.0
 10
87.32317977417615
 20
-135.5648518541296
 30
0.0
 10
87.09029131937326
 20
-135.5436645168953
 30
0.0
 10
86.9569661240941
 20
-135.3574571059176
 30
0.0
 10
86.87772892793335
 20
-135.2453192478727
 30
0.0
 10
86.87325030380252
 20
-135.1459282431233
 30
0.0
 10
86.8687716796717
 20
-135.0613511489604
 30
0.0
 10
86.8687716796717
 20
-135.0613511489604
 30
0.0
 10
87.10372719176574
 20
-135.0613511489604
 30
0.0
 10
87.10372719176574
 20
-135.0613511489604
 30
0.0
 10
87.10613875860541
 20
-135.1354207018932
 30
0.0
 10
87.11750757370673
 20
-135.370203959213
 30
0.0
 10
87.4203314668602
 20
-135.370203959213
 30
0.0
 10
87.56743704408036
 20
-135.370203959213
 30
0.0
 10
87.73004555098416
 20
-135.3004407756367
 30
0.0
 10
87.73004555098416
 20
-135.0718586901904
 30
0.0
 10
87.73004555098416
 20
-134.9555867175632
 30
0.0
 10
87.68939342425821
 20
-134.9068386164469
 30
0.0
 10
87.65563148850276
 20
-134.8751437379826
 30
0.0
 10
87.57639429234202
 20
-134.8010741850497
 30
0.0
 10
87.4520263453245
 20
-134.7884995865286
 30
0.0
 10
87.39311521252672
 20
-134.7884995865286
 30
0.0
 10
87.37278914916375
 20
-134.7884995865286
 30
0.0
 10
87.33454858927747
 20
-134.7905666438197
 30
0.0
 10
87.30492076810432
 20
-134.794700758402
 30
0.0
 10
87.30492076810432
 20
-134.794700758402
 30
0.0
 10
87.30492076810432
 20
-134.6000528634854
 30
0.0
 10
87.30492076810432
 20
-134.6000528634854
 30
0.0
 10
87.34557289483028
 20
-134.6064262901331
 30
0.0
 10
87.39104815523558
 20
-134.6086656021985
 30
0.0
 10
87.39759383665755
 20
-134.6086656021985
 30
0.0
 10
87.46787378455664
 20
-134.6086656021985
 30
0.0
 10
87.68043617599656
 20
-134.5874782649643
 30
0.0
 10
87.68043617599656
 20
-134.3504556955791
 30
0.0
 10
87.68043617599656
 20
-134.1728610233144
 30
0.0
 10
87.5402207897469
 20
-134.1177394955504
 30
0.0
 10
87.42274303369987
 20
-134.1177394955504
 30
0.0
 10
87.13990069436086
 20
-134.1177394955504
 30
0.0
 10
87.13094344609921
 20
-134.3504556955791
 30
0.0
 10
87.12646482196838
 20
-134.4224581912208
 30
0.0
 10
87.12646482196838
 20
-134.4224581912208
 30
0.0
 10
86.90942380639765
 20
-134.4224581912208
 30
0.0
 10
86.90942380639765
 20
-134.4224581912208
 30
0.0
 10
86.91838105465929
 20
-134.2975734798805
 30
0.0
 10
86.94766436628392
 20
-133.9210245433427
 30
0.0
 10
87.43617890609235
 20
-133.9210245433427
 30
0.0
 10
87.67595755186574
 20
-133.9210245433427
 30
0.0
 10
87.93365069416242
 20
-134.0479763119741
 30
0.0
 10
87.93365069416242
 20
-134.3440822689313
 30
0.0
 10
87.93365069416242
 20
-134.5302896799091
 30
0.0
 10
87.83167586779904
 20
-134.6127997167808
 30
0.0
 10
87.72556692685333
 20
-134.6741224164183
 30
0.0
 10
87.79102374107308
 20
-134.7016831803003
 30
0.0
 10
87.9856716359897
 20
-134.7821261598809
 30
0.0
 10
87.9856716359897
 20
-135.0592840916692
 30
0.0
 10
87.9856716359897
 20
-135.397764723095
 30
0.0
 10
87.7210883027225
 20
-135.5648518541296
 30
0.0
 10
87.42481009099103
 20
-135.5648518541296
 30
0.0
  0
HATCH
  5
B4
330
AF
100
AcDbEntity
  8
_U+30EC_U+30A4_U+30E4_U+30FC 1
 62
   179
420
  2234388
100
AcDbHatch
 10
0.0
 20
0.0
 30
0.0
210
0.0
220
0.0
230
1.0
  2
SOLID
 70
     1
 71
     0
 91
        1
 92
        1
 93
        1
 72
     4
 94
        3
 73
     0
 74
     1
 95
       62
 96
       58
 40
0.0
 40
0.0
 40
0.0
 40
0.0
 40
1.0
 40
1.0
 40
1.0
 40
2.0
 40
2.0
 40
2.0
 40
3.0
 40
3.0
 40
3.0
 40
4.0
 40
4.0
 40
4.0
 40
5.0
 40
5.0
 40
5.0
 40
6.0
 40
6.0
 40
6.0
 40
7.0
 40
7.0
 40
7.0
 40
8.0
 40
8.0
 40
8.0
 40
9.0
 40
9.0
 40
9.0
 40
10.0
 40
10.0
 40
10.0
 40
11.0
 40
11.0
 40
11.0
 40
12.0
 40
12.0
 40
12.0
 40
13.0
 40
13.0
 40
13.0
 40
14.0
 40
14.0
 40
14.0
 40
15.0
 40
15.0
 40
15.0
 40
16.0
 40
16.0
 40
16.0
 40
17.0
 40
17.0
 40
17.0
 40
18.0
 40
18.0
 40
18.0
 40
19.0
 40
19.0
 40
19.0
 40
19.0
 10
87.42481009099103
 20
-135.5648518541296
 10
87.32317977417615
 20
-135.5648518541296
 10
87.09029131937326
 20
-135.5436645168953
 10
86.9569661240941
 20
-135.3574571059176
 10
86.87772892793335
 20
-135.2453192478727
 10
86.87325030380252
 20
-135.1459282431233
 10
86.8687716796717
 20
-135.0613511489604
 10
86.8687716796717
 20
-135.0613511489604
 10
87.10372719176574
 20
-135.0613511489604
 10
87.10372719176574
 20
-135.0613511489604
 10
87.10613875860541
 20
-135.1354207018932
 10
87.11750757370673
 20
-135.370203959213
 10
87.4203314668602
 20
-135.370203959213
 10
87.56743704408036
 20
-135.370203959213
 10
87.73004555098416
 20
-135.3004407756367
 10
87.73004555098416
 20
-135.0718586901904
 10
87.73004555098416
 20
-134.9555867175632
 10
87.68939342425821
 20
-134.9068386164469
 10
87.65563148850276
 20
-134.8751437379826
 10
87.57639429234202
 20
-134.8010741850497
 10
87.4520263453245
 20
-134.7884995865286
 10
87.39311521252672
 20
-134.7884995865286
 10
87.37278914916375
 20
-134.7884995865286
 10
87.33454858927747
 20
-134.7905666438197
 10
87.30492076810432
 20
-134.794700758402
 10
87.30492076810432
 20
-134.794700758402
 10
87.30492076810432
 20
-134.6000528634854
 10
87.30492076810432
 20
-134.6000528634854
 10
87.34557289483028
 20
-134.6064262901331
 10
87.39104815523558
 20
-134.6086656021985
 10
87.39759383665755
 20
-134.6086656021985
 10
87.46787378455664
 20
-134.6086656021985
 10
87.68043617599656
 20
-134.5874782649643
 10
87.68043617599656
 20
-134.3504556955791
 10
87.68043617599656
 20
-134.1728610233144
 10
87.5402207897469
 20
-134.1177394955504
 10
87.42274303369987
 20
-134.1177394955504
 10
87.13990069436086
 20
-134.1177394955504
 10
87.13094344609921
 20
-134.3504556955791
 10
87.12646482196838
 20
-134.4224581912208
 10
87.12646482196838
 20
-134.4224581912208
 10
86.90942380639765
 20
-134.4224581912208
 10
86.90942380639765
 20
-134.4224581912208
 10
86.91838105465929
 20
-134.2975734798805
 10
86.94766436628392
 20
-133.9210245433427
 10
87.43617890609235
 20
-133.9210245433427
 10
87.67595755186574
 20
-133.9210245433427
 10
87.93365069416242
 20
-134.0479763119741
 10
87.93365069416242
 20
-134.3440822689313
 10
87.93365069416242
 20
-134.5302896799091
 10
87.83167586779904
 20
-134.6127997167808
 10
87.72556692685333
 20
-134.6741224164183
 10
87.79102374107308
 20
-134.7016831803003
 10
87.9856716359897
 20
-134.7821261598809
 10
87.9856716359897
 20
-135.0592840916692
 10
87.9856716359897
 20
-135.397764723095
 10
87.7210883027225
 20
-135.5648518541296
 10
87.42481009099103
 20
-135.5648518541296
 97
        0
 97
        0
 75
     2
 76
     1
 98
        0
  0
ENDBLK
  5
B2
330
AF
100
AcDbEntity
  8
0
100
AcDbBlockEnd
  0
BLOCK
  5
C3
330
C1
100
AcDbEntity
  8
0
100
AcDbBlockBegin
  2
block 4
 70
     0
 10
0.0
 20
0.0
 30
0.0
  3
block 4
  1

  0
POLYLINE
  5
C5
330
C1
100
AcDbEntity
  8
_U+30EC_U+30A4_U+30E4_U+30FC 1
370
     0
100
AcDb2dPolyline
 66
     1
 10
0.0
 20
0.0
 30
0.0
  0
VERTEX
  5
C6
330
C5
100
AcDbEntity
  8
_U+30EC_U+30A4_U+30E4_U+30FC 1
370
     0
100
AcDbVertex
100
AcDb2dVertex
 10
105.6597004944184
 20
-131.1670152124339
 30
0.0
  0
VERTEX
  5
C7
330
C5
100
AcDbEntity
  8
_U+30EC_U+30A4_U+30E4_U+30FC 1
370
     0
100
AcDbVertex
100
AcDb2dVertex
 10
105.6597004944184
 20
-131.5139363277986
 30
0.0
  0
VERTEX
  5
C8
330
C5
100
AcDbEntity
  8
_U+30EC_U+30A4_U+30E4_U+30FC 1
370
     0
100
AcDbVertex
100
AcDb2dVertex
 10
105.4268120396155
 20
-131.5139363277986
 30
0.0
  0
VERTEX
  5
C9
330
C5
100
AcDbEntity
  8
_U+30EC_U+30A4_U+30E4_U+30FC 1
370
     0
100
AcDbVertex
100
AcDb2dVertex
 10
105.4268120396155
 20
-131.1670152124339
 30
0.0
  0
VERTEX
  5
CA
330
C5
100
AcDbEntity
  8
_U+30EC_U+30A4_U+30E4_U+30FC 1
370
     0
100
AcDbVertex
100
AcDb2dVertex
 10
104.7257351083672
 20
-131.1670152124339
 30
0.0
  0
VERTEX
  5
CB
330
C5
100
AcDbEntity
  8
_U+30EC_U+30A4_U+30E4_U+30FC 1
370
     0
100
AcDbVertex
100
AcDb2dVertex
 10
104.7257351083672
 20
-130.9427394963442
 30
0.0
  0
VERTEX
  5
CC
330
C5
100
AcDbEntity
  8
_U+30EC_U+30A4_U+30E4_U+30FC 1
370
     0
100
AcDbVertex
100
AcDb2dVertex
 10
105.4516167271093
 20
-129.9696722765354
 30
0.0
  0
VERTEX
  5
CD
330
C5
100
AcDbEntity
  8
_U+30EC_U+30A4_U+30E4_U+30FC 1
370
     0
100
AcDbVertex
100
AcDb2dVertex
 10
105.6597004944184
 20
-129.9696722765354
 30
0.0
  0
VERTEX
  5
CE
330
C5
100
AcDbEntity
  8
_U+30EC_U+30A4_U+30E4_U+30FC 1
370
     0
100
AcDbVertex
100
AcDb2dVertex
 10
105.6597004944184
 20
-130.9680609481608
 30
0.0
  0
VERTEX
  5
CF
330
C5
100
AcDbEntity
  8
_U+30EC_U+30A4_U+30E4_U+30FC 1
370
     0
100
AcDbVertex
100
AcDb2dVertex
 10
105.88122013412
 20
-130.9680609481608
 30
0.0
  0
VERTEX
  5
D0
330
C5
100
AcDbEntity
  8
_U+30EC_U+30A4_U+30E4_U+30FC 1
370
     0
100
AcDbVertex
100
AcDb2dVertex
 10
105.88122013412
 20
-131.1670152124339
 30
0.0
  0
VERTEX
  5
D1
330
C5
100
AcDbEntity
  8
_U+30EC_U+30A4_U+30E4_U+30FC 1
370
     0
100
AcDbVertex
100
AcDb2dVertex
 10
105.6597004944184
 20
-131.1670152124339
 30
0.0
  0
SEQEND
  5
D2
330
C5
100
AcDbEntity
  8
_U+30EC_U+30A4_U+30E4_U+30FC 1
370
     0
  0
POLYLINE
  5
D3
330
C1
100
AcDbEntity
  8
_U+30EC_U+30A4_U+30E4_U+30FC 1
370
     0
100
AcDb2dPolyline
 66
     1
 10
0.0
 20
0.0
 30
0.0
  0
VERTEX
  5
D4
330
D3
100
AcDbEntity
  8
_U+30EC_U+30A4_U+30E4_U+30FC 1
370
     0
100
AcDbVertex
100
AcDb2dVertex
 10
105.4268120396155
 20
-130.3122870225435
 30
0.0
  0
VERTEX
  5
D5
330
D3
100
AcDbEntity
  8
_U+30EC_U+30A4_U+30E4_U+30FC 1
370
     0
100
AcDbVertex
100
AcDb2dVertex
 10
104.9382974998071
 20
-130.9680609481608
 30
0.0
  0
VERTEX
  5
D6
330
D3
100
AcDbEntity
  8
_U+30EC_U+30A4_U+30E4_U+30FC 1
370
     0
100
AcDbVertex
100
AcDb2dVertex
 10
105.4268120396155
 20
-130.9680609481608
 30
0.0
  0
VERTEX
  5
D7
330
D3
100
AcDbEntity
  8
_U+30EC_U+30A4_U+30E4_U+30FC 1
370
     0
100
AcDbVertex
100
AcDb2dVertex
 10
105.4268120396155
 20
-130.3122870225435
 30
0.0
  0
SEQEND
  5
D8
330
D3
100
AcDbEntity
  8
_U+30EC_U+30A4_U+30E4_U+30FC 1
370
     0
  0
HATCH
  5
D9
330
C1
100
AcDbEntity
  8
_U+30EC_U+30A4_U+30E4_U+30FC 1
 62
   179
420
  2234388
100
AcDbHatch
 10
0.0
 20
0.0
 30
0.0
210
0.0
220
0.0
230
1.0
  2
SOLID
 70
     1
 71
     0
 91
        2
 92
        1
 93
       11
 72
     1
 10
105.6597004944184
 20
-131.1670152124339
 11
105.6597004944184
 21
-131.5139363277986
 72
     1
 10
105.6597004944184
 20
-131.5139363277986
 11
105.4268120396155
 21
-131.5139363277986
 72
     1
 10
105.4268120396155
 20
-131.5139363277986
 11
105.4268120396155
 21
-131.1670152124339
 72
     1
 10
105.4268120396155
 20
-131.1670152124339
 11
104.7257351083672
 21
-131.1670152124339
 72
     1
 10
104.7257351083672
 20
-131.1670152124339
 11
104.7257351083672
 21
-130.9427394963442
 72
     1
 10
104.7257351083672
 20
-130.9427394963442
 11
105.4516167271093
 21
-129.9696722765354
 72
     1
 10
105.4516167271093
 20
-129.9696722765354
 11
105.6597004944184
 21
-129.9696722765354
 72
     1
 10
105.6597004944184
 20
-129.9696722765354
 11
105.6597004944184
 21
-130.9680609481608
 72
     1
 10
105.6597004944184
 20
-130.9680609481608
 11
105.88122013412
 21
-130.9680609481608
 72
     1
 10
105.88122013412
 20
-130.9680609481608
 11
105.88122013412
 21
-131.1670152124339
 72
     1
 10
105.88122013412
 20
-131.1670152124339
 11
105.6597004944184
 21
-131.1670152124339
 97
        0
 92
        1
 93
        3
 72
     1
 10
105.4268120396155
 20
-130.3122870225435
 11
104.9382974998071
 21
-130.9680609481608
 72
     1
 10
104.9382974998071
 20
-130.9680609481608
 11
105.4268120396155
 21
-130.9680609481608
 72
     1
 10
105.4268120396155
 20
-130.9680609481608
 11
105.4268120396155
 21
-130.3122870225435
 97
        0
 75
     2
 76
     1
 98
        0
  0
SPLINE
  5
DA
330
C1
100
AcDbEntity
  8
_U+30EC_U+30A4_U+30E4_U+30FC 1
370
     0
100
AcDbSpline
210
0.0
220
0.0
230
1.0
 70
    11
 71
     3
 72
    29
 73
    25
 74
     0
 42
0.0000000001
 43
0.0000000001
 12
1.0
 22
0.0
 32
0.0
 13
1.0
 23
0.0
 33
0.0
 40
0.0
 40
0.0
 40
0.0
 40
0.0
 40
1.0
 40
1.0
 40
1.0
 40
2.0
 40
2.0
 40
2.0
 40
3.0
 40
3.0
 40
3.0
 40
4.0
 40
4.0
 40
4.0
 40
5.0
 40
5.0
 40
5.0
 40
6.0
 40
6.0
 40
6.0
 40
7.0
 40
7.0
 40
7.0
 40
8.0
 40
8.0
 40
8.0
 40
8.0
 10
106.9874402944337
 20
-131.3361694007597
 30
0.0
 10
106.8720295956778
 20
-131.5456312062629
 30
0.0
 10
106.6866834585714
 20
-131.564751486206
 30
0.0
 10
106.5623155115539
 20
-131.564751486206
 30
0.0
 10
106.3907497563884
 20
-131.564751486206
 30
0.0
 10
106.2391655550374
 20
-131.5182426971552
 30
0.0
 10
106.1375352382226
 20
-131.3361694007597
 30
0.0
 10
106.0266031635975
 20
-131.1415215058431
 30
0.0
 10
106.0062771002345
 20
-130.9046711912322
 30
0.0
 10
106.0062771002345
 20
-130.7417181747799
 30
0.0
 10
106.0062771002345
 20
-130.5978854382707
 30
0.0
 10
106.0241915967578
 20
-130.3462212130732
 30
0.0
 10
106.1375352382226
 20
-130.1472669488
 30
0.0
 10
106.2526014274299
 20
-129.9441785699445
 30
0.0
 10
106.4245116921439
 20
-129.9209241754191
 30
0.0
 10
106.5623155115539
 20
-129.9209241754191
 30
0.0
 10
106.7321587189767
 20
-129.9209241754191
 30
0.0
 10
106.8858099776188
 20
-129.9653659071788
 30
0.0
 10
106.9874402944337
 20
-130.1472669488
 30
0.0
 10
107.0938937449279
 20
-130.3398477864255
 30
0.0
 10
107.1186984324217
 20
-130.5682576170975
 30
0.0
 10
107.1186984324217
 20
-130.7417181747799
 30
0.0
 10
107.1186984324217
 20
-130.913111675171
 30
0.0
 10
107.0959608022191
 20
-131.1437608179085
 30
0.0
 10
106.9874402944337
 20
-131.3361694007597
 30
0.0
  0
SPLINE
  5
DB
330
C1
100
AcDbEntity
  8
_U+30EC_U+30A4_U+30E4_U+30FC 1
370
     0
100
AcDbSpline
210
0.0
220
0.0
230
1.0
 70
    11
 71
     3
 72
    17
 73
    13
 74
     0
 42
0.0000000001
 43
0.0000000001
 12
1.0
 22
0.0
 32
0.0
 13
1.0
 23
0.0
 33
0.0
 40
0.0
 40
0.0
 40
0.0
 40
0.0
 40
1.0
 40
1.0
 40
1.0
 40
2.0
 40
2.0
 40
2.0
 40
3.0
 40
3.0
 40
3.0
 40
4.0
 40
4.0
 40
4.0
 40
4.0
 10
106.5623155115539
 20
-130.1135050130445
 30
0.0
 10
106.2956651209955
 20
-130.1135050130445
 30
0.0
 10
106.2460557460079
 20
-130.3970363714806
 30
0.0
 10
106.2460557460079
 20
-130.7417181747799
 30
0.0
 10
106.2460557460079
 20
-131.0612507810368
 30
0.0
 10
106.2842963058942
 20
-131.3701035912894
 30
0.0
 10
106.5623155115539
 20
-131.3701035912894
 30
0.0
 10
106.8268988448211
 20
-131.3701035912894
 30
0.0
 10
106.8789197866483
 20
-131.0886392901445
 30
0.0
 10
106.8789197866483
 20
-130.7417181747799
 30
0.0
 10
106.8789197866483
 20
-130.4223578232972
 30
0.0
 10
106.8382676599224
 20
-130.1135050130445
 30
0.0
 10
106.5623155115539
 20
-130.1135050130445
 30
0.0
  0
HATCH
  5
DC
330
C1
100
AcDbEntity
  8
_U+30EC_U+30A4_U+30E4_U+30FC 1
 62
   179
420
  2234388
100
AcDbHatch
 10
0.0
 20
0.0
 30
0.0
210
0.0
220
0.0
230
1.0
  2
SOLID
 70
     1
 71
     0
 91
        2
 92
        1
 93
        1
 72
     4
 94
        3
 73
     0
 74
     1
 95
       29
 96
       25
 40
0.0
 40
0.0
 40
0.0
 40
0.0
 40
1.0
 40
1.0
 40
1.0
 40
2.0
 40
2.0
 40
2.0
 40
3.0
 40
3.0
 40
3.0
 40
4.0
 40
4.0
 40
4.0
 40
5.0
 40
5.0
 40
5.0
 40
6.0
 40
6.0
 40
6.0
 40
7.0
 40
7.0
 40
7.0
 40
8.0
 40
8.0
 40
8.0
 40
8.0
 10
106.9874402944337
 20
-131.3361694007597
 10
106.8720295956778
 20
-131.5456312062629
 10
106.6866834585714
 20
-131.564751486206
 10
106.5623155115539
 20
-131.564751486206
 10
106.3907497563884
 20
-131.564751486206
 10
106.2391655550374
 20
-131.5182426971552
 10
106.1375352382226
 20
-131.3361694007597
 10
106.0266031635975
 20
-131.1415215058431
 10
106.0062771002345
 20
-130.9046711912322
 10
106.0062771002345
 20
-130.7417181747799
 10
106.0062771002345
 20
-130.5978854382707
 10
106.0241915967578
 20
-130.3462212130732
 10
106.1375352382226
 20
-130.1472669488
 10
106.2526014274299
 20
-129.9441785699445
 10
106.4245116921439
 20
-129.9209241754191
 10
106.5623155115539
 20
-129.9209241754191
 10
106.7321587189767
 20
-129.9209241754191
 10
106.8858099776188
 20
-129.9653659071788
 10
106.9874402944337
 20
-130.1472669488
 10
107.0938937449279
 20
-130.3398477864255
 10
107.1186984324217
 20
-130.5682576170975
 10
107.1186984324217
 20
-130.7417181747799
 10
107.1186984324217
 20
-130.913111675171
 10
107.0959608022191
 20
-131.1437608179085
 10
106.9874402944337
 20
-131.3361694007597
 97
        0
 97
        0
 92
        1
 93
        1
 72
     4
 94
        3
 73
     0
 74
     1
 95
       17
 96
       13
 40
0.0
 40
0.0
 40
0.0
 40
0.0
 40
1.0
 40
1.0
 40
1.0
 40
2.0
 40
2.0
 40
2.0
 40
3.0
 40
3.0
 40
3.0
 40
4.0
 40
4.0
 40
4.0
 40
4.0
 10
106.5623155115539
 20
-130.1135050130445
 10
106.2956651209955
 20
-130.1135050130445
 10
106.2460557460079
 20
-130.3970363714806
 10
106.2460557460079
 20
-130.7417181747799
 10
106.2460557460079
 20
-131.0612507810368
 10
106.2842963058942
 20
-131.3701035912894
 10
106.5623155115539
 20
-131.3701035912894
 10
106.8268988448211
 20
-131.3701035912894
 10
106.8789197866483
 20
-131.0886392901445
 10
106.8789197866483
 20
-130.7417181747799
 10
106.8789197866483
 20
-130.4223578232972
 10
106.8382676599224
 20
-130.1135050130445
 10
106.5623155115539
 20
-130.1135050130445
 97
        0
 97
        0
 75
     2
 76
     1
 98
        0
  0
ENDBLK
  5
C4
330
C1
100
AcDbEntity
  8
0
100
AcDbBlockEnd
  0
BLOCK
  5
EB
330
E9
100
AcDbEntity
  8
0
100
AcDbBlockBegin
  2
block 5
 70
     0
 10
0.0
 20
0.0
 30
0.0
  3
block 5
  1

  0
SPLINE
  5
ED
330
E9
100
AcDbEntity
  8
_U+30EC_U+30A4_U+30E4_U+30FC 1
370
     0
100
AcDbSpline
210
0.0
220
0.0
230
1.0
 70
    11
 71
     3
 72
    26
 73
    22
 74
     0
 42
0.0000000001
 43
0.0000000001
 12
1.0
 22
0.0
 32
0.0
 13
1.0
 23
0.0
 33
0.0
 40
0.0
 40
0.0
 40
0.0
 40
0.0
 40
1.0
 40
1.0
 40
1.0
 40
2.0
 40
2.0
 40
2.0
 40
3.0
 40
3.0
 40
3.0
 40
4.0
 40
4.0
 40
4.0
 40
5.0
 40
5.0
 40
5.0
 40
6.0
 40
6.0
 40
6.0
 40
7.0
 40
7.0
 40
7.0
 40
7.0
 10
90.25288897483262
 20
-167.0137505007813
 30
0.0
 10
90.25288897483262
 20
-167.0137505007813
 30
0.0
 10
90.25288897483262
 20
-165.9095973977587
 30
0.0
 10
90.25288897483262
 20
-165.9095973977587
 30
0.0
 10
90.25288897483262
 20
-165.9095973977587
 30
0.0
 10
89.90045570669156
 20
-165.9095973977587
 30
0.0
 10
89.90045570669156
 20
-165.9095973977587
 30
0.0
 10
89.90045570669156
 20
-165.9095973977587
 30
0.0
 10
89.90045570669156
 20
-165.761458291893
 30
0.0
 10
89.90045570669156
 20
-165.761458291893
 30
0.0
 10
90.25530054167228
 20
-165.7466443813064
 30
0.0
 10
90.30490991665988
 20
-165.5836913648541
 30
0.0
 10
90.33660479512419
 20
-165.4696587042923
 30
0.0
 10
90.33660479512419
 20
-165.4696587042923
 30
0.0
 10
90.492667620606
 20
-165.4696587042923
 30
0.0
 10
90.492667620606
 20
-165.4696587042923
 30
0.0
 10
90.492667620606
 20
-165.4696587042923
 30
0.0
 10
90.492667620606
 20
-167.0137505007813
 30
0.0
 10
90.492667620606
 20
-167.0137505007813
 30
0.0
 10
90.492667620606
 20
-167.0137505007813
 30
0.0
 10
90.25288897483262
 20
-167.0137505007813
 30
0.0
 10
90.25288897483262
 20
-167.0137505007813
 30
0.0
  0
HATCH
  5
EE
330
E9
100
AcDbEntity
  8
_U+30EC_U+30A4_U+30E4_U+30FC 1
 62
   179
420
  2234388
100
AcDbHatch
 10
0.0
 20
0.0
 30
0.0
210
0.0
220
0.0
230
1.0
  2
SOLID
 70
     1
 71
     0
 91
        1
 92
        1
 93
        1
 72
     4
 94
        3
 73
     0
 74
     1
 95
       26
 96
       22
 40
0.0
 40
0.0
 40
0.0
 40
0.0
 40
1.0
 40
1.0
 40
1.0
 40
2.0
 40
2.0
 40
2.0
 40
3.0
 40
3.0
 40
3.0
 40
4.0
 40
4.0
 40
4.0
 40
5.0
 40
5.0
 40
5.0
 40
6.0
 40
6.0
 40
6.0
 40
7.0
 40
7.0
 40
7.0
 40
7.0
 10
90.25288897483262
 20
-167.0137505007813
 10
90.25288897483262
 20
-167.0137505007813
 10
90.25288897483262
 20
-165.9095973977587
 10
90.25288897483262
 20
-165.9095973977587
 10
90.25288897483262
 20
-165.9095973977587
 10
89.90045570669156
 20
-165.9095973977587
 10
89.90045570669156
 20
-165.9095973977587
 10
89.90045570669156
 20
-165.9095973977587
 10
89.90045570669156
 20
-165.761458291893
 10
89.90045570669156
 20
-165.761458291893
 10
90.25530054167228
 20
-165.7466443813064
 10
90.30490991665988
 20
-165.5836913648541
 10
90.33660479512419
 20
-165.4696587042923
 10
90.33660479512419
 20
-165.4696587042923
 10
90.492667620606
 20
-165.4696587042923
 10
90.492667620606
 20
-165.4696587042923
 10
90.492667620606
 20
-165.4696587042923
 10
90.492667620606
 20
-167.0137505007813
 10
90.492667620606
 20
-167.0137505007813
 10
90.492667620606
 20
-167.0137505007813
 10
90.25288897483262
 20
-167.0137505007813
 10
90.25288897483262
 20
-167.0137505007813
 97
        0
 97
        0
 75
     2
 76
     1
 98
        0
  0
SPLINE
  5
EF
330
E9
100
AcDbEntity
  8
_U+30EC_U+30A4_U+30E4_U+30FC 1
370
     0
100
AcDbSpline
210
0.0
220
0.0
230
1.0
 70
    11
 71
     3
 72
    29
 73
    25
 74
     0
 42
0.0000000001
 43
0.0000000001
 12
1.0
 22
0.0
 32
0.0
 13
1.0
 23
0.0
 33
0.0
 40
0.0
 40
0.0
 40
0.0
 40
0.0
 40
1.0
 40
1.0
 40
1.0
 40
2.0
 40
2.0
 40
2.0
 40
3.0
 40
3.0
 40
3.0
 40
4.0
 40
4.0
 40
4.0
 40
5.0
 40
5.0
 40
5.0
 40
6.0
 40
6.0
 40
6.0
 40
7.0
 40
7.0
 40
7.0
 40
8.0
 40
8.0
 40
8.0
 40
8.0
 10
91.98783906120444
 20
-166.8359835737424
 30
0.0
 10
91.87242836244856
 20
-167.0454453792456
 30
0.0
 10
91.68708222534212
 20
-167.064737913963
 30
0.0
 10
91.5627142783246
 20
-167.064737913963
 30
0.0
 10
91.39114852315916
 20
-167.064737913963
 30
0.0
 10
91.23956432180817
 20
-167.0182291249121
 30
0.0
 10
91.1379340049933
 20
-166.8359835737424
 30
0.0
 10
91.02700193036826
 20
-166.6413356788258
 30
0.0
 10
91.00667586700528
 20
-166.4046576189891
 30
0.0
 10
91.00667586700528
 20
-166.2417046025368
 30
0.0
 10
91.00667586700528
 20
-166.0976996112533
 30
0.0
 10
91.0249348730771
 20
-165.8462076408301
 30
0.0
 10
91.1379340049933
 20
-165.6470811217827
 30
0.0
 10
91.25300019420064
 20
-165.4441649977015
 30
0.0
 10
91.42491045891461
 20
-165.4207383484018
 30
0.0
 10
91.5627142783246
 20
-165.4207383484018
 30
0.0
 10
91.73255748574742
 20
-165.4207383484018
 30
0.0
 10
91.88620874438956
 20
-165.4651800801615
 30
0.0
 10
91.98783906120444
 20
-165.6470811217827
 30
0.0
 10
92.09429251169865
 20
-165.8396619594081
 30
0.0
 10
92.11909719919245
 20
-166.0680717900802
 30
0.0
 10
92.11909719919245
 20
-166.2417046025368
 30
0.0
 10
92.11909719919245
 20
-166.4129258481537
 30
0.0
 10
92.0963595689898
 20
-166.6437472456655
 30
0.0
 10
91.98783906120444
 20
-166.8359835737424
 30
0.0
  0
SPLINE
  5
F0
330
E9
100
AcDbEntity
  8
_U+30EC_U+30A4_U+30E4_U+30FC 1
370
     0
100
AcDbSpline
210
0.0
220
0.0
230
1.0
 70
    11
 71
     3
 72
    17
 73
    13
 74
     0
 42
0.0000000001
 43
0.0000000001
 12
1.0
 22
0.0
 32
0.0
 13
1.0
 23
0.0
 33
0.0
 40
0.0
 40
0.0
 40
0.0
 40
0.0
 40
1.0
 40
1.0
 40
1.0
 40
2.0
 40
2.0
 40
2.0
 40
3.0
 40
3.0
 40
3.0
 40
4.0
 40
4.0
 40
4.0
 40
4.0
 10
91.5627142783246
 20
-165.6133191860272
 30
0.0
 10
91.29606388776627
 20
-165.6133191860272
 30
0.0
 10
91.24645451277867
 20
-165.8968505444633
 30
0.0
 10
91.24645451277867
 20
-166.2417046025368
 30
0.0
 10
91.24645451277867
 20
-166.5610649540195
 30
0.0
 10
91.28469507266495
 20
-166.8700900190464
 30
0.0
 10
91.5627142783246
 20
-166.8700900190464
 30
0.0
 10
91.82729761159179
 20
-166.8700900190464
 30
0.0
 10
91.87931855341907
 20
-166.5886257179015
 30
0.0
 10
91.87931855341907
 20
-166.2417046025368
 30
0.0
 10
91.87931855341907
 20
-165.9223442510541
 30
0.0
 10
91.83866642669311
 20
-165.6133191860272
 30
0.0
 10
91.5627142783246
 20
-165.6133191860272
 30
0.0
  0
HATCH
  5
F1
330
E9
100
AcDbEntity
  8
_U+30EC_U+30A4_U+30E4_U+30FC 1
 62
   179
420
  2234388
100
AcDbHatch
 10
0.0
 20
0.0
 30
0.0
210
0.0
220
0.0
230
1.0
  2
SOLID
 70
     1
 71
     0
 91
        2
 92
        1
 93
        1
 72
     4
 94
        3
 73
     0
 74
     1
 95
       29
 96
       25
 40
0.0
 40
0.0
 40
0.0
 40
0.0
 40
1.0
 40
1.0
 40
1.0
 40
2.0
 40
2.0
 40
2.0
 40
3.0
 40
3.0
 40
3.0
 40
4.0
 40
4.0
 40
4.0
 40
5.0
 40
5.0
 40
5.0
 40
6.0
 40
6.0
 40
6.0
 40
7.0
 40
7.0
 40
7.0
 40
8.0
 40
8.0
 40
8.0
 40
8.0
 10
91.98783906120444
 20
-166.8359835737424
 10
91.87242836244856
 20
-167.0454453792456
 10
91.68708222534212
 20
-167.064737913963
 10
91.5627142783246
 20
-167.064737913963
 10
91.39114852315916
 20
-167.064737913963
 10
91.23956432180817
 20
-167.0182291249121
 10
91.1379340049933
 20
-166.8359835737424
 10
91.02700193036826
 20
-166.6413356788258
 10
91.00667586700528
 20
-166.4046576189891
 10
91.00667586700528
 20
-166.2417046025368
 10
91.00667586700528
 20
-166.0976996112533
 10
91.0249348730771
 20
-165.8462076408301
 10
91.1379340049933
 20
-165.6470811217827
 10
91.25300019420064
 20
-165.4441649977015
 10
91.42491045891461
 20
-165.4207383484018
 10
91.5627142783246
 20
-165.4207383484018
 10
91.73255748574742
 20
-165.4207383484018
 10
91.88620874438956
 20
-165.4651800801615
 10
91.98783906120444
 20
-165.6470811217827
 10
92.09429251169865
 20
-165.8396619594081
 10
92.11909719919245
 20
-166.0680717900802
 10
92.11909719919245
 20
-166.2417046025368
 10
92.11909719919245
 20
-166.4129258481537
 10
92.0963595689898
 20
-166.6437472456655
 10
91.98783906120444
 20
-166.8359835737424
 97
        0
 97
        0
 92
        1
 93
        1
 72
     4
 94
        3
 73
     0
 74
     1
 95
       17
 96
       13
 40
0.0
 40
0.0
 40
0.0
 40
0.0
 40
1.0
 40
1.0
 40
1.0
 40
2.0
 40
2.0
 40
2.0
 40
3.0
 40
3.0
 40
3.0
 40
4.0
 40
4.0
 40
4.0
 40
4.0
 10
91.5627142783246
 20
-165.6133191860272
 10
91.29606388776627
 20
-165.6133191860272
 10
91.24645451277867
 20
-165.8968505444633
 10
91.24645451277867
 20
-166.2417046025368
 10
91.24645451277867
 20
-166.5610649540195
 10
91.28469507266495
 20
-166.8700900190464
 10
91.5627142783246
 20
-166.8700900190464
 10
91.82729761159179
 20
-166.8700900190464
 10
91.87931855341907
 20
-166.5886257179015
 10
91.87931855341907
 20
-166.2417046025368
 10
91.87931855341907
 20
-165.9223442510541
 10
91.83866642669311
 20
-165.6133191860272
 10
91.5627142783246
 20
-165.6133191860272
 97
        0
 97
        0
 75
     2
 76
     1
 98
        0
  0
ENDBLK
  5
EC
330
E9
100
AcDbEntity
  8
0
100
AcDbBlockEnd
  0
BLOCK
  5
100
330
FE
100
AcDbEntity
  8
0
100
AcDbBlockBegin
  2
block 6
 70
     0
 10
0.0
 20
0.0
 30
0.0
  3
block 6
  1

  0
SPLINE
  5
102
330
FE
100
AcDbEntity
  8
_U+30EC_U+30A4_U+30E4_U+30FC 1
370
     0
100
AcDbSpline
210
0.0
220
0.0
230
1.0
 70
    11
 71
     3
 72
    44
 73
    40
 74
     0
 42
0.0000000001
 43
0.0000000001
 12
1.0
 22
0.0
 32
0.0
 13
1.0
 23
0.0
 33
0.0
 40
0.0
 40
0.0
 40
0.0
 40
0.0
 40
1.0
 40
1.0
 40
1.0
 40
2.0
 40
2.0
 40
2.0
 40
3.0
 40
3.0
 40
3.0
 40
4.0
 40
4.0
 40
4.0
 40
5.0
 40
5.0
 40
5.0
 40
6.0
 40
6.0
 40
6.0
 40
7.0
 40
7.0
 40
7.0
 40
8.0
 40
8.0
 40
8.0
 40
9.0
 40
9.0
 40
9.0
 40
10.0
 40
10.0
 40
10.0
 40
11.0
 40
11.0
 40
11.0
 40
12.0
 40
12.0
 40
12.0
 40
13.0
 40
13.0
 40
13.0
 40
13.0
 10
80.70652938520531
 20
-153.6092284772227
 30
0.0
 10
80.86517603230106
 20
-153.8421169320256
 30
0.0
 10
80.93924558523395
 20
-153.9416801915493
 30
0.0
 10
81.08307832174312
 20
-153.9937011333766
 30
0.0
 10
81.08307832174312
 20
-153.9937011333766
 30
0.0
 10
81.08307832174312
 20
-153.1613660641402
 30
0.0
 10
81.08307832174312
 20
-153.1613660641402
 30
0.0
 10
81.08307832174312
 20
-153.1613660641402
 30
0.0
 10
81.28823375788976
 20
-153.1613660641402
 30
0.0
 10
81.28823375788976
 20
-153.1613660641402
 30
0.0
 10
81.28823375788976
 20
-153.1613660641402
 30
0.0
 10
81.28823375788976
 20
-154.2603515239349
 30
0.0
 10
81.28823375788976
 20
-154.2603515239349
 30
0.0
 10
80.93063284652082
 20
-154.2262450786309
 30
0.0
 10
80.85242917900564
 20
-154.1563096402804
 30
0.0
 10
80.554083909983
 20
-153.7449652393416
 30
0.0
 10
80.3553019004841
 20
-153.4714246578127
 30
0.0
 10
80.28760577419894
 20
-153.4011447099136
 30
0.0
 10
80.15014646433747
 20
-153.4011447099136
 30
0.0
 10
80.03163517964487
 20
-153.4011447099136
 30
0.0
 10
79.90054929643112
 20
-153.4779703392347
 30
0.0
 10
79.90054929643112
 20
-153.6884656733834
 30
0.0
 10
79.90054929643112
 20
-153.9664848790431
 30
0.0
 10
80.13102618439433
 20
-153.9754421273047
 30
0.0
 10
80.24747041179577
 20
-153.9799207514356
 30
0.0
 10
80.24747041179577
 20
-153.9799207514356
 30
0.0
 10
80.24747041179577
 20
-154.219699397209
 30
0.0
 10
80.24747041179577
 20
-154.219699397209
 30
0.0
 10
80.12051864316432
 20
-154.2107421489473
 30
0.0
 10
80.00838078511944
 20
-154.199373333846
 30
0.0
 10
79.88986950042684
 20
-154.1132459467148
 30
0.0
 10
79.72915579603993
 20
-153.9957681906677
 30
0.0
 10
79.69522160551023
 20
-153.7969861811688
 30
0.0
 10
79.69522160551023
 20
-153.6726182341513
 30
0.0
 10
79.69522160551023
 20
-153.3763400224198
 30
0.0
 10
79.87936195919683
 20
-153.1548203827182
 30
0.0
 10
80.15221352162861
 20
-153.1548203827182
 30
0.0
 10
80.38062335230069
 20
-153.1548203827182
 30
0.0
 10
80.48018661182441
 20
-153.2791883297358
 30
0.0
 10
80.70652938520531
 20
-153.6092284772227
 30
0.0
  0
HATCH
  5
103
330
FE
100
AcDbEntity
  8
_U+30EC_U+30A4_U+30E4_U+30FC 1
 62
   179
420
  2234388
100
AcDbHatch
 10
0.0
 20
0.0
 30
0.0
210
0.0
220
0.0
230
1.0
  2
SOLID
 70
     1
 71
     0
 91
        1
 92
        1
 93
        1
 72
     4
 94
        3
 73
     0
 74
     1
 95
       44
 96
       40
 40
0.0
 40
0.0
 40
0.0
 40
0.0
 40
1.0
 40
1.0
 40
1.0
 40
2.0
 40
2.0
 40
2.0
 40
3.0
 40
3.0
 40
3.0
 40
4.0
 40
4.0
 40
4.0
 40
5.0
 40
5.0
 40
5.0
 40
6.0
 40
6.0
 40
6.0
 40
7.0
 40
7.0
 40
7.0
 40
8.0
 40
8.0
 40
8.0
 40
9.0
 40
9.0
 40
9.0
 40
10.0
 40
10.0
 40
10.0
 40
11.0
 40
11.0
 40
11.0
 40
12.0
 40
12.0
 40
12.0
 40
13.0
 40
13.0
 40
13.0
 40
13.0
 10
80.70652938520531
 20
-153.6092284772227
 10
80.86517603230106
 20
-153.8421169320256
 10
80.93924558523395
 20
-153.9416801915493
 10
81.08307832174312
 20
-153.9937011333766
 10
81.08307832174312
 20
-153.9937011333766
 10
81.08307832174312
 20
-153.1613660641402
 10
81.08307832174312
 20
-153.1613660641402
 10
81.08307832174312
 20
-153.1613660641402
 10
81.28823375788976
 20
-153.1613660641402
 10
81.28823375788976
 20
-153.1613660641402
 10
81.28823375788976
 20
-153.1613660641402
 10
81.28823375788976
 20
-154.2603515239349
 10
81.28823375788976
 20
-154.2603515239349
 10
80.93063284652082
 20
-154.2262450786309
 10
80.85242917900564
 20
-154.1563096402804
 10
80.554083909983
 20
-153.7449652393416
 10
80.3553019004841
 20
-153.4714246578127
 10
80.28760577419894
 20
-153.4011447099136
 10
80.15014646433747
 20
-153.4011447099136
 10
80.03163517964487
 20
-153.4011447099136
 10
79.90054929643112
 20
-153.4779703392347
 10
79.90054929643112
 20
-153.6884656733834
 10
79.90054929643112
 20
-153.9664848790431
 10
80.13102618439433
 20
-153.9754421273047
 10
80.24747041179577
 20
-153.9799207514356
 10
80.24747041179577
 20
-153.9799207514356
 10
80.24747041179577
 20
-154.219699397209
 10
80.24747041179577
 20
-154.219699397209
 10
80.12051864316432
 20
-154.2107421489473
 10
80.00838078511944
 20
-154.199373333846
 10
79.88986950042684
 20
-154.1132459467148
 10
79.72915579603993
 20
-153.9957681906677
 10
79.69522160551023
 20
-153.7969861811688
 10
79.69522160551023
 20
-153.6726182341513
 10
79.69522160551023
 20
-153.3763400224198
 10
79.87936195919683
 20
-153.1548203827182
 10
80.15221352162861
 20
-153.1548203827182
 10
80.38062335230069
 20
-153.1548203827182
 10
80.48018661182441
 20
-153.2791883297358
 10
80.70652938520531
 20
-153.6092284772227
 97
        0
 97
        0
 75
     2
 76
     1
 98
        0
  0
SPLINE
  5
104
330
FE
100
AcDbEntity
  8
_U+30EC_U+30A4_U+30E4_U+30FC 1
370
     0
100
AcDbSpline
210
0.0
220
0.0
230
1.0
 70
    11
 71
     3
 72
    62
 73
    58
 74
     0
 42
0.0000000001
 43
0.0000000001
 12
1.0
 22
0.0
 32
0.0
 13
1.0
 23
0.0
 33
0.0
 40
0.0
 40
0.0
 40
0.0
 40
0.0
 40
1.0
 40
1.0
 40
1.0
 40
2.0
 40
2.0
 40
2.0
 40
3.0
 40
3.0
 40
3.0
 40
4.0
 40
4.0
 40
4.0
 40
5.0
 40
5.0
 40
5.0
 40
6.0
 40
6.0
 40
6.0
 40
7.0
 40
7.0
 40
7.0
 40
8.0
 40
8.0
 40
8.0
 40
9.0
 40
9.0
 40
9.0
 40
10.0
 40
10.0
 40
10.0
 40
11.0
 40
11.0
 40
11.0
 40
12.0
 40
12.0
 40
12.0
 40
13.0
 40
13.0
 40
13.0
 40
14.0
 40
14.0
 40
14.0
 40
15.0
 40
15.0
 40
15.0
 40
16.0
 40
16.0
 40
16.0
 40
17.0
 40
17.0
 40
17.0
 40
18.0
 40
18.0
 40
18.0
 40
19.0
 40
19.0
 40
19.0
 40
19.0
 10
81.33904891629719
 20
-152.4599446233433
 30
0.0
 10
81.33904891629719
 20
-152.5615749401582
 30
0.0
 10
81.31786157906289
 20
-152.7944633949611
 30
0.0
 10
81.13165416808515
 20
-152.9277885902403
 30
0.0
 10
81.01951631004026
 20
-153.007025786401
 30
0.0
 10
80.92012530529081
 20
-153.0115044105318
 30
0.0
 10
80.83554821112793
 20
-153.0159830346627
 30
0.0
 10
80.83554821112793
 20
-153.0159830346627
 30
0.0
 10
80.83554821112793
 20
-152.7810275225686
 30
0.0
 10
80.83554821112793
 20
-152.7810275225686
 30
0.0
 10
80.9096177640608
 20
-152.778615955729
 30
0.0
 10
81.14440102138057
 20
-152.7672471406276
 30
0.0
 10
81.14440102138057
 20
-152.4644232474742
 30
0.0
 10
81.14440102138057
 20
-152.317317670254
 30
0.0
 10
81.07463783780426
 20
-152.1547091633502
 30
0.0
 10
80.84605575235794
 20
-152.1547091633502
 30
0.0
 10
80.72978377973075
 20
-152.1547091633502
 30
0.0
 10
80.68103567861446
 20
-152.1953612900762
 30
0.0
 10
80.64934080015017
 20
-152.2291232258316
 30
0.0
 10
80.5752712472173
 20
-152.3083604219923
 30
0.0
 10
80.56269664869613
 20
-152.4327283690099
 30
0.0
 10
80.56269664869613
 20
-152.4916395018076
 30
0.0
 10
80.56269664869613
 20
-152.5119655651706
 30
0.0
 10
80.56476370598729
 20
-152.5502061250569
 30
0.0
 10
80.56889782056959
 20
-152.5798339462301
 30
0.0
 10
80.56889782056959
 20
-152.5798339462301
 30
0.0
 10
80.37424992565298
 20
-152.5798339462301
 30
0.0
 10
80.37424992565298
 20
-152.5798339462301
 30
0.0
 10
80.38062335230069
 20
-152.5391818195041
 30
0.0
 10
80.38286266436609
 20
-152.4937065590988
 30
0.0
 10
80.38286266436609
 20
-152.4871608776768
 30
0.0
 10
80.38286266436609
 20
-152.4168809297777
 30
0.0
 10
80.3616753271318
 20
-152.2043185383378
 30
0.0
 10
80.12465275774662
 20
-152.2043185383378
 30
0.0
 10
79.94705808548198
 20
-152.2043185383378
 30
0.0
 10
79.891936557718
 20
-152.3445339245875
 30
0.0
 10
79.891936557718
 20
-152.4620116806345
 30
0.0
 10
79.891936557718
 20
-152.7448540199735
 30
0.0
 10
80.12465275774662
 20
-152.7538112682352
 30
0.0
 10
80.19665525338834
 20
-152.758289892366
 30
0.0
 10
80.19665525338834
 20
-152.758289892366
 30
0.0
 10
80.19665525338834
 20
-152.9753309079367
 30
0.0
 10
80.19665525338834
 20
-152.9753309079367
 30
0.0
 10
80.07177054204803
 20
-152.9663736596751
 30
0.0
 10
79.69522160551023
 20
-152.9370903480504
 30
0.0
 10
79.69522160551023
 20
-152.448575808242
 30
0.0
 10
79.69522160551023
 20
-152.2087971624686
 30
0.0
 10
79.82217337414168
 20
-151.951104020172
 30
0.0
 10
80.1182793310989
 20
-151.951104020172
 30
0.0
 10
80.30448674207666
 20
-151.951104020172
 30
0.0
 10
80.38699677894839
 20
-152.0530788465354
 30
0.0
 10
80.44831947858584
 20
-152.159187787481
 30
0.0
 10
80.47588024246784
 20
-152.0937309732613
 30
0.0
 10
80.55632322204842
 20
-151.8990830783447
 30
0.0
 10
80.83348115383677
 20
-151.8990830783447
 30
0.0
 10
81.17196178526257
 20
-151.8990830783447
 30
0.0
 10
81.33904891629719
 20
-152.1636664116119
 30
0.0
 10
81.33904891629719
 20
-152.4599446233433
 30
0.0
  0
HATCH
  5
105
330
FE
100
AcDbEntity
  8
_U+30EC_U+30A4_U+30E4_U+30FC 1
 62
   179
420
  2234388
100
AcDbHatch
 10
0.0
 20
0.0
 30
0.0
210
0.0
220
0.0
230
1.0
  2
SOLID
 70
     1
 71
     0
 91
        1
 92
        1
 93
        1
 72
     4
 94
        3
 73
     0
 74
     1
 95
       62
 96
       58
 40
0.0
 40
0.0
 40
0.0
 40
0.0
 40
1.0
 40
1.0
 40
1.0
 40
2.0
 40
2.0
 40
2.0
 40
3.0
 40
3.0
 40
3.0
 40
4.0
 40
4.0
 40
4.0
 40
5.0
 40
5.0
 40
5.0
 40
6.0
 40
6.0
 40
6.0
 40
7.0
 40
7.0
 40
7.0
 40
8.0
 40
8.0
 40
8.0
 40
9.0
 40
9.0
 40
9.0
 40
10.0
 40
10.0
 40
10.0
 40
11.0
 40
11.0
 40
11.0
 40
12.0
 40
12.0
 40
12.0
 40
13.0
 40
13.0
 40
13.0
 40
14.0
 40
14.0
 40
14.0
 40
15.0
 40
15.0
 40
15.0
 40
16.0
 40
16.0
 40
16.0
 40
17.0
 40
17.0
 40
17.0
 40
18.0
 40
18.0
 40
18.0
 40
19.0
 40
19.0
 40
19.0
 40
19.0
 10
81.33904891629719
 20
-152.4599446233433
 10
81.33904891629719
 20
-152.5615749401582
 10
81.31786157906289
 20
-152.7944633949611
 10
81.13165416808515
 20
-152.9277885902403
 10
81.01951631004026
 20
-153.007025786401
 10
80.92012530529081
 20
-153.0115044105318
 10
80.83554821112793
 20
-153.0159830346627
 10
80.83554821112793
 20
-153.0159830346627
 10
80.83554821112793
 20
-152.7810275225686
 10
80.83554821112793
 20
-152.7810275225686
 10
80.9096177640608
 20
-152.778615955729
 10
81.14440102138057
 20
-152.7672471406276
 10
81.14440102138057
 20
-152.4644232474742
 10
81.14440102138057
 20
-152.317317670254
 10
81.07463783780426
 20
-152.1547091633502
 10
80.84605575235794
 20
-152.1547091633502
 10
80.72978377973075
 20
-152.1547091633502
 10
80.68103567861446
 20
-152.1953612900762
 10
80.64934080015017
 20
-152.2291232258316
 10
80.5752712472173
 20
-152.3083604219923
 10
80.56269664869613
 20
-152.4327283690099
 10
80.56269664869613
 20
-152.4916395018076
 10
80.56269664869613
 20
-152.5119655651706
 10
80.56476370598729
 20
-152.5502061250569
 10
80.56889782056959
 20
-152.5798339462301
 10
80.56889782056959
 20
-152.5798339462301
 10
80.37424992565298
 20
-152.5798339462301
 10
80.37424992565298
 20
-152.5798339462301
 10
80.38062335230069
 20
-152.5391818195041
 10
80.38286266436609
 20
-152.4937065590988
 10
80.38286266436609
 20
-152.4871608776768
 10
80.38286266436609
 20
-152.4168809297777
 10
80.3616753271318
 20
-152.2043185383378
 10
80.12465275774662
 20
-152.2043185383378
 10
79.94705808548198
 20
-152.2043185383378
 10
79.891936557718
 20
-152.3445339245875
 10
79.891936557718
 20
-152.4620116806345
 10
79.891936557718
 20
-152.7448540199735
 10
80.12465275774662
 20
-152.7538112682352
 10
80.19665525338834
 20
-152.758289892366
 10
80.19665525338834
 20
-152.758289892366
 10
80.19665525338834
 20
-152.9753309079367
 10
80.19665525338834
 20
-152.9753309079367
 10
80.07177054204803
 20
-152.9663736596751
 10
79.69522160551023
 20
-152.9370903480504
 10
79.69522160551023
 20
-152.448575808242
 10
79.69522160551023
 20
-152.2087971624686
 10
79.82217337414168
 20
-151.951104020172
 10
80.1182793310989
 20
-151.951104020172
 10
80.30448674207666
 20
-151.951104020172
 10
80.38699677894839
 20
-152.0530788465354
 10
80.44831947858584
 20
-152.159187787481
 10
80.47588024246784
 20
-152.0937309732613
 10
80.55632322204842
 20
-151.8990830783447
 10
80.83348115383677
 20
-151.8990830783447
 10
81.17196178526257
 20
-151.8990830783447
 10
81.33904891629719
 20
-152.1636664116119
 10
81.33904891629719
 20
-152.4599446233433
 97
        0
 97
        0
 75
     2
 76
     1
 98
        0
  0
POLYLINE
  5
106
330
FE
100
AcDbEntity
  8
_U+30EC_U+30A4_U+30E4_U+30FC 1
370
     0
100
AcDb2dPolyline
 66
     1
 10
0.0
 20
0.0
 30
0.0
  0
VERTEX
  5
107
330
106
100
AcDbEntity
  8
_U+30EC_U+30A4_U+30E4_U+30FC 1
370
     0
100
AcDbVertex
100
AcDb2dVertex
 10
81.28823375788976
 20
-151.6634385471536
 30
0.0
  0
VERTEX
  5
108
330
106
100
AcDbEntity
  8
_U+30EC_U+30A4_U+30E4_U+30FC 1
370
     0
100
AcDbVertex
100
AcDb2dVertex
 10
81.03656953269225
 20
-151.6634385471536
 30
0.0
  0
VERTEX
  5
109
330
106
100
AcDbEntity
  8
_U+30EC_U+30A4_U+30E4_U+30FC 1
370
     0
100
AcDbVertex
100
AcDb2dVertex
 10
81.03656953269225
 20
-151.3943765897556
 30
0.0
  0
VERTEX
  5
10A
330
106
100
AcDbEntity
  8
_U+30EC_U+30A4_U+30E4_U+30FC 1
370
     0
100
AcDbVertex
100
AcDb2dVertex
 10
81.28823375788976
 20
-151.3943765897556
 30
0.0
  0
VERTEX
  5
10B
330
106
100
AcDbEntity
  8
_U+30EC_U+30A4_U+30E4_U+30FC 1
370
     0
100
AcDbVertex
100
AcDb2dVertex
 10
81.28823375788976
 20
-151.6634385471536
 30
0.0
  0
SEQEND
  5
10C
330
106
100
AcDbEntity
  8
_U+30EC_U+30A4_U+30E4_U+30FC 1
370
     0
  0
HATCH
  5
10D
330
FE
100
AcDbEntity
  8
_U+30EC_U+30A4_U+30E4_U+30FC 1
 62
   179
420
  2234388
100
AcDbHatch
 10
0.0
 20
0.0
 30
0.0
210
0.0
220
0.0
230
1.0
  2
SOLID
 70
     1
 71
     0
 91
        1
 92
        1
 93
        4
 72
     1
 10
81.28823375788976
 20
-151.6634385471536
 11
81.03656953269225
 21
-151.6634385471536
 72
     1
 10
81.03656953269225
 20
-151.6634385471536
 11
81.03656953269225
 21
-151.3943765897556
 72
     1
 10
81.03656953269225
 20
-151.3943765897556
 11
81.28823375788976
 21
-151.3943765897556
 72
     1
 10
81.28823375788976
 20
-151.3943765897556
 11
81.28823375788976
 21
-151.6634385471536
 97
        0
 75
     2
 76
     1
 98
        0
  0
SPLINE
  5
10E
330
FE
100
AcDbEntity
  8
_U+30EC_U+30A4_U+30E4_U+30FC 1
370
     0
100
AcDbSpline
210
0.0
220
0.0
230
1.0
 70
    11
 71
     3
 72
    53
 73
    49
 74
     0
 42
0.0000000001
 43
0.0000000001
 12
1.0
 22
0.0
 32
0.0
 13
1.0
 23
0.0
 33
0.0
 40
0.0
 40
0.0
 40
0.0
 40
0.0
 40
1.0
 40
1.0
 40
1.0
 40
2.0
 40
2.0
 40
2.0
 40
3.0
 40
3.0
 40
3.0
 40
4.0
 40
4.0
 40
4.0
 40
5.0
 40
5.0
 40
5.0
 40
6.0
 40
6.0
 40
6.0
 40
7.0
 40
7.0
 40
7.0
 40
8.0
 40
8.0
 40
8.0
 40
9.0
 40
9.0
 40
9.0
 40
10.0
 40
10.0
 40
10.0
 40
11.0
 40
11.0
 40
11.0
 40
12.0
 40
12.0
 40
12.0
 40
13.0
 40
13.0
 40
13.0
 40
14.0
 40
14.0
 40
14.0
 40
15.0
 40
15.0
 40
15.0
 40
16.0
 40
16.0
 40
16.0
 40
16.0
 10
81.33904891629719
 20
-150.6278428442875
 30
0.0
 10
81.33904891629719
 20
-150.7112141550305
 30
0.0
 10
81.32199569364519
 20
-150.8200791723644
 30
0.0
 10
81.2586059367166
 20
-150.9282551706013
 30
0.0
 10
81.14853513596287
 20
-151.1139458172563
 30
0.0
 10
81.01744925274912
 20
-151.1363389379104
 30
0.0
 10
80.9096177640608
 20
-151.1566650012734
 30
0.0
 10
80.9096177640608
 20
-151.1566650012734
 30
0.0
 10
80.9096177640608
 20
-150.9192979223396
 30
0.0
 10
80.9096177640608
 20
-150.9192979223396
 30
0.0
 10
81.10839977355971
 20
-150.8607312990904
 30
0.0
 10
81.13802759473286
 20
-150.7249945369715
 30
0.0
 10
81.13802759473286
 20
-150.6254312774478
 30
0.0
 10
81.13802759473286
 20
-150.4762586429365
 30
0.0
 10
81.0386365899834
 20
-150.3136501360327
 30
0.0
 10
80.80592038995478
 20
-150.3136501360327
 30
0.0
 10
80.5499497954007
 20
-150.3136501360327
 30
0.0
 10
80.48018661182441
 20
-150.5055419545611
 30
0.0
 10
80.48018661182441
 20
-150.6343885257095
 30
0.0
 10
80.48018661182441
 20
-150.6684949710134
 30
0.0
 10
80.48018661182441
 20
-150.8200791723644
 30
0.0
 10
80.60920543774701
 20
-150.9148192982088
 30
0.0
 10
80.60920543774701
 20
-150.9148192982088
 30
0.0
 10
80.59008515780387
 20
-151.1025770021549
 30
0.0
 10
80.59008515780387
 20
-151.1025770021549
 30
0.0
 10
80.59008515780387
 20
-151.1025770021549
 30
0.0
 10
79.74396970662652
 20
-150.9737304310066
 30
0.0
 10
79.74396970662652
 20
-150.9737304310066
 30
0.0
 10
79.74396970662652
 20
-150.9737304310066
 30
0.0
 10
79.74396970662652
 20
-150.1417398713187
 30
0.0
 10
79.74396970662652
 20
-150.1417398713187
 30
0.0
 10
79.74396970662652
 20
-150.1417398713187
 30
0.0
 10
79.93861760154313
 20
-150.1417398713187
 30
0.0
 10
79.93861760154313
 20
-150.1417398713187
 30
0.0
 10
79.93861760154313
 20
-150.1417398713187
 30
0.0
 10
79.93861760154313
 20
-150.7994085994529
 30
0.0
 10
79.93861760154313
 20
-150.7994085994529
 30
0.0
 10
79.93861760154313
 20
-150.7994085994529
 30
0.0
 10
80.3616753271318
 20
-150.869688547352
 30
0.0
 10
80.3616753271318
 20
-150.869688547352
 30
0.0
 10
80.3277411366021
 20
-150.8042317331323
 30
0.0
 10
80.28760577419894
 20
-150.7160372887099
 30
0.0
 10
80.28760577419894
 20
-150.5892577748527
 30
0.0
 10
80.28760577419894
 20
-150.3181287601635
 30
0.0
 10
80.4738131851767
 20
-150.0649142419977
 30
0.0
 10
80.78680011001164
 20
-150.0649142419977
 30
0.0
 10
81.10426565897741
 20
-150.0649142419977
 30
0.0
 10
81.33904891629719
 20
-150.3043483782225
 30
0.0
 10
81.33904891629719
 20
-150.6278428442875
 30
0.0
  0
HATCH
  5
10F
330
FE
100
AcDbEntity
  8
_U+30EC_U+30A4_U+30E4_U+30FC 1
 62
   179
420
  2234388
100
AcDbHatch
 10
0.0
 20
0.0
 30
0.0
210
0.0
220
0.0
230
1.0
  2
SOLID
 70
     1
 71
     0
 91
        1
 92
        1
 93
        1
 72
     4
 94
        3
 73
     0
 74
     1
 95
       53
 96
       49
 40
0.0
 40
0.0
 40
0.0
 40
0.0
 40
1.0
 40
1.0
 40
1.0
 40
2.0
 40
2.0
 40
2.0
 40
3.0
 40
3.0
 40
3.0
 40
4.0
 40
4.0
 40
4.0
 40
5.0
 40
5.0
 40
5.0
 40
6.0
 40
6.0
 40
6.0
 40
7.0
 40
7.0
 40
7.0
 40
8.0
 40
8.0
 40
8.0
 40
9.0
 40
9.0
 40
9.0
 40
10.0
 40
10.0
 40
10.0
 40
11.0
 40
11.0
 40
11.0
 40
12.0
 40
12.0
 40
12.0
 40
13.0
 40
13.0
 40
13.0
 40
14.0
 40
14.0
 40
14.0
 40
15.0
 40
15.0
 40
15.0
 40
16.0
 40
16.0
 40
16.0
 40
16.0
 10
81.33904891629719
 20
-150.6278428442875
 10
81.33904891629719
 20
-150.7112141550305
 10
81.32199569364519
 20
-150.8200791723644
 10
81.2586059367166
 20
-150.9282551706013
 10
81.14853513596287
 20
-151.1139458172563
 10
81.01744925274912
 20
-151.1363389379104
 10
80.9096177640608
 20
-151.1566650012734
 10
80.9096177640608
 20
-151.1566650012734
 10
80.9096177640608
 20
-150.9192979223396
 10
80.9096177640608
 20
-150.9192979223396
 10
81.10839977355971
 20
-150.8607312990904
 10
81.13802759473286
 20
-150.7249945369715
 10
81.13802759473286
 20
-150.6254312774478
 10
81.13802759473286
 20
-150.4762586429365
 10
81.0386365899834
 20
-150.3136501360327
 10
80.80592038995478
 20
-150.3136501360327
 10
80.5499497954007
 20
-150.3136501360327
 10
80.48018661182441
 20
-150.5055419545611
 10
80.48018661182441
 20
-150.6343885257095
 10
80.48018661182441
 20
-150.6684949710134
 10
80.48018661182441
 20
-150.8200791723644
 10
80.60920543774701
 20
-150.9148192982088
 10
80.60920543774701
 20
-150.9148192982088
 10
80.59008515780387
 20
-151.1025770021549
 10
80.59008515780387
 20
-151.1025770021549
 10
80.59008515780387
 20
-151.1025770021549
 10
79.74396970662652
 20
-150.9737304310066
 10
79.74396970662652
 20
-150.9737304310066
 10
79.74396970662652
 20
-150.9737304310066
 10
79.74396970662652
 20
-150.1417398713187
 10
79.74396970662652
 20
-150.1417398713187
 10
79.74396970662652
 20
-150.1417398713187
 10
79.93861760154313
 20
-150.1417398713187
 10
79.93861760154313
 20
-150.1417398713187
 10
79.93861760154313
 20
-150.1417398713187
 10
79.93861760154313
 20
-150.7994085994529
 10
79.93861760154313
 20
-150.7994085994529
 10
79.93861760154313
 20
-150.7994085994529
 10
80.3616753271318
 20
-150.869688547352
 10
80.3616753271318
 20
-150.869688547352
 10
80.3277411366021
 20
-150.8042317331323
 10
80.28760577419894
 20
-150.7160372887099
 10
80.28760577419894
 20
-150.5892577748527
 10
80.28760577419894
 20
-150.3181287601635
 10
80.4738131851767
 20
-150.0649142419977
 10
80.78680011001164
 20
-150.0649142419977
 10
81.10426565897741
 20
-150.0649142419977
 10
81.33904891629719
 20
-150.3043483782225
 10
81.33904891629719
 20
-150.6278428442875
 97
        0
 97
        0
 75
     2
 76
     1
 98
        0
  0
ENDBLK
  5
101
330
FE
100
AcDbEntity
  8
0
100
AcDbBlockEnd
  0
BLOCK
  5
11F
330
11D
100
AcDbEntity
  8
0
100
AcDbBlockBegin
  2
block 7
 70
     0
 10
0.0
 20
0.0
 30
0.0
  3
block 7
  1

  0
SPLINE
  5
121
330
11D
100
AcDbEntity
  8
_U+30EC_U+30A4_U+30E4_U+30FC 1
370
     0
100
AcDbSpline
210
0.0
220
0.0
230
1.0
 70
    11
 71
     3
 72
    26
 73
    22
 74
     0
 42
0.0000000001
 43
0.0000000001
 12
1.0
 22
0.0
 32
0.0
 13
1.0
 23
0.0
 33
0.0
 40
0.0
 40
0.0
 40
0.0
 40
0.0
 40
1.0
 40
1.0
 40
1.0
 40
2.0
 40
2.0
 40
2.0
 40
3.0
 40
3.0
 40
3.0
 40
4.0
 40
4.0
 40
4.0
 40
5.0
 40
5.0
 40
5.0
 40
6.0
 40
6.0
 40
6.0
 40
7.0
 40
7.0
 40
7.0
 40
7.0
 10
129.2882323895529
 20
-156.261262981768
 30
0.0
 10
129.2882323895529
 20
-156.261262981768
 30
0.0
 10
128.1837347769819
 20
-156.261262981768
 30
0.0
 10
128.1837347769819
 20
-156.261262981768
 30
0.0
 10
128.1837347769819
 20
-156.261262981768
 30
0.0
 10
128.1837347769819
 20
-156.6136962499091
 30
0.0
 10
128.1837347769819
 20
-156.6136962499091
 30
0.0
 10
128.1837347769819
 20
-156.6136962499091
 30
0.0
 10
128.0355956711161
 20
-156.6136962499091
 30
0.0
 10
128.0355956711161
 20
-156.6136962499091
 30
0.0
 10
128.0211262700781
 20
-156.2588514149284
 30
0.0
 10
127.8578287440772
 20
-156.2092420399408
 30
0.0
 10
127.7437960835154
 20
-156.1775471614764
 30
0.0
 10
127.7437960835154
 20
-156.1775471614764
 30
0.0
 10
127.7437960835154
 20
-156.0214843359946
 30
0.0
 10
127.7437960835154
 20
-156.0214843359946
 30
0.0
 10
127.7437960835154
 20
-156.0214843359946
 30
0.0
 10
129.2882323895529
 20
-156.0214843359946
 30
0.0
 10
129.2882323895529
 20
-156.0214843359946
 30
0.0
 10
129.2882323895529
 20
-156.0214843359946
 30
0.0
 10
129.2882323895529
 20
-156.261262981768
 30
0.0
 10
129.2882323895529
 20
-156.261262981768
 30
0.0
  0
HATCH
  5
122
330
11D
100
AcDbEntity
  8
_U+30EC_U+30A4_U+30E4_U+30FC 1
 62
   179
420
  2234388
100
AcDbHatch
 10
0.0
 20
0.0
 30
0.0
210
0.0
220
0.0
230
1.0
  2
SOLID
 70
     1
 71
     0
 91
        1
 92
        1
 93
        1
 72
     4
 94
        3
 73
     0
 74
     1
 95
       26
 96
       22
 40
0.0
 40
0.0
 40
0.0
 40
0.0
 40
1.0
 40
1.0
 40
1.0
 40
2.0
 40
2.0
 40
2.0
 40
3.0
 40
3.0
 40
3.0
 40
4.0
 40
4.0
 40
4.0
 40
5.0
 40
5.0
 40
5.0
 40
6.0
 40
6.0
 40
6.0
 40
7.0
 40
7.0
 40
7.0
 40
7.0
 10
129.2882323895529
 20
-156.261262981768
 10
129.2882323895529
 20
-156.261262981768
 10
128.1837347769819
 20
-156.261262981768
 10
128.1837347769819
 20
-156.261262981768
 10
128.1837347769819
 20
-156.261262981768
 10
128.1837347769819
 20
-156.6136962499091
 10
128.1837347769819
 20
-156.6136962499091
 10
128.1837347769819
 20
-156.6136962499091
 10
128.0355956711161
 20
-156.6136962499091
 10
128.0355956711161
 20
-156.6136962499091
 10
128.0211262700781
 20
-156.2588514149284
 10
127.8578287440772
 20
-156.2092420399408
 10
127.7437960835154
 20
-156.1775471614764
 10
127.7437960835154
 20
-156.1775471614764
 10
127.7437960835154
 20
-156.0214843359946
 10
127.7437960835154
 20
-156.0214843359946
 10
127.7437960835154
 20
-156.0214843359946
 10
129.2882323895529
 20
-156.0214843359946
 10
129.2882323895529
 20
-156.0214843359946
 10
129.2882323895529
 20
-156.0214843359946
 10
129.2882323895529
 20
-156.261262981768
 10
129.2882323895529
 20
-156.261262981768
 97
        0
 97
        0
 75
     2
 76
     1
 98
        0
  0
SPLINE
  5
123
330
11D
100
AcDbEntity
  8
_U+30EC_U+30A4_U+30E4_U+30FC 1
370
     0
100
AcDbSpline
210
0.0
220
0.0
230
1.0
 70
    11
 71
     3
 72
    44
 73
    40
 74
     0
 42
0.0000000001
 43
0.0000000001
 12
1.0
 22
0.0
 32
0.0
 13
1.0
 23
0.0
 33
0.0
 40
0.0
 40
0.0
 40
0.0
 40
0.0
 40
1.0
 40
1.0
 40
1.0
 40
2.0
 40
2.0
 40
2.0
 40
3.0
 40
3.0
 40
3.0
 40
4.0
 40
4.0
 40
4.0
 40
5.0
 40
5.0
 40
5.0
 40
6.0
 40
6.0
 40
6.0
 40
7.0
 40
7.0
 40
7.0
 40
8.0
 40
8.0
 40
8.0
 40
9.0
 40
9.0
 40
9.0
 40
10.0
 40
10.0
 40
10.0
 40
11.0
 40
11.0
 40
11.0
 40
12.0
 40
12.0
 40
12.0
 40
13.0
 40
13.0
 40
13.0
 40
13.0
 10
128.7063557620943
 20
-154.8518744187523
 30
0.0
 10
128.8651746639643
 20
-155.0847628735552
 30
0.0
 10
128.9388997073486
 20
-155.1843261330789
 30
0.0
 10
129.0829046986321
 20
-155.2360025653577
 30
0.0
 10
129.0829046986321
 20
-155.2360025653577
 30
0.0
 10
129.0829046986321
 20
-154.4043565152184
 30
0.0
 10
129.0829046986321
 20
-154.4043565152184
 30
0.0
 10
129.0829046986321
 20
-154.4043565152184
 30
0.0
 10
129.2882323895529
 20
-154.4043565152184
 30
0.0
 10
129.2882323895529
 20
-154.4043565152184
 30
0.0
 10
129.2882323895529
 20
-154.4043565152184
 30
0.0
 10
129.2882323895529
 20
-155.5029974654645
 30
0.0
 10
129.2882323895529
 20
-155.5029974654645
 30
0.0
 10
128.930631478184
 20
-155.4688910201606
 30
0.0
 10
128.8520833011203
 20
-155.39895558181
 30
0.0
 10
128.5537380320977
 20
-154.9876111808712
 30
0.0
 10
128.3553005321473
 20
-154.7140705993423
 30
0.0
 10
128.2874321510879
 20
-154.6437906514432
 30
0.0
 10
128.1499728412264
 20
-154.6437906514432
 30
0.0
 10
128.0314615565338
 20
-154.6437906514432
 30
0.0
 10
127.9005479280943
 20
-154.7206162807643
 30
0.0
 10
127.9005479280943
 20
-154.931111614913
 30
0.0
 10
127.9005479280943
 20
-155.2091308205727
 30
0.0
 10
128.130680306509
 20
-155.2180880688344
 30
0.0
 10
128.2471245339104
 20
-155.2225666929652
 30
0.0
 10
128.2471245339104
 20
-155.2225666929652
 30
0.0
 10
128.2471245339104
 20
-155.4623453387386
 30
0.0
 10
128.2471245339104
 20
-155.4623453387386
 30
0.0
 10
128.1203450200533
 20
-155.4530435809284
 30
0.0
 10
128.0080349072341
 20
-155.4420192753756
 30
0.0
 10
127.8895236225415
 20
-155.3558918882444
 30
0.0
 10
127.7289821729289
 20
-155.2384141321973
 30
0.0
 10
127.6952202371734
 20
-155.0396321226984
 30
0.0
 10
127.6952202371734
 20
-154.9152641756809
 30
0.0
 10
127.6952202371734
 20
-154.6189859639494
 30
0.0
 10
127.8791883360858
 20
-154.3974663242479
 30
0.0
 10
128.1520398985176
 20
-154.3974663242479
 30
0.0
 10
128.3804497291896
 20
-154.3974663242479
 30
0.0
 10
128.4800129887133
 20
-154.5218342712654
 30
0.0
 10
128.7063557620943
 20
-154.8518744187523
 30
0.0
  0
HATCH
  5
124
330
11D
100
AcDbEntity
  8
_U+30EC_U+30A4_U+30E4_U+30FC 1
 62
   179
420
  2234388
100
AcDbHatch
 10
0.0
 20
0.0
 30
0.0
210
0.0
220
0.0
230
1.0
  2
SOLID
 70
     1
 71
     0
 91
        1
 92
        1
 93
        1
 72
     4
 94
        3
 73
     0
 74
     1
 95
       44
 96
       40
 40
0.0
 40
0.0
 40
0.0
 40
0.0
 40
1.0
 40
1.0
 40
1.0
 40
2.0
 40
2.0
 40
2.0
 40
3.0
 40
3.0
 40
3.0
 40
4.0
 40
4.0
 40
4.0
 40
5.0
 40
5.0
 40
5.0
 40
6.0
 40
6.0
 40
6.0
 40
7.0
 40
7.0
 40
7.0
 40
8.0
 40
8.0
 40
8.0
 40
9.0
 40
9.0
 40
9.0
 40
10.0
 40
10.0
 40
10.0
 40
11.0
 40
11.0
 40
11.0
 40
12.0
 40
12.0
 40
12.0
 40
13.0
 40
13.0
 40
13.0
 40
13.0
 10
128.7063557620943
 20
-154.8518744187523
 10
128.8651746639643
 20
-155.0847628735552
 10
128.9388997073486
 20
-155.1843261330789
 10
129.0829046986321
 20
-155.2360025653577
 10
129.0829046986321
 20
-155.2360025653577
 10
129.0829046986321
 20
-154.4043565152184
 10
129.0829046986321
 20
-154.4043565152184
 10
129.0829046986321
 20
-154.4043565152184
 10
129.2882323895529
 20
-154.4043565152184
 10
129.2882323895529
 20
-154.4043565152184
 10
129.2882323895529
 20
-154.4043565152184
 10
129.2882323895529
 20
-155.5029974654645
 10
129.2882323895529
 20
-155.5029974654645
 10
128.930631478184
 20
-155.4688910201606
 10
128.8520833011203
 20
-155.39895558181
 10
128.5537380320977
 20
-154.9876111808712
 10
128.3553005321473
 20
-154.7140705993423
 10
128.2874321510879
 20
-154.6437906514432
 10
128.1499728412264
 20
-154.6437906514432
 10
128.0314615565338
 20
-154.6437906514432
 10
127.9005479280943
 20
-154.7206162807643
 10
127.9005479280943
 20
-154.931111614913
 10
127.9005479280943
 20
-155.2091308205727
 10
128.130680306509
 20
-155.2180880688344
 10
128.2471245339104
 20
-155.2225666929652
 10
128.2471245339104
 20
-155.2225666929652
 10
128.2471245339104
 20
-155.4623453387386
 10
128.2471245339104
 20
-155.4623453387386
 10
128.1203450200533
 20
-155.4530435809284
 10
128.0080349072341
 20
-155.4420192753756
 10
127.8895236225415
 20
-155.3558918882444
 10
127.7289821729289
 20
-155.2384141321973
 10
127.6952202371734
 20
-155.0396321226984
 10
127.6952202371734
 20
-154.9152641756809
 10
127.6952202371734
 20
-154.6189859639494
 10
127.8791883360858
 20
-154.3974663242479
 10
128.1520398985176
 20
-154.3974663242479
 10
128.3804497291896
 20
-154.3974663242479
 10
128.4800129887133
 20
-154.5218342712654
 10
128.7063557620943
 20
-154.8518744187523
 97
        0
 97
        0
 75
     2
 76
     1
 98
        0
  0
POLYLINE
  5
125
330
11D
100
AcDbEntity
  8
_U+30EC_U+30A4_U+30E4_U+30FC 1
370
     0
100
AcDb2dPolyline
 66
     1
 10
0.0
 20
0.0
 30
0.0
  0
VERTEX
  5
126
330
125
100
AcDbEntity
  8
_U+30EC_U+30A4_U+30E4_U+30FC 1
370
     0
100
AcDbVertex
100
AcDb2dVertex
 10
129.2882323895529
 20
-154.1638888503479
 30
0.0
  0
VERTEX
  5
127
330
125
100
AcDbEntity
  8
_U+30EC_U+30A4_U+30E4_U+30FC 1
370
     0
100
AcDbVertex
100
AcDb2dVertex
 10
129.0363959095812
 20
-154.1638888503479
 30
0.0
  0
VERTEX
  5
128
330
125
100
AcDbEntity
  8
_U+30EC_U+30A4_U+30E4_U+30FC 1
370
     0
100
AcDbVertex
100
AcDb2dVertex
 10
129.0363959095812
 20
-153.8948268929499
 30
0.0
  0
VERTEX
  5
129
330
125
100
AcDbEntity
  8
_U+30EC_U+30A4_U+30E4_U+30FC 1
370
     0
100
AcDbVertex
100
AcDb2dVertex
 10
129.2882323895529
 20
-153.8948268929499
 30
0.0
  0
VERTEX
  5
12A
330
125
100
AcDbEntity
  8
_U+30EC_U+30A4_U+30E4_U+30FC 1
370
     0
100
AcDbVertex
100
AcDb2dVertex
 10
129.2882323895529
 20
-154.1638888503479
 30
0.0
  0
SEQEND
  5
12B
330
125
100
AcDbEntity
  8
_U+30EC_U+30A4_U+30E4_U+30FC 1
370
     0
  0
HATCH
  5
12C
330
11D
100
AcDbEntity
  8
_U+30EC_U+30A4_U+30E4_U+30FC 1
 62
   179
420
  2234388
100
AcDbHatch
 10
0.0
 20
0.0
 30
0.0
210
0.0
220
0.0
230
1.0
  2
SOLID
 70
     1
 71
     0
 91
        1
 92
        1
 93
        4
 72
     1
 10
129.2882323895529
 20
-154.1638888503479
 11
129.0363959095812
 21
-154.1638888503479
 72
     1
 10
129.0363959095812
 20
-154.1638888503479
 11
129.0363959095812
 21
-153.8948268929499
 72
     1
 10
129.0363959095812
 20
-153.8948268929499
 11
129.2882323895529
 21
-153.8948268929499
 72
     1
 10
129.2882323895529
 20
-153.8948268929499
 11
129.2882323895529
 21
-154.1638888503479
 97
        0
 75
     2
 76
     1
 98
        0
  0
SPLINE
  5
12D
330
11D
100
AcDbEntity
  8
_U+30EC_U+30A4_U+30E4_U+30FC 1
370
     0
100
AcDbSpline
210
0.0
220
0.0
230
1.0
 70
    11
 71
     3
 72
    53
 73
    49
 74
     0
 42
0.0000000001
 43
0.0000000001
 12
1.0
 22
0.0
 32
0.0
 13
1.0
 23
0.0
 33
0.0
 40
0.0
 40
0.0
 40
0.0
 40
0.0
 40
1.0
 40
1.0
 40
1.0
 40
2.0
 40
2.0
 40
2.0
 40
3.0
 40
3.0
 40
3.0
 40
4.0
 40
4.0
 40
4.0
 40
5.0
 40
5.0
 40
5.0
 40
6.0
 40
6.0
 40
6.0
 40
7.0
 40
7.0
 40
7.0
 40
8.0
 40
8.0
 40
8.0
 40
9.0
 40
9.0
 40
9.0
 40
10.0
 40
10.0
 40
10.0
 40
11.0
 40
11.0
 40
11.0
 40
12.0
 40
12.0
 40
12.0
 40
13.0
 40
13.0
 40
13.0
 40
14.0
 40
14.0
 40
14.0
 40
15.0
 40
15.0
 40
15.0
 40
16.0
 40
16.0
 40
16.0
 40
16.0
 10
129.3388752931861
 20
-153.1282931474818
 30
0.0
 10
129.3388752931861
 20
-153.2116644582249
 30
0.0
 10
129.3219943253084
 20
-153.3205294755588
 30
0.0
 10
129.2586045683798
 20
-153.4287054737956
 30
0.0
 10
129.1483615128518
 20
-153.6143961204506
 30
0.0
 10
129.0174478844123
 20
-153.6367892411047
 30
0.0
 10
128.9092718861755
 20
-153.6571153044677
 30
0.0
 10
128.9092718861755
 20
-153.6571153044677
 30
0.0
 10
128.9092718861755
 20
-153.419748225534
 30
0.0
 10
128.9092718861755
 20
-153.419748225534
 30
0.0
 10
129.1083984052229
 20
-153.3611816022847
 30
0.0
 10
129.1380262263961
 20
-153.2254448401659
 30
0.0
 10
129.1380262263961
 20
-153.1258815806422
 30
0.0
 10
129.1380262263961
 20
-152.9767089461308
 30
0.0
 10
129.0384629668723
 20
-152.814100439227
 30
0.0
 10
128.805919021618
 20
-152.814100439227
 30
0.0
 10
128.5496039175154
 20
-152.814100439227
 30
0.0
 10
128.4800129887133
 20
-153.0059922577555
 30
0.0
 10
128.4800129887133
 20
-153.1348388289038
 30
0.0
 10
128.4800129887133
 20
-153.1689452742078
 30
0.0
 10
128.4800129887133
 20
-153.3205294755588
 30
0.0
 10
128.6088595598617
 20
-153.4152696014031
 30
0.0
 10
128.6088595598617
 20
-153.4152696014031
 30
0.0
 10
128.5899115346928
 20
-153.6030273053493
 30
0.0
 10
128.5899115346928
 20
-153.6030273053493
 30
0.0
 10
128.5899115346928
 20
-153.6030273053493
 30
0.0
 10
127.7437960835154
 20
-153.4741807342009
 30
0.0
 10
127.7437960835154
 20
-153.4741807342009
 30
0.0
 10
127.7437960835154
 20
-153.4741807342009
 30
0.0
 10
127.7437960835154
 20
-152.6421901745131
 30
0.0
 10
127.7437960835154
 20
-152.6421901745131
 30
0.0
 10
127.7437960835154
 20
-152.6421901745131
 30
0.0
 10
127.9384439784321
 20
-152.6421901745131
 30
0.0
 10
127.9384439784321
 20
-152.6421901745131
 30
0.0
 10
127.9384439784321
 20
-152.6421901745131
 30
0.0
 10
127.9384439784321
 20
-153.2998589026473
 30
0.0
 10
127.9384439784321
 20
-153.2998589026473
 30
0.0
 10
127.9384439784321
 20
-153.2998589026473
 30
0.0
 10
128.3615017040208
 20
-153.3701388505464
 30
0.0
 10
128.3615017040208
 20
-153.3701388505464
 30
0.0
 10
128.3277397682653
 20
-153.3046820363266
 30
0.0
 10
128.2874321510879
 20
-153.2164875919042
 30
0.0
 10
128.2874321510879
 20
-153.089708078047
 30
0.0
 10
128.2874321510879
 20
-152.8185790633579
 30
0.0
 10
128.4738118168399
 20
-152.565364545192
 30
0.0
 10
128.7866264869006
 20
-152.565364545192
 30
0.0
 10
129.1042642906406
 20
-152.565364545192
 30
0.0
 10
129.3388752931861
 20
-152.8047986814169
 30
0.0
 10
129.3388752931861
 20
-153.1282931474818
 30
0.0
  0
HATCH
  5
12E
330
11D
100
AcDbEntity
  8
_U+30EC_U+30A4_U+30E4_U+30FC 1
 62
   179
420
  2234388
100
AcDbHatch
 10
0.0
 20
0.0
 30
0.0
210
0.0
220
0.0
230
1.0
  2
SOLID
 70
     1
 71
     0
 91
        1
 92
        1
 93
        1
 72
     4
 94
        3
 73
     0
 74
     1
 95
       53
 96
       49
 40
0.0
 40
0.0
 40
0.0
 40
0.0
 40
1.0
 40
1.0
 40
1.0
 40
2.0
 40
2.0
 40
2.0
 40
3.0
 40
3.0
 40
3.0
 40
4.0
 40
4.0
 40
4.0
 40
5.0
 40
5.0
 40
5.0
 40
6.0
 40
6.0
 40
6.0
 40
7.0
 40
7.0
 40
7.0
 40
8.0
 40
8.0
 40
8.0
 40
9.0
 40
9.0
 40
9.0
 40
10.0
 40
10.0
 40
10.0
 40
11.0
 40
11.0
 40
11.0
 40
12.0
 40
12.0
 40
12.0
 40
13.0
 40
13.0
 40
13.0
 40
14.0
 40
14.0
 40
14.0
 40
15.0
 40
15.0
 40
15.0
 40
16.0
 40
16.0
 40
16.0
 40
16.0
 10
129.3388752931861
 20
-153.1282931474818
 10
129.3388752931861
 20
-153.2116644582249
 10
129.3219943253084
 20
-153.3205294755588
 10
129.2586045683798
 20
-153.4287054737956
 10
129.1483615128518
 20
-153.6143961204506
 10
129.0174478844123
 20
-153.6367892411047
 10
128.9092718861755
 20
-153.6571153044677
 10
128.9092718861755
 20
-153.6571153044677
 10
128.9092718861755
 20
-153.419748225534
 10
128.9092718861755
 20
-153.419748225534
 10
129.1083984052229
 20
-153.3611816022847
 10
129.1380262263961
 20
-153.2254448401659
 10
129.1380262263961
 20
-153.1258815806422
 10
129.1380262263961
 20
-152.9767089461308
 10
129.0384629668723
 20
-152.814100439227
 10
128.805919021618
 20
-152.814100439227
 10
128.5496039175154
 20
-152.814100439227
 10
128.4800129887133
 20
-153.0059922577555
 10
128.4800129887133
 20
-153.1348388289038
 10
128.4800129887133
 20
-153.1689452742078
 10
128.4800129887133
 20
-153.3205294755588
 10
128.6088595598617
 20
-153.4152696014031
 10
128.6088595598617
 20
-153.4152696014031
 10
128.5899115346928
 20
-153.6030273053493
 10
128.5899115346928
 20
-153.6030273053493
 10
128.5899115346928
 20
-153.6030273053493
 10
127.7437960835154
 20
-153.4741807342009
 10
127.7437960835154
 20
-153.4741807342009
 10
127.7437960835154
 20
-153.4741807342009
 10
127.7437960835154
 20
-152.6421901745131
 10
127.7437960835154
 20
-152.6421901745131
 10
127.7437960835154
 20
-152.6421901745131
 10
127.9384439784321
 20
-152.6421901745131
 10
127.9384439784321
 20
-152.6421901745131
 10
127.9384439784321
 20
-152.6421901745131
 10
127.9384439784321
 20
-153.2998589026473
 10
127.9384439784321
 20
-153.2998589026473
 10
127.9384439784321
 20
-153.2998589026473
 10
128.3615017040208
 20
-153.3701388505464
 10
128.3615017040208
 20
-153.3701388505464
 10
128.3277397682653
 20
-153.3046820363266
 10
128.2874321510879
 20
-153.2164875919042
 10
128.2874321510879
 20
-153.089708078047
 10
128.2874321510879
 20
-152.8185790633579
 10
128.4738118168399
 20
-152.565364545192
 10
128.7866264869006
 20
-152.565364545192
 10
129.1042642906406
 20
-152.565364545192
 10
129.3388752931861
 20
-152.8047986814169
 10
129.3388752931861
 20
-153.1282931474818
 97
        0
 97
        0
 75
     2
 76
     1
 98
        0
  0
ENDBLK
  5
120
330
11D
100
AcDbEntity
  8
0
100
AcDbBlockEnd
  0
BLOCK
  5
131
330
12F
100
AcDbEntity
  8
0
100
AcDbBlockBegin
  2
block 8
 70
     0
 10
0.0
 20
0.0
 30
0.0
  3
block 8
  1

  0
SPLINE
  5
133
330
12F
100
AcDbEntity
  8
_U+30EC_U+30A4_U+30E4_U+30FC 1
370
     0
100
AcDbSpline
210
0.0
220
0.0
230
1.0
 70
    11
 71
     3
 72
    26
 73
    22
 74
     0
 42
0.0000000001
 43
0.0000000001
 12
1.0
 22
0.0
 32
0.0
 13
1.0
 23
0.0
 33
0.0
 40
0.0
 40
0.0
 40
0.0
 40
0.0
 40
1.0
 40
1.0
 40
1.0
 40
2.0
 40
2.0
 40
2.0
 40
3.0
 40
3.0
 40
3.0
 40
4.0
 40
4.0
 40
4.0
 40
5.0
 40
5.0
 40
5.0
 40
6.0
 40
6.0
 40
6.0
 40
7.0
 40
7.0
 40
7.0
 40
7.0
 10
129.2878878800044
 20
-146.2374131578851
 30
0.0
 10
129.2878878800044
 20
-146.2374131578851
 30
0.0
 10
128.1837347769819
 20
-146.2374131578851
 30
0.0
 10
128.1837347769819
 20
-146.2374131578851
 30
0.0
 10
128.1837347769819
 20
-146.2374131578851
 30
0.0
 10
128.1837347769819
 20
-146.5898464260262
 30
0.0
 10
128.1837347769819
 20
-146.5898464260262
 30
0.0
 10
128.1837347769819
 20
-146.5898464260262
 30
0.0
 10
128.0355956711161
 20
-146.5898464260262
 30
0.0
 10
128.0355956711161
 20
-146.5898464260262
 30
0.0
 10
128.0207817605295
 20
-146.2350015910454
 30
0.0
 10
127.8578287440772
 20
-146.1853922160578
 30
0.0
 10
127.7437960835154
 20
-146.1536973375935
 30
0.0
 10
127.7437960835154
 20
-146.1536973375935
 30
0.0
 10
127.7437960835154
 20
-145.9976345121117
 30
0.0
 10
127.7437960835154
 20
-145.9976345121117
 30
0.0
 10
127.7437960835154
 20
-145.9976345121117
 30
0.0
 10
129.2878878800044
 20
-145.9976345121117
 30
0.0
 10
129.2878878800044
 20
-145.9976345121117
 30
0.0
 10
129.2878878800044
 20
-145.9976345121117
 30
0.0
 10
129.2878878800044
 20
-146.2374131578851
 30
0.0
 10
129.2878878800044
 20
-146.2374131578851
 30
0.0
  0
HATCH
  5
134
330
12F
100
AcDbEntity
  8
_U+30EC_U+30A4_U+30E4_U+30FC 1
 62
   179
420
  2234388
100
AcDbHatch
 10
0.0
 20
0.0
 30
0.0
210
0.0
220
0.0
230
1.0
  2
SOLID
 70
     1
 71
     0
 91
        1
 92
        1
 93
        1
 72
     4
 94
        3
 73
     0
 74
     1
 95
       26
 96
       22
 40
0.0
 40
0.0
 40
0.0
 40
0.0
 40
1.0
 40
1.0
 40
1.0
 40
2.0
 40
2.0
 40
2.0
 40
3.0
 40
3.0
 40
3.0
 40
4.0
 40
4.0
 40
4.0
 40
5.0
 40
5.0
 40
5.0
 40
6.0
 40
6.0
 40
6.0
 40
7.0
 40
7.0
 40
7.0
 40
7.0
 10
129.2878878800044
 20
-146.2374131578851
 10
129.2878878800044
 20
-146.2374131578851
 10
128.1837347769819
 20
-146.2374131578851
 10
128.1837347769819
 20
-146.2374131578851
 10
128.1837347769819
 20
-146.2374131578851
 10
128.1837347769819
 20
-146.5898464260262
 10
128.1837347769819
 20
-146.5898464260262
 10
128.1837347769819
 20
-146.5898464260262
 10
128.0355956711161
 20
-146.5898464260262
 10
128.0355956711161
 20
-146.5898464260262
 10
128.0207817605295
 20
-146.2350015910454
 10
127.8578287440772
 20
-146.1853922160578
 10
127.7437960835154
 20
-146.1536973375935
 10
127.7437960835154
 20
-146.1536973375935
 10
127.7437960835154
 20
-145.9976345121117
 10
127.7437960835154
 20
-145.9976345121117
 10
127.7437960835154
 20
-145.9976345121117
 10
129.2878878800044
 20
-145.9976345121117
 10
129.2878878800044
 20
-145.9976345121117
 10
129.2878878800044
 20
-145.9976345121117
 10
129.2878878800044
 20
-146.2374131578851
 10
129.2878878800044
 20
-146.2374131578851
 97
        0
 97
        0
 75
     2
 76
     1
 98
        0
  0
ENDBLK
  5
132
330
12F
100
AcDbEntity
  8
0
100
AcDbBlockEnd
  0
ENDSEC
  0
SECTION
  2
ENTITIES
  0
POLYLINE
  5
41
330
1F
100
AcDbEntity
  8
_U+30EC_U+30A4_U+30E4_U+30FC 1
370
     0
100
AcDb2dPolyline
 66
     1
 10
0.0
 20
0.0
 30
0.0
  0
VERTEX
  5
42
330
41
100
AcDbEntity
  8
_U+30EC_U+30A4_U+30E4_U+30FC 1
370
     0
100
AcDbVertex
100
AcDb2dVertex
 10
86.83375013087945
 20
-147.2608864310125
 30
0.0
  0
VERTEX
  5
43
330
41
100
AcDbEntity
  8
_U+30EC_U+30A4_U+30E4_U+30FC 1
370
     0
100
AcDbVertex
100
AcDb2dVertex
 10
86.83375013087945
 20
-141.1610218966762
 30
0.0
  0
VERTEX
  5
44
330
41
100
AcDbEntity
  8
_U+30EC_U+30A4_U+30E4_U+30FC 1
370
     0
100
AcDbVertex
100
AcDb2dVertex
 10
88.9338265090708
 20
-141.1610218966762
 30
0.0
  0
VERTEX
  5
45
330
41
100
AcDbEntity
  8
_U+30EC_U+30A4_U+30E4_U+30FC 1
370
     0
100
AcDbVertex
100
AcDb2dVertex
 10
88.9338265090708
 20
-140.1612336550096
 30
0.0
  0
VERTEX
  5
46
330
41
100
AcDbEntity
  8
_U+30EC_U+30A4_U+30E4_U+30FC 1
370
     0
100
AcDbVertex
100
AcDb2dVertex
 10
85.93380506274507
 20
-140.1612336550096
 30
0.0
  0
VERTEX
  5
47
330
41
100
AcDbEntity
  8
_U+30EC_U+30A4_U+30E4_U+30FC 1
370
     0
100
AcDbVertex
100
AcDb2dVertex
 10
85.93380506274507
 20
-163.6608220856853
 30
0.0
  0
VERTEX
  5
48
330
41
100
AcDbEntity
  8
_U+30EC_U+30A4_U+30E4_U+30FC 1
370
     0
100
AcDbVertex
100
AcDb2dVertex
 10
95.93435742840899
 20
-163.6608220856853
 30
0.0
  0
VERTEX
  5
49
330
41
100
AcDbEntity
  8
_U+30EC_U+30A4_U+30E4_U+30FC 1
370
     0
100
AcDbVertex
100
AcDb2dVertex
 10
95.93435742840899
 20
-160.6608006393595
 30
0.0
  0
VERTEX
  5
4A
330
41
100
AcDbEntity
  8
_U+30EC_U+30A4_U+30E4_U+30FC 1
370
     0
100
AcDbVertex
100
AcDb2dVertex
 10
92.93433598208358
 20
-160.6608006393595
 30
0.0
  0
VERTEX
  5
4B
330
41
100
AcDbEntity
  8
_U+30EC_U+30A4_U+30E4_U+30FC 1
370
     0
100
AcDbVertex
100
AcDb2dVertex
 10
92.93433598208358
 20
-161.6605888810258
 30
0.0
  0
VERTEX
  5
4C
330
41
100
AcDbEntity
  8
_U+30EC_U+30A4_U+30E4_U+30FC 1
370
     0
100
AcDbVertex
100
AcDb2dVertex
 10
94.93388016764565
 20
-161.6605888810258
 30
0.0
  0
VERTEX
  5
4D
330
41
100
AcDbEntity
  8
_U+30EC_U+30A4_U+30E4_U+30FC 1
370
     0
100
AcDbVertex
100
AcDb2dVertex
 10
94.93388016764565
 20
-162.6610553758658
 30
0.0
  0
VERTEX
  5
4E
330
41
100
AcDbEntity
  8
_U+30EC_U+30A4_U+30E4_U+30FC 1
370
     0
100
AcDbVertex
100
AcDb2dVertex
 10
86.83375013087945
 20
-162.6610553758658
 30
0.0
  0
VERTEX
  5
4F
330
41
100
AcDbEntity
  8
_U+30EC_U+30A4_U+30E4_U+30FC 1
370
     0
100
AcDbVertex
100
AcDb2dVertex
 10
86.83375013087945
 20
-148.161542050091
 30
0.0
  0
SEQEND
  5
51
330
41
100
AcDbEntity
  8
_U+30EC_U+30A4_U+30E4_U+30FC 1
370
     0
  0
HATCH
  5
50
330
1F
100
AcDbEntity
  8
_U+30EC_U+30A4_U+30E4_U+30FC 1
 62
     9
420
 13224394
100
AcDbHatch
 10
0.0
 20
0.0
 30
0.0
210
0.0
220
0.0
230
1.0
  2
SOLID
 70
     1
 71
     0
 91
        1
 92
        1
 93
       14
 72
     1
 10
86.83375013087945
 20
-147.2608864310125
 11
86.83375013087945
 21
-141.1610218966762
 72
     1
 10
86.83375013087945
 20
-141.1610218966762
 11
88.9338265090708
 21
-141.1610218966762
 72
     1
 10
88.9338265090708
 20
-141.1610218966762
 11
88.9338265090708
 21
-140.1612336550096
 72
     1
 10
88.9338265090708
 20
-140.1612336550096
 11
85.93380506274507
 21
-140.1612336550096
 72
     1
 10
85.93380506274507
 20
-140.1612336550096
 11
85.93380506274507
 21
-163.6608220856853
 72
     1
 10
85.93380506274507
 20
-163.6608220856853
 11
95.93435742840899
 21
-163.6608220856853
 72
     1
 10
95.93435742840899
 20
-163.6608220856853
 11
95.93435742840899
 21
-160.6608006393595
 72
     1
 10
95.93435742840899
 20
-160.6608006393595
 11
92.93433598208358
 21
-160.6608006393595
 72
     1
 10
92.93433598208358
 20
-160.6608006393595
 11
92.93433598208358
 21
-161.6605888810258
 72
     1
 10
92.93433598208358
 20
-161.6605888810258
 11
94.93388016764565
 21
-161.6605888810258
 72
     1
 10
94.93388016764565
 20
-161.6605888810258
 11
94.93388016764565
 21
-162.6610553758658
 72
     1
 10
94.93388016764565
 20
-162.6610553758658
 11
86.83375013087945
 21
-162.6610553758658
 72
     1
 10
86.83375013087945
 20
-162.6610553758658
 11
86.83375013087945
 21
-148.161542050091
 72
     1
 10
86.83375013087945
 20
-148.161542050091
 11
86.83375013087945
 21
-147.2608864310125
 97
        0
 75
     2
 76
     1
 98
        0
  0
POLYLINE
  5
52
330
1F
100
AcDbEntity
  8
_U+30EC_U+30A4_U+30E4_U+30FC 1
 62
   179
420
  2234388
370
    25
100
AcDb2dPolyline
 66
     1
 10
0.0
 20
0.0
 30
0.0
  0
VERTEX
  5
53
330
52
100
AcDbEntity
  8
_U+30EC_U+30A4_U+30E4_U+30FC 1
 62
   179
420
  2234388
370
    25
100
AcDbVertex
100
AcDb2dVertex
 10
92.93433598208358
 20
-160.661252808142
 30
0.0
  0
VERTEX
  5
54
330
52
100
AcDbEntity
  8
_U+30EC_U+30A4_U+30E4_U+30FC 1
 62
   179
420
  2234388
370
    25
100
AcDbVertex
100
AcDb2dVertex
 10
95.93435742840899
 20
-160.661252808142
 30
0.0
  0
SEQEND
  5
55
330
52
100
AcDbEntity
  8
_U+30EC_U+30A4_U+30E4_U+30FC 1
 62
   179
420
  2234388
370
    25
  0
POLYLINE
  5
56
330
1F
100
AcDbEntity
  8
_U+30EC_U+30A4_U+30E4_U+30FC 1
 62
   179
420
  2234388
370
    25
100
AcDb2dPolyline
 66
     1
 10
0.0
 20
0.0
 30
0.0
  0
VERTEX
  5
57
330
56
100
AcDbEntity
  8
_U+30EC_U+30A4_U+30E4_U+30FC 1
 62
   179
420
  2234388
370
    25
100
AcDbVertex
100
AcDb2dVertex
 10
85.93391272197898
 20
-163.661198893004
 30
0.0
  0
VERTEX
  5
58
330
56
100
AcDbEntity
  8
_U+30EC_U+30A4_U+30E4_U+30FC 1
 62
   179
420
  2234388
370
    25
100
AcDbVertex
100
AcDb2dVertex
 10
95.93445432171951
 20
-163.661198893004
 30
0.0
  0
SEQEND
  5
59
330
56
100
AcDbEntity
  8
_U+30EC_U+30A4_U+30E4_U+30FC 1
 62
   179
420
  2234388
370
    25
  0
POLYLINE
  5
5A
330
1F
100
AcDbEntity
  8
_U+30EC_U+30A4_U+30E4_U+30FC 1
 62
   179
420
  2234388
370
    25
100
AcDb2dPolyline
 66
     1
 10
0.0
 20
0.0
 30
0.0
  0
VERTEX
  5
5B
330
5A
100
AcDbEntity
  8
_U+30EC_U+30A4_U+30E4_U+30FC 1
 62
   179
420
  2234388
370
    25
100
AcDbVertex
100
AcDb2dVertex
 10
85.93391272197898
 20
-140.1612336550096
 30
0.0
  0
VERTEX
  5
5C
330
5A
100
AcDbEntity
  8
_U+30EC_U+30A4_U+30E4_U+30FC 1
 62
   179
420
  2234388
370
    25
100
AcDbVertex
100
AcDb2dVertex
 10
85.93391272197898
 20
-163.6611773611572
 30
0.0
  0
SEQEND
  5
5D
330
5A
100
AcDbEntity
  8
_U+30EC_U+30A4_U+30E4_U+30FC 1
 62
   179
420
  2234388
370
    25
  0
POLYLINE
  5
5E
330
1F
100
AcDbEntity
  8
_U+30EC_U+30A4_U+30E4_U+30FC 1
 62
   179
420
  2234388
370
    25
100
AcDb2dPolyline
 66
     1
 10
0.0
 20
0.0
 30
0.0
  0
VERTEX
  5
5F
330
5E
100
AcDbEntity
  8
_U+30EC_U+30A4_U+30E4_U+30FC 1
 62
   179
420
  2234388
370
    25
100
AcDbVertex
100
AcDb2dVertex
 10
85.93391272197898
 20
-140.1612336550096
 30
0.0
  0
VERTEX
  5
60
330
5E
100
AcDbEntity
  8
_U+30EC_U+30A4_U+30E4_U+30FC 1
 62
   179
420
  2234388
370
    25
100
AcDbVertex
100
AcDb2dVertex
 10
88.93393416830472
 20
-140.1612336550096
 30
0.0
  0
SEQEND
  5
61
330
5E
100
AcDbEntity
  8
_U+30EC_U+30A4_U+30E4_U+30FC 1
 62
   179
420
  2234388
370
    25
  0
POLYLINE
  5
62
330
1F
100
AcDbEntity
  8
_U+30EC_U+30A4_U+30E4_U+30FC 1
 62
   179
420
  2234388
370
    25
100
AcDb2dPolyline
 66
     1
 10
0.0
 20
0.0
 30
0.0
  0
VERTEX
  5
63
330
62
100
AcDbEntity
  8
_U+30EC_U+30A4_U+30E4_U+30FC 1
 62
   179
420
  2234388
370
    25
100
AcDbVertex
100
AcDb2dVertex
 10
88.93386957276437
 20
-140.1612336550096
 30
0.0
  0
VERTEX
  5
64
330
62
100
AcDbEntity
  8
_U+30EC_U+30A4_U+30E4_U+30FC 1
 62
   179
420
  2234388
370
    25
100
AcDbVertex
100
AcDb2dVertex
 10
88.93386957276437
 20
-141.1610218966762
 30
0.0
  0
SEQEND
  5
65
330
62
100
AcDbEntity
  8
_U+30EC_U+30A4_U+30E4_U+30FC 1
 62
   179
420
  2234388
370
    25
  0
POLYLINE
  5
66
330
1F
100
AcDbEntity
  8
_U+30EC_U+30A4_U+30E4_U+30FC 1
 62
   179
420
  2234388
370
    25
100
AcDb2dPolyline
 66
     1
 10
0.0
 20
0.0
 30
0.0
  0
VERTEX
  5
67
330
66
100
AcDbEntity
  8
_U+30EC_U+30A4_U+30E4_U+30FC 1
 62
   179
420
  2234388
370
    25
100
AcDbVertex
100
AcDb2dVertex
 10
86.83375013087945
 20
-141.1609573011355
 30
0.0
  0
VERTEX
  5
68
330
66
100
AcDbEntity
  8
_U+30EC_U+30A4_U+30E4_U+30FC 1
 62
   179
420
  2234388
370
    25
100
AcDbVertex
100
AcDb2dVertex
 10
88.9338265090708
 20
-141.1609573011355
 30
0.0
  0
SEQEND
  5
69
330
66
100
AcDbEntity
  8
_U+30EC_U+30A4_U+30E4_U+30FC 1
 62
   179
420
  2234388
370
    25
  0
POLYLINE
  5
6A
330
1F
100
AcDbEntity
  8
_U+30EC_U+30A4_U+30E4_U+30FC 1
 62
   179
420
  2234388
370
    25
100
AcDb2dPolyline
 66
     1
 10
0.0
 20
0.0
 30
0.0
  0
VERTEX
  5
6B
330
6A
100
AcDbEntity
  8
_U+30EC_U+30A4_U+30E4_U+30FC 1
 62
   179
420
  2234388
370
    25
100
AcDbVertex
100
AcDb2dVertex
 10
95.93431436471543
 20
-160.661252808142
 30
0.0
  0
VERTEX
  5
6C
330
6A
100
AcDbEntity
  8
_U+30EC_U+30A4_U+30E4_U+30FC 1
 62
   179
420
  2234388
370
    25
100
AcDbVertex
100
AcDb2dVertex
 10
95.93431436471543
 20
-163.6612850203911
 30
0.0
  0
SEQEND
  5
6D
330
6A
100
AcDbEntity
  8
_U+30EC_U+30A4_U+30E4_U+30FC 1
 62
   179
420
  2234388
370
    25
  0
POLYLINE
  5
6E
330
1F
100
AcDbEntity
  8
_U+30EC_U+30A4_U+30E4_U+30FC 1
 62
   179
420
  2234388
370
    25
100
AcDb2dPolyline
 66
     1
 10
0.0
 20
0.0
 30
0.0
  0
VERTEX
  5
6F
330
6E
100
AcDbEntity
  8
_U+30EC_U+30A4_U+30E4_U+30FC 1
 62
   179
420
  2234388
370
    25
100
AcDbVertex
100
AcDb2dVertex
 10
92.93433598208358
 20
-160.661252808142
 30
0.0
  0
VERTEX
  5
70
330
6E
100
AcDbEntity
  8
_U+30EC_U+30A4_U+30E4_U+30FC 1
 62
   179
420
  2234388
370
    25
100
AcDbVertex
100
AcDb2dVertex
 10
92.93433598208358
 20
-161.6610410498083
 30
0.0
  0
SEQEND
  5
71
330
6E
100
AcDbEntity
  8
_U+30EC_U+30A4_U+30E4_U+30FC 1
 62
   179
420
  2234388
370
    25
  0
POLYLINE
  5
72
330
1F
100
AcDbEntity
  8
_U+30EC_U+30A4_U+30E4_U+30FC 1
 62
   179
420
  2234388
370
    25
100
AcDb2dPolyline
 66
     1
 10
0.0
 20
0.0
 30
0.0
  0
VERTEX
  5
73
330
72
100
AcDbEntity
  8
_U+30EC_U+30A4_U+30E4_U+30FC 1
 62
   179
420
  2234388
370
    25
100
AcDbVertex
100
AcDb2dVertex
 10
92.93433598208358
 20
-161.6610195179615
 30
0.0
  0
VERTEX
  5
74
330
72
100
AcDbEntity
  8
_U+30EC_U+30A4_U+30E4_U+30FC 1
 62
   179
420
  2234388
370
    25
100
AcDbVertex
100
AcDb2dVertex
 10
94.93388016764565
 20
-161.6610195179615
 30
0.0
  0
SEQEND
  5
75
330
72
100
AcDbEntity
  8
_U+30EC_U+30A4_U+30E4_U+30FC 1
 62
   179
420
  2234388
370
    25
  0
POLYLINE
  5
76
330
1F
100
AcDbEntity
  8
_U+30EC_U+30A4_U+30E4_U+30FC 1
 62
   179
420
  2234388
370
    25
100
AcDb2dPolyline
 66
     1
 10
0.0
 20
0.0
 30
0.0
  0
VERTEX
  5
77
330
76
100
AcDbEntity
  8
_U+30EC_U+30A4_U+30E4_U+30FC 1
 62
   179
420
  2234388
370
    25
100
AcDbVertex
100
AcDb2dVertex
 10
86.83375013087945
 20
-162.6614967787248
 30
0.0
  0
VERTEX
  5
78
330
76
100
AcDbEntity
  8
_U+30EC_U+30A4_U+30E4_U+30FC 1
 62
   179
420
  2234388
370
    25
100
AcDbVertex
100
AcDb2dVertex
 10
94.93388016764565
 20
-162.6614967787248
 30
0.0
  0
SEQEND
  5
79
330
76
100
AcDbEntity
  8
_U+30EC_U+30A4_U+30E4_U+30FC 1
 62
   179
420
  2234388
370
    25
  0
POLYLINE
  5
7A
330
1F
100
AcDbEntity
  8
_U+30EC_U+30A4_U+30E4_U+30FC 1
 62
   179
420
  2234388
370
    25
100
AcDb2dPolyline
 66
     1
 10
0.0
 20
0.0
 30
0.0
  0
VERTEX
  5
7B
330
7A
100
AcDbEntity
  8
_U+30EC_U+30A4_U+30E4_U+30FC 1
 62
   179
420
  2234388
370
    25
100
AcDbVertex
100
AcDb2dVertex
 10
94.93388016764565
 20
-161.6610195179615
 30
0.0
  0
VERTEX
  5
7C
330
7A
100
AcDbEntity
  8
_U+30EC_U+30A4_U+30E4_U+30FC 1
 62
   179
420
  2234388
370
    25
100
AcDbVertex
100
AcDb2dVertex
 10
94.93388016764565
 20
-162.6615075446482
 30
0.0
  0
SEQEND
  5
7D
330
7A
100
AcDbEntity
  8
_U+30EC_U+30A4_U+30E4_U+30FC 1
 62
   179
420
  2234388
370
    25
  0
POLYLINE
  5
7E
330
1F
100
AcDbEntity
  8
_U+30EC_U+30A4_U+30E4_U+30FC 1
 62
   179
420
  2234388
370
    25
100
AcDb2dPolyline
 66
     1
 10
0.0
 20
0.0
 30
0.0
  0
VERTEX
  5
7F
330
7E
100
AcDbEntity
  8
_U+30EC_U+30A4_U+30E4_U+30FC 1
 62
   179
420
  2234388
370
    25
100
AcDbVertex
100
AcDb2dVertex
 10
86.83375013087945
 20
-141.1609573011355
 30
0.0
  0
VERTEX
  5
80
330
7E
100
AcDbEntity
  8
_U+30EC_U+30A4_U+30E4_U+30FC 1
 62
   179
420
  2234388
370
    25
100
AcDbVertex
100
AcDb2dVertex
 10
86.83375013087945
 20
-147.2608433673189
 30
0.0
  0
SEQEND
  5
81
330
7E
100
AcDbEntity
  8
_U+30EC_U+30A4_U+30E4_U+30FC 1
 62
   179
420
  2234388
370
    25
  0
POLYLINE
  5
82
330
1F
100
AcDbEntity
  8
_U+30EC_U+30A4_U+30E4_U+30FC 1
 62
   179
420
  2234388
370
    25
100
AcDb2dPolyline
 66
     1
 10
0.0
 20
0.0
 30
0.0
  0
VERTEX
  5
83
330
82
100
AcDbEntity
  8
_U+30EC_U+30A4_U+30E4_U+30FC 1
 62
   179
420
  2234388
370
    25
100
AcDbVertex
100
AcDb2dVertex
 10
86.83375013087945
 20
-148.16141285901
 30
0.0
  0
VERTEX
  5
84
330
82
100
AcDbEntity
  8
_U+30EC_U+30A4_U+30E4_U+30FC 1
 62
   179
420
  2234388
370
    25
100
AcDbVertex
100
AcDb2dVertex
 10
86.83375013087945
 20
-162.6616475016523
 30
0.0
  0
SEQEND
  5
85
330
82
100
AcDbEntity
  8
_U+30EC_U+30A4_U+30E4_U+30FC 1
 62
   179
420
  2234388
370
    25
  0
SPLINE
  5
86
330
1F
100
AcDbEntity
  8
_U+30EC_U+30A4_U+30E4_U+30FC 1
 62
   179
420
  2234388
370
     9
100
AcDbSpline
210
0.0
220
0.0
230
1.0
 70
    11
 71
     3
 72
    17
 73
    13
 74
     0
 42
0.0000000001
 43
0.0000000001
 12
1.0
 22
0.0
 32
0.0
 13
1.0
 23
0.0
 33
0.0
 40
0.0
 40
0.0
 40
0.0
 40
0.0
 40
1.0
 40
1.0
 40
1.0
 40
2.0
 40
2.0
 40
2.0
 40
3.0
 40
3.0
 40
3.0
 40
4.0
 40
4.0
 40
4.0
 40
4.0
 10
86.03382049105123
 20
-132.1613558968642
 30
0.0
 10
86.03382049105123
 20
-132.1063420283341
 30
0.0
 10
85.9890127178962
 20
-132.0615342551791
 30
0.0
 10
85.93397731751934
 20
-132.0615342551791
 30
0.0
 10
85.87894191714247
 20
-132.0615342551791
 30
0.0
 10
85.83414490991082
 20
-132.1063420283341
 30
0.0
 10
85.83414490991082
 20
-132.1613558968642
 30
0.0
 10
85.83414490991082
 20
-132.2171018481849
 30
0.0
 10
85.87894191714247
 20
-132.2619096213402
 30
0.0
 10
85.93397731751934
 20
-132.2619096213402
 30
0.0
 10
85.9890127178962
 20
-132.2619096213402
 30
0.0
 10
86.03382049105123
 20
-132.2171018481849
 30
0.0
 10
86.03382049105123
 20
-132.1613558968642
 30
0.0
  0
SPLINE
  5
87
330
1F
100
AcDbEntity
  8
_U+30EC_U+30A4_U+30E4_U+30FC 1
 62
   179
420
  2234388
370
     9
100
AcDbSpline
210
0.0
220
0.0
230
1.0
 70
    11
 71
     3
 72
    17
 73
    13
 74
     0
 42
0.0000000001
 43
0.0000000001
 12
1.0
 22
0.0
 32
0.0
 13
1.0
 23
0.0
 33
0.0
 40
0.0
 40
0.0
 40
0.0
 40
0.0
 40
1.0
 40
1.0
 40
1.0
 40
2.0
 40
2.0
 40
2.0
 40
3.0
 40
3.0
 40
3.0
 40
4.0
 40
4.0
 40
4.0
 40
4.0
 10
86.03382049105123
 20
-136.1614777966346
 30
0.0
 10
86.03382049105123
 20
-136.1064639281048
 30
0.0
 10
85.9890127178962
 20
-136.0616561549494
 30
0.0
 10
85.93397731751934
 20
-136.0616561549494
 30
0.0
 10
85.87894191714247
 20
-136.0616561549494
 30
0.0
 10
85.83414490991082
 20
-136.1064639281048
 30
0.0
 10
85.83414490991082
 20
-136.1614777966346
 30
0.0
 10
85.83414490991082
 20
-136.2165131970114
 30
0.0
 10
85.87894191714247
 20
-136.2613209701668
 30
0.0
 10
85.93397731751934
 20
-136.2613209701668
 30
0.0
 10
85.9890127178962
 20
-136.2613209701668
 30
0.0
 10
86.03382049105123
 20
-136.2165131970114
 30
0.0
 10
86.03382049105123
 20
-136.1614777966346
 30
0.0
  0
SPLINE
  5
88
330
1F
100
AcDbEntity
  8
_U+30EC_U+30A4_U+30E4_U+30FC 1
 62
   179
420
  2234388
370
     9
100
AcDbSpline
210
0.0
220
0.0
230
1.0
 70
    11
 71
     3
 72
    17
 73
    13
 74
     0
 42
0.0000000001
 43
0.0000000001
 12
1.0
 22
0.0
 32
0.0
 13
1.0
 23
0.0
 33
0.0
 40
0.0
 40
0.0
 40
0.0
 40
0.0
 40
1.0
 40
1.0
 40
1.0
 40
2.0
 40
2.0
 40
2.0
 40
3.0
 40
3.0
 40
3.0
 40
4.0
 40
4.0
 40
4.0
 40
4.0
 10
89.03377734183661
 20
-136.1614777966346
 30
0.0
 10
89.03377734183661
 20
-136.1064639281048
 30
0.0
 10
88.98896956868158
 20
-136.0616561549494
 30
0.0
 10
88.93393416830472
 20
-136.0616561549494
 30
0.0
 10
88.87889876792785
 20
-136.0616561549494
 30
0.0
 10
88.83410176069621
 20
-136.1064639281048
 30
0.0
 10
88.83410176069621
 20
-136.1614777966346
 30
0.0
 10
88.83410176069621
 20
-136.2165131970114
 30
0.0
 10
88.87889876792785
 20
-136.2613209701668
 30
0.0
 10
88.93393416830472
 20
-136.2613209701668
 30
0.0
 10
88.98896956868158
 20
-136.2613209701668
 30
0.0
 10
89.03377734183661
 20
-136.2165131970114
 30
0.0
 10
89.03377734183661
 20
-136.1614777966346
 30
0.0
  0
SPLINE
  5
89
330
1F
100
AcDbEntity
  8
_U+30EC_U+30A4_U+30E4_U+30FC 1
 62
   179
420
  2234388
370
     9
100
AcDbSpline
210
0.0
220
0.0
230
1.0
 70
    11
 71
     3
 72
    17
 73
    13
 74
     0
 42
0.0000000001
 43
0.0000000001
 12
1.0
 22
0.0
 32
0.0
 13
1.0
 23
0.0
 33
0.0
 40
0.0
 40
0.0
 40
0.0
 40
0.0
 40
1.0
 40
1.0
 40
1.0
 40
2.0
 40
2.0
 40
2.0
 40
3.0
 40
3.0
 40
3.0
 40
4.0
 40
4.0
 40
4.0
 40
4.0
 10
126.0337798757181
 20
-132.1613558968642
 30
0.0
 10
126.0337798757181
 20
-132.1063420283341
 30
0.0
 10
125.9889721025631
 20
-132.0615342551791
 30
0.0
 10
125.9339367021862
 20
-132.0615342551791
 30
0.0
 10
125.8789013018094
 20
-132.0615342551791
 30
0.0
 10
125.8340935286543
 20
-132.1063420283341
 30
0.0
 10
125.8340935286543
 20
-132.1613558968642
 30
0.0
 10
125.8340935286543
 20
-132.2171018481849
 30
0.0
 10
125.8789013018094
 20
-132.2619096213402
 30
0.0
 10
125.9339367021862
 20
-132.2619096213402
 30
0.0
 10
125.9889721025631
 20
-132.2619096213402
 30
0.0
 10
126.0337798757181
 20
-132.2171018481849
 30
0.0
 10
126.0337798757181
 20
-132.1613558968642
 30
0.0
  0
SPLINE
  5
8A
330
1F
100
AcDbEntity
  8
_U+30EC_U+30A4_U+30E4_U+30FC 1
 62
   179
420
  2234388
370
     9
100
AcDbSpline
210
0.0
220
0.0
230
1.0
 70
    11
 71
     3
 72
    17
 73
    13
 74
     0
 42
0.0000000001
 43
0.0000000001
 12
1.0
 22
0.0
 32
0.0
 13
1.0
 23
0.0
 33
0.0
 40
0.0
 40
0.0
 40
0.0
 40
0.0
 40
1.0
 40
1.0
 40
1.0
 40
2.0
 40
2.0
 40
2.0
 40
3.0
 40
3.0
 40
3.0
 40
4.0
 40
4.0
 40
4.0
 40
4.0
 10
130.0335357340932
 20
-148.16141285901
 30
0.0
 10
130.0335357340932
 20
-148.1056884395361
 30
0.0
 10
129.9887279609381
 20
-148.0608806663811
 30
0.0
 10
129.9336925605613
 20
-148.0608806663811
 30
0.0
 10
129.8786571601844
 20
-148.0608806663811
 30
0.0
 10
129.8338493870294
 20
-148.1056884395361
 30
0.0
 10
129.8338493870294
 20
-148.16141285901
 30
0.0
 10
129.8338493870294
 20
-148.2164482593869
 30
0.0
 10
129.8786571601844
 20
-148.2612560325419
 30
0.0
 10
129.9336925605613
 20
-148.2612560325419
 30
0.0
 10
129.9887279609381
 20
-148.2612560325419
 30
0.0
 10
130.0335357340932
 20
-148.2164482593869
 30
0.0
 10
130.0335357340932
 20
-148.16141285901
 30
0.0
  0
SPLINE
  5
8B
330
1F
100
AcDbEntity
  8
_U+30EC_U+30A4_U+30E4_U+30FC 1
 62
   179
420
  2234388
370
     9
100
AcDbSpline
210
0.0
220
0.0
230
1.0
 70
    11
 71
     3
 72
    17
 73
    13
 74
     0
 42
0.0000000001
 43
0.0000000001
 12
1.0
 22
0.0
 32
0.0
 13
1.0
 23
0.0
 33
0.0
 40
0.0
 40
0.0
 40
0.0
 40
0.0
 40
1.0
 40
1.0
 40
1.0
 40
2.0
 40
2.0
 40
2.0
 40
3.0
 40
3.0
 40
3.0
 40
4.0
 40
4.0
 40
4.0
 40
4.0
 10
130.0335357340932
 20
-160.661252808142
 30
0.0
 10
130.0335357340932
 20
-160.6062389396119
 30
0.0
 10
129.9887279609381
 20
-160.5614311664569
 30
0.0
 10
129.9336925605613
 20
-160.5614311664569
 30
0.0
 10
129.8786571601844
 20
-160.5614311664569
 30
0.0
 10
129.8338493870294
 20
-160.6062389396119
 30
0.0
 10
129.8338493870294
 20
-160.661252808142
 30
0.0
 10
129.8338493870294
 20
-160.7162882085188
 30
0.0
 10
129.8786571601844
 20
-160.7610959816739
 30
0.0
 10
129.9336925605613
 20
-160.7610959816739
 30
0.0
 10
129.9887279609381
 20
-160.7610959816739
 30
0.0
 10
130.0335357340932
 20
-160.7162882085188
 30
0.0
 10
130.0335357340932
 20
-160.661252808142
 30
0.0
  0
SPLINE
  5
8C
330
1F
100
AcDbEntity
  8
_U+30EC_U+30A4_U+30E4_U+30FC 1
 62
   179
420
  2234388
370
     9
100
AcDbSpline
210
0.0
220
0.0
230
1.0
 70
    11
 71
     3
 72
    17
 73
    13
 74
     0
 42
0.0000000001
 43
0.0000000001
 12
1.0
 22
0.0
 32
0.0
 13
1.0
 23
0.0
 33
0.0
 40
0.0
 40
0.0
 40
0.0
 40
0.0
 40
1.0
 40
1.0
 40
1.0
 40
2.0
 40
2.0
 40
2.0
 40
3.0
 40
3.0
 40
3.0
 40
4.0
 40
4.0
 40
4.0
 40
4.0
 10
130.0335357340932
 20
-163.661198893004
 30
0.0
 10
130.0335357340932
 20
-163.6061742585505
 30
0.0
 10
129.9887279609381
 20
-163.5613664853955
 30
0.0
 10
129.9336925605613
 20
-163.5613664853955
 30
0.0
 10
129.8786571601844
 20
-163.5613664853955
 30
0.0
 10
129.8338493870294
 20
-163.6061742585505
 30
0.0
 10
129.8338493870294
 20
-163.661198893004
 30
0.0
 10
129.8338493870294
 20
-163.7162342933808
 30
0.0
 10
129.8786571601844
 20
-163.7610420665359
 30
0.0
 10
129.9336925605613
 20
-163.7610420665359
 30
0.0
 10
129.9887279609381
 20
-163.7610420665359
 30
0.0
 10
130.0335357340932
 20
-163.7162342933808
 30
0.0
 10
130.0335357340932
 20
-163.661198893004
 30
0.0
  0
SPLINE
  5
8D
330
1F
100
AcDbEntity
  8
_U+30EC_U+30A4_U+30E4_U+30FC 1
 62
   179
420
  2234388
370
     9
100
AcDbSpline
210
0.0
220
0.0
230
1.0
 70
    11
 71
     3
 72
    17
 73
    13
 74
     0
 42
0.0000000001
 43
0.0000000001
 12
1.0
 22
0.0
 32
0.0
 13
1.0
 23
0.0
 33
0.0
 40
0.0
 40
0.0
 40
0.0
 40
0.0
 40
1.0
 40
1.0
 40
1.0
 40
2.0
 40
2.0
 40
2.0
 40
3.0
 40
3.0
 40
3.0
 40
4.0
 40
4.0
 40
4.0
 40
4.0
 10
86.03382049105123
 20
-167.6609978150726
 30
0.0
 10
86.03382049105123
 20
-167.6059731806191
 30
0.0
 10
85.9890127178962
 20
-167.5611654074641
 30
0.0
 10
85.93397731751934
 20
-167.5611654074641
 30
0.0
 10
85.87894191714247
 20
-167.5611654074641
 30
0.0
 10
85.83414490991082
 20
-167.6059731806191
 30
0.0
 10
85.83414490991082
 20
-167.6609978150726
 30
0.0
 10
85.83414490991082
 20
-167.7167437663933
 30
0.0
 10
85.87894191714247
 20
-167.7615407736249
 30
0.0
 10
85.93397731751934
 20
-167.7615407736249
 30
0.0
 10
85.9890127178962
 20
-167.7615407736249
 30
0.0
 10
86.03382049105123
 20
-167.7167437663933
 30
0.0
 10
86.03382049105123
 20
-167.6609978150726
 30
0.0
  0
SPLINE
  5
8E
330
1F
100
AcDbEntity
  8
_U+30EC_U+30A4_U+30E4_U+30FC 1
 62
   179
420
  2234388
370
     9
100
AcDbSpline
210
0.0
220
0.0
230
1.0
 70
    11
 71
     3
 72
    17
 73
    13
 74
     0
 42
0.0000000001
 43
0.0000000001
 12
1.0
 22
0.0
 32
0.0
 13
1.0
 23
0.0
 33
0.0
 40
0.0
 40
0.0
 40
0.0
 40
0.0
 40
1.0
 40
1.0
 40
1.0
 40
2.0
 40
2.0
 40
2.0
 40
3.0
 40
3.0
 40
3.0
 40
4.0
 40
4.0
 40
4.0
 40
4.0
 10
96.03422213378768
 20
-167.6609978150726
 30
0.0
 10
96.03422213378768
 20
-167.6059731806191
 30
0.0
 10
95.98941436063264
 20
-167.5611654074641
 30
0.0
 10
95.93437896025577
 20
-167.5611654074641
 30
0.0
 10
95.8793435598789
 20
-167.5611654074641
 30
0.0
 10
95.83454655264727
 20
-167.6059731806191
 30
0.0
 10
95.83454655264727
 20
-167.6609978150726
 30
0.0
 10
95.83454655264727
 20
-167.7167437663933
 30
0.0
 10
95.8793435598789
 20
-167.7615407736249
 30
0.0
 10
95.93437896025577
 20
-167.7615407736249
 30
0.0
 10
95.98941436063264
 20
-167.7615407736249
 30
0.0
 10
96.03422213378768
 20
-167.7167437663933
 30
0.0
 10
96.03422213378768
 20
-167.6609978150726
 30
0.0
  0
SPLINE
  5
8F
330
1F
100
AcDbEntity
  8
_U+30EC_U+30A4_U+30E4_U+30FC 1
 62
   179
420
  2234388
370
     9
100
AcDbSpline
210
0.0
220
0.0
230
1.0
 70
    11
 71
     3
 72
    17
 73
    13
 74
     0
 42
0.0000000001
 43
0.0000000001
 12
1.0
 22
0.0
 32
0.0
 13
1.0
 23
0.0
 33
0.0
 40
0.0
 40
0.0
 40
0.0
 40
0.0
 40
1.0
 40
1.0
 40
1.0
 40
2.0
 40
2.0
 40
2.0
 40
3.0
 40
3.0
 40
3.0
 40
4.0
 40
4.0
 40
4.0
 40
4.0
 10
82.03403233490599
 20
-140.1612336550096
 30
0.0
 10
82.03403233490599
 20
-140.1062197864798
 30
0.0
 10
81.98922456175096
 20
-140.0614120133245
 30
0.0
 10
81.93418916137409
 20
-140.0614120133245
 30
0.0
 10
81.87915376099723
 20
-140.0614120133245
 30
0.0
 10
81.83435675376559
 20
-140.1062197864798
 30
0.0
 10
81.83435675376559
 20
-140.1612336550096
 30
0.0
 10
81.83435675376559
 20
-140.2162690553865
 30
0.0
 10
81.87915376099723
 20
-140.2610768285418
 30
0.0
 10
81.93418916137409
 20
-140.2610768285418
 30
0.0
 10
81.98922456175096
 20
-140.2610768285418
 30
0.0
 10
82.03403233490599
 20
-140.2162690553865
 30
0.0
 10
82.03403233490599
 20
-140.1612336550096
 30
0.0
  0
SPLINE
  5
90
330
1F
100
AcDbEntity
  8
_U+30EC_U+30A4_U+30E4_U+30FC 1
 62
   179
420
  2234388
370
     9
100
AcDbSpline
210
0.0
220
0.0
230
1.0
 70
    11
 71
     3
 72
    17
 73
    13
 74
     0
 42
0.0000000001
 43
0.0000000001
 12
1.0
 22
0.0
 32
0.0
 13
1.0
 23
0.0
 33
0.0
 40
0.0
 40
0.0
 40
0.0
 40
0.0
 40
1.0
 40
1.0
 40
1.0
 40
2.0
 40
2.0
 40
2.0
 40
3.0
 40
3.0
 40
3.0
 40
4.0
 40
4.0
 40
4.0
 40
4.0
 10
82.03403233490599
 20
-163.661198893004
 30
0.0
 10
82.03403233490599
 20
-163.6061742585505
 30
0.0
 10
81.98922456175096
 20
-163.5613664853955
 30
0.0
 10
81.93418916137409
 20
-163.5613664853955
 30
0.0
 10
81.87915376099723
 20
-163.5613664853955
 30
0.0
 10
81.83435675376559
 20
-163.6061742585505
 30
0.0
 10
81.83435675376559
 20
-163.661198893004
 30
0.0
 10
81.83435675376559
 20
-163.7162342933808
 30
0.0
 10
81.87915376099723
 20
-163.7610420665359
 30
0.0
 10
81.93418916137409
 20
-163.7610420665359
 30
0.0
 10
81.98922456175096
 20
-163.7610420665359
 30
0.0
 10
82.03403233490599
 20
-163.7162342933808
 30
0.0
 10
82.03403233490599
 20
-163.661198893004
 30
0.0
  0
POLYLINE
  5
91
330
1F
100
AcDbEntity
  8
_U+30EC_U+30A4_U+30E4_U+30FC 1
 62
   179
420
  2234388
370
     9
100
AcDb2dPolyline
 66
     1
 10
0.0
 20
0.0
 30
0.0
  0
VERTEX
  5
92
330
91
100
AcDbEntity
  8
_U+30EC_U+30A4_U+30E4_U+30FC 1
 62
   179
420
  2234388
370
     9
100
AcDbVertex
100
AcDb2dVertex
 10
129.9336279650209
 20
-160.661252808142
 30
0.0
  0
VERTEX
  5
93
330
91
100
AcDbEntity
  8
_U+30EC_U+30A4_U+30E4_U+30FC 1
 62
   179
420
  2234388
370
     9
100
AcDbVertex
100
AcDb2dVertex
 10
129.9336279650209
 20
-163.6612850203911
 30
0.0
  0
SEQEND
  5
94
330
91
100
AcDbEntity
  8
_U+30EC_U+30A4_U+30E4_U+30FC 1
 62
   179
420
  2234388
370
     9
  0
POLYLINE
  5
95
330
1F
100
AcDbEntity
  8
_U+30EC_U+30A4_U+30E4_U+30FC 1
 62
   179
420
  2234388
370
     9
100
AcDb2dPolyline
 66
     1
 10
0.0
 20
0.0
 30
0.0
  0
VERTEX
  5
96
330
95
100
AcDbEntity
  8
_U+30EC_U+30A4_U+30E4_U+30FC 1
 62
   179
420
  2234388
370
     9
100
AcDbVertex
100
AcDb2dVertex
 10
98.4740387564416
 20
-160.661252808142
 30
0.0
  0
VERTEX
  5
97
330
95
100
AcDbEntity
  8
_U+30EC_U+30A4_U+30E4_U+30FC 1
 62
   179
420
  2234388
370
     9
100
AcDbVertex
100
AcDb2dVertex
 10
130.9341698213246
 20
-160.661252808142
 30
0.0
  0
SEQEND
  5
98
330
95
100
AcDbEntity
  8
_U+30EC_U+30A4_U+30E4_U+30FC 1
 62
   179
420
  2234388
370
     9
  0
POLYLINE
  5
99
330
1F
100
AcDbEntity
  8
_U+30EC_U+30A4_U+30E4_U+30FC 1
 62
   179
420
  2234388
370
     9
100
AcDb2dPolyline
 66
     1
 10
0.0
 20
0.0
 30
0.0
  0
VERTEX
  5
9A
330
99
100
AcDbEntity
  8
_U+30EC_U+30A4_U+30E4_U+30FC 1
 62
   179
420
  2234388
370
     9
100
AcDbVertex
100
AcDb2dVertex
 10
98.4740387564416
 20
-163.661198893004
 30
0.0
  0
VERTEX
  5
9B
330
99
100
AcDbEntity
  8
_U+30EC_U+30A4_U+30E4_U+30FC 1
 62
   179
420
  2234388
370
     9
100
AcDbVertex
100
AcDb2dVertex
 10
130.9341698213246
 20
-163.661198893004
 30
0.0
  0
SEQEND
  5
9C
330
99
100
AcDbEntity
  8
_U+30EC_U+30A4_U+30E4_U+30FC 1
 62
   179
420
  2234388
370
     9
  0
INSERT
  5
9E
330
1F
100
AcDbEntity
  8
_U+30EC_U+30A4_U+30E4_U+30FC 1
100
AcDbBlockReference
  2
block 2
 10
0.0
 20
0.0
 30
0.0
  0
POLYLINE
  5
A3
330
1F
100
AcDbEntity
  8
_U+30EC_U+30A4_U+30E4_U+30FC 1
 62
   179
420
  2234388
370
     9
100
AcDb2dPolyline
 66
     1
 10
0.0
 20
0.0
 30
0.0
  0
VERTEX
  5
A4
330
A3
100
AcDbEntity
  8
_U+30EC_U+30A4_U+30E4_U+30FC 1
 62
   179
420
  2234388
370
     9
100
AcDbVertex
100
AcDb2dVertex
 10
85.93391272197898
 20
-136.1614777966346
 30
0.0
  0
VERTEX
  5
A5
330
A3
100
AcDbEntity
  8
_U+30EC_U+30A4_U+30E4_U+30FC 1
 62
   179
420
  2234388
370
     9
100
AcDbVertex
100
AcDb2dVertex
 10
88.93393416830472
 20
-136.1614777966346
 30
0.0
  0
SEQEND
  5
A6
330
A3
100
AcDbEntity
  8
_U+30EC_U+30A4_U+30E4_U+30FC 1
 62
   179
420
  2234388
370
     9
  0
POLYLINE
  5
A7
330
1F
100
AcDbEntity
  8
_U+30EC_U+30A4_U+30E4_U+30FC 1
 62
   179
420
  2234388
370
     9
100
AcDb2dPolyline
 66
     1
 10
0.0
 20
0.0
 30
0.0
  0
VERTEX
  5
A8
330
A7
100
AcDbEntity
  8
_U+30EC_U+30A4_U+30E4_U+30FC 1
 62
   179
420
  2234388
370
     9
100
AcDbVertex
100
AcDb2dVertex
 10
85.93391272197898
 20
-137.6207987123396
 30
0.0
  0
VERTEX
  5
A9
330
A7
100
AcDbEntity
  8
_U+30EC_U+30A4_U+30E4_U+30FC 1
 62
   179
420
  2234388
370
     9
100
AcDbVertex
100
AcDb2dVertex
 10
85.93391272197898
 20
-135.1608928766373
 30
0.0
  0
SEQEND
  5
AA
330
A7
100
AcDbEntity
  8
_U+30EC_U+30A4_U+30E4_U+30FC 1
 62
   179
420
  2234388
370
     9
  0
POLYLINE
  5
AB
330
1F
100
AcDbEntity
  8
_U+30EC_U+30A4_U+30E4_U+30FC 1
 62
   179
420
  2234388
370
     9
100
AcDb2dPolyline
 66
     1
 10
0.0
 20
0.0
 30
0.0
  0
VERTEX
  5
AC
330
AB
100
AcDbEntity
  8
_U+30EC_U+30A4_U+30E4_U+30FC 1
 62
   179
420
  2234388
370
     9
100
AcDbVertex
100
AcDb2dVertex
 10
88.93386957276437
 20
-137.6207987123396
 30
0.0
  0
VERTEX
  5
AD
330
AB
100
AcDbEntity
  8
_U+30EC_U+30A4_U+30E4_U+30FC 1
 62
   179
420
  2234388
370
     9
100
AcDbVertex
100
AcDb2dVertex
 10
88.93386957276437
 20
-135.1608928766373
 30
0.0
  0
SEQEND
  5
AE
330
AB
100
AcDbEntity
  8
_U+30EC_U+30A4_U+30E4_U+30FC 1
 62
   179
420
  2234388
370
     9
  0
INSERT
  5
B0
330
1F
100
AcDbEntity
  8
_U+30EC_U+30A4_U+30E4_U+30FC 1
100
AcDbBlockReference
  2
block 3
 10
0.0
 20
0.0
 30
0.0
  0
POLYLINE
  5
B5
330
1F
100
AcDbEntity
  8
_U+30EC_U+30A4_U+30E4_U+30FC 1
 62
   179
420
  2234388
370
     9
100
AcDb2dPolyline
 66
     1
 10
0.0
 20
0.0
 30
0.0
  0
VERTEX
  5
B6
330
B5
100
AcDbEntity
  8
_U+30EC_U+30A4_U+30E4_U+30FC 1
 62
   179
420
  2234388
370
     9
100
AcDbVertex
100
AcDb2dVertex
 10
85.93391272197898
 20
-132.1613558968642
 30
0.0
  0
VERTEX
  5
B7
330
B5
100
AcDbEntity
  8
_U+30EC_U+30A4_U+30E4_U+30FC 1
 62
   179
420
  2234388
370
     9
100
AcDbVertex
100
AcDb2dVertex
 10
125.933958234033
 20
-132.1613558968642
 30
0.0
  0
SEQEND
  5
B8
330
B5
100
AcDbEntity
  8
_U+30EC_U+30A4_U+30E4_U+30FC 1
 62
   179
420
  2234388
370
     9
  0
POLYLINE
  5
B9
330
1F
100
AcDbEntity
  8
_U+30EC_U+30A4_U+30E4_U+30FC 1
 62
   179
420
  2234388
370
     9
100
AcDb2dPolyline
 66
     1
 10
0.0
 20
0.0
 30
0.0
  0
VERTEX
  5
BA
330
B9
100
AcDbEntity
  8
_U+30EC_U+30A4_U+30E4_U+30FC 1
 62
   179
420
  2234388
370
     9
100
AcDbVertex
100
AcDb2dVertex
 10
85.93391272197898
 20
-137.6207987123396
 30
0.0
  0
VERTEX
  5
BB
330
B9
100
AcDbEntity
  8
_U+30EC_U+30A4_U+30E4_U+30FC 1
 62
   179
420
  2234388
370
     9
100
AcDbVertex
100
AcDb2dVertex
 10
85.93391272197898
 20
-131.1614384641172
 30
0.0
  0
SEQEND
  5
BC
330
B9
100
AcDbEntity
  8
_U+30EC_U+30A4_U+30E4_U+30FC 1
 62
   179
420
  2234388
370
     9
  0
POLYLINE
  5
BD
330
1F
100
AcDbEntity
  8
_U+30EC_U+30A4_U+30E4_U+30FC 1
 62
   179
420
  2234388
370
     9
100
AcDb2dPolyline
 66
     1
 10
0.0
 20
0.0
 30
0.0
  0
VERTEX
  5
BE
330
BD
100
AcDbEntity
  8
_U+30EC_U+30A4_U+30E4_U+30FC 1
 62
   179
420
  2234388
370
     9
100
AcDbVertex
100
AcDb2dVertex
 10
125.9338721066459
 20
-144.7211189755927
 30
0.0
  0
VERTEX
  5
BF
330
BD
100
AcDbEntity
  8
_U+30EC_U+30A4_U+30E4_U+30FC 1
 62
   179
420
  2234388
370
     9
100
AcDbVertex
100
AcDb2dVertex
 10
125.9338721066459
 20
-131.1614169322704
 30
0.0
  0
SEQEND
  5
C0
330
BD
100
AcDbEntity
  8
_U+30EC_U+30A4_U+30E4_U+30FC 1
 62
   179
420
  2234388
370
     9
  0
INSERT
  5
C2
330
1F
100
AcDbEntity
  8
_U+30EC_U+30A4_U+30E4_U+30FC 1
100
AcDbBlockReference
  2
block 4
 10
0.0
 20
0.0
 30
0.0
  0
POLYLINE
  5
DD
330
1F
100
AcDbEntity
  8
_U+30EC_U+30A4_U+30E4_U+30FC 1
 62
   179
420
  2234388
370
     9
100
AcDb2dPolyline
 66
     1
 10
0.0
 20
0.0
 30
0.0
  0
VERTEX
  5
DE
330
DD
100
AcDbEntity
  8
_U+30EC_U+30A4_U+30E4_U+30FC 1
 62
   179
420
  2234388
370
     9
100
AcDbVertex
100
AcDb2dVertex
 10
85.93391272197898
 20
-167.6609978150726
 30
0.0
  0
VERTEX
  5
DF
330
DD
100
AcDbEntity
  8
_U+30EC_U+30A4_U+30E4_U+30FC 1
 62
   179
420
  2234388
370
     9
100
AcDbVertex
100
AcDb2dVertex
 10
95.93445432171951
 20
-167.6609978150726
 30
0.0
  0
SEQEND
  5
E0
330
DD
100
AcDbEntity
  8
_U+30EC_U+30A4_U+30E4_U+30FC 1
 62
   179
420
  2234388
370
     9
  0
POLYLINE
  5
E1
330
1F
100
AcDbEntity
  8
_U+30EC_U+30A4_U+30E4_U+30FC 1
 62
   179
420
  2234388
370
     9
100
AcDb2dPolyline
 66
     1
 10
0.0
 20
0.0
 30
0.0
  0
VERTEX
  5
E2
330
E1
100
AcDbEntity
  8
_U+30EC_U+30A4_U+30E4_U+30FC 1
 62
   179
420
  2234388
370
     9
100
AcDbVertex
100
AcDb2dVertex
 10
85.93391272197898
 20
-166.2009878802705
 30
0.0
  0
VERTEX
  5
E3
330
E1
100
AcDbEntity
  8
_U+30EC_U+30A4_U+30E4_U+30FC 1
 62
   179
420
  2234388
370
     9
100
AcDbVertex
100
AcDb2dVertex
 10
85.93391272197898
 20
-168.66161503284
 30
0.0
  0
SEQEND
  5
E4
330
E1
100
AcDbEntity
  8
_U+30EC_U+30A4_U+30E4_U+30FC 1
 62
   179
420
  2234388
370
     9
  0
POLYLINE
  5
E5
330
1F
100
AcDbEntity
  8
_U+30EC_U+30A4_U+30E4_U+30FC 1
 62
   179
420
  2234388
370
     9
100
AcDb2dPolyline
 66
     1
 10
0.0
 20
0.0
 30
0.0
  0
VERTEX
  5
E6
330
E5
100
AcDbEntity
  8
_U+30EC_U+30A4_U+30E4_U+30FC 1
 62
   179
420
  2234388
370
     9
100
AcDbVertex
100
AcDb2dVertex
 10
95.93431436471543
 20
-166.2009878802705
 30
0.0
  0
VERTEX
  5
E7
330
E5
100
AcDbEntity
  8
_U+30EC_U+30A4_U+30E4_U+30FC 1
 62
   179
420
  2234388
370
     9
100
AcDbVertex
100
AcDb2dVertex
 10
95.93431436471543
 20
-168.66161503284
 30
0.0
  0
SEQEND
  5
E8
330
E5
100
AcDbEntity
  8
_U+30EC_U+30A4_U+30E4_U+30FC 1
 62
   179
420
  2234388
370
     9
  0
INSERT
  5
EA
330
1F
100
AcDbEntity
  8
_U+30EC_U+30A4_U+30E4_U+30FC 1
100
AcDbBlockReference
  2
block 5
 10
0.0
 20
0.0
 30
0.0
  0
POLYLINE
  5
F2
330
1F
100
AcDbEntity
  8
_U+30EC_U+30A4_U+30E4_U+30FC 1
 62
   179
420
  2234388
370
     9
100
AcDb2dPolyline
 66
     1
 10
0.0
 20
0.0
 30
0.0
  0
VERTEX
  5
F3
330
F2
100
AcDbEntity
  8
_U+30EC_U+30A4_U+30E4_U+30FC 1
 62
   179
420
  2234388
370
     9
100
AcDbVertex
100
AcDb2dVertex
 10
81.93412456583374
 20
-140.1612336550096
 30
0.0
  0
VERTEX
  5
F4
330
F2
100
AcDbEntity
  8
_U+30EC_U+30A4_U+30E4_U+30FC 1
 62
   179
420
  2234388
370
     9
100
AcDbVertex
100
AcDb2dVertex
 10
81.93412456583374
 20
-163.6611773611572
 30
0.0
  0
SEQEND
  5
F5
330
F2
100
AcDbEntity
  8
_U+30EC_U+30A4_U+30E4_U+30FC 1
 62
   179
420
  2234388
370
     9
  0
POLYLINE
  5
F6
330
1F
100
AcDbEntity
  8
_U+30EC_U+30A4_U+30E4_U+30FC 1
 62
   179
420
  2234388
370
     9
100
AcDb2dPolyline
 66
     1
 10
0.0
 20
0.0
 30
0.0
  0
VERTEX
  5
F7
330
F6
100
AcDbEntity
  8
_U+30EC_U+30A4_U+30E4_U+30FC 1
 62
   179
420
  2234388
370
     9
100
AcDbVertex
100
AcDb2dVertex
 10
83.39416679840602
 20
-140.1612336550096
 30
0.0
  0
VERTEX
  5
F8
330
F6
100
AcDbEntity
  8
_U+30EC_U+30A4_U+30E4_U+30FC 1
 62
   179
420
  2234388
370
     9
100
AcDbVertex
100
AcDb2dVertex
 10
80.9335396458365
 20
-140.1612336550096
 30
0.0
  0
SEQEND
  5
F9
330
F6
100
AcDbEntity
  8
_U+30EC_U+30A4_U+30E4_U+30FC 1
 62
   179
420
  2234388
370
     9
  0
POLYLINE
  5
FA
330
1F
100
AcDbEntity
  8
_U+30EC_U+30A4_U+30E4_U+30FC 1
 62
   179
420
  2234388
370
     9
100
AcDb2dPolyline
 66
     1
 10
0.0
 20
0.0
 30
0.0
  0
VERTEX
  5
FB
330
FA
100
AcDbEntity
  8
_U+30EC_U+30A4_U+30E4_U+30FC 1
 62
   179
420
  2234388
370
     9
100
AcDbVertex
100
AcDb2dVertex
 10
83.39416679840602
 20
-163.661198893004
 30
0.0
  0
VERTEX
  5
FC
330
FA
100
AcDbEntity
  8
_U+30EC_U+30A4_U+30E4_U+30FC 1
 62
   179
420
  2234388
370
     9
100
AcDbVertex
100
AcDb2dVertex
 10
80.9335396458365
 20
-163.661198893004
 30
0.0
  0
SEQEND
  5
FD
330
FA
100
AcDbEntity
  8
_U+30EC_U+30A4_U+30E4_U+30FC 1
 62
   179
420
  2234388
370
     9
  0
INSERT
  5
FF
330
1F
100
AcDbEntity
  8
_U+30EC_U+30A4_U+30E4_U+30FC 1
100
AcDbBlockReference
  2
block 6
 10
0.0
 20
0.0
 30
0.0
  0
POLYLINE
  5
110
330
1F
100
AcDbEntity
  8
_U+30EC_U+30A4_U+30E4_U+30FC 1
 62
   179
420
  2234388
370
     9
100
AcDb2dPolyline
 66
     1
 10
0.0
 20
0.0
 30
0.0
  0
VERTEX
  5
111
330
110
100
AcDbEntity
  8
_U+30EC_U+30A4_U+30E4_U+30FC 1
 62
   179
420
  2234388
370
     9
100
AcDbVertex
100
AcDb2dVertex
 10
129.9336279650209
 20
-145.6616300430659
 30
0.0
  0
VERTEX
  5
112
330
110
100
AcDbEntity
  8
_U+30EC_U+30A4_U+30E4_U+30FC 1
 62
   179
420
  2234388
370
     9
100
AcDbVertex
100
AcDb2dVertex
 10
129.9336279650209
 20
-160.6614035310695
 30
0.0
  0
SEQEND
  5
113
330
110
100
AcDbEntity
  8
_U+30EC_U+30A4_U+30E4_U+30FC 1
 62
   179
420
  2234388
370
     9
  0
POLYLINE
  5
114
330
1F
100
AcDbEntity
  8
_U+30EC_U+30A4_U+30E4_U+30FC 1
 62
   179
420
  2234388
370
     9
100
AcDb2dPolyline
 66
     1
 10
0.0
 20
0.0
 30
0.0
  0
VERTEX
  5
115
330
114
100
AcDbEntity
  8
_U+30EC_U+30A4_U+30E4_U+30FC 1
 62
   179
420
  2234388
370
     9
100
AcDbVertex
100
AcDb2dVertex
 10
128.4735534346785
 20
-148.16141285901
 30
0.0
  0
VERTEX
  5
116
330
114
100
AcDbEntity
  8
_U+30EC_U+30A4_U+30E4_U+30FC 1
 62
   179
420
  2234388
370
     9
100
AcDbVertex
100
AcDb2dVertex
 10
130.9341698213246
 20
-148.16141285901
 30
0.0
  0
SEQEND
  5
117
330
114
100
AcDbEntity
  8
_U+30EC_U+30A4_U+30E4_U+30FC 1
 62
   179
420
  2234388
370
     9
  0
SPLINE
  5
118
330
1F
100
AcDbEntity
  8
_U+30EC_U+30A4_U+30E4_U+30FC 1
 62
   179
420
  2234388
370
     9
100
AcDbSpline
210
0.0
220
0.0
230
1.0
 70
    11
 71
     3
 72
    17
 73
    13
 74
     0
 42
0.0000000001
 43
0.0000000001
 12
1.0
 22
0.0
 32
0.0
 13
1.0
 23
0.0
 33
0.0
 40
0.0
 40
0.0
 40
0.0
 40
0.0
 40
1.0
 40
1.0
 40
1.0
 40
2.0
 40
2.0
 40
2.0
 40
3.0
 40
3.0
 40
3.0
 40
4.0
 40
4.0
 40
4.0
 40
4.0
 10
130.0335357340932
 20
-147.1616461491905
 30
0.0
 10
130.0335357340932
 20
-147.1059217297166
 30
0.0
 10
129.9887279609381
 20
-147.0611139565615
 30
0.0
 10
129.9336925605613
 20
-147.0611139565615
 30
0.0
 10
129.8786571601844
 20
-147.0611139565615
 30
0.0
 10
129.8338493870294
 20
-147.1059217297166
 30
0.0
 10
129.8338493870294
 20
-147.1616461491905
 30
0.0
 10
129.8338493870294
 20
-147.2166815495674
 30
0.0
 10
129.8786571601844
 20
-147.2614893227224
 30
0.0
 10
129.9336925605613
 20
-147.2614893227224
 30
0.0
 10
129.9887279609381
 20
-147.2614893227224
 30
0.0
 10
130.0335357340932
 20
-147.2166815495674
 30
0.0
 10
130.0335357340932
 20
-147.1616461491905
 30
0.0
  0
POLYLINE
  5
119
330
1F
100
AcDbEntity
  8
_U+30EC_U+30A4_U+30E4_U+30FC 1
 62
   179
420
  2234388
370
     9
100
AcDb2dPolyline
 66
     1
 10
0.0
 20
0.0
 30
0.0
  0
VERTEX
  5
11A
330
119
100
AcDbEntity
  8
_U+30EC_U+30A4_U+30E4_U+30FC 1
 62
   179
420
  2234388
370
     9
100
AcDbVertex
100
AcDb2dVertex
 10
128.4735534346785
 20
-147.1616461491905
 30
0.0
  0
VERTEX
  5
11B
330
119
100
AcDbEntity
  8
_U+30EC_U+30A4_U+30E4_U+30FC 1
 62
   179
420
  2234388
370
     9
100
AcDbVertex
100
AcDb2dVertex
 10
130.9341698213246
 20
-147.1616461491905
 30
0.0
  0
SEQEND
  5
11C
330
119
100
AcDbEntity
  8
_U+30EC_U+30A4_U+30E4_U+30FC 1
 62
   179
420
  2234388
370
     9
  0
INSERT
  5
11E
330
1F
100
AcDbEntity
  8
_U+30EC_U+30A4_U+30E4_U+30FC 1
100
AcDbBlockReference
  2
block 7
 10
0.0
 20
0.0
 30
0.0
  0
INSERT
  5
130
330
1F
100
AcDbEntity
  8
_U+30EC_U+30A4_U+30E4_U+30FC 1
100
AcDbBlockReference
  2
block 8
 10
0.0
 20
0.0
 30
0.0
  0
POLYLINE
  5
135
330
1F
100
AcDbEntity
  8
_U+30EC_U+30A4_U+30E4_U+30FC 1
370
     0
100
AcDb2dPolyline
 66
     1
 10
0.0
 20
0.0
 30
0.0
  0
VERTEX
  5
136
330
135
100
AcDbEntity
  8
_U+30EC_U+30A4_U+30E4_U+30FC 1
370
     0
100
AcDbVertex
100
AcDb2dVertex
 10
86.83375013087945
 20
-148.1617789004053
 30
0.0
  0
VERTEX
  5
137
330
135
100
AcDbEntity
  8
_U+30EC_U+30A4_U+30E4_U+30FC 1
370
     0
100
AcDbVertex
100
AcDb2dVertex
 10
114.9328424802186
 20
-148.1617789004053
 30
0.0
  0
VERTEX
  5
138
330
135
100
AcDbEntity
  8
_U+30EC_U+30A4_U+30E4_U+30FC 1
370
     0
100
AcDbVertex
100
AcDb2dVertex
 10
115.1829564124478
 20
-147.9621140851883
 30
0.0
  0
VERTEX
  5
139
330
135
100
AcDbEntity
  8
_U+30EC_U+30A4_U+30E4_U+30FC 1
370
     0
100
AcDbVertex
100
AcDb2dVertex
 10
115.4330918765237
 20
-148.1617789004053
 30
0.0
  0
VERTEX
  5
13A
330
135
100
AcDbEntity
  8
_U+30EC_U+30A4_U+30E4_U+30FC 1
370
     0
100
AcDbVertex
100
AcDb2dVertex
 10
120.4347676293965
 20
-148.1617789004053
 30
0.0
  0
VERTEX
  5
13B
330
135
100
AcDbEntity
  8
_U+30EC_U+30A4_U+30E4_U+30FC 1
370
     0
100
AcDbVertex
100
AcDb2dVertex
 10
120.6848815616257
 20
-147.9617695756398
 30
0.0
  0
VERTEX
  5
13C
330
135
100
AcDbEntity
  8
_U+30EC_U+30A4_U+30E4_U+30FC 1
370
     0
100
AcDbVertex
100
AcDb2dVertex
 10
120.9349954938548
 20
-148.1617789004053
 30
0.0
  0
VERTEX
  5
13D
330
135
100
AcDbEntity
  8
_U+30EC_U+30A4_U+30E4_U+30FC 1
370
     0
100
AcDbVertex
100
AcDb2dVertex
 10
125.933161555702
 20
-148.1617789004053
 30
0.0
  0
VERTEX
  5
13E
330
135
100
AcDbEntity
  8
_U+30EC_U+30A4_U+30E4_U+30FC 1
370
     0
100
AcDbVertex
100
AcDb2dVertex
 10
125.933161555702
 20
-147.2611448131739
 30
0.0
  0
VERTEX
  5
13F
330
135
100
AcDbEntity
  8
_U+30EC_U+30A4_U+30E4_U+30FC 1
370
     0
100
AcDbVertex
100
AcDb2dVertex
 10
86.83375013087945
 20
-147.2611448131739
 30
0.0
  0
SEQEND
  5
141
330
135
100
AcDbEntity
  8
_U+30EC_U+30A4_U+30E4_U+30FC 1
370
     0
  0
HATCH
  5
140
330
1F
100
AcDbEntity
  8
_U+30EC_U+30A4_U+30E4_U+30FC 1
 62
     9
420
 13224394
100
AcDbHatch
 10
0.0
 20
0.0
 30
0.0
210
0.0
220
0.0
230
1.0
  2
SOLID
 70
     1
 71
     0
 91
        1
 92
        1
 93
       10
 72
     1
 10
86.83375013087945
 20
-148.1617789004053
 11
114.9328424802186
 21
-148.1617789004053
 72
     1
 10
114.9328424802186
 20
-148.1617789004053
 11
115.1829564124478
 21
-147.9621140851883
 72
     1
 10
115.1829564124478
 20
-147.9621140851883
 11
115.4330918765237
 21
-148.1617789004053
 72
     1
 10
115.4330918765237
 20
-148.1617789004053
 11
120.4347676293965
 21
-148.1617789004053
 72
     1
 10
120.4347676293965
 20
-148.1617789004053
 11
120.6848815616257
 21
-147.9617695756397
 72
     1
 10
120.6848815616257
 20
-147.9617695756398
 11
120.9349954938548
 21
-148.1617789004053
 72
     1
 10
120.9349954938548
 20
-148.1617789004053
 11
125.933161555702
 21
-148.1617789004053
 72
     1
 10
125.933161555702
 20
-148.1617789004053
 11
125.933161555702
 21
-147.2611448131738
 72
     1
 10
125.933161555702
 20
-147.2611448131739
 11
86.83375013087945
 21
-147.2611448131739
 72
     1
 10
86.83375013087945
 20
-147.2611448131739
 11
86.83375013087945
 21
-148.1617789004053
 97
        0
 75
     2
 76
     1
 98
        0
  0
POLYLINE
  5
142
330
1F
100
AcDbEntity
  8
_U+30EC_U+30A4_U+30E4_U+30FC 1
 62
   179
420
  2234388
370
    25
100
AcDb2dPolyline
 66
     1
 10
0.0
 20
0.0
 30
0.0
  0
VERTEX
  5
143
330
142
100
AcDbEntity
  8
_U+30EC_U+30A4_U+30E4_U+30FC 1
 62
   179
420
  2234388
370
    25
100
AcDbVertex
100
AcDb2dVertex
 10
86.83375013087945
 20
-148.1617789004053
 30
0.0
  0
VERTEX
  5
144
330
142
100
AcDbEntity
  8
_U+30EC_U+30A4_U+30E4_U+30FC 1
 62
   179
420
  2234388
370
    25
100
AcDbVertex
100
AcDb2dVertex
 10
114.800550813585
 20
-148.1617789004053
 30
0.0
  0
VERTEX
  5
145
330
142
100
AcDbEntity
  8
_U+30EC_U+30A4_U+30E4_U+30FC 1
 62
   179
420
  2234388
370
    25
100
AcDbVertex
100
AcDb2dVertex
 10
115.1829564124478
 20
-147.9621140851883
 30
0.0
  0
VERTEX
  5
146
330
142
100
AcDbEntity
  8
_U+30EC_U+30A4_U+30E4_U+30FC 1
 62
   179
420
  2234388
370
    25
100
AcDbVertex
100
AcDb2dVertex
 10
115.5653835431573
 20
-148.1617789004053
 30
0.0
  0
VERTEX
  5
147
330
142
100
AcDbEntity
  8
_U+30EC_U+30A4_U+30E4_U+30FC 1
 62
   179
420
  2234388
370
    25
100
AcDbVertex
100
AcDb2dVertex
 10
120.3003658417782
 20
-148.1617789004053
 30
0.0
  0
VERTEX
  5
148
330
142
100
AcDbEntity
  8
_U+30EC_U+30A4_U+30E4_U+30FC 1
 62
   179
420
  2234388
370
    25
100
AcDbVertex
100
AcDb2dVertex
 10
120.6848815616257
 20
-147.9617695756398
 30
0.0
  0
VERTEX
  5
149
330
142
100
AcDbEntity
  8
_U+30EC_U+30A4_U+30E4_U+30FC 1
 62
   179
420
  2234388
370
    25
100
AcDbVertex
100
AcDb2dVertex
 10
121.0658875904475
 20
-148.1617789004053
 30
0.0
  0
VERTEX
  5
14A
330
142
100
AcDbEntity
  8
_U+30EC_U+30A4_U+30E4_U+30FC 1
 62
   179
420
  2234388
370
    25
100
AcDbVertex
100
AcDb2dVertex
 10
125.933161555702
 20
-148.1617789004053
 30
0.0
  0
SEQEND
  5
14B
330
142
100
AcDbEntity
  8
_U+30EC_U+30A4_U+30E4_U+30FC 1
 62
   179
420
  2234388
370
    25
  0
POLYLINE
  5
14C
330
1F
100
AcDbEntity
  8
_U+30EC_U+30A4_U+30E4_U+30FC 1
 62
   179
420
  2234388
370
    25
100
AcDb2dPolyline
 66
     1
 10
0.0
 20
0.0
 30
0.0
  0
VERTEX
  5
14D
330
14C
100
AcDbEntity
  8
_U+30EC_U+30A4_U+30E4_U+30FC 1
 62
   179
420
  2234388
370
    25
100
AcDbVertex
100
AcDb2dVertex
 10
125.9332046193956
 20
-147.2612094087142
 30
0.0
  0
VERTEX
  5
14E
330
14C
100
AcDbEntity
  8
_U+30EC_U+30A4_U+30E4_U+30FC 1
 62
   179
420
  2234388
370
    25
100
AcDbVertex
100
AcDb2dVertex
 10
125.9332046193956
 20
-148.1618650277924
 30
0.0
  0
SEQEND
  5
14F
330
14C
100
AcDbEntity
  8
_U+30EC_U+30A4_U+30E4_U+30FC 1
 62
   179
420
  2234388
370
    25
  0
POLYLINE
  5
150
330
1F
100
AcDbEntity
  8
_U+30EC_U+30A4_U+30E4_U+30FC 1
 62
   179
420
  2234388
370
    25
100
AcDb2dPolyline
 66
     1
 10
0.0
 20
0.0
 30
0.0
  0
VERTEX
  5
151
330
150
100
AcDbEntity
  8
_U+30EC_U+30A4_U+30E4_U+30FC 1
 62
   179
420
  2234388
370
    25
100
AcDbVertex
100
AcDb2dVertex
 10
86.83375013087945
 20
-147.2612094087142
 30
0.0
  0
VERTEX
  5
152
330
150
100
AcDbEntity
  8
_U+30EC_U+30A4_U+30E4_U+30FC 1
 62
   179
420
  2234388
370
    25
100
AcDbVertex
100
AcDb2dVertex
 10
125.933161555702
 20
-147.2612094087142
 30
0.0
  0
SEQEND
  5
153
330
150
100
AcDbEntity
  8
_U+30EC_U+30A4_U+30E4_U+30FC 1
 62
   179
420
  2234388
370
    25
  0
POLYLINE
  5
154
330
1F
100
AcDbEntity
  8
_U+30EC_U+30A4_U+30E4_U+30FC 1
  6
AI-Linetype-1
 62
   154
420
    23468
370
    25
100
AcDb2dPolyline
 66
     1
 10
0.0
 20
0.0
 30
0.0
  0
VERTEX
  5
155
330
154
100
AcDbEntity
  8
_U+30EC_U+30A4_U+30E4_U+30FC 1
  6
AI-Linetype-1
 62
   154
420
    23468
370
    25
100
AcDbVertex
100
AcDb2dVertex
 10
89.46616912300564
 20
-141.1046730536453
 30
0.0
  0
VERTEX
  5
156
330
154
100
AcDbEntity
  8
_U+30EC_U+30A4_U+30E4_U+30FC 1
  6
AI-Linetype-1
 62
   154
420
    23468
370
    25
100
AcDbVertex
100
AcDb2dVertex
 10
89.46616912300564
 20
-139.6156166575332
 30
0.0
  0
VERTEX
  5
157
330
154
100
AcDbEntity
  8
_U+30EC_U+30A4_U+30E4_U+30FC 1
  6
AI-Linetype-1
 62
   154
420
    23468
370
    25
100
AcDbVertex
100
AcDb2dVertex
 10
85.41063501553971
 20
-139.6156166575332
 30
0.0
  0
VERTEX
  5
158
330
154
100
AcDbEntity
  8
_U+30EC_U+30A4_U+30E4_U+30FC 1
  6
AI-Linetype-1
 62
   154
420
    23468
370
    25
100
AcDbVertex
100
AcDb2dVertex
 10
85.41063501553971
 20
-164.2765360103632
 30
0.0
  0
VERTEX
  5
159
330
154
100
AcDbEntity
  8
_U+30EC_U+30A4_U+30E4_U+30FC 1
  6
AI-Linetype-1
 62
   154
420
    23468
370
    25
100
AcDbVertex
100
AcDb2dVertex
 10
96.51043122316004
 20
-164.2765360103632
 30
0.0
  0
VERTEX
  5
15A
330
154
100
AcDbEntity
  8
_U+30EC_U+30A4_U+30E4_U+30FC 1
  6
AI-Linetype-1
 62
   154
420
    23468
370
    25
100
AcDbVertex
100
AcDb2dVertex
 10
96.51043122316004
 20
-160.7028953998199
 30
0.0
  0
SEQEND
  5
15C
330
154
100
AcDbEntity
  8
_U+30EC_U+30A4_U+30E4_U+30FC 1
  6
AI-Linetype-1
 62
   154
420
    23468
370
    25
  0
ENDSEC
  0
SECTION
  2
OBJECTS
  0
DICTIONARY
  5
C
330
0
100
AcDbDictionary
281
     1
  3
ACAD_GROUP
350
D
  3
ACAD_LAYOUT
350
1A
  3
ACAD_MATERIAL
350
3B
  3
ACAD_MLEADERSTYLE
350
15E
  3
ACAD_MLINESTYLE
350
17
  3
ACAD_PLOTSETTINGS
350
19
  3
ACAD_PLOTSTYLENAME
350
E
  3
ACAD_TABLESTYLE
350
15D
  3
ACAD_VISUALSTYLE
350
2A
  0
SUN
  5
3F
330
29
100
AcDbSun
 90
        1
290
     0
 63
     7
421
 16777215
 40
1.0
291
     1
 91
  2455826
 92
 54000000
292
     0
 70
     2
 71
   256
280
     1
  0
DICTIONARY
  5
D
102
{ACAD_REACTORS
330
C
102
}
330
C
100
AcDbDictionary
281
     1
  0
DICTIONARY
  5
1A
102
{ACAD_REACTORS
330
C
102
}
330
C
100
AcDbDictionary
281
     1
  3
Layout1
350
1E
  3
Layout2
350
26
  3
Model
350
22
  0
DICTIONARY
  5
3B
102
{ACAD_REACTORS
330
C
102
}
330
C
100
AcDbDictionary
281
     1
  3
ByBlock
350
3D
  3
ByLayer
350
3C
  3
Global
350
3E
  0
DICTIONARY
  5
15E
102
{ACAD_REACTORS
330
C
102
}
330
C
100
AcDbDictionary
281
     1
  0
DICTIONARY
  5
17
102
{ACAD_REACTORS
330
C
102
}
330
C
100
AcDbDictionary
281
     1
  3
Standard
350
18
  0
DICTIONARY
  5
19
102
{ACAD_REACTORS
330
C
102
}
330
C
100
AcDbDictionary
281
     1
  0
ACDBDICTIONARYWDFLT
  5
E
102
{ACAD_REACTORS
330
C
102
}
330
C
100
AcDbDictionary
281
     1
  3
Normal
350
F
100
AcDbDictionaryWithDefault
340
F
  0
DICTIONARY
  5
15D
102
{ACAD_REACTORS
330
C
102
}
330
C
100
AcDbDictionary
281
     1
  0
DICTIONARY
  5
2A
102
{ACAD_REACTORS
330
C
102
}
330
C
100
AcDbDictionary
281
     1
  3
2dWireframe
350
2F
  3
3D Hidden
350
31
  3
3dWireframe
350
30
  3
Basic
350
32
  3
Brighten
350
36
  3
ColorChange
350
3A
  3
Conceptual
350
34
  3
Dim
350
35
  3
Facepattern
350
39
  3
Flat
350
2B
  3
FlatWithEdges
350
2C
  3
Gouraud
350
2D
  3
GouraudWithEdges
350
2E
  3
Linepattern
350
38
  3
Realistic
350
33
  3
Thicken
350
37
  0
LAYOUT
  5
1E
102
{ACAD_REACTORS
330
1A
102
}
330
1A
100
AcDbPlotSettings
  1

  2
none_device
  4

  6

 40
0.0
 41
0.0
 42
0.0
 43
0.0
 44
0.0
 45
0.0
 46
0.0
 47
0.0
 48
0.0
 49
0.0
140
0.0
141
0.0
142
1.0
143
1.0
 70
   688
 72
     0
 73
     0
 74
     5
  7

 75
    16
 76
     0
 77
     2
 78
   300
147
1.0
148
0.0
149
0.0
100
AcDbLayout
  1
Layout1
 70
     1
 71
     1
 10
0.0
 20
0.0
 11
12.0
 21
9.0
 12
0.0
 22
0.0
 32
0.0
 14
1.000000000000000E+20
 24
1.000000000000000E+20
 34
1.000000000000000E+20
 15
-1.000000000000000E+20
 25
-1.000000000000000E+20
 35
-1.000000000000000E+20
146
0.0
 13
0.0
 23
0.0
 33
0.0
 16
1.0
 26
0.0
 36
0.0
 17
0.0
 27
1.0
 37
0.0
 76
     0
330
1B
  0
LAYOUT
  5
26
102
{ACAD_REACTORS
330
1A
102
}
330
1A
100
AcDbPlotSettings
  1

  2
none_device
  4

  6

 40
0.0
 41
0.0
 42
0.0
 43
0.0
 44
0.0
 45
0.0
 46
0.0
 47
0.0
 48
0.0
 49
0.0
140
0.0
141
0.0
142
1.0
143
1.0
 70
   688
 72
     0
 73
     0
 74
     5
  7

 75
    16
 76
     0
 77
     2
 78
   300
147
1.0
148
0.0
149
0.0
100
AcDbLayout
  1
Layout2
 70
     1
 71
     2
 10
0.0
 20
0.0
 11
0.0
 21
0.0
 12
0.0
 22
0.0
 32
0.0
 14
0.0
 24
0.0
 34
0.0
 15
0.0
 25
0.0
 35
0.0
146
0.0
 13
0.0
 23
0.0
 33
0.0
 16
1.0
 26
0.0
 36
0.0
 17
0.0
 27
1.0
 37
0.0
 76
     0
330
23
  0
LAYOUT
  5
22
102
{ACAD_REACTORS
330
1A
102
}
330
1A
100
AcDbPlotSettings
  1

  2
none_device
  4

  6

 40
0.0
 41
0.0
 42
0.0
 43
0.0
 44
0.0
 45
0.0
 46
0.0
 47
0.0
 48
0.0
 49
0.0
140
0.0
141
0.0
142
1.0
143
1.0
 70
  1712
 72
     0
 73
     0
 74
     0
  7

 75
     0
 76
     0
 77
     2
 78
   300
147
1.0
148
0.0
149
0.0
100
AcDbLayout
  1
Model
 70
     1
 71
     0
 10
0.0
 20
0.0
 11
12.0
 21
9.0
 12
0.0
 22
0.0
 32
0.0
 14
1.000000000000000E+20
 24
1.000000000000000E+20
 34
1.000000000000000E+20
 15
-1.000000000000000E+20
 25
-1.000000000000000E+20
 35
-1.000000000000000E+20
146
0.0
 13
0.0
 23
0.0
 33
0.0
 16
1.0
 26
0.0
 36
0.0
 17
0.0
 27
1.0
 37
0.0
 76
     0
330
1F
331
29
  0
MATERIAL
  5
3D
102
{ACAD_REACTORS
330
3B
102
}
330
3B
100
AcDbMaterial
  1
ByBlock
 72
     1
 94
      127
  0
MATERIAL
  5
3C
102
{ACAD_REACTORS
330
3B
102
}
330
3B
100
AcDbMaterial
  1
ByLayer
 72
     1
 94
      127
  0
MATERIAL
  5
3E
102
{ACAD_REACTORS
330
3B
102
}
330
3B
100
AcDbMaterial
  1
Global
 72
     1
 94
      127
  0
MLINESTYLE
  5
18
102
{ACAD_REACTORS
330
17
102
}
330
17
100
AcDbMlineStyle
  2
Standard
 70
     0
  3

 62
   256
 51
90.0
 52
90.0
 71
     2
 49
0.5
 62
   256
  6
BYLAYER
 49
-0.5
 62
   256
  6
BYLAYER
  0
ACDBPLACEHOLDER
  5
F
102
{ACAD_REACTORS
330
E
102
}
330
E
  0
VISUALSTYLE
  5
2F
102
{ACAD_REACTORS
330
2A
102
}
330
2A
100
AcDbVisualStyle
  2
2dWireframe
 70
     4
177
     2
291
     0
 71
     0
176
     1
 72
     2
176
     1
 73
     0
176
     1
 90
        0
176
     1
 40
-0.6
176
     1
 41
-30.0
176
     1
 62
     5
 63
     7
421
 16777215
176
     1
 74
     1
176
     1
 91
        4
176
     1
 64
     7
176
     1
 65
   257
176
     1
 75
     1
176
     1
175
     1
176
     1
 42
1.0
176
     1
 92
        0
176
     1
 66
   257
176
     1
 43
1.0
176
     1
 76
     1
176
     1
 77
     6
176
     1
 78
     2
176
     1
 67
     7
176
     1
 79
     5
176
     1
170
     0
176
     1
171
     0
176
     1
290
     0
176
     1
 93
        1
176
     1
 44
0.0
176
     1
173
     0
176
     1
  0
VISUALSTYLE
  5
31
102
{ACAD_REACTORS
330
2A
102
}
330
2A
100
AcDbVisualStyle
  2
3D Hidden
 70
     6
177
     2
291
     0
 71
     1
176
     1
 72
     2
176
     1
 73
     2
176
     1
 90
        0
176
     1
 40
-0.6
176
     1
 41
-30.0
176
     1
 62
     5
 63
     7
421
 16777215
176
     1
 74
     2
176
     1
 91
        2
176
     1
 64
     7
176
     1
 65
   257
176
     1
 75
     2
176
     1
175
     1
176
     1
 42
40.0
176
     1
 92
        0
176
     1
 66
   257
176
     1
 43
1.0
176
     1
 76
     1
176
     1
 77
     6
176
     1
 78
     2
176
     1
 67
     7
176
     1
 79
     3
176
     1
170
     0
176
     1
171
     0
176
     1
290
     0
176
     1
 93
        1
176
     1
 44
0.0
176
     1
173
     0
176
     1
  0
VISUALSTYLE
  5
30
102
{ACAD_REACTORS
330
2A
102
}
330
2A
100
AcDbVisualStyle
  2
3dWireframe
 70
     5
177
     2
291
     0
 71
     0
176
     1
 72
     2
176
     1
 73
     0
176
     1
 90
        0
176
     1
 40
-0.6
176
     1
 41
-30.0
176
     1
 62
     5
 63
     7
421
 16777215
176
     1
 74
     1
176
     1
 91
        4
176
     1
 64
     7
176
     1
 65
   257
176
     1
 75
     1
176
     1
175
     1
176
     1
 42
1.0
176
     1
 92
        0
176
     1
 66
   257
176
     1
 43
1.0
176
     1
 76
     1
176
     1
 77
     6
176
     1
 78
     2
176
     1
 67
     7
176
     1
 79
     5
176
     1
170
     0
176
     1
171
     0
176
     1
290
     0
176
     1
 93
        1
176
     1
 44
0.0
176
     1
173
     0
176
     1
  0
VISUALSTYLE
  5
32
102
{ACAD_REACTORS
330
2A
102
}
330
2A
100
AcDbVisualStyle
  2
Basic
 70
     7
177
     2
291
     1
 71
     1
176
     1
 72
     0
176
     1
 73
     1
176
     1
 90
        0
176
     1
 40
-0.6
176
     1
 41
-30.0
176
     1
 62
     5
 63
     7
421
 16777215
176
     1
 74
     0
176
     1
 91
        4
176
     1
 64
     7
176
     1
 65
   257
176
     1
 75
     1
176
     1
175
     1
176
     1
 42
1.0
176
     1
 92
        8
176
     1
 66
     7
176
     1
 43
1.0
176
     1
 76
     1
176
     1
 77
     6
176
     1
 78
     2
176
     1
 67
     7
176
     1
 79
     5
176
     1
170
     0
176
     1
171
     0
176
     1
290
     0
176
     1
 93
        1
176
     1
 44
0.0
176
     1
173
     0
176
     1
  0
VISUALSTYLE
  5
36
102
{ACAD_REACTORS
330
2A
102
}
330
2A
100
AcDbVisualStyle
  2
Brighten
 70
    12
177
     2
291
     1
 71
     2
176
     1
 72
     2
176
     1
 73
     0
176
     1
 90
        0
176
     1
 40
-0.6
176
     1
 41
-30.0
176
     1
 62
     5
 63
     7
421
 16777215
176
     1
 74
     1
176
     1
 91
        4
176
     1
 64
     7
176
     1
 65
   257
176
     1
 75
     1
176
     1
175
     1
176
     1
 42
1.0
176
     1
 92
        8
176
     1
 66
     7
176
     1
 43
1.0
176
     1
 76
     1
176
     1
 77
     6
176
     1
 78
     2
176
     1
 67
     7
176
     1
 79
     5
176
     1
170
     0
176
     1
171
     0
176
     1
290
     0
176
     1
 93
        1
176
     1
 44
50.0
176
     1
173
     0
176
     1
  0
VISUALSTYLE
  5
3A
102
{ACAD_REACTORS
330
2A
102
}
330
2A
100
AcDbVisualStyle
  2
ColorChange
 70
    16
177
     2
291
     1
 71
     2
176
     1
 72
     2
176
     1
 73
     3
176
     1
 90
        0
176
     1
 40
-0.6
176
     1
 41
-30.0
176
     1
 62
     5
 63
     8
421
  8421504
176
     1
 74
     1
176
     1
 91
        4
176
     1
 64
     7
176
     1
 65
   257
176
     1
 75
     1
176
     1
175
     1
176
     1
 42
1.0
176
     1
 92
        8
176
     1
 66
     8
424
  8421504
176
     1
 43
1.0
176
     1
 76
     1
176
     1
 77
     6
176
     1
 78
     2
176
     1
 67
     7
176
     1
 79
     5
176
     1
170
     0
176
     1
171
     0
176
     1
290
     0
176
     1
 93
        1
176
     1
 44
0.0
176
     1
173
     0
176
     1
  0
VISUALSTYLE
  5
34
102
{ACAD_REACTORS
330
2A
102
}
330
2A
100
AcDbVisualStyle
  2
Conceptual
 70
     9
177
     2
291
     0
 71
     3
176
     1
 72
     2
176
     1
 73
     0
176
     1
 90
        0
176
     1
 40
-0.6
176
     1
 41
-30.0
176
     1
 62
     5
 63
     7
421
 16777215
176
     1
 74
     2
176
     1
 91
        2
176
     1
 64
     7
176
     1
 65
   257
176
     1
 75
     1
176
     1
175
     1
176
     1
 42
40.0
176
     1
 92
        8
176
     1
 66
     7
176
     1
 43
1.0
176
     1
 76
     1
176
     1
 77
     6
176
     1
 78
     2
176
     1
 67
     7
176
     1
 79
     3
176
     1
170
     0
176
     1
171
     0
176
     1
290
     0
176
     1
 93
        1
176
     1
 44
0.0
176
     1
173
     0
176
     1
  0
VISUALSTYLE
  5
35
102
{ACAD_REACTORS
330
2A
102
}
330
2A
100
AcDbVisualStyle
  2
Dim
 70
    11
177
     2
291
     1
 71
     2
176
     1
 72
     2
176
     1
 73
     0
176
     1
 90
        0
176
     1
 40
-0.6
176
     1
 41
-30.0
176
     1
 62
     5
 63
     7
421
 16777215
176
     1
 74
     1
176
     1
 91
        4
176
     1
 64
     7
176
     1
 65
   257
176
     1
 75
     1
176
     1
175
     1
176
     1
 42
1.0
176
     1
 92
        8
176
     1
 66
     7
176
     1
 43
1.0
176
     1
 76
     1
176
     1
 77
     6
176
     1
 78
     2
176
     1
 67
     7
176
     1
 79
     5
176
     1
170
     0
176
     1
171
     0
176
     1
290
     0
176
     1
 93
        1
176
     1
 44
-50.0
176
     1
173
     0
176
     1
  0
VISUALSTYLE
  5
39
102
{ACAD_REACTORS
330
2A
102
}
330
2A
100
AcDbVisualStyle
  2
Facepattern
 70
    15
177
     2
291
     1
 71
     2
176
     1
 72
     2
176
     1
 73
     0
176
     1
 90
        0
176
     1
 40
-0.6
176
     1
 41
-30.0
176
     1
 62
     5
 63
     7
421
 16777215
176
     1
 74
     1
176
     1
 91
        4
176
     1
 64
     7
176
     1
 65
   257
176
     1
 75
     1
176
     1
175
     1
176
     1
 42
1.0
176
     1
 92
        8
176
     1
 66
     7
176
     1
 43
1.0
176
     1
 76
     1
176
     1
 77
     6
176
     1
 78
     2
176
     1
 67
     7
176
     1
 79
     5
176
     1
170
     0
176
     1
171
     0
176
     1
290
     0
176
     1
 93
        1
176
     1
 44
0.0
176
     1
173
     0
176
     1
  0
VISUALSTYLE
  5
2B
102
{ACAD_REACTORS
330
2A
102
}
330
2A
100
AcDbVisualStyle
  2
Flat
 70
     0
177
     2
291
     1
 71
     2
176
     1
 72
     1
176
     1
 73
     1
176
     1
 90
        2
176
     1
 40
-0.6
176
     1
 41
30.0
176
     1
 62
     5
 63
     7
421
 16777215
176
     1
 74
     0
176
     1
 91
        4
176
     1
 64
     7
176
     1
 65
   257
176
     1
 75
     1
176
     1
175
     1
176
     1
 42
1.0
176
     1
 92
        8
176
     1
 66
     7
176
     1
 43
1.0
176
     1
 76
     1
176
     1
 77
     6
176
     1
 78
     2
176
     1
 67
     7
176
     1
 79
     5
176
     1
170
     0
176
     1
171
     0
176
     1
290
     0
176
     1
 93
       13
176
     1
 44
0.0
176
     1
173
     0
176
     1
  0
VISUALSTYLE
  5
2C
102
{ACAD_REACTORS
330
2A
102
}
330
2A
100
AcDbVisualStyle
  2
FlatWithEdges
 70
     1
177
     2
291
     1
 71
     2
176
     1
 72
     1
176
     1
 73
     1
176
     1
 90
        2
176
     1
 40
-0.6
176
     1
 41
30.0
176
     1
 62
     5
 63
     7
421
 16777215
176
     1
 74
     1
176
     1
 91
        4
176
     1
 64
     7
176
     1
 65
   257
176
     1
 75
     1
176
     1
175
     1
176
     1
 42
1.0
176
     1
 92
        0
176
     1
 66
   257
176
     1
 43
1.0
176
     1
 76
     1
176
     1
 77
     6
176
     1
 78
     2
176
     1
 67
     7
176
     1
 79
     5
176
     1
170
     0
176
     1
171
     0
176
     1
290
     0
176
     1
 93
       13
176
     1
 44
0.0
176
     1
173
     0
176
     1
  0
VISUALSTYLE
  5
2D
102
{ACAD_REACTORS
330
2A
102
}
330
2A
100
AcDbVisualStyle
  2
Gouraud
 70
     2
177
     2
291
     1
 71
     2
176
     1
 72
     2
176
     1
 73
     1
176
     1
 90
        2
176
     1
 40
-0.6
176
     1
 41
30.0
176
     1
 62
     5
 63
     7
421
 16777215
176
     1
 74
     0
176
     1
 91
        4
176
     1
 64
     7
176
     1
 65
   257
176
     1
 75
     1
176
     1
175
     1
176
     1
 42
1.0
176
     1
 92
        0
176
     1
 66
     7
176
     1
 43
1.0
176
     1
 76
     1
176
     1
 77
     6
176
     1
 78
     2
176
     1
 67
     7
176
     1
 79
     5
176
     1
170
     0
176
     1
171
     0
176
     1
290
     0
176
     1
 93
       13
176
     1
 44
0.0
176
     1
173
     0
176
     1
  0
VISUALSTYLE
  5
2E
102
{ACAD_REACTORS
330
2A
102
}
330
2A
100
AcDbVisualStyle
  2
GouraudWithEdges
 70
     3
177
     2
291
     1
 71
     2
176
     1
 72
     2
176
     1
 73
     1
176
     1
 90
        2
176
     1
 40
-0.6
176
     1
 41
30.0
176
     1
 62
     5
 63
     7
421
 16777215
176
     1
 74
     1
176
     1
 91
        4
176
     1
 64
     7
176
     1
 65
   257
176
     1
 75
     1
176
     1
175
     1
176
     1
 42
1.0
176
     1
 92
        0
176
     1
 66
   257
176
     1
 43
1.0
176
     1
 76
     1
176
     1
 77
     6
176
     1
 78
     2
176
     1
 67
     7
176
     1
 79
     5
176
     1
170
     0
176
     1
171
     0
176
     1
290
     0
176
     1
 93
       13
176
     1
 44
0.0
176
     1
173
     0
176
     1
  0
VISUALSTYLE
  5
38
102
{ACAD_REACTORS
330
2A
102
}
330
2A
100
AcDbVisualStyle
  2
Linepattern
 70
    14
177
     2
291
     1
 71
     2
176
     1
 72
     2
176
     1
 73
     0
176
     1
 90
        0
176
     1
 40
-0.6
176
     1
 41
-30.0
176
     1
 62
     5
 63
     7
421
 16777215
176
     1
 74
     1
176
     1
 91
        4
176
     1
 64
     7
176
     1
 65
   257
176
     1
 75
     7
176
     1
175
     7
176
     1
 42
1.0
176
     1
 92
        8
176
     1
 66
     7
176
     1
 43
1.0
176
     1
 76
     1
176
     1
 77
     6
176
     1
 78
     2
176
     1
 67
     7
176
     1
 79
     5
176
     1
170
     0
176
     1
171
     0
176
     1
290
     0
176
     1
 93
        1
176
     1
 44
0.0
176
     1
173
     0
176
     1
  0
VISUALSTYLE
  5
33
102
{ACAD_REACTORS
330
2A
102
}
330
2A
100
AcDbVisualStyle
  2
Realistic
 70
     8
177
     2
291
     0
 71
     2
176
     1
 72
     2
176
     1
 73
     0
176
     1
 90
        0
176
     1
 40
-0.6
176
     1
 41
-30.0
176
     1
 62
     5
 63
     7
421
 16777215
176
     1
 74
     1
176
     1
 91
        0
176
     1
 64
     7
176
     1
 65
   257
176
     1
 75
     1
176
     1
175
     1
176
     1
 42
1.0
176
     1
 92
        8
176
     1
 66
     8
424
  7895160
176
     1
 43
1.0
176
     1
 76
     1
176
     1
 77
     6
176
     1
 78
     2
176
     1
 67
     7
176
     1
 79
     5
176
     1
170
     0
176
     1
171
     0
176
     1
290
     0
176
     1
 93
       13
176
     1
 44
0.0
176
     1
173
     0
176
     1
  0
VISUALSTYLE
  5
37
102
{ACAD_REACTORS
330
2A
102
}
330
2A
100
AcDbVisualStyle
  2
Thicken
 70
    13
177
     2
291
     1
 71
     2
176
     1
 72
     2
176
     1
 73
     0
176
     1
 90
        0
176
     1
 40
-0.6
176
     1
 41
-30.0
176
     1
 62
     5
 63
     7
421
 16777215
176
     1
 74
     1
176
     1
 91
        4
176
     1
 64
     7
176
     1
 65
   257
176
     1
 75
     1
176
     1
175
     1
176
     1
 42
1.0
176
     1
 92
       12
176
     1
 66
     7
176
     1
 43
1.0
176
     1
 76
     1
176
     1
 77
     6
176
     1
 78
     2
176
     1
 67
     7
176
     1
 79
     5
176
     1
170
     0
176
     1
171
     0
176
     1
290
     0
176
     1
 93
        1
176
     1
 44
0.0
176
     1
173
     0
176
     1
  0
ENDSEC
  0
EOF
