  0
SECTION
  2
HEADER
  9
$ACADVER
  1
AC1024
  9
$ACADMAINTVER
 70
     6
  9
$DWGCODEPAGE
  3
UNDEFINED
  9
$INSBASE
 10
0.0
 20
0.0
 30
0.0
  9
$EXTMIN
 10
1.000000000000000E+20
 20
1.000000000000000E+20
 30
1.000000000000000E+20
  9
$EXTMAX
 10
-1.000000000000000E+20
 20
-1.000000000000000E+20
 30
-1.000000000000000E+20
  9
$LIMMIN
 10
0.0
 20
0.0
  9
$LIMMAX
 10
12.0
 20
9.0
  9
$ORTHOMODE
 70
     0
  9
$REGENMODE
 70
     1
  9
$FILLMODE
 70
     1
  9
$QTEXTMODE
 70
     0
  9
$MIRRTEXT
 70
     1
  9
$LTSCALE
 40
1.0
  9
$ATTMODE
 70
     1
  9
$TEXTSIZE
 40
0.2
  9
$TRACEWID
 40
0.05
  9
$TEXTSTYLE
  7
Standard
  9
$CLAYER
  8
0
  9
$CELTYPE
  6
ByLayer
  9
$CECOLOR
 62
   256
  9
$CELTSCALE
 40
1.0
  9
$DISPSILH
 70
     0
  9
$DIMSCALE
 40
1.0
  9
$DIMASZ
 40
0.18
  9
$DIMEXO
 40
0.0625
  9
$DIMDLI
 40
0.38
  9
$DIMRND
 40
0.0
  9
$DIMDLE
 40
0.0
  9
$DIMEXE
 40
0.18
  9
$DIMTP
 40
0.0
  9
$DIMTM
 40
0.0
  9
$DIMTXT
 40
0.18
  9
$DIMCEN
 40
0.09
  9
$DIMTSZ
 40
0.0
  9
$DIMTOL
 70
     0
  9
$DIMLIM
 70
     0
  9
$DIMTIH
 70
     1
  9
$DIMTOH
 70
     1
  9
$DIMSE1
 70
     0
  9
$DIMSE2
 70
     0
  9
$DIMTAD
 70
     0
  9
$DIMZIN
 70
     0
  9
$DIMBLK
  1

  9
$DIMASO
 70
     1
  9
$DIMSHO
 70
     1
  9
$DIMPOST
  1

  9
$DIMAPOST
  1

  9
$DIMALT
 70
     0
  9
$DIMALTD
 70
     2
  9
$DIMALTF
 40
25.4
  9
$DIMLFAC
 40
1.0
  9
$DIMTOFL
 70
     0
  9
$DIMTVP
 40
0.0
  9
$DIMTIX
 70
     0
  9
$DIMSOXD
 70
     0
  9
$DIMSAH
 70
     0
  9
$DIMBLK1
  1

  9
$DIMBLK2
  1

  9
$DIMSTYLE
  2
Standard
  9
$DIMCLRD
 70
     0
  9
$DIMCLRE
 70
     0
  9
$DIMCLRT
 70
     0
  9
$DIMTFAC
 40
1.0
  9
$DIMGAP
 40
0.09
  9
$DIMJUST
 70
     0
  9
$DIMSD1
 70
     0
  9
$DIMSD2
 70
     0
  9
$DIMTOLJ
 70
     1
  9
$DIMTZIN
 70
     0
  9
$DIMALTZ
 70
     0
  9
$DIMALTTZ
 70
     0
  9
$DIMUPT
 70
     0
  9
$DIMDEC
 70
     4
  9
$DIMTDEC
 70
     4
  9
$DIMALTU
 70
     2
  9
$DIMALTTD
 70
     2
  9
$DIMTXSTY
  7
Standard
  9
$DIMAUNIT
 70
     0
  9
$DIMADEC
 70
     0
  9
$DIMALTRND
 40
0.0
  9
$DIMAZIN
 70
     0
  9
$DIMDSEP
 70
    46
  9
$DIMATFIT
 70
     3
  9
$DIMFRAC
 70
     0
  9
$DIMLDRBLK
  1

  9
$DIMLUNIT
 70
     2
  9
$DIMLWD
 70
    -2
  9
$DIMLWE
 70
    -2
  9
$DIMTMOVE
 70
     0
  9
$DIMFXL
 40
1.0
  9
$DIMFXLON
 70
     0
  9
$DIMJOGANG
 40
0.7853981633974483
  9
$DIMTFILL
 70
     0
  9
$DIMTFILLCLR
 70
     0
  9
$DIMARCSYM
 70
     0
  9
$DIMLTYPE
  6

  9
$DIMLTEX1
  6

  9
$DIMLTEX2
  6

  9
$DIMTXTDIRECTION
 70
     0
  9
$LUNITS
 70
     2
  9
$LUPREC
 70
     4
  9
$SKETCHINC
 40
0.1
  9
$FILLETRAD
 40
0.5
  9
$AUNITS
 70
     0
  9
$AUPREC
 70
     0
  9
$MENU
  1
.
  9
$ELEVATION
 40
0.0
  9
$PELEVATION
 40
0.0
  9
$THICKNESS
 40
0.0
  9
$LIMCHECK
 70
     0
  9
$CHAMFERA
 40
0.5
  9
$CHAMFERB
 40
0.5
  9
$CHAMFERC
 40
1.0
  9
$CHAMFERD
 40
0.0
  9
$SKPOLY
 70
     0
  9
$TDCREATE
 40
2457917.61337963
  9
$TDUCREATE
 40
2457917.23837963
  9
$TDUPDATE
 40
2457917.61337963
  9
$TDUUPDATE
 40
2457917.23837963
  9
$TDINDWG
 40
0.0000000116
  9
$TDUSRTIMER
 40
0.0000000116
  9
$USRTIMER
 70
     1
  9
$ANGBASE
 50
0.0
  9
$ANGDIR
 70
     0
  9
$PDMODE
 70
     0
  9
$PDSIZE
 40
0.0
  9
$PLINEWID
 40
0.0
  9
$SPLFRAME
 70
     0
  9
$SPLINETYPE
 70
     6
  9
$SPLINESEGS
 70
     8
  9
$HANDSEED
  5
113
  9
$SURFTAB1
 70
     6
  9
$SURFTAB2
 70
     6
  9
$SURFTYPE
 70
     6
  9
$SURFU
 70
     6
  9
$SURFV
 70
     6
  9
$UCSBASE
  2

  9
$UCSNAME
  2

  9
$UCSORG
 10
0.0
 20
0.0
 30
0.0
  9
$UCSXDIR
 10
1.0
 20
0.0
 30
0.0
  9
$UCSYDIR
 10
0.0
 20
1.0
 30
0.0
  9
$UCSORTHOREF
  2

  9
$UCSORTHOVIEW
 70
     0
  9
$UCSORGTOP
 10
0.0
 20
0.0
 30
0.0
  9
$UCSORGBOTTOM
 10
0.0
 20
0.0
 30
0.0
  9
$UCSORGLEFT
 10
0.0
 20
0.0
 30
0.0
  9
$UCSORGRIGHT
 10
0.0
 20
0.0
 30
0.0
  9
$UCSORGFRONT
 10
0.0
 20
0.0
 30
0.0
  9
$UCSORGBACK
 10
0.0
 20
0.0
 30
0.0
  9
$PUCSBASE
  2

  9
$PUCSNAME
  2

  9
$PUCSORG
 10
0.0
 20
0.0
 30
0.0
  9
$PUCSXDIR
 10
1.0
 20
0.0
 30
0.0
  9
$PUCSYDIR
 10
0.0
 20
1.0
 30
0.0
  9
$PUCSORTHOREF
  2

  9
$PUCSORTHOVIEW
 70
     0
  9
$PUCSORGTOP
 10
0.0
 20
0.0
 30
0.0
  9
$PUCSORGBOTTOM
 10
0.0
 20
0.0
 30
0.0
  9
$PUCSORGLEFT
 10
0.0
 20
0.0
 30
0.0
  9
$PUCSORGRIGHT
 10
0.0
 20
0.0
 30
0.0
  9
$PUCSORGFRONT
 10
0.0
 20
0.0
 30
0.0
  9
$PUCSORGBACK
 10
0.0
 20
0.0
 30
0.0
  9
$USERI1
 70
     0
  9
$USERI2
 70
     0
  9
$USERI3
 70
     0
  9
$USERI4
 70
     0
  9
$USERI5
 70
     0
  9
$USERR1
 40
0.0
  9
$USERR2
 40
0.0
  9
$USERR3
 40
0.0
  9
$USERR4
 40
0.0
  9
$USERR5
 40
0.0
  9
$WORLDVIEW
 70
     1
  9
$SHADEDGE
 70
     3
  9
$SHADEDIF
 70
    70
  9
$TILEMODE
 70
     1
  9
$MAXACTVP
 70
    64
  9
$PINSBASE
 10
0.0
 20
0.0
 30
0.0
  9
$PLIMCHECK
 70
     0
  9
$PEXTMIN
 10
1.000000000000000E+20
 20
1.000000000000000E+20
 30
1.000000000000000E+20
  9
$PEXTMAX
 10
-1.000000000000000E+20
 20
-1.000000000000000E+20
 30
-1.000000000000000E+20
  9
$PLIMMIN
 10
0.0
 20
0.0
  9
$PLIMMAX
 10
12.0
 20
9.0
  9
$UNITMODE
 70
     0
  9
$VISRETAIN
 70
     1
  9
$PLINEGEN
 70
     0
  9
$PSLTSCALE
 70
     1
  9
$TREEDEPTH
 70
  3020
  9
$CMLSTYLE
  2
Standard
  9
$CMLJUST
 70
     0
  9
$CMLSCALE
 40
1.0
  9
$PROXYGRAPHICS
 70
     1
  9
$MEASUREMENT
 70
     0
  9
$CELWEIGHT
370
    -1
  9
$ENDCAPS
280
     0
  9
$JOINSTYLE
280
     0
  9
$LWDISPLAY
290
     1
  9
$INSUNITS
 70
     1
  9
$HYPERLINKBASE
  1

  9
$STYLESHEET
  1

  9
$XEDIT
290
     1
  9
$CEPSNTYPE
380
     0
  9
$PSTYLEMODE
290
     1
  9
$FINGERPRINTGUID
  2
{A213C69D-26CE-DB56-CFC5-DE1230766EC8}
  9
$VERSIONGUID
  2
{FAEB1C32-E019-11D5-929B-00C0DF256EC4}
  9
$EXTNAMES
290
     1
  9
$PSVPSCALE
 40
0.0
  9
$OLESTARTUP
290
     0
  9
$SORTENTS
280
   127
  9
$INDEXCTL
280
     0
  9
$HIDETEXT
280
     1
  9
$XCLIPFRAME
280
     2
  9
$HALOGAP
280
     0
  9
$OBSCOLOR
 70
   257
  9
$OBSLTYPE
280
     0
  9
$INTERSECTIONDISPLAY
280
     0
  9
$INTERSECTIONCOLOR
 70
   257
  9
$DIMASSOC
280
     2
  9
$PROJECTNAME
  1

  9
$CAMERADISPLAY
290
     0
  9
$LENSLENGTH
 40
50.0
  9
$CAMERAHEIGHT
 40
0.0
  9
$STEPSPERSEC
 40
2.0
  9
$STEPSIZE
 40
6.0
  9
$3DDWFPREC
 40
2.0
  9
$PSOLWIDTH
 40
0.25
  9
$PSOLHEIGHT
 40
4.0
  9
$LOFTANG1
 40
1.570796326794897
  9
$LOFTANG2
 40
1.570796326794897
  9
$LOFTMAG1
 40
0.0
  9
$LOFTMAG2
 40
0.0
  9
$LOFTPARAM
 70
     7
  9
$LOFTNORMALS
280
     1
  9
$LATITUDE
 40
37.795
  9
$LONGITUDE
 40
-122.394
  9
$NORTHDIRECTION
 40
0.0
  9
$TIMEZONE
 70
 -8000
  9
$LIGHTGLYPHDISPLAY
280
     1
  9
$TILEMODELIGHTSYNCH
280
     1
  9
$CMATERIAL
347
3C
  9
$SOLIDHIST
280
     1
  9
$SHOWHIST
280
     1
  9
$DWFFRAME
280
     2
  9
$DGNFRAME
280
     2
  9
$REALWORLDSCALE
290
     1
  9
$INTERFERECOLOR
 62
   256
  9
$CSHADOW
280
     0
  9
$SHADOWPLANELOCATION
 40
0.0
  0
ENDSEC
  0
SECTION
  2
CLASSES
  0
CLASS
  1
ACDBDICTIONARYWDFLT
  2
AcDbDictionaryWithDefault
  3
ObjectDBX Classes
 90
        0
 91
        4
280
     0
281
     0
  0
CLASS
  1
VISUALSTYLE
  2
AcDbVisualStyle
  3
ObjectDBX Classes
 90
     4095
 91
        4
280
     0
281
     0
  0
CLASS
  1
MATERIAL
  2
AcDbMaterial
  3
ObjectDBX Classes
 90
     1153
 91
        4
280
     0
281
     0
  0
CLASS
  1
SUN
  2
AcDbSun
  3
SCENEOE
 90
     1024
 91
        4
280
     0
281
     0
  0
ENDSEC
  0
SECTION
  2
TABLES
  0
TABLE
  2
VPORT
  5
8
330
0
100
AcDbSymbolTable
 70
     1
  0
VPORT
  5
29
330
8
100
AcDbSymbolTableRecord
100
AcDbViewportTableRecord
  2
*Active
 70
     0
 10
0.0
 20
0.0
 11
1.0
 21
1.0
 12
0.0
 22
0.0
 13
0.0
 23
0.0
 14
0.5
 24
0.5
 15
0.5
 25
0.5
 16
0.0
 26
0.0
 36
1.0
 17
91.00082462281999
 27
-128.4993055234307
 37
0.0
 40
256.9986110468615
 41
0.7081814508812795
 42
50.0
 43
0.0
 44
0.0
 50
0.0
 51
0.0
 71
     0
 72
   100
 73
     1
 74
     3
 75
     0
 76
     0
 77
     0
 78
     0
281
     0
 65
     1
110
0.0
120
0.0
130
0.0
111
1.0
121
0.0
131
0.0
112
0.0
122
1.0
132
0.0
 79
     0
146
0.0
 60
     3
 61
     5
292
     1
282
     1
141
0.0
142
0.0
 63
   250
361
3F
  0
ENDTAB
  0
TABLE
  2
LTYPE
  5
5
330
0
100
AcDbSymbolTable
 70
     1
  0
LTYPE
  5
14
330
5
100
AcDbSymbolTableRecord
100
AcDbLinetypeTableRecord
  2
ByBlock
 70
     0
  3

 72
    65
 73
     0
 40
0.0
  0
LTYPE
  5
15
330
5
100
AcDbSymbolTableRecord
100
AcDbLinetypeTableRecord
  2
ByLayer
 70
     0
  3

 72
    65
 73
     0
 40
0.0
  0
LTYPE
  5
16
330
5
100
AcDbSymbolTableRecord
100
AcDbLinetypeTableRecord
  2
Continuous
 70
     0
  3
Solid line
 72
    65
 73
     0
 40
0.0
  0
ENDTAB
  0
TABLE
  2
LAYER
  5
2
330
0
100
AcDbSymbolTable
 70
     2
  0
LAYER
  5
10
330
2
100
AcDbSymbolTableRecord
100
AcDbLayerTableRecord
  2
0
 70
     0
 62
     7
  6
Continuous
370
    -3
390
F
347
3E
  0
LAYER
  5
40
330
2
100
AcDbSymbolTableRecord
100
AcDbLayerTableRecord
  2
_U+30EC_U+30A4_U+30E4_U+30FC 1
 70
     0
 62
     7
  6
Continuous
370
    -3
390
F
347
3E
  0
ENDTAB
  0
TABLE
  2
STYLE
  5
3
330
0
100
AcDbSymbolTable
 70
     1
  0
STYLE
  5
11
330
3
100
AcDbSymbolTableRecord
100
AcDbTextStyleTableRecord
  2
Standard
 70
     0
 40
0.0
 41
1.0
 50
0.0
 71
     0
 42
0.2
  3
txt
  4

  0
ENDTAB
  0
TABLE
  2
VIEW
  5
6
330
0
100
AcDbSymbolTable
 70
     0
  0
ENDTAB
  0
TABLE
  2
UCS
  5
7
330
0
100
AcDbSymbolTable
 70
     0
  0
ENDTAB
  0
TABLE
  2
APPID
  5
9
330
0
100
AcDbSymbolTable
 70
     1
  0
APPID
  5
12
330
9
100
AcDbSymbolTableRecord
100
AcDbRegAppTableRecord
  2
ACAD
 70
     0
  0
ENDTAB
  0
TABLE
  2
DIMSTYLE
  5
A
330
0
100
AcDbSymbolTable
 70
     1
100
AcDbDimStyleTable
  0
DIMSTYLE
105
27
330
A
100
AcDbSymbolTableRecord
100
AcDbDimStyleTableRecord
  2
Standard
 70
     0
178
     0
340
11
  0
ENDTAB
  0
TABLE
  2
BLOCK_RECORD
  5
1
330
0
100
AcDbSymbolTable
 70
    11
  0
BLOCK_RECORD
  5
1F
330
1
100
AcDbSymbolTableRecord
100
AcDbBlockTableRecord
  2
*Model_Space
340
22
 70
     0
280
     1
281
     0
  0
BLOCK_RECORD
  5
1B
330
1
100
AcDbSymbolTableRecord
100
AcDbBlockTableRecord
  2
*Paper_Space
340
1E
 70
     0
280
     1
281
     0
  0
BLOCK_RECORD
  5
23
330
1
100
AcDbSymbolTableRecord
100
AcDbBlockTableRecord
  2
*Paper_Space0
340
26
 70
     0
280
     1
281
     0
  0
BLOCK_RECORD
  5
41
330
1
100
AcDbSymbolTableRecord
100
AcDbBlockTableRecord
  2
block 2
340
0
102
{BLKREFS
331
42
102
}
 70
     0
280
     1
281
     0
  0
BLOCK_RECORD
  5
49
330
1
100
AcDbSymbolTableRecord
100
AcDbBlockTableRecord
  2
block 3
340
0
102
{BLKREFS
331
4A
102
}
 70
     0
280
     1
281
     0
  0
BLOCK_RECORD
  5
99
330
1
100
AcDbSymbolTableRecord
100
AcDbBlockTableRecord
  2
block 4
340
0
102
{BLKREFS
331
9A
102
}
 70
     0
280
     1
281
     0
  0
BLOCK_RECORD
  5
AD
330
1
100
AcDbSymbolTableRecord
100
AcDbBlockTableRecord
  2
block 5
340
0
102
{BLKREFS
331
AE
102
}
 70
     0
280
     1
281
     0
  0
BLOCK_RECORD
  5
B3
330
1
100
AcDbSymbolTableRecord
100
AcDbBlockTableRecord
  2
block 6
340
0
102
{BLKREFS
331
B4
102
}
 70
     0
280
     1
281
     0
  0
BLOCK_RECORD
  5
BF
330
1
100
AcDbSymbolTableRecord
100
AcDbBlockTableRecord
  2
block 7
340
0
102
{BLKREFS
331
C0
102
}
 70
     0
280
     1
281
     0
  0
BLOCK_RECORD
  5
C8
330
1
100
AcDbSymbolTableRecord
100
AcDbBlockTableRecord
  2
block 8
340
0
102
{BLKREFS
331
C9
102
}
 70
     0
280
     1
281
     0
  0
BLOCK_RECORD
  5
D4
330
1
100
AcDbSymbolTableRecord
100
AcDbBlockTableRecord
  2
block 9
340
0
102
{BLKREFS
331
D5
102
}
 70
     0
280
     1
281
     0
  0
BLOCK_RECORD
  5
F2
330
1
100
AcDbSymbolTableRecord
100
AcDbBlockTableRecord
  2
block 10
340
0
102
{BLKREFS
331
F3
102
}
 70
     0
280
     1
281
     0
  0
BLOCK_RECORD
  5
FE
330
1
100
AcDbSymbolTableRecord
100
AcDbBlockTableRecord
  2
block 11
340
0
102
{BLKREFS
331
FF
102
}
 70
     0
280
     1
281
     0
  0
ENDTAB
  0
ENDSEC
  0
SECTION
  2
BLOCKS
  0
BLOCK
  5
20
330
1F
100
AcDbEntity
  8
0
100
AcDbBlockBegin
  2
*Model_Space
 70
     0
 10
0.0
 20
0.0
 30
0.0
  3
*Model_Space
  1

  0
ENDBLK
  5
21
330
1F
100
AcDbEntity
  8
0
100
AcDbBlockEnd
  0
BLOCK
  5
1C
330
1B
100
AcDbEntity
 67
     1
  8
0
100
AcDbBlockBegin
  2
*Paper_Space
 70
     0
 10
0.0
 20
0.0
 30
0.0
  3
*Paper_Space
  1

  0
ENDBLK
  5
1D
330
1B
100
AcDbEntity
 67
     1
  8
0
100
AcDbBlockEnd
  0
BLOCK
  5
24
330
23
100
AcDbEntity
  8
0
100
AcDbBlockBegin
  2
*Paper_Space0
 70
     0
 10
0.0
 20
0.0
 30
0.0
  3
*Paper_Space0
  1

  0
ENDBLK
  5
25
330
23
100
AcDbEntity
  8
0
100
AcDbBlockEnd
  0
BLOCK
  5
43
330
41
100
AcDbEntity
  8
0
100
AcDbBlockBegin
  2
block 2
 70
     0
 10
0.0
 20
0.0
 30
0.0
  3
block 2
  1

  0
SPLINE
  5
45
330
41
100
AcDbEntity
  8
_U+30EC_U+30A4_U+30E4_U+30FC 1
370
     0
100
AcDbSpline
210
0.0
220
0.0
230
1.0
 70
    11
 71
     3
 72
    62
 73
    58
 74
     0
 42
0.0000000001
 43
0.0000000001
 12
1.0
 22
0.0
 32
0.0
 13
1.0
 23
0.0
 33
0.0
 40
0.0
 40
0.0
 40
0.0
 40
0.0
 40
1.0
 40
1.0
 40
1.0
 40
2.0
 40
2.0
 40
2.0
 40
3.0
 40
3.0
 40
3.0
 40
4.0
 40
4.0
 40
4.0
 40
5.0
 40
5.0
 40
5.0
 40
6.0
 40
6.0
 40
6.0
 40
7.0
 40
7.0
 40
7.0
 40
8.0
 40
8.0
 40
8.0
 40
9.0
 40
9.0
 40
9.0
 40
10.0
 40
10.0
 40
10.0
 40
11.0
 40
11.0
 40
11.0
 40
12.0
 40
12.0
 40
12.0
 40
13.0
 40
13.0
 40
13.0
 40
14.0
 40
14.0
 40
14.0
 40
15.0
 40
15.0
 40
15.0
 40
16.0
 40
16.0
 40
16.0
 40
17.0
 40
17.0
 40
17.0
 40
18.0
 40
18.0
 40
18.0
 40
19.0
 40
19.0
 40
19.0
 40
19.0
 10
88.41665308119445
 20
-117.7838527808839
 30
0.0
 10
88.32139619102729
 20
-117.7838527808839
 30
0.0
 10
88.10349390158524
 20
-117.7626654436496
 30
0.0
 10
87.9787814450192
 20
-117.5764580326719
 30
0.0
 10
87.90471189208633
 20
-117.464320174627
 30
0.0
 10
87.90040552272977
 20
-117.3649291698775
 30
0.0
 10
87.89627140814747
 20
-117.2803520757146
 30
0.0
 10
87.89627140814747
 20
-117.2803520757146
 30
0.0
 10
88.11624075488066
 20
-117.2803520757146
 30
0.0
 10
88.11624075488066
 20
-117.2803520757146
 30
0.0
 10
88.11830781217182
 20
-117.3544216286475
 30
0.0
 10
88.12898760817609
 20
-117.5892048859673
 30
0.0
 10
88.41234671183788
 20
-117.5892048859673
 30
0.0
 10
88.54997827647362
 20
-117.5892048859673
 30
0.0
 10
88.70225149692166
 20
-117.519441702391
 30
0.0
 10
88.70225149692166
 20
-117.2908596169447
 30
0.0
 10
88.70225149692166
 20
-117.1745876443175
 30
0.0
 10
88.66418319180966
 20
-117.1258395432012
 30
0.0
 10
88.63248831334535
 20
-117.0941446647369
 30
0.0
 10
88.55841876041248
 20
-117.020075111804
 30
0.0
 10
88.44197453301103
 20
-117.0075005132828
 30
0.0
 10
88.3870252600213
 20
-117.0075005132828
 30
0.0
 10
88.36807723485244
 20
-117.0075005132828
 30
0.0
 10
88.33207598703157
 20
-117.009567570574
 30
0.0
 10
88.30451522314956
 20
-117.0137016851563
 30
0.0
 10
88.30451522314956
 20
-117.0137016851563
 30
0.0
 10
88.30451522314956
 20
-116.8190537902397
 30
0.0
 10
88.30451522314956
 20
-116.8190537902397
 30
0.0
 10
88.34258352826159
 20
-116.8254272168874
 30
0.0
 10
88.38495820273015
 20
-116.8276665289528
 30
0.0
 10
88.39133162937786
 20
-116.8276665289528
 30
0.0
 10
88.45678844359762
 20
-116.8276665289528
 30
0.0
 10
88.65574270787079
 20
-116.8064791917185
 30
0.0
 10
88.65574270787079
 20
-116.5694566223333
 30
0.0
 10
88.65574270787079
 20
-116.3918619500687
 30
0.0
 10
88.52448456988277
 20
-116.3367404223047
 30
0.0
 10
88.4145860239033
 20
-116.3367404223047
 30
0.0
 10
88.15017494541037
 20
-116.3367404223047
 30
0.0
 10
88.14156220669726
 20
-116.5694566223333
 30
0.0
 10
88.13742809211496
 20
-116.6414591179751
 30
0.0
 10
88.13742809211496
 20
-116.6414591179751
 30
0.0
 10
87.93433971325948
 20
-116.6414591179751
 30
0.0
 10
87.93433971325948
 20
-116.6414591179751
 30
0.0
 10
87.94278019719833
 20
-116.5165744066347
 30
0.0
 10
87.97034096108034
 20
-116.1400254700969
 30
0.0
 10
88.42716062242447
 20
-116.1400254700969
 30
0.0
 10
88.65143633851423
 20
-116.1400254700969
 30
0.0
 10
88.89259302248172
 20
-116.2669772387284
 30
0.0
 10
88.89259302248172
 20
-116.5630831956856
 30
0.0
 10
88.89259302248172
 20
-116.7492906066634
 30
0.0
 10
88.79750838708883
 20
-116.8318006435351
 30
0.0
 10
88.6979451275651
 20
-116.8931233431726
 30
0.0
 10
88.7594400819768
 20
-116.9206841070546
 30
0.0
 10
88.94134112359801
 20
-117.0011270866351
 30
0.0
 10
88.94134112359801
 20
-117.2782850184235
 30
0.0
 10
88.94134112359801
 20
-117.6167656498493
 30
0.0
 10
88.6938110129828
 20
-117.7838527808839
 30
0.0
 10
88.41665308119445
 20
-117.7838527808839
 30
0.0
  0
HATCH
  5
46
330
41
100
AcDbEntity
  8
_U+30EC_U+30A4_U+30E4_U+30FC 1
 62
     7
420
 16777215
100
AcDbHatch
 10
0.0
 20
0.0
 30
0.0
210
0.0
220
0.0
230
1.0
  2
SOLID
 70
     1
 71
     0
 91
        1
 92
        1
 93
        1
 72
     4
 94
        3
 73
     0
 74
     1
 95
       62
 96
       58
 40
0.0
 40
0.0
 40
0.0
 40
0.0
 40
1.0
 40
1.0
 40
1.0
 40
2.0
 40
2.0
 40
2.0
 40
3.0
 40
3.0
 40
3.0
 40
4.0
 40
4.0
 40
4.0
 40
5.0
 40
5.0
 40
5.0
 40
6.0
 40
6.0
 40
6.0
 40
7.0
 40
7.0
 40
7.0
 40
8.0
 40
8.0
 40
8.0
 40
9.0
 40
9.0
 40
9.0
 40
10.0
 40
10.0
 40
10.0
 40
11.0
 40
11.0
 40
11.0
 40
12.0
 40
12.0
 40
12.0
 40
13.0
 40
13.0
 40
13.0
 40
14.0
 40
14.0
 40
14.0
 40
15.0
 40
15.0
 40
15.0
 40
16.0
 40
16.0
 40
16.0
 40
17.0
 40
17.0
 40
17.0
 40
18.0
 40
18.0
 40
18.0
 40
19.0
 40
19.0
 40
19.0
 40
19.0
 10
88.41665308119445
 20
-117.7838527808839
 10
88.32139619102729
 20
-117.7838527808839
 10
88.10349390158524
 20
-117.7626654436496
 10
87.9787814450192
 20
-117.5764580326719
 10
87.90471189208633
 20
-117.464320174627
 10
87.90040552272977
 20
-117.3649291698775
 10
87.89627140814747
 20
-117.2803520757146
 10
87.89627140814747
 20
-117.2803520757146
 10
88.11624075488066
 20
-117.2803520757146
 10
88.11624075488066
 20
-117.2803520757146
 10
88.11830781217182
 20
-117.3544216286475
 10
88.12898760817609
 20
-117.5892048859673
 10
88.41234671183788
 20
-117.5892048859673
 10
88.54997827647362
 20
-117.5892048859673
 10
88.70225149692166
 20
-117.519441702391
 10
88.70225149692166
 20
-117.2908596169447
 10
88.70225149692166
 20
-117.1745876443175
 10
88.66418319180966
 20
-117.1258395432012
 10
88.63248831334535
 20
-117.0941446647369
 10
88.55841876041248
 20
-117.020075111804
 10
88.44197453301103
 20
-117.0075005132828
 10
88.3870252600213
 20
-117.0075005132828
 10
88.36807723485244
 20
-117.0075005132828
 10
88.33207598703157
 20
-117.009567570574
 10
88.30451522314956
 20
-117.0137016851563
 10
88.30451522314956
 20
-117.0137016851563
 10
88.30451522314956
 20
-116.8190537902397
 10
88.30451522314956
 20
-116.8190537902397
 10
88.34258352826159
 20
-116.8254272168874
 10
88.38495820273015
 20
-116.8276665289528
 10
88.39133162937786
 20
-116.8276665289528
 10
88.45678844359762
 20
-116.8276665289528
 10
88.65574270787079
 20
-116.8064791917185
 10
88.65574270787079
 20
-116.5694566223333
 10
88.65574270787079
 20
-116.3918619500687
 10
88.52448456988277
 20
-116.3367404223047
 10
88.4145860239033
 20
-116.3367404223047
 10
88.15017494541037
 20
-116.3367404223047
 10
88.14156220669726
 20
-116.5694566223333
 10
88.13742809211496
 20
-116.6414591179751
 10
88.13742809211496
 20
-116.6414591179751
 10
87.93433971325948
 20
-116.6414591179751
 10
87.93433971325948
 20
-116.6414591179751
 10
87.94278019719833
 20
-116.5165744066347
 10
87.97034096108034
 20
-116.1400254700969
 10
88.42716062242447
 20
-116.1400254700969
 10
88.65143633851423
 20
-116.1400254700969
 10
88.89259302248172
 20
-116.2669772387284
 10
88.89259302248172
 20
-116.5630831956856
 10
88.89259302248172
 20
-116.7492906066634
 10
88.79750838708883
 20
-116.8318006435351
 10
88.6979451275651
 20
-116.8931233431726
 10
88.7594400819768
 20
-116.9206841070546
 10
88.94134112359801
 20
-117.0011270866351
 10
88.94134112359801
 20
-117.2782850184235
 10
88.94134112359801
 20
-117.6167656498493
 10
88.6938110129828
 20
-117.7838527808839
 10
88.41665308119445
 20
-117.7838527808839
 97
        0
 97
        0
 75
     2
 76
     1
 98
        0
  0
SPLINE
  5
47
330
41
100
AcDbEntity
  8
_U+30EC_U+30A4_U+30E4_U+30FC 1
370
     0
100
AcDbSpline
210
0.0
220
0.0
230
1.0
 70
    11
 71
     3
 72
    26
 73
    22
 74
     0
 42
0.0000000001
 43
0.0000000001
 12
1.0
 22
0.0
 32
0.0
 13
1.0
 23
0.0
 33
0.0
 40
0.0
 40
0.0
 40
0.0
 40
0.0
 40
1.0
 40
1.0
 40
1.0
 40
2.0
 40
2.0
 40
2.0
 40
3.0
 40
3.0
 40
3.0
 40
4.0
 40
4.0
 40
4.0
 40
5.0
 40
5.0
 40
5.0
 40
6.0
 40
6.0
 40
6.0
 40
7.0
 40
7.0
 40
7.0
 40
7.0
 10
89.55336233655264
 20
-117.7330376224765
 30
0.0
 10
89.55336233655264
 20
-117.7330376224765
 30
0.0
 10
89.55336233655264
 20
-116.6287122646796
 30
0.0
 10
89.55336233655264
 20
-116.6287122646796
 30
0.0
 10
89.55336233655264
 20
-116.6287122646796
 30
0.0
 10
89.2233221890657
 20
-116.6287122646796
 30
0.0
 10
89.2233221890657
 20
-116.6287122646796
 30
0.0
 10
89.2233221890657
 20
-116.6287122646796
 30
0.0
 10
89.2233221890657
 20
-116.4807454135882
 30
0.0
 10
89.2233221890657
 20
-116.4807454135882
 30
0.0
 10
89.55542939384378
 20
-116.4659315030016
 30
0.0
 10
89.60193818289466
 20
-116.3029784865493
 30
0.0
 10
89.6315660040678
 20
-116.1887735712132
 30
0.0
 10
89.6315660040678
 20
-116.1887735712132
 30
0.0
 10
89.7776380526424
 20
-116.1887735712132
 30
0.0
 10
89.7776380526424
 20
-116.1887735712132
 30
0.0
 10
89.7776380526424
 20
-116.1887735712132
 30
0.0
 10
89.7776380526424
 20
-117.7330376224765
 30
0.0
 10
89.7776380526424
 20
-117.7330376224765
 30
0.0
 10
89.7776380526424
 20
-117.7330376224765
 30
0.0
 10
89.55336233655264
 20
-117.7330376224765
 30
0.0
 10
89.55336233655264
 20
-117.7330376224765
 30
0.0
  0
HATCH
  5
48
330
41
100
AcDbEntity
  8
_U+30EC_U+30A4_U+30E4_U+30FC 1
 62
     7
420
 16777215
100
AcDbHatch
 10
0.0
 20
0.0
 30
0.0
210
0.0
220
0.0
230
1.0
  2
SOLID
 70
     1
 71
     0
 91
        1
 92
        1
 93
        1
 72
     4
 94
        3
 73
     0
 74
     1
 95
       26
 96
       22
 40
0.0
 40
0.0
 40
0.0
 40
0.0
 40
1.0
 40
1.0
 40
1.0
 40
2.0
 40
2.0
 40
2.0
 40
3.0
 40
3.0
 40
3.0
 40
4.0
 40
4.0
 40
4.0
 40
5.0
 40
5.0
 40
5.0
 40
6.0
 40
6.0
 40
6.0
 40
7.0
 40
7.0
 40
7.0
 40
7.0
 10
89.55336233655264
 20
-117.7330376224765
 10
89.55336233655264
 20
-117.7330376224765
 10
89.55336233655264
 20
-116.6287122646796
 10
89.55336233655264
 20
-116.6287122646796
 10
89.55336233655264
 20
-116.6287122646796
 10
89.2233221890657
 20
-116.6287122646796
 10
89.2233221890657
 20
-116.6287122646796
 10
89.2233221890657
 20
-116.6287122646796
 10
89.2233221890657
 20
-116.4807454135882
 10
89.2233221890657
 20
-116.4807454135882
 10
89.55542939384378
 20
-116.4659315030016
 10
89.60193818289466
 20
-116.3029784865493
 10
89.6315660040678
 20
-116.1887735712132
 10
89.6315660040678
 20
-116.1887735712132
 10
89.7776380526424
 20
-116.1887735712132
 10
89.7776380526424
 20
-116.1887735712132
 10
89.7776380526424
 20
-116.1887735712132
 10
89.7776380526424
 20
-117.7330376224765
 10
89.7776380526424
 20
-117.7330376224765
 10
89.7776380526424
 20
-117.7330376224765
 10
89.55336233655264
 20
-117.7330376224765
 10
89.55336233655264
 20
-117.7330376224765
 97
        0
 97
        0
 75
     2
 76
     1
 98
        0
  0
ENDBLK
  5
44
330
41
100
AcDbEntity
  8
0
100
AcDbBlockEnd
  0
BLOCK
  5
4B
330
49
100
AcDbEntity
  8
0
100
AcDbBlockBegin
  2
block 3
 70
     0
 10
0.0
 20
0.0
 30
0.0
  3
block 3
  1

  0
SPLINE
  5
4D
330
49
100
AcDbEntity
  8
_U+30EC_U+30A4_U+30E4_U+30FC 1
370
     0
100
AcDbSpline
210
0.0
220
0.0
230
1.0
 70
    11
 71
     3
 72
    32
 73
    28
 74
     0
 42
0.0000000001
 43
0.0000000001
 12
1.0
 22
0.0
 32
0.0
 13
1.0
 23
0.0
 33
0.0
 40
0.0
 40
0.0
 40
0.0
 40
0.0
 40
1.0
 40
1.0
 40
1.0
 40
2.0
 40
2.0
 40
2.0
 40
3.0
 40
3.0
 40
3.0
 40
4.0
 40
4.0
 40
4.0
 40
5.0
 40
5.0
 40
5.0
 40
6.0
 40
6.0
 40
6.0
 40
7.0
 40
7.0
 40
7.0
 40
8.0
 40
8.0
 40
8.0
 40
9.0
 40
9.0
 40
9.0
 40
9.0
 10
76.51746552991578
 20
-140.2835991402763
 30
0.0
 10
76.00121797145108
 20
-140.2835991402763
 30
0.0
 10
75.99277748751223
 20
-139.7296277862482
 30
0.0
 10
75.99277748751223
 20
-139.5160318661627
 30
0.0
 10
75.99277748751223
 20
-139.2852104686509
 30
0.0
 10
76.01189776745537
 20
-138.6378770269725
 30
0.0
 10
76.55553383502779
 20
-138.6378770269725
 30
0.0
 10
76.72899439271012
 20
-138.6378770269725
 30
0.0
 10
76.97428519125991
 20
-138.7078124653231
 30
0.0
 10
77.01252575114617
 20
-139.0399196701011
 30
0.0
 10
77.01252575114617
 20
-139.0399196701011
 30
0.0
 10
76.79875757628642
 20
-139.0399196701011
 30
0.0
 10
76.79875757628642
 20
-139.0399196701011
 30
0.0
 10
76.78825003505641
 20
-138.982731085046
 30
0.0
 10
76.75655515659211
 20
-138.8345919791803
 30
0.0
 10
76.55346677773663
 20
-138.8345919791803
 30
0.0
 10
76.26149493536171
 20
-138.8345919791803
 30
0.0
 10
76.22118731818429
 20
-139.162565069376
 30
0.0
 10
76.20861271966312
 20
-139.3678927602969
 30
0.0
 10
76.30163029776487
 20
-139.2893445832332
 30
0.0
 10
76.36932642405003
 20
-139.2300889408869
 30
0.0
 10
76.55122746567122
 20
-139.2300889408869
 30
0.0
 10
76.73106145000126
 20
-139.2300889408869
 30
0.0
 10
77.0335408336062
 20
-139.3382649391238
 30
0.0
 10
77.0335408336062
 20
-139.7440971872862
 30
0.0
 10
77.0335408336062
 20
-140.0638020483174
 30
0.0
 10
76.83475882410728
 20
-140.2835991402763
 30
0.0
 10
76.51746552991578
 20
-140.2835991402763
 30
0.0
  0
SPLINE
  5
4E
330
49
100
AcDbEntity
  8
_U+30EC_U+30A4_U+30E4_U+30FC 1
370
     0
100
AcDbSpline
210
0.0
220
0.0
230
1.0
 70
    11
 71
     3
 72
    17
 73
    13
 74
     0
 42
0.0000000001
 43
0.0000000001
 12
1.0
 22
0.0
 32
0.0
 13
1.0
 23
0.0
 33
0.0
 40
0.0
 40
0.0
 40
0.0
 40
0.0
 40
1.0
 40
1.0
 40
1.0
 40
2.0
 40
2.0
 40
2.0
 40
3.0
 40
3.0
 40
3.0
 40
4.0
 40
4.0
 40
4.0
 40
4.0
 10
76.5343464977935
 20
-139.4250813453521
 30
0.0
 10
76.27200247659172
 20
-139.4250813453521
 30
0.0
 10
76.23393417147972
 20
-139.6366102081464
 30
0.0
 10
76.23393417147972
 20
-139.7527099259993
 30
0.0
 10
76.23393417147972
 20
-139.9284097957471
 30
0.0
 10
76.32919106164687
 20
-140.0913628121994
 30
0.0
 10
76.51315916055921
 20
-140.0913628121994
 30
0.0
 10
76.63373750254296
 20
-140.0913628121994
 30
0.0
 10
76.8094373722907
 20
-140.0321071698531
 30
0.0
 10
76.8094373722907
 20
-139.7461642445774
 30
0.0
 10
76.8094373722907
 20
-139.5222330380361
 30
0.0
 10
76.66973875036382
 20
-139.4250813453521
 30
0.0
 10
76.5343464977935
 20
-139.4250813453521
 30
0.0
  0
HATCH
  5
4F
330
49
100
AcDbEntity
  8
_U+30EC_U+30A4_U+30E4_U+30FC 1
 62
     7
420
 16777215
100
AcDbHatch
 10
0.0
 20
0.0
 30
0.0
210
0.0
220
0.0
230
1.0
  2
SOLID
 70
     1
 71
     0
 91
        2
 92
        1
 93
        1
 72
     4
 94
        3
 73
     0
 74
     1
 95
       32
 96
       28
 40
0.0
 40
0.0
 40
0.0
 40
0.0
 40
1.0
 40
1.0
 40
1.0
 40
2.0
 40
2.0
 40
2.0
 40
3.0
 40
3.0
 40
3.0
 40
4.0
 40
4.0
 40
4.0
 40
5.0
 40
5.0
 40
5.0
 40
6.0
 40
6.0
 40
6.0
 40
7.0
 40
7.0
 40
7.0
 40
8.0
 40
8.0
 40
8.0
 40
9.0
 40
9.0
 40
9.0
 40
9.0
 10
76.51746552991578
 20
-140.2835991402763
 10
76.00121797145108
 20
-140.2835991402763
 10
75.99277748751223
 20
-139.7296277862482
 10
75.99277748751223
 20
-139.5160318661627
 10
75.99277748751223
 20
-139.2852104686509
 10
76.01189776745537
 20
-138.6378770269725
 10
76.55553383502779
 20
-138.6378770269725
 10
76.72899439271012
 20
-138.6378770269725
 10
76.97428519125991
 20
-138.7078124653231
 10
77.01252575114617
 20
-139.0399196701011
 10
77.01252575114617
 20
-139.0399196701011
 10
76.79875757628642
 20
-139.0399196701011
 10
76.79875757628642
 20
-139.0399196701011
 10
76.78825003505641
 20
-138.982731085046
 10
76.75655515659211
 20
-138.8345919791803
 10
76.55346677773663
 20
-138.8345919791803
 10
76.26149493536171
 20
-138.8345919791803
 10
76.22118731818429
 20
-139.162565069376
 10
76.20861271966312
 20
-139.3678927602969
 10
76.30163029776487
 20
-139.2893445832332
 10
76.36932642405003
 20
-139.2300889408869
 10
76.55122746567122
 20
-139.2300889408869
 10
76.73106145000126
 20
-139.2300889408869
 10
77.0335408336062
 20
-139.3382649391238
 10
77.0335408336062
 20
-139.7440971872862
 10
77.0335408336062
 20
-140.0638020483174
 10
76.83475882410728
 20
-140.2835991402763
 10
76.51746552991578
 20
-140.2835991402763
 97
        0
 97
        0
 92
        1
 93
        1
 72
     4
 94
        3
 73
     0
 74
     1
 95
       17
 96
       13
 40
0.0
 40
0.0
 40
0.0
 40
0.0
 40
1.0
 40
1.0
 40
1.0
 40
2.0
 40
2.0
 40
2.0
 40
3.0
 40
3.0
 40
3.0
 40
4.0
 40
4.0
 40
4.0
 40
4.0
 10
76.5343464977935
 20
-139.4250813453521
 10
76.27200247659172
 20
-139.4250813453521
 10
76.23393417147972
 20
-139.6366102081464
 10
76.23393417147972
 20
-139.7527099259993
 10
76.23393417147972
 20
-139.9284097957471
 10
76.32919106164687
 20
-140.0913628121994
 10
76.51315916055921
 20
-140.0913628121994
 10
76.63373750254296
 20
-140.0913628121994
 10
76.8094373722907
 20
-140.0321071698531
 10
76.8094373722907
 20
-139.7461642445774
 10
76.8094373722907
 20
-139.5222330380361
 10
76.66973875036382
 20
-139.4250813453521
 10
76.5343464977935
 20
-139.4250813453521
 97
        0
 97
        0
 75
     2
 76
     1
 98
        0
  0
ENDBLK
  5
4C
330
49
100
AcDbEntity
  8
0
100
AcDbBlockEnd
  0
BLOCK
  5
9B
330
99
100
AcDbEntity
  8
0
100
AcDbBlockBegin
  2
block 4
 70
     0
 10
0.0
 20
0.0
 30
0.0
  3
block 4
  1

  0
POLYLINE
  5
9D
330
99
100
AcDbEntity
  8
_U+30EC_U+30A4_U+30E4_U+30FC 1
 62
     7
420
 16777215
370
     9
100
AcDb2dPolyline
 66
     1
 10
0.0
 20
0.0
 30
0.0
  0
VERTEX
  5
9E
330
9D
100
AcDbEntity
  8
_U+30EC_U+30A4_U+30E4_U+30FC 1
 62
     7
420
 16777215
370
     9
100
AcDbVertex
100
AcDb2dVertex
 10
108.4863958433926
 20
-122.897229691498
 30
0.0
  0
VERTEX
  5
9F
330
9D
100
AcDbEntity
  8
_U+30EC_U+30A4_U+30E4_U+30FC 1
 62
     7
420
 16777215
370
     9
100
AcDbVertex
100
AcDb2dVertex
 10
108.4863958433926
 20
-119.1269171924405
 30
0.0
  0
SEQEND
  5
A0
330
9D
100
AcDbEntity
  8
_U+30EC_U+30A4_U+30E4_U+30FC 1
 62
     7
420
 16777215
370
     9
  0
POLYLINE
  5
A1
330
99
100
AcDbEntity
  8
_U+30EC_U+30A4_U+30E4_U+30FC 1
 62
     7
420
 16777215
370
     9
100
AcDb2dPolyline
 66
     1
 10
0.0
 20
0.0
 30
0.0
  0
VERTEX
  5
A2
330
A1
100
AcDbEntity
  8
_U+30EC_U+30A4_U+30E4_U+30FC 1
 62
     7
420
 16777215
370
     9
100
AcDbVertex
100
AcDb2dVertex
 10
108.4863958433926
 20
-122.897229691498
 30
0.0
  0
VERTEX
  5
A3
330
A1
100
AcDbEntity
  8
_U+30EC_U+30A4_U+30E4_U+30FC 1
 62
     7
420
 16777215
370
     9
100
AcDbVertex
100
AcDb2dVertex
 10
108.4863958433926
 20
-123.8970019134702
 30
0.0
  0
SEQEND
  5
A4
330
A1
100
AcDbEntity
  8
_U+30EC_U+30A4_U+30E4_U+30FC 1
 62
     7
420
 16777215
370
     9
  0
POLYLINE
  5
A5
330
99
100
AcDbEntity
  8
_U+30EC_U+30A4_U+30E4_U+30FC 1
 62
     7
420
 16777215
370
     9
100
AcDb2dPolyline
 66
     1
 10
0.0
 20
0.0
 30
0.0
  0
VERTEX
  5
A6
330
A5
100
AcDbEntity
  8
_U+30EC_U+30A4_U+30E4_U+30FC 1
 62
     7
420
 16777215
370
     9
100
AcDbVertex
100
AcDb2dVertex
 10
107.0263544917524
 20
-122.897229691498
 30
0.0
  0
VERTEX
  5
A7
330
A5
100
AcDbEntity
  8
_U+30EC_U+30A4_U+30E4_U+30FC 1
 62
     7
420
 16777215
370
     9
100
AcDbVertex
100
AcDb2dVertex
 10
109.4861680401085
 20
-122.897229691498
 30
0.0
  0
SEQEND
  5
A8
330
A5
100
AcDbEntity
  8
_U+30EC_U+30A4_U+30E4_U+30FC 1
 62
     7
420
 16777215
370
     9
  0
POLYLINE
  5
A9
330
99
100
AcDbEntity
  8
_U+30EC_U+30A4_U+30E4_U+30FC 1
 62
     7
420
 16777215
370
     9
100
AcDb2dPolyline
 66
     1
 10
0.0
 20
0.0
 30
0.0
  0
VERTEX
  5
AA
330
A9
100
AcDbEntity
  8
_U+30EC_U+30A4_U+30E4_U+30FC 1
 62
     7
420
 16777215
370
     9
100
AcDbVertex
100
AcDb2dVertex
 10
107.0263544917524
 20
-123.8970019134702
 30
0.0
  0
VERTEX
  5
AB
330
A9
100
AcDbEntity
  8
_U+30EC_U+30A4_U+30E4_U+30FC 1
 62
     7
420
 16777215
370
     9
100
AcDbVertex
100
AcDb2dVertex
 10
109.4861680401085
 20
-123.8970019134702
 30
0.0
  0
SEQEND
  5
AC
330
A9
100
AcDbEntity
  8
_U+30EC_U+30A4_U+30E4_U+30FC 1
 62
     7
420
 16777215
370
     9
  0
INSERT
  5
AE
330
99
100
AcDbEntity
  8
_U+30EC_U+30A4_U+30E4_U+30FC 1
100
AcDbBlockReference
  2
block 5
 10
0.0
 20
0.0
 30
0.0
  0
ENDBLK
  5
9C
330
99
100
AcDbEntity
  8
0
100
AcDbBlockEnd
  0
BLOCK
  5
AF
330
AD
100
AcDbEntity
  8
0
100
AcDbBlockBegin
  2
block 5
 70
     0
 10
0.0
 20
0.0
 30
0.0
  3
block 5
  1

  0
SPLINE
  5
B1
330
AD
100
AcDbEntity
  8
_U+30EC_U+30A4_U+30E4_U+30FC 1
370
     0
100
AcDbSpline
210
0.0
220
0.0
230
1.0
 70
    11
 71
     3
 72
    26
 73
    22
 74
     0
 42
0.0000000001
 43
0.0000000001
 12
1.0
 22
0.0
 32
0.0
 13
1.0
 23
0.0
 33
0.0
 40
0.0
 40
0.0
 40
0.0
 40
0.0
 40
1.0
 40
1.0
 40
1.0
 40
2.0
 40
2.0
 40
2.0
 40
3.0
 40
3.0
 40
3.0
 40
4.0
 40
4.0
 40
4.0
 40
5.0
 40
5.0
 40
5.0
 40
6.0
 40
6.0
 40
6.0
 40
7.0
 40
7.0
 40
7.0
 40
7.0
 10
106.7817680939643
 20
-123.4574082807676
 30
0.0
 10
106.7817680939643
 20
-123.4574082807676
 30
0.0
 10
105.6776149909417
 20
-123.4574082807676
 30
0.0
 10
105.6776149909417
 20
-123.4574082807676
 30
0.0
 10
105.6776149909417
 20
-123.4574082807676
 30
0.0
 10
105.6776149909417
 20
-123.7874484282545
 30
0.0
 10
105.6776149909417
 20
-123.7874484282545
 30
0.0
 10
105.6776149909417
 20
-123.7874484282545
 30
0.0
 10
105.529475885076
 20
-123.7874484282545
 30
0.0
 10
105.529475885076
 20
-123.7874484282545
 30
0.0
 10
105.5146619744894
 20
-123.4553412234765
 30
0.0
 10
105.3517089580371
 20
-123.4088324344256
 30
0.0
 10
105.2373317879268
 20
-123.3792046132524
 30
0.0
 10
105.2373317879268
 20
-123.3792046132524
 30
0.0
 10
105.2373317879268
 20
-123.2331325646778
 30
0.0
 10
105.2373317879268
 20
-123.2331325646778
 30
0.0
 10
105.2373317879268
 20
-123.2331325646778
 30
0.0
 10
106.7817680939643
 20
-123.2331325646778
 30
0.0
 10
106.7817680939643
 20
-123.2331325646778
 30
0.0
 10
106.7817680939643
 20
-123.2331325646778
 30
0.0
 10
106.7817680939643
 20
-123.4574082807676
 30
0.0
 10
106.7817680939643
 20
-123.4574082807676
 30
0.0
  0
HATCH
  5
B2
330
AD
100
AcDbEntity
  8
_U+30EC_U+30A4_U+30E4_U+30FC 1
 62
     7
420
 16777215
100
AcDbHatch
 10
0.0
 20
0.0
 30
0.0
210
0.0
220
0.0
230
1.0
  2
SOLID
 70
     1
 71
     0
 91
        1
 92
        1
 93
        1
 72
     4
 94
        3
 73
     0
 74
     1
 95
       26
 96
       22
 40
0.0
 40
0.0
 40
0.0
 40
0.0
 40
1.0
 40
1.0
 40
1.0
 40
2.0
 40
2.0
 40
2.0
 40
3.0
 40
3.0
 40
3.0
 40
4.0
 40
4.0
 40
4.0
 40
5.0
 40
5.0
 40
5.0
 40
6.0
 40
6.0
 40
6.0
 40
7.0
 40
7.0
 40
7.0
 40
7.0
 10
106.7817680939643
 20
-123.4574082807676
 10
106.7817680939643
 20
-123.4574082807676
 10
105.6776149909417
 20
-123.4574082807676
 10
105.6776149909417
 20
-123.4574082807676
 10
105.6776149909417
 20
-123.4574082807676
 10
105.6776149909417
 20
-123.7874484282545
 10
105.6776149909417
 20
-123.7874484282545
 10
105.6776149909417
 20
-123.7874484282545
 10
105.529475885076
 20
-123.7874484282545
 10
105.529475885076
 20
-123.7874484282545
 10
105.5146619744894
 20
-123.4553412234765
 10
105.3517089580371
 20
-123.4088324344256
 10
105.2373317879268
 20
-123.3792046132524
 10
105.2373317879268
 20
-123.3792046132524
 10
105.2373317879268
 20
-123.2331325646778
 10
105.2373317879268
 20
-123.2331325646778
 10
105.2373317879268
 20
-123.2331325646778
 10
106.7817680939643
 20
-123.2331325646778
 10
106.7817680939643
 20
-123.2331325646778
 10
106.7817680939643
 20
-123.2331325646778
 10
106.7817680939643
 20
-123.4574082807676
 10
106.7817680939643
 20
-123.4574082807676
 97
        0
 97
        0
 75
     2
 76
     1
 98
        0
  0
ENDBLK
  5
B0
330
AD
100
AcDbEntity
  8
0
100
AcDbBlockEnd
  0
BLOCK
  5
B5
330
B3
100
AcDbEntity
  8
0
100
AcDbBlockBegin
  2
block 6
 70
     0
 10
0.0
 20
0.0
 30
0.0
  3
block 6
  1

  0
POLYLINE
  5
B7
330
B3
100
AcDbEntity
  8
_U+30EC_U+30A4_U+30E4_U+30FC 1
 62
     7
420
 16777215
370
     9
100
AcDb2dPolyline
 66
     1
 10
0.0
 20
0.0
 30
0.0
  0
VERTEX
  5
B8
330
B7
100
AcDbEntity
  8
_U+30EC_U+30A4_U+30E4_U+30FC 1
 62
     7
420
 16777215
370
     9
100
AcDbVertex
100
AcDb2dVertex
 10
79.48626408324758
 20
-141.3973902424284
 30
0.0
  0
VERTEX
  5
B9
330
B7
100
AcDbEntity
  8
_U+30EC_U+30A4_U+30E4_U+30FC 1
 62
     7
420
 16777215
370
     9
100
AcDbVertex
100
AcDb2dVertex
 10
89.48599688368868
 20
-141.3973902424284
 30
0.0
  0
SEQEND
  5
BA
330
B7
100
AcDbEntity
  8
_U+30EC_U+30A4_U+30E4_U+30FC 1
 62
     7
420
 16777215
370
     9
  0
POLYLINE
  5
BB
330
B3
100
AcDbEntity
  8
_U+30EC_U+30A4_U+30E4_U+30FC 1
 62
     7
420
 16777215
370
     9
100
AcDb2dPolyline
 66
     1
 10
0.0
 20
0.0
 30
0.0
  0
VERTEX
  5
BC
330
BB
100
AcDbEntity
  8
_U+30EC_U+30A4_U+30E4_U+30FC 1
 62
     7
420
 16777215
370
     9
100
AcDbVertex
100
AcDb2dVertex
 10
89.48599688368868
 20
-139.9373841316822
 30
0.0
  0
VERTEX
  5
BD
330
BB
100
AcDbEntity
  8
_U+30EC_U+30A4_U+30E4_U+30FC 1
 62
     7
420
 16777215
370
     9
100
AcDbVertex
100
AcDb2dVertex
 10
89.48599688368868
 20
-142.3971624644009
 30
0.0
  0
SEQEND
  5
BE
330
BB
100
AcDbEntity
  8
_U+30EC_U+30A4_U+30E4_U+30FC 1
 62
     7
420
 16777215
370
     9
  0
INSERT
  5
C0
330
B3
100
AcDbEntity
  8
_U+30EC_U+30A4_U+30E4_U+30FC 1
100
AcDbBlockReference
  2
block 7
 10
0.0
 20
0.0
 30
0.0
  0
ENDBLK
  5
B6
330
B3
100
AcDbEntity
  8
0
100
AcDbBlockEnd
  0
BLOCK
  5
C1
330
BF
100
AcDbEntity
  8
0
100
AcDbBlockBegin
  2
block 7
 70
     0
 10
0.0
 20
0.0
 30
0.0
  3
block 7
  1

  0
SPLINE
  5
C3
330
BF
100
AcDbEntity
  8
_U+30EC_U+30A4_U+30E4_U+30FC 1
370
     0
100
AcDbSpline
210
0.0
220
0.0
230
1.0
 70
    11
 71
     3
 72
    26
 73
    22
 74
     0
 42
0.0000000001
 43
0.0000000001
 12
1.0
 22
0.0
 32
0.0
 13
1.0
 23
0.0
 33
0.0
 40
0.0
 40
0.0
 40
0.0
 40
0.0
 40
1.0
 40
1.0
 40
1.0
 40
2.0
 40
2.0
 40
2.0
 40
3.0
 40
3.0
 40
3.0
 40
4.0
 40
4.0
 40
4.0
 40
5.0
 40
5.0
 40
5.0
 40
6.0
 40
6.0
 40
6.0
 40
7.0
 40
7.0
 40
7.0
 40
7.0
 10
83.84914548685022
 20
-140.7514431071733
 30
0.0
 10
83.84914548685022
 20
-140.7514431071733
 30
0.0
 10
83.84914548685022
 20
-139.6469454946022
 30
0.0
 10
83.84914548685022
 20
-139.6469454946022
 30
0.0
 10
83.84914548685022
 20
-139.6469454946022
 30
0.0
 10
83.51910533936328
 20
-139.6469454946022
 30
0.0
 10
83.51910533936328
 20
-139.6469454946022
 30
0.0
 10
83.51910533936328
 20
-139.6469454946022
 30
0.0
 10
83.51910533936328
 20
-139.4991508982849
 30
0.0
 10
83.51910533936328
 20
-139.4991508982849
 30
0.0
 10
83.85121254414136
 20
-139.4843369876984
 30
0.0
 10
83.89772133319224
 20
-139.321383971246
 30
0.0
 10
83.92734915436539
 20
-139.2073513106843
 30
0.0
 10
83.92734915436539
 20
-139.2073513106843
 30
0.0
 10
84.07342120293998
 20
-139.2073513106843
 30
0.0
 10
84.07342120293998
 20
-139.2073513106843
 30
0.0
 10
84.07342120293998
 20
-139.2073513106843
 30
0.0
 10
84.07342120293998
 20
-140.7514431071733
 30
0.0
 10
84.07342120293998
 20
-140.7514431071733
 30
0.0
 10
84.07342120293998
 20
-140.7514431071733
 30
0.0
 10
83.84914548685022
 20
-140.7514431071733
 30
0.0
 10
83.84914548685022
 20
-140.7514431071733
 30
0.0
  0
HATCH
  5
C4
330
BF
100
AcDbEntity
  8
_U+30EC_U+30A4_U+30E4_U+30FC 1
 62
     7
420
 16777215
100
AcDbHatch
 10
0.0
 20
0.0
 30
0.0
210
0.0
220
0.0
230
1.0
  2
SOLID
 70
     1
 71
     0
 91
        1
 92
        1
 93
        1
 72
     4
 94
        3
 73
     0
 74
     1
 95
       26
 96
       22
 40
0.0
 40
0.0
 40
0.0
 40
0.0
 40
1.0
 40
1.0
 40
1.0
 40
2.0
 40
2.0
 40
2.0
 40
3.0
 40
3.0
 40
3.0
 40
4.0
 40
4.0
 40
4.0
 40
5.0
 40
5.0
 40
5.0
 40
6.0
 40
6.0
 40
6.0
 40
7.0
 40
7.0
 40
7.0
 40
7.0
 10
83.84914548685022
 20
-140.7514431071733
 10
83.84914548685022
 20
-140.7514431071733
 10
83.84914548685022
 20
-139.6469454946022
 10
83.84914548685022
 20
-139.6469454946022
 10
83.84914548685022
 20
-139.6469454946022
 10
83.51910533936328
 20
-139.6469454946022
 10
83.51910533936328
 20
-139.6469454946022
 10
83.51910533936328
 20
-139.6469454946022
 10
83.51910533936328
 20
-139.4991508982849
 10
83.51910533936328
 20
-139.4991508982849
 10
83.85121254414136
 20
-139.4843369876984
 10
83.89772133319224
 20
-139.321383971246
 10
83.92734915436539
 20
-139.2073513106843
 10
83.92734915436539
 20
-139.2073513106843
 10
84.07342120293998
 20
-139.2073513106843
 10
84.07342120293998
 20
-139.2073513106843
 10
84.07342120293998
 20
-139.2073513106843
 10
84.07342120293998
 20
-140.7514431071733
 10
84.07342120293998
 20
-140.7514431071733
 10
84.07342120293998
 20
-140.7514431071733
 10
83.84914548685022
 20
-140.7514431071733
 10
83.84914548685022
 20
-140.7514431071733
 97
        0
 97
        0
 75
     2
 76
     1
 98
        0
  0
SPLINE
  5
C5
330
BF
100
AcDbEntity
  8
_U+30EC_U+30A4_U+30E4_U+30FC 1
370
     0
100
AcDbSpline
210
0.0
220
0.0
230
1.0
 70
    11
 71
     3
 72
    29
 73
    25
 74
     0
 42
0.0000000001
 43
0.0000000001
 12
1.0
 22
0.0
 32
0.0
 13
1.0
 23
0.0
 33
0.0
 40
0.0
 40
0.0
 40
0.0
 40
0.0
 40
1.0
 40
1.0
 40
1.0
 40
2.0
 40
2.0
 40
2.0
 40
3.0
 40
3.0
 40
3.0
 40
4.0
 40
4.0
 40
4.0
 40
5.0
 40
5.0
 40
5.0
 40
6.0
 40
6.0
 40
6.0
 40
7.0
 40
7.0
 40
7.0
 40
8.0
 40
8.0
 40
8.0
 40
8.0
 10
85.47230222472568
 20
-140.5736761801344
 30
0.0
 10
85.36447073603736
 20
-140.7831379856376
 30
0.0
 10
85.19101017835503
 20
-140.802430520355
 30
0.0
 10
85.07456595095358
 20
-140.802430520355
 30
0.0
 10
84.91385224656668
 20
-140.802430520355
 30
0.0
 10
84.77208656734865
 20
-140.7555772217555
 30
0.0
 10
84.67682967718149
 20
-140.5736761801344
 30
0.0
 10
84.57330455784974
 20
-140.3790282852177
 30
0.0
 10
84.5541842779066
 20
-140.1423502253811
 30
0.0
 10
84.5541842779066
 20
-139.9790526993802
 30
0.0
 10
84.5541842779066
 20
-139.8353922176453
 30
0.0
 10
84.57106524578433
 20
-139.5835557376735
 30
0.0
 10
84.67682967718149
 20
-139.3847737281747
 30
0.0
 10
84.78483342064408
 20
-139.1818576040934
 30
0.0
 10
84.94554712503098
 20
-139.1584309547937
 30
0.0
 10
85.07456595095358
 20
-139.1584309547937
 30
0.0
 10
85.23321259804933
 20
-139.1584309547937
 30
0.0
 10
85.37704533455852
 20
-139.2028726865535
 30
0.0
 10
85.47230222472568
 20
-139.3847737281747
 30
0.0
 10
85.57169322947513
 20
-139.5773545658001
 30
0.0
 10
85.59494762400057
 20
-139.8057643964722
 30
0.0
 10
85.59494762400057
 20
-139.9790526993802
 30
0.0
 10
85.59494762400057
 20
-140.1506184545457
 30
0.0
 10
85.57393254154054
 20
-140.3814398520574
 30
0.0
 10
85.47230222472568
 20
-140.5736761801344
 30
0.0
  0
SPLINE
  5
C6
330
BF
100
AcDbEntity
  8
_U+30EC_U+30A4_U+30E4_U+30FC 1
370
     0
100
AcDbSpline
210
0.0
220
0.0
230
1.0
 70
    11
 71
     3
 72
    17
 73
    13
 74
     0
 42
0.0000000001
 43
0.0000000001
 12
1.0
 22
0.0
 32
0.0
 13
1.0
 23
0.0
 33
0.0
 40
0.0
 40
0.0
 40
0.0
 40
0.0
 40
1.0
 40
1.0
 40
1.0
 40
2.0
 40
2.0
 40
2.0
 40
3.0
 40
3.0
 40
3.0
 40
4.0
 40
4.0
 40
4.0
 40
4.0
 10
85.07456595095358
 20
-139.3510117924192
 30
0.0
 10
84.82496878304724
 20
-139.3510117924192
 30
0.0
 10
84.77845999399636
 20
-139.6345431508553
 30
0.0
 10
84.77845999399636
 20
-139.9790526993802
 30
0.0
 10
84.77845999399636
 20
-140.2987575604114
 30
0.0
 10
84.81446124181723
 20
-140.6074381158898
 30
0.0
 10
85.07456595095358
 20
-140.6074381158898
 30
0.0
 10
85.32209606156879
 20
-140.6074381158898
 30
0.0
 10
85.37084416268507
 20
-140.3263183242934
 30
0.0
 10
85.37084416268507
 20
-139.9790526993802
 30
0.0
 10
85.37084416268507
 20
-139.6600368574461
 30
0.0
 10
85.3326036027988
 20
-139.3510117924192
 30
0.0
 10
85.07456595095358
 20
-139.3510117924192
 30
0.0
  0
HATCH
  5
C7
330
BF
100
AcDbEntity
  8
_U+30EC_U+30A4_U+30E4_U+30FC 1
 62
     7
420
 16777215
100
AcDbHatch
 10
0.0
 20
0.0
 30
0.0
210
0.0
220
0.0
230
1.0
  2
SOLID
 70
     1
 71
     0
 91
        2
 92
        1
 93
        1
 72
     4
 94
        3
 73
     0
 74
     1
 95
       29
 96
       25
 40
0.0
 40
0.0
 40
0.0
 40
0.0
 40
1.0
 40
1.0
 40
1.0
 40
2.0
 40
2.0
 40
2.0
 40
3.0
 40
3.0
 40
3.0
 40
4.0
 40
4.0
 40
4.0
 40
5.0
 40
5.0
 40
5.0
 40
6.0
 40
6.0
 40
6.0
 40
7.0
 40
7.0
 40
7.0
 40
8.0
 40
8.0
 40
8.0
 40
8.0
 10
85.47230222472568
 20
-140.5736761801344
 10
85.36447073603736
 20
-140.7831379856376
 10
85.19101017835503
 20
-140.802430520355
 10
85.07456595095358
 20
-140.802430520355
 10
84.91385224656668
 20
-140.802430520355
 10
84.77208656734865
 20
-140.7555772217555
 10
84.67682967718149
 20
-140.5736761801344
 10
84.57330455784974
 20
-140.3790282852177
 10
84.5541842779066
 20
-140.1423502253811
 10
84.5541842779066
 20
-139.9790526993802
 10
84.5541842779066
 20
-139.8353922176453
 10
84.57106524578433
 20
-139.5835557376735
 10
84.67682967718149
 20
-139.3847737281747
 10
84.78483342064408
 20
-139.1818576040934
 10
84.94554712503098
 20
-139.1584309547937
 10
85.07456595095358
 20
-139.1584309547937
 10
85.23321259804933
 20
-139.1584309547937
 10
85.37704533455852
 20
-139.2028726865535
 10
85.47230222472568
 20
-139.3847737281747
 10
85.57169322947513
 20
-139.5773545658001
 10
85.59494762400057
 20
-139.8057643964722
 10
85.59494762400057
 20
-139.9790526993802
 10
85.59494762400057
 20
-140.1506184545457
 10
85.57393254154054
 20
-140.3814398520574
 10
85.47230222472568
 20
-140.5736761801344
 97
        0
 97
        0
 92
        1
 93
        1
 72
     4
 94
        3
 73
     0
 74
     1
 95
       17
 96
       13
 40
0.0
 40
0.0
 40
0.0
 40
0.0
 40
1.0
 40
1.0
 40
1.0
 40
2.0
 40
2.0
 40
2.0
 40
3.0
 40
3.0
 40
3.0
 40
4.0
 40
4.0
 40
4.0
 40
4.0
 10
85.07456595095358
 20
-139.3510117924192
 10
84.82496878304724
 20
-139.3510117924192
 10
84.77845999399636
 20
-139.6345431508553
 10
84.77845999399636
 20
-139.9790526993802
 10
84.77845999399636
 20
-140.2987575604114
 10
84.81446124181723
 20
-140.6074381158898
 10
85.07456595095358
 20
-140.6074381158898
 10
85.32209606156879
 20
-140.6074381158898
 10
85.37084416268507
 20
-140.3263183242934
 10
85.37084416268507
 20
-139.9790526993802
 10
85.37084416268507
 20
-139.6600368574461
 10
85.3326036027988
 20
-139.3510117924192
 10
85.07456595095358
 20
-139.3510117924192
 97
        0
 97
        0
 75
     2
 76
     1
 98
        0
  0
ENDBLK
  5
C2
330
BF
100
AcDbEntity
  8
0
100
AcDbBlockEnd
  0
BLOCK
  5
CA
330
C8
100
AcDbEntity
  8
0
100
AcDbBlockBegin
  2
block 8
 70
     0
 10
0.0
 20
0.0
 30
0.0
  3
block 8
  1

  0
POLYLINE
  5
CC
330
C8
100
AcDbEntity
  8
_U+30EC_U+30A4_U+30E4_U+30FC 1
 62
     7
420
 16777215
370
     9
100
AcDb2dPolyline
 66
     1
 10
0.0
 20
0.0
 30
0.0
  0
VERTEX
  5
CD
330
CC
100
AcDbEntity
  8
_U+30EC_U+30A4_U+30E4_U+30FC 1
 62
     7
420
 16777215
370
     9
100
AcDbVertex
100
AcDb2dVertex
 10
108.4863958433926
 20
-137.3969607989841
 30
0.0
  0
VERTEX
  5
CE
330
CC
100
AcDbEntity
  8
_U+30EC_U+30A4_U+30E4_U+30FC 1
 62
     7
420
 16777215
370
     9
100
AcDbVertex
100
AcDb2dVertex
 10
108.4863958433926
 20
-134.3969738552898
 30
0.0
  0
SEQEND
  5
CF
330
CC
100
AcDbEntity
  8
_U+30EC_U+30A4_U+30E4_U+30FC 1
 62
     7
420
 16777215
370
     9
  0
POLYLINE
  5
D0
330
C8
100
AcDbEntity
  8
_U+30EC_U+30A4_U+30E4_U+30FC 1
 62
     7
420
 16777215
370
     9
100
AcDb2dPolyline
 66
     1
 10
0.0
 20
0.0
 30
0.0
  0
VERTEX
  5
D1
330
D0
100
AcDbEntity
  8
_U+30EC_U+30A4_U+30E4_U+30FC 1
 62
     7
420
 16777215
370
     9
100
AcDbVertex
100
AcDb2dVertex
 10
92.02642015221042
 20
-137.3969607989841
 30
0.0
  0
VERTEX
  5
D2
330
D0
100
AcDbEntity
  8
_U+30EC_U+30A4_U+30E4_U+30FC 1
 62
     7
420
 16777215
370
     9
100
AcDbVertex
100
AcDb2dVertex
 10
109.4861680401085
 20
-137.3969607989841
 30
0.0
  0
SEQEND
  5
D3
330
D0
100
AcDbEntity
  8
_U+30EC_U+30A4_U+30E4_U+30FC 1
 62
     7
420
 16777215
370
     9
  0
INSERT
  5
D5
330
C8
100
AcDbEntity
  8
_U+30EC_U+30A4_U+30E4_U+30FC 1
100
AcDbBlockReference
  2
block 9
 10
0.0
 20
0.0
 30
0.0
  0
ENDBLK
  5
CB
330
C8
100
AcDbEntity
  8
0
100
AcDbBlockEnd
  0
BLOCK
  5
D6
330
D4
100
AcDbEntity
  8
0
100
AcDbBlockBegin
  2
block 9
 70
     0
 10
0.0
 20
0.0
 30
0.0
  3
block 9
  1

  0
SPLINE
  5
D8
330
D4
100
AcDbEntity
  8
_U+30EC_U+30A4_U+30E4_U+30FC 1
370
     0
100
AcDbSpline
210
0.0
220
0.0
230
1.0
 70
    11
 71
     3
 72
    62
 73
    58
 74
     0
 42
0.0000000001
 43
0.0000000001
 12
1.0
 22
0.0
 32
0.0
 13
1.0
 23
0.0
 33
0.0
 40
0.0
 40
0.0
 40
0.0
 40
0.0
 40
1.0
 40
1.0
 40
1.0
 40
2.0
 40
2.0
 40
2.0
 40
3.0
 40
3.0
 40
3.0
 40
4.0
 40
4.0
 40
4.0
 40
5.0
 40
5.0
 40
5.0
 40
6.0
 40
6.0
 40
6.0
 40
7.0
 40
7.0
 40
7.0
 40
8.0
 40
8.0
 40
8.0
 40
9.0
 40
9.0
 40
9.0
 40
10.0
 40
10.0
 40
10.0
 40
11.0
 40
11.0
 40
11.0
 40
12.0
 40
12.0
 40
12.0
 40
13.0
 40
13.0
 40
13.0
 40
14.0
 40
14.0
 40
14.0
 40
15.0
 40
15.0
 40
15.0
 40
16.0
 40
16.0
 40
16.0
 40
17.0
 40
17.0
 40
17.0
 40
18.0
 40
18.0
 40
18.0
 40
19.0
 40
19.0
 40
19.0
 40
19.0
 10
106.8331000166945
 20
-135.9052272880723
 30
0.0
 10
106.8331000166945
 20
-136.0006564330137
 30
0.0
 10
106.8120849342345
 20
-136.2183864676815
 30
0.0
 10
106.626049778031
 20
-136.3434434337961
 30
0.0
 10
106.5137396652118
 20
-136.417512986729
 30
0.0
 10
106.4145209152367
 20
-136.4216471013113
 30
0.0
 10
106.3297715662995
 20
-136.4257812158936
 30
0.0
 10
106.3297715662995
 20
-136.4257812158936
 30
0.0
 10
106.3297715662995
 20
-136.2056396143861
 30
0.0
 10
106.3297715662995
 20
-136.2056396143861
 30
0.0
 10
106.4038411192324
 20
-136.203572557095
 30
0.0
 10
106.6384521217779
 20
-136.1932372706392
 30
0.0
 10
106.6384521217779
 20
-135.9097059122031
 30
0.0
 10
106.6384521217779
 20
-135.7722466023417
 30
0.0
 10
106.5688611929758
 20
-135.6196288723451
 30
0.0
 10
106.3404513623038
 20
-135.6196288723451
 30
0.0
 10
106.2240071349023
 20
-135.6196288723451
 30
0.0
 10
106.1754312885603
 20
-135.6578694322314
 30
0.0
 10
106.143736410096
 20
-135.6895643106957
 30
0.0
 10
106.0696668571631
 20
-135.7636338636285
 30
0.0
 10
106.0569200038677
 20
-135.88007809103
 30
0.0
 10
106.0569200038677
 20
-135.9348551092455
 30
0.0
 10
106.0569200038677
 20
-135.9541476439629
 30
0.0
 10
106.0589870611589
 20
-135.9899766370094
 30
0.0
 10
106.0631211757412
 20
-136.0175374008915
 30
0.0
 10
106.0631211757412
 20
-136.0175374008915
 30
0.0
 10
105.8684732808246
 20
-136.0175374008915
 30
0.0
 10
105.8684732808246
 20
-136.0175374008915
 30
0.0
 10
105.8750189622465
 20
-135.9792968410052
 30
0.0
 10
105.8770860195377
 20
-135.9372666760851
 30
0.0
 10
105.8770860195377
 20
-135.9307209946631
 30
0.0
 10
105.8770860195377
 20
-135.8652641804434
 30
0.0
 10
105.8557264275291
 20
-135.6664821709445
 30
0.0
 10
105.6190483676925
 20
-135.6664821709445
 30
0.0
 10
105.4412814406536
 20
-135.6664821709445
 30
0.0
 10
105.3861599128896
 20
-135.797395799384
 30
0.0
 10
105.3861599128896
 20
-135.907638854912
 30
0.0
 10
105.3861599128896
 20
-136.1718776786306
 30
0.0
 10
105.6190483676925
 20
-136.1804904173438
 30
0.0
 10
105.6907063537857
 20
-136.1846245319261
 30
0.0
 10
105.6907063537857
 20
-136.1846245319261
 30
0.0
 10
105.6907063537857
 20
-136.3878851655558
 30
0.0
 10
105.6907063537857
 20
-136.3878851655558
 30
0.0
 10
105.5659938972196
 20
-136.3792724268427
 30
0.0
 10
105.1894449606818
 20
-136.3517116629607
 30
0.0
 10
105.1894449606818
 20
-135.8948920016166
 30
0.0
 10
105.1894449606818
 20
-135.6706162855268
 30
0.0
 10
105.3165689840875
 20
-135.4294596015593
 30
0.0
 10
105.6125026862705
 20
-135.4294596015593
 30
0.0
 10
105.7988823520225
 20
-135.4294596015593
 30
0.0
 10
105.88122013412
 20
-135.5245442369522
 30
0.0
 10
105.9425428337574
 20
-135.6241074964759
 30
0.0
 10
105.9701035976394
 20
-135.5627847968385
 30
0.0
 10
106.0503743224457
 20
-135.3808837552173
 30
0.0
 10
106.3277045090084
 20
-135.3808837552173
 30
0.0
 10
106.6660128856599
 20
-135.3808837552173
 30
0.0
 10
106.8331000166945
 20
-135.6282416110582
 30
0.0
 10
106.8331000166945
 20
-135.9052272880723
 30
0.0
  0
HATCH
  5
D9
330
D4
100
AcDbEntity
  8
_U+30EC_U+30A4_U+30E4_U+30FC 1
 62
     7
420
 16777215
100
AcDbHatch
 10
0.0
 20
0.0
 30
0.0
210
0.0
220
0.0
230
1.0
  2
SOLID
 70
     1
 71
     0
 91
        1
 92
        1
 93
        1
 72
     4
 94
        3
 73
     0
 74
     1
 95
       62
 96
       58
 40
0.0
 40
0.0
 40
0.0
 40
0.0
 40
1.0
 40
1.0
 40
1.0
 40
2.0
 40
2.0
 40
2.0
 40
3.0
 40
3.0
 40
3.0
 40
4.0
 40
4.0
 40
4.0
 40
5.0
 40
5.0
 40
5.0
 40
6.0
 40
6.0
 40
6.0
 40
7.0
 40
7.0
 40
7.0
 40
8.0
 40
8.0
 40
8.0
 40
9.0
 40
9.0
 40
9.0
 40
10.0
 40
10.0
 40
10.0
 40
11.0
 40
11.0
 40
11.0
 40
12.0
 40
12.0
 40
12.0
 40
13.0
 40
13.0
 40
13.0
 40
14.0
 40
14.0
 40
14.0
 40
15.0
 40
15.0
 40
15.0
 40
16.0
 40
16.0
 40
16.0
 40
17.0
 40
17.0
 40
17.0
 40
18.0
 40
18.0
 40
18.0
 40
19.0
 40
19.0
 40
19.0
 40
19.0
 10
106.8331000166945
 20
-135.9052272880723
 10
106.8331000166945
 20
-136.0006564330137
 10
106.8120849342345
 20
-136.2183864676815
 10
106.626049778031
 20
-136.3434434337961
 10
106.5137396652118
 20
-136.417512986729
 10
106.4145209152367
 20
-136.4216471013113
 10
106.3297715662995
 20
-136.4257812158936
 10
106.3297715662995
 20
-136.4257812158936
 10
106.3297715662995
 20
-136.2056396143861
 10
106.3297715662995
 20
-136.2056396143861
 10
106.4038411192324
 20
-136.203572557095
 10
106.6384521217779
 20
-136.1932372706392
 10
106.6384521217779
 20
-135.9097059122031
 10
106.6384521217779
 20
-135.7722466023417
 10
106.5688611929758
 20
-135.6196288723451
 10
106.3404513623038
 20
-135.6196288723451
 10
106.2240071349023
 20
-135.6196288723451
 10
106.1754312885603
 20
-135.6578694322314
 10
106.143736410096
 20
-135.6895643106957
 10
106.0696668571631
 20
-135.7636338636285
 10
106.0569200038677
 20
-135.88007809103
 10
106.0569200038677
 20
-135.9348551092455
 10
106.0569200038677
 20
-135.9541476439629
 10
106.0589870611589
 20
-135.9899766370094
 10
106.0631211757412
 20
-136.0175374008915
 10
106.0631211757412
 20
-136.0175374008915
 10
105.8684732808246
 20
-136.0175374008915
 10
105.8684732808246
 20
-136.0175374008915
 10
105.8750189622465
 20
-135.9792968410052
 10
105.8770860195377
 20
-135.9372666760851
 10
105.8770860195377
 20
-135.9307209946631
 10
105.8770860195377
 20
-135.8652641804434
 10
105.8557264275291
 20
-135.6664821709445
 10
105.6190483676925
 20
-135.6664821709445
 10
105.4412814406536
 20
-135.6664821709445
 10
105.3861599128896
 20
-135.797395799384
 10
105.3861599128896
 20
-135.907638854912
 10
105.3861599128896
 20
-136.1718776786306
 10
105.6190483676925
 20
-136.1804904173438
 10
105.6907063537857
 20
-136.1846245319261
 10
105.6907063537857
 20
-136.1846245319261
 10
105.6907063537857
 20
-136.3878851655558
 10
105.6907063537857
 20
-136.3878851655558
 10
105.5659938972196
 20
-136.3792724268427
 10
105.1894449606818
 20
-136.3517116629607
 10
105.1894449606818
 20
-135.8948920016166
 10
105.1894449606818
 20
-135.6706162855268
 10
105.3165689840875
 20
-135.4294596015593
 10
105.6125026862705
 20
-135.4294596015593
 10
105.7988823520225
 20
-135.4294596015593
 10
105.88122013412
 20
-135.5245442369522
 10
105.9425428337574
 20
-135.6241074964759
 10
105.9701035976394
 20
-135.5627847968385
 10
106.0503743224457
 20
-135.3808837552173
 10
106.3277045090084
 20
-135.3808837552173
 10
106.6660128856599
 20
-135.3808837552173
 10
106.8331000166945
 20
-135.6282416110582
 10
106.8331000166945
 20
-135.9052272880723
 97
        0
 97
        0
 75
     2
 76
     1
 98
        0
  0
ENDBLK
  5
D7
330
D4
100
AcDbEntity
  8
0
100
AcDbBlockEnd
  0
BLOCK
  5
F4
330
F2
100
AcDbEntity
  8
0
100
AcDbBlockBegin
  2
block 10
 70
     0
 10
0.0
 20
0.0
 30
0.0
  3
block 10
  1

  0
POLYLINE
  5
F6
330
F2
100
AcDbEntity
  8
_U+30EC_U+30A4_U+30E4_U+30FC 1
 62
     7
420
 16777215
370
     9
100
AcDb2dPolyline
 66
     1
 10
0.0
 20
0.0
 30
0.0
  0
VERTEX
  5
F7
330
F6
100
AcDbEntity
  8
_U+30EC_U+30A4_U+30E4_U+30FC 1
 62
     7
420
 16777215
370
     9
100
AcDbVertex
100
AcDb2dVertex
 10
108.4863958433926
 20
-134.3969738552898
 30
0.0
  0
VERTEX
  5
F8
330
F6
100
AcDbEntity
  8
_U+30EC_U+30A4_U+30E4_U+30FC 1
 62
     7
420
 16777215
370
     9
100
AcDbVertex
100
AcDb2dVertex
 10
108.4863958433926
 20
-123.8970019134702
 30
0.0
  0
SEQEND
  5
F9
330
F6
100
AcDbEntity
  8
_U+30EC_U+30A4_U+30E4_U+30FC 1
 62
     7
420
 16777215
370
     9
  0
POLYLINE
  5
FA
330
F2
100
AcDbEntity
  8
_U+30EC_U+30A4_U+30E4_U+30FC 1
 62
     7
420
 16777215
370
     9
100
AcDb2dPolyline
 66
     1
 10
0.0
 20
0.0
 30
0.0
  0
VERTEX
  5
FB
330
FA
100
AcDbEntity
  8
_U+30EC_U+30A4_U+30E4_U+30FC 1
 62
     7
420
 16777215
370
     9
100
AcDbVertex
100
AcDb2dVertex
 10
92.02642015221042
 20
-134.3969738552898
 30
0.0
  0
VERTEX
  5
FC
330
FA
100
AcDbEntity
  8
_U+30EC_U+30A4_U+30E4_U+30FC 1
 62
     7
420
 16777215
370
     9
100
AcDbVertex
100
AcDb2dVertex
 10
109.4861680401085
 20
-134.3969738552898
 30
0.0
  0
SEQEND
  5
FD
330
FA
100
AcDbEntity
  8
_U+30EC_U+30A4_U+30E4_U+30FC 1
 62
     7
420
 16777215
370
     9
  0
INSERT
  5
FF
330
F2
100
AcDbEntity
  8
_U+30EC_U+30A4_U+30E4_U+30FC 1
100
AcDbBlockReference
  2
block 11
 10
0.0
 20
0.0
 30
0.0
  0
ENDBLK
  5
F5
330
F2
100
AcDbEntity
  8
0
100
AcDbBlockEnd
  0
BLOCK
  5
100
330
FE
100
AcDbEntity
  8
0
100
AcDbBlockBegin
  2
block 11
 70
     0
 10
0.0
 20
0.0
 30
0.0
  3
block 11
  1

  0
SPLINE
  5
102
330
FE
100
AcDbEntity
  8
_U+30EC_U+30A4_U+30E4_U+30FC 1
370
     0
100
AcDbSpline
210
0.0
220
0.0
230
1.0
 70
    11
 71
     3
 72
    26
 73
    22
 74
     0
 42
0.0000000001
 43
0.0000000001
 12
1.0
 22
0.0
 32
0.0
 13
1.0
 23
0.0
 33
0.0
 40
0.0
 40
0.0
 40
0.0
 40
0.0
 40
1.0
 40
1.0
 40
1.0
 40
2.0
 40
2.0
 40
2.0
 40
3.0
 40
3.0
 40
3.0
 40
4.0
 40
4.0
 40
4.0
 40
5.0
 40
5.0
 40
5.0
 40
6.0
 40
6.0
 40
6.0
 40
7.0
 40
7.0
 40
7.0
 40
7.0
 10
106.7824571130613
 20
-130.646633539387
 30
0.0
 10
106.7824571130613
 20
-130.646633539387
 30
0.0
 10
105.6783040100388
 20
-130.646633539387
 30
0.0
 10
105.6783040100388
 20
-130.646633539387
 30
0.0
 10
105.6783040100388
 20
-130.646633539387
 30
0.0
 10
105.6783040100388
 20
-130.9766736868739
 30
0.0
 10
105.6783040100388
 20
-130.9766736868739
 30
0.0
 10
105.6783040100388
 20
-130.9766736868739
 30
0.0
 10
105.530164904173
 20
-130.9766736868739
 30
0.0
 10
105.530164904173
 20
-130.9766736868739
 30
0.0
 10
105.5153509935864
 20
-130.6445664820958
 30
0.0
 10
105.3523979771341
 20
-130.598057693045
 30
0.0
 10
105.2380208070238
 20
-130.5684298718718
 30
0.0
 10
105.2380208070238
 20
-130.5684298718718
 30
0.0
 10
105.2380208070238
 20
-130.4223578232972
 30
0.0
 10
105.2380208070238
 20
-130.4223578232972
 30
0.0
 10
105.2380208070238
 20
-130.4223578232972
 30
0.0
 10
106.7824571130613
 20
-130.4223578232972
 30
0.0
 10
106.7824571130613
 20
-130.4223578232972
 30
0.0
 10
106.7824571130613
 20
-130.4223578232972
 30
0.0
 10
106.7824571130613
 20
-130.646633539387
 30
0.0
 10
106.7824571130613
 20
-130.646633539387
 30
0.0
  0
HATCH
  5
103
330
FE
100
AcDbEntity
  8
_U+30EC_U+30A4_U+30E4_U+30FC 1
 62
     7
420
 16777215
100
AcDbHatch
 10
0.0
 20
0.0
 30
0.0
210
0.0
220
0.0
230
1.0
  2
SOLID
 70
     1
 71
     0
 91
        1
 92
        1
 93
        1
 72
     4
 94
        3
 73
     0
 74
     1
 95
       26
 96
       22
 40
0.0
 40
0.0
 40
0.0
 40
0.0
 40
1.0
 40
1.0
 40
1.0
 40
2.0
 40
2.0
 40
2.0
 40
3.0
 40
3.0
 40
3.0
 40
4.0
 40
4.0
 40
4.0
 40
5.0
 40
5.0
 40
5.0
 40
6.0
 40
6.0
 40
6.0
 40
7.0
 40
7.0
 40
7.0
 40
7.0
 10
106.7824571130613
 20
-130.646633539387
 10
106.7824571130613
 20
-130.646633539387
 10
105.6783040100388
 20
-130.646633539387
 10
105.6783040100388
 20
-130.646633539387
 10
105.6783040100388
 20
-130.646633539387
 10
105.6783040100388
 20
-130.9766736868739
 10
105.6783040100388
 20
-130.9766736868739
 10
105.6783040100388
 20
-130.9766736868739
 10
105.530164904173
 20
-130.9766736868739
 10
105.530164904173
 20
-130.9766736868739
 10
105.5153509935864
 20
-130.6445664820958
 10
105.3523979771341
 20
-130.598057693045
 10
105.2380208070238
 20
-130.5684298718718
 10
105.2380208070238
 20
-130.5684298718718
 10
105.2380208070238
 20
-130.4223578232972
 10
105.2380208070238
 20
-130.4223578232972
 10
105.2380208070238
 20
-130.4223578232972
 10
106.7824571130613
 20
-130.4223578232972
 10
106.7824571130613
 20
-130.4223578232972
 10
106.7824571130613
 20
-130.4223578232972
 10
106.7824571130613
 20
-130.646633539387
 10
106.7824571130613
 20
-130.646633539387
 97
        0
 97
        0
 75
     2
 76
     1
 98
        0
  0
SPLINE
  5
104
330
FE
100
AcDbEntity
  8
_U+30EC_U+30A4_U+30E4_U+30FC 1
370
     0
100
AcDbSpline
210
0.0
220
0.0
230
1.0
 70
    11
 71
     3
 72
    29
 73
    25
 74
     0
 42
0.0000000001
 43
0.0000000001
 12
1.0
 22
0.0
 32
0.0
 13
1.0
 23
0.0
 33
0.0
 40
0.0
 40
0.0
 40
0.0
 40
0.0
 40
1.0
 40
1.0
 40
1.0
 40
2.0
 40
2.0
 40
2.0
 40
3.0
 40
3.0
 40
3.0
 40
4.0
 40
4.0
 40
4.0
 40
5.0
 40
5.0
 40
5.0
 40
6.0
 40
6.0
 40
6.0
 40
7.0
 40
7.0
 40
7.0
 40
8.0
 40
8.0
 40
8.0
 40
8.0
 10
106.6046901860224
 20
-129.0233045467372
 30
0.0
 10
106.8141519915256
 20
-129.1314805449741
 30
0.0
 10
106.8331000166945
 20
-129.3047688478821
 30
0.0
 10
106.8331000166945
 20
-129.4212130752836
 30
0.0
 10
106.8331000166945
 20
-129.5820990344448
 30
0.0
 10
106.7865912276436
 20
-129.7236924588885
 30
0.0
 10
106.6046901860224
 20
-129.8187770942814
 30
0.0
 10
106.4100422911058
 20
-129.9224744683874
 30
0.0
 10
106.1730197217206
 20
-129.9414224935563
 30
0.0
 10
106.0104112148168
 20
-129.9414224935563
 30
0.0
 10
105.8664062235334
 20
-129.9414224935563
 30
0.0
 10
105.6145697435616
 20
-129.9245415256786
 30
0.0
 10
105.4157877340627
 20
-129.8187770942814
 30
0.0
 10
105.2128716099815
 20
-129.7109456055931
 30
0.0
 10
105.1894449606818
 20
-129.5500596464319
 30
0.0
 10
105.1894449606818
 20
-129.4212130752836
 30
0.0
 10
105.1894449606818
 20
-129.2623941734136
 30
0.0
 10
105.2338866924415
 20
-129.1187336916786
 30
0.0
 10
105.4157877340627
 20
-129.0233045467372
 30
0.0
 10
105.6083685716882
 20
-128.924085796762
 30
0.0
 10
105.8367784023603
 20
-128.9006591474623
 30
0.0
 10
106.0104112148168
 20
-128.9006591474623
 30
0.0
 10
106.1816324604338
 20
-128.9006591474623
 30
0.0
 10
106.412109348397
 20
-128.9220187394709
 30
0.0
 10
106.6046901860224
 20
-129.0233045467372
 30
0.0
  0
SPLINE
  5
105
330
FE
100
AcDbEntity
  8
_U+30EC_U+30A4_U+30E4_U+30FC 1
370
     0
100
AcDbSpline
210
0.0
220
0.0
230
1.0
 70
    11
 71
     3
 72
    17
 73
    13
 74
     0
 42
0.0000000001
 43
0.0000000001
 12
1.0
 22
0.0
 32
0.0
 13
1.0
 23
0.0
 33
0.0
 40
0.0
 40
0.0
 40
0.0
 40
0.0
 40
1.0
 40
1.0
 40
1.0
 40
2.0
 40
2.0
 40
2.0
 40
3.0
 40
3.0
 40
3.0
 40
4.0
 40
4.0
 40
4.0
 40
4.0
 10
105.3820257983073
 20
-129.4212130752836
 30
0.0
 10
105.3820257983073
 20
-129.6706379884157
 30
0.0
 10
105.6655571567433
 20
-129.7174912870151
 30
0.0
 10
106.0104112148168
 20
-129.7174912870151
 30
0.0
 10
106.3297715662995
 20
-129.7174912870151
 30
0.0
 10
106.6384521217779
 20
-129.6813177844199
 30
0.0
 10
106.6384521217779
 20
-129.4212130752836
 30
0.0
 10
106.6384521217779
 20
-129.1735107098941
 30
0.0
 10
106.3573323301815
 20
-129.1249348635521
 30
0.0
 10
106.0104112148168
 20
-129.1249348635521
 30
0.0
 10
105.6907063537857
 20
-129.1249348635521
 30
0.0
 10
105.3820257983073
 20
-129.1631754234384
 30
0.0
 10
105.3820257983073
 20
-129.4212130752836
 30
0.0
  0
HATCH
  5
106
330
FE
100
AcDbEntity
  8
_U+30EC_U+30A4_U+30E4_U+30FC 1
 62
     7
420
 16777215
100
AcDbHatch
 10
0.0
 20
0.0
 30
0.0
210
0.0
220
0.0
230
1.0
  2
SOLID
 70
     1
 71
     0
 91
        2
 92
        1
 93
        1
 72
     4
 94
        3
 73
     0
 74
     1
 95
       29
 96
       25
 40
0.0
 40
0.0
 40
0.0
 40
0.0
 40
1.0
 40
1.0
 40
1.0
 40
2.0
 40
2.0
 40
2.0
 40
3.0
 40
3.0
 40
3.0
 40
4.0
 40
4.0
 40
4.0
 40
5.0
 40
5.0
 40
5.0
 40
6.0
 40
6.0
 40
6.0
 40
7.0
 40
7.0
 40
7.0
 40
8.0
 40
8.0
 40
8.0
 40
8.0
 10
106.6046901860224
 20
-129.0233045467372
 10
106.8141519915256
 20
-129.1314805449741
 10
106.8331000166945
 20
-129.3047688478821
 10
106.8331000166945
 20
-129.4212130752836
 10
106.8331000166945
 20
-129.5820990344448
 10
106.7865912276436
 20
-129.7236924588885
 10
106.6046901860224
 20
-129.8187770942814
 10
106.4100422911058
 20
-129.9224744683874
 10
106.1730197217206
 20
-129.9414224935563
 10
106.0104112148168
 20
-129.9414224935563
 10
105.8664062235334
 20
-129.9414224935563
 10
105.6145697435616
 20
-129.9245415256786
 10
105.4157877340627
 20
-129.8187770942814
 10
105.2128716099815
 20
-129.7109456055931
 10
105.1894449606818
 20
-129.5500596464319
 10
105.1894449606818
 20
-129.4212130752836
 10
105.1894449606818
 20
-129.2623941734136
 10
105.2338866924415
 20
-129.1187336916786
 10
105.4157877340627
 20
-129.0233045467372
 10
105.6083685716882
 20
-128.924085796762
 10
105.8367784023603
 20
-128.9006591474623
 10
106.0104112148168
 20
-128.9006591474623
 10
106.1816324604338
 20
-128.9006591474623
 10
106.412109348397
 20
-128.9220187394709
 10
106.6046901860224
 20
-129.0233045467372
 97
        0
 97
        0
 92
        1
 93
        1
 72
     4
 94
        3
 73
     0
 74
     1
 95
       17
 96
       13
 40
0.0
 40
0.0
 40
0.0
 40
0.0
 40
1.0
 40
1.0
 40
1.0
 40
2.0
 40
2.0
 40
2.0
 40
3.0
 40
3.0
 40
3.0
 40
4.0
 40
4.0
 40
4.0
 40
4.0
 10
105.3820257983073
 20
-129.4212130752836
 10
105.3820257983073
 20
-129.6706379884157
 10
105.6655571567433
 20
-129.7174912870151
 10
106.0104112148168
 20
-129.7174912870151
 10
106.3297715662995
 20
-129.7174912870151
 10
106.6384521217779
 20
-129.6813177844199
 10
106.6384521217779
 20
-129.4212130752836
 10
106.6384521217779
 20
-129.1735107098941
 10
106.3573323301815
 20
-129.1249348635521
 10
106.0104112148168
 20
-129.1249348635521
 10
105.6907063537857
 20
-129.1249348635521
 10
105.3820257983073
 20
-129.1631754234384
 10
105.3820257983073
 20
-129.4212130752836
 97
        0
 97
        0
 75
     2
 76
     1
 98
        0
  0
POLYLINE
  5
107
330
FE
100
AcDbEntity
  8
_U+30EC_U+30A4_U+30E4_U+30FC 1
370
     0
100
AcDb2dPolyline
 66
     1
 10
0.0
 20
0.0
 30
0.0
  0
VERTEX
  5
108
330
107
100
AcDbEntity
  8
_U+30EC_U+30A4_U+30E4_U+30FC 1
370
     0
100
AcDbVertex
100
AcDb2dVertex
 10
106.7824571130613
 20
-128.6843071509886
 30
0.0
  0
VERTEX
  5
109
330
107
100
AcDbEntity
  8
_U+30EC_U+30A4_U+30E4_U+30FC 1
370
     0
100
AcDbVertex
100
AcDb2dVertex
 10
106.5306206330896
 20
-128.6843071509886
 30
0.0
  0
VERTEX
  5
10A
330
107
100
AcDbEntity
  8
_U+30EC_U+30A4_U+30E4_U+30FC 1
370
     0
100
AcDbVertex
100
AcDb2dVertex
 10
106.5306206330896
 20
-128.4324706710169
 30
0.0
  0
VERTEX
  5
10B
330
107
100
AcDbEntity
  8
_U+30EC_U+30A4_U+30E4_U+30FC 1
370
     0
100
AcDbVertex
100
AcDb2dVertex
 10
106.7824571130613
 20
-128.4324706710169
 30
0.0
  0
VERTEX
  5
10C
330
107
100
AcDbEntity
  8
_U+30EC_U+30A4_U+30E4_U+30FC 1
370
     0
100
AcDbVertex
100
AcDb2dVertex
 10
106.7824571130613
 20
-128.6843071509886
 30
0.0
  0
SEQEND
  5
10D
330
107
100
AcDbEntity
  8
_U+30EC_U+30A4_U+30E4_U+30FC 1
370
     0
  0
HATCH
  5
10E
330
FE
100
AcDbEntity
  8
_U+30EC_U+30A4_U+30E4_U+30FC 1
 62
     7
420
 16777215
100
AcDbHatch
 10
0.0
 20
0.0
 30
0.0
210
0.0
220
0.0
230
1.0
  2
SOLID
 70
     1
 71
     0
 91
        1
 92
        1
 93
        4
 72
     1
 10
106.7824571130613
 20
-128.6843071509886
 11
106.5306206330896
 21
-128.6843071509886
 72
     1
 10
106.5306206330896
 20
-128.6843071509886
 11
106.5306206330896
 21
-128.4324706710169
 72
     1
 10
106.5306206330896
 20
-128.4324706710169
 11
106.7824571130613
 21
-128.4324706710169
 72
     1
 10
106.7824571130613
 20
-128.4324706710169
 11
106.7824571130613
 21
-128.6843071509886
 97
        0
 75
     2
 76
     1
 98
        0
  0
SPLINE
  5
10F
330
FE
100
AcDbEntity
  8
_U+30EC_U+30A4_U+30E4_U+30FC 1
370
     0
100
AcDbSpline
210
0.0
220
0.0
230
1.0
 70
    11
 71
     3
 72
    53
 73
    49
 74
     0
 42
0.0000000001
 43
0.0000000001
 12
1.0
 22
0.0
 32
0.0
 13
1.0
 23
0.0
 33
0.0
 40
0.0
 40
0.0
 40
0.0
 40
0.0
 40
1.0
 40
1.0
 40
1.0
 40
2.0
 40
2.0
 40
2.0
 40
3.0
 40
3.0
 40
3.0
 40
4.0
 40
4.0
 40
4.0
 40
5.0
 40
5.0
 40
5.0
 40
6.0
 40
6.0
 40
6.0
 40
7.0
 40
7.0
 40
7.0
 40
8.0
 40
8.0
 40
8.0
 40
9.0
 40
9.0
 40
9.0
 40
10.0
 40
10.0
 40
10.0
 40
11.0
 40
11.0
 40
11.0
 40
12.0
 40
12.0
 40
12.0
 40
13.0
 40
13.0
 40
13.0
 40
14.0
 40
14.0
 40
14.0
 40
15.0
 40
15.0
 40
15.0
 40
16.0
 40
16.0
 40
16.0
 40
16.0
 10
106.8331000166945
 20
-127.7152017909879
 30
0.0
 10
106.8331000166945
 20
-127.793405458503
 30
0.0
 10
106.8162190488168
 20
-127.8950357753179
 30
0.0
 10
106.7528292918882
 20
-127.9966660921328
 30
0.0
 10
106.6429307459087
 20
-128.1699543950409
 30
0.0
 10
106.5116726079207
 20
-128.1913139870494
 30
0.0
 10
106.4038411192324
 20
-128.2102620122183
 30
0.0
 10
106.4038411192324
 20
-128.2102620122183
 30
0.0
 10
106.4038411192324
 20
-127.9880533534197
 30
0.0
 10
106.4038411192324
 20
-127.9880533534197
 30
0.0
 10
106.6026231287313
 20
-127.9332763352042
 30
0.0
 10
106.6322509499044
 20
-127.8061523117985
 30
0.0
 10
106.6322509499044
 20
-127.7131347336967
 30
0.0
 10
106.6322509499044
 20
-127.5736083665441
 30
0.0
 10
106.5326876903807
 20
-127.4213351460961
 30
0.0
 10
106.3001437451264
 20
-127.4213351460961
 30
0.0
 10
106.0441731505723
 20
-127.4213351460961
 30
0.0
 10
105.9742377122217
 20
-127.6011691304261
 30
0.0
 10
105.9742377122217
 20
-127.7217474724098
 30
0.0
 10
105.9742377122217
 20
-127.7534423508741
 30
0.0
 10
105.9742377122217
 20
-127.8950357753179
 30
0.0
 10
106.1034287929186
 20
-127.9839192388374
 30
0.0
 10
106.1034287929186
 20
-127.9839192388374
 30
0.0
 10
106.0844807677497
 20
-128.1596191085851
 30
0.0
 10
106.0844807677497
 20
-128.1596191085851
 30
0.0
 10
106.0844807677497
 20
-128.1596191085851
 30
0.0
 10
105.2380208070238
 20
-128.0390407666013
 30
0.0
 10
105.2380208070238
 20
-128.0390407666013
 30
0.0
 10
105.2380208070238
 20
-128.0390407666013
 30
0.0
 10
105.2380208070238
 20
-127.2604491869349
 30
0.0
 10
105.2380208070238
 20
-127.2604491869349
 30
0.0
 10
105.2380208070238
 20
-127.2604491869349
 30
0.0
 10
105.4326687019404
 20
-127.2604491869349
 30
0.0
 10
105.4326687019404
 20
-127.2604491869349
 30
0.0
 10
105.4326687019404
 20
-127.2604491869349
 30
0.0
 10
105.4326687019404
 20
-127.876087750149
 30
0.0
 10
105.4326687019404
 20
-127.876087750149
 30
0.0
 10
105.4326687019404
 20
-127.876087750149
 30
0.0
 10
105.8557264275291
 20
-127.9415445643688
 30
0.0
 10
105.8557264275291
 20
-127.9415445643688
 30
0.0
 10
105.8219644917737
 20
-127.8802218647313
 30
0.0
 10
105.7816568745963
 20
-127.7978840826339
 30
0.0
 10
105.7816568745963
 20
-127.6793727979413
 30
0.0
 10
105.7816568745963
 20
-127.4254692606784
 30
0.0
 10
105.9680365403483
 20
-127.1884466912932
 30
0.0
 10
106.2811957199575
 20
-127.1884466912932
 30
0.0
 10
106.598489014149
 20
-127.1884466912932
 30
0.0
 10
106.8331000166945
 20
-127.4127224073829
 30
0.0
 10
106.8331000166945
 20
-127.7152017909879
 30
0.0
  0
HATCH
  5
110
330
FE
100
AcDbEntity
  8
_U+30EC_U+30A4_U+30E4_U+30FC 1
 62
     7
420
 16777215
100
AcDbHatch
 10
0.0
 20
0.0
 30
0.0
210
0.0
220
0.0
230
1.0
  2
SOLID
 70
     1
 71
     0
 91
        1
 92
        1
 93
        1
 72
     4
 94
        3
 73
     0
 74
     1
 95
       53
 96
       49
 40
0.0
 40
0.0
 40
0.0
 40
0.0
 40
1.0
 40
1.0
 40
1.0
 40
2.0
 40
2.0
 40
2.0
 40
3.0
 40
3.0
 40
3.0
 40
4.0
 40
4.0
 40
4.0
 40
5.0
 40
5.0
 40
5.0
 40
6.0
 40
6.0
 40
6.0
 40
7.0
 40
7.0
 40
7.0
 40
8.0
 40
8.0
 40
8.0
 40
9.0
 40
9.0
 40
9.0
 40
10.0
 40
10.0
 40
10.0
 40
11.0
 40
11.0
 40
11.0
 40
12.0
 40
12.0
 40
12.0
 40
13.0
 40
13.0
 40
13.0
 40
14.0
 40
14.0
 40
14.0
 40
15.0
 40
15.0
 40
15.0
 40
16.0
 40
16.0
 40
16.0
 40
16.0
 10
106.8331000166945
 20
-127.7152017909879
 10
106.8331000166945
 20
-127.793405458503
 10
106.8162190488168
 20
-127.8950357753179
 10
106.7528292918882
 20
-127.9966660921328
 10
106.6429307459087
 20
-128.1699543950409
 10
106.5116726079207
 20
-128.1913139870494
 10
106.4038411192324
 20
-128.2102620122183
 10
106.4038411192324
 20
-128.2102620122183
 10
106.4038411192324
 20
-127.9880533534197
 10
106.4038411192324
 20
-127.9880533534197
 10
106.6026231287313
 20
-127.9332763352042
 10
106.6322509499044
 20
-127.8061523117985
 10
106.6322509499044
 20
-127.7131347336967
 10
106.6322509499044
 20
-127.5736083665441
 10
106.5326876903807
 20
-127.4213351460961
 10
106.3001437451264
 20
-127.4213351460961
 10
106.0441731505723
 20
-127.4213351460961
 10
105.9742377122217
 20
-127.6011691304261
 10
105.9742377122217
 20
-127.7217474724098
 10
105.9742377122217
 20
-127.7534423508741
 10
105.9742377122217
 20
-127.8950357753179
 10
106.1034287929186
 20
-127.9839192388374
 10
106.1034287929186
 20
-127.9839192388374
 10
106.0844807677497
 20
-128.1596191085851
 10
106.0844807677497
 20
-128.1596191085851
 10
106.0844807677497
 20
-128.1596191085851
 10
105.2380208070238
 20
-128.0390407666013
 10
105.2380208070238
 20
-128.0390407666013
 10
105.2380208070238
 20
-128.0390407666013
 10
105.2380208070238
 20
-127.2604491869349
 10
105.2380208070238
 20
-127.2604491869349
 10
105.2380208070238
 20
-127.2604491869349
 10
105.4326687019404
 20
-127.2604491869349
 10
105.4326687019404
 20
-127.2604491869349
 10
105.4326687019404
 20
-127.2604491869349
 10
105.4326687019404
 20
-127.876087750149
 10
105.4326687019404
 20
-127.876087750149
 10
105.4326687019404
 20
-127.876087750149
 10
105.8557264275291
 20
-127.9415445643688
 10
105.8557264275291
 20
-127.9415445643688
 10
105.8219644917737
 20
-127.8802218647313
 10
105.7816568745963
 20
-127.7978840826339
 10
105.7816568745963
 20
-127.6793727979413
 10
105.7816568745963
 20
-127.4254692606784
 10
105.9680365403483
 20
-127.1884466912932
 10
106.2811957199575
 20
-127.1884466912932
 10
106.598489014149
 20
-127.1884466912932
 10
106.8331000166945
 20
-127.4127224073829
 10
106.8331000166945
 20
-127.7152017909879
 97
        0
 97
        0
 75
     2
 76
     1
 98
        0
  0
ENDBLK
  5
101
330
FE
100
AcDbEntity
  8
0
100
AcDbBlockEnd
  0
ENDSEC
  0
SECTION
  2
ENTITIES
  0
INSERT
  5
42
330
1F
100
AcDbEntity
  8
_U+30EC_U+30A4_U+30E4_U+30FC 1
100
AcDbBlockReference
  2
block 2
 10
0.0
 20
0.0
 30
0.0
  0
INSERT
  5
4A
330
1F
100
AcDbEntity
  8
_U+30EC_U+30A4_U+30E4_U+30FC 1
100
AcDbBlockReference
  2
block 3
 10
0.0
 20
0.0
 30
0.0
  0
POLYLINE
  5
50
330
1F
100
AcDbEntity
  8
_U+30EC_U+30A4_U+30E4_U+30FC 1
370
     0
100
AcDb2dPolyline
 66
     1
 10
0.0
 20
0.0
 30
0.0
  0
VERTEX
  5
51
330
50
100
AcDbEntity
  8
_U+30EC_U+30A4_U+30E4_U+30FC 1
370
     0
100
AcDbVertex
100
AcDb2dVertex
 10
73.44494479293002
 20
-123.8970019134702
 30
0.0
  0
VERTEX
  5
52
330
50
100
AcDbEntity
  8
_U+30EC_U+30A4_U+30E4_U+30FC 1
370
     0
100
AcDbVertex
100
AcDb2dVertex
 10
79.48626408324758
 20
-123.8970019134702
 30
0.0
  0
VERTEX
  5
53
330
50
100
AcDbEntity
  8
_U+30EC_U+30A4_U+30E4_U+30FC 1
370
     0
100
AcDbVertex
100
AcDb2dVertex
 10
79.48626408324758
 20
-137.3969607989841
 30
0.0
  0
VERTEX
  5
54
330
50
100
AcDbEntity
  8
_U+30EC_U+30A4_U+30E4_U+30FC 1
370
     0
100
AcDbVertex
100
AcDb2dVertex
 10
89.48599688368868
 20
-137.3969607989841
 30
0.0
  0
VERTEX
  5
55
330
50
100
AcDbEntity
  8
_U+30EC_U+30A4_U+30E4_U+30FC 1
370
     0
100
AcDbVertex
100
AcDb2dVertex
 10
89.48599688368868
 20
-134.3969738552898
 30
0.0
  0
VERTEX
  5
56
330
50
100
AcDbEntity
  8
_U+30EC_U+30A4_U+30E4_U+30FC 1
370
     0
100
AcDbVertex
100
AcDb2dVertex
 10
88.48622468697278
 20
-134.3969738552898
 30
0.0
  0
VERTEX
  5
57
330
50
100
AcDbEntity
  8
_U+30EC_U+30A4_U+30E4_U+30FC 1
370
     0
100
AcDbVertex
100
AcDb2dVertex
 10
88.48622468697278
 20
-136.3971885770116
 30
0.0
  0
VERTEX
  5
58
330
50
100
AcDbEntity
  8
_U+30EC_U+30A4_U+30E4_U+30FC 1
370
     0
100
AcDbVertex
100
AcDb2dVertex
 10
80.38612961584565
 20
-136.3971885770116
 30
0.0
  0
VERTEX
  5
59
330
50
100
AcDbEntity
  8
_U+30EC_U+30A4_U+30E4_U+30FC 1
370
     0
100
AcDbVertex
100
AcDb2dVertex
 10
80.38612961584565
 20
-123.8970019134702
 30
0.0
  0
VERTEX
  5
5A
330
50
100
AcDbEntity
  8
_U+30EC_U+30A4_U+30E4_U+30FC 1
370
     0
100
AcDbVertex
100
AcDb2dVertex
 10
104.4866367787683
 20
-123.8970019134702
 30
0.0
  0
VERTEX
  5
5B
330
50
100
AcDbEntity
  8
_U+30EC_U+30A4_U+30E4_U+30FC 1
370
     0
100
AcDbVertex
100
AcDb2dVertex
 10
104.4866367787683
 20
-122.897229691498
 30
0.0
  0
VERTEX
  5
5C
330
50
100
AcDbEntity
  8
_U+30EC_U+30A4_U+30E4_U+30FC 1
370
     0
100
AcDbVertex
100
AcDb2dVertex
 10
73.47390784774667
 20
-122.897229691498
 30
0.0
  0
VERTEX
  5
5D
330
50
100
AcDbEntity
  8
_U+30EC_U+30A4_U+30E4_U+30FC 1
370
     0
100
AcDbVertex
100
AcDb2dVertex
 10
73.44494479293002
 20
-123.8970019134702
 30
0.0
  0
SEQEND
  5
5F
330
50
100
AcDbEntity
  8
_U+30EC_U+30A4_U+30E4_U+30FC 1
370
     0
  0
HATCH
  5
5E
330
1F
100
AcDbEntity
  8
_U+30EC_U+30A4_U+30E4_U+30FC 1
 62
   253
420
 11711154
100
AcDbHatch
 10
0.0
 20
0.0
 30
0.0
210
0.0
220
0.0
230
1.0
  2
SOLID
 70
     1
 71
     0
 91
        1
 92
        1
 93
       12
 72
     1
 10
73.44494479293002
 20
-123.8970019134702
 11
79.48626408324758
 21
-123.8970019134702
 72
     1
 10
79.48626408324758
 20
-123.8970019134702
 11
79.48626408324758
 21
-137.3969607989841
 72
     1
 10
79.48626408324758
 20
-137.3969607989841
 11
89.48599688368868
 21
-137.3969607989841
 72
     1
 10
89.48599688368868
 20
-137.3969607989841
 11
89.48599688368868
 21
-134.3969738552898
 72
     1
 10
89.48599688368868
 20
-134.3969738552898
 11
88.48622468697278
 21
-134.3969738552898
 72
     1
 10
88.48622468697278
 20
-134.3969738552898
 11
88.48622468697278
 21
-136.3971885770116
 72
     1
 10
88.48622468697278
 20
-136.3971885770116
 11
80.38612961584565
 21
-136.3971885770116
 72
     1
 10
80.38612961584565
 20
-136.3971885770116
 11
80.38612961584565
 21
-123.8970019134702
 72
     1
 10
80.38612961584565
 20
-123.8970019134702
 11
104.4866367787683
 21
-123.8970019134702
 72
     1
 10
104.4866367787683
 20
-123.8970019134702
 11
104.4866367787683
 21
-122.897229691498
 72
     1
 10
104.4866367787683
 20
-122.897229691498
 11
73.47390784774667
 21
-122.897229691498
 72
     1
 10
73.47390784774667
 20
-122.897229691498
 11
73.44494479293002
 21
-123.8970019134702
 97
        0
 75
     2
 76
     1
 98
        0
  0
POLYLINE
  5
60
330
1F
100
AcDbEntity
  8
_U+30EC_U+30A4_U+30E4_U+30FC 1
 62
     7
420
 16777215
370
    25
100
AcDb2dPolyline
 66
     1
 10
0.0
 20
0.0
 30
0.0
  0
VERTEX
  5
61
330
60
100
AcDbEntity
  8
_U+30EC_U+30A4_U+30E4_U+30FC 1
 62
     7
420
 16777215
370
    25
100
AcDbVertex
100
AcDb2dVertex
 10
79.48626408324758
 20
-137.3969607989841
 30
0.0
  0
VERTEX
  5
62
330
60
100
AcDbEntity
  8
_U+30EC_U+30A4_U+30E4_U+30FC 1
 62
     7
420
 16777215
370
    25
100
AcDbVertex
100
AcDb2dVertex
 10
89.48599688368868
 20
-137.3969607989841
 30
0.0
  0
SEQEND
  5
63
330
60
100
AcDbEntity
  8
_U+30EC_U+30A4_U+30E4_U+30FC 1
 62
     7
420
 16777215
370
    25
  0
POLYLINE
  5
64
330
1F
100
AcDbEntity
  8
_U+30EC_U+30A4_U+30E4_U+30FC 1
 62
     7
420
 16777215
370
    25
100
AcDb2dPolyline
 66
     1
 10
0.0
 20
0.0
 30
0.0
  0
VERTEX
  5
65
330
64
100
AcDbEntity
  8
_U+30EC_U+30A4_U+30E4_U+30FC 1
 62
     7
420
 16777215
370
    25
100
AcDbVertex
100
AcDb2dVertex
 10
73.48699590296832
 20
-122.897229691498
 30
0.0
  0
VERTEX
  5
66
330
64
100
AcDbEntity
  8
_U+30EC_U+30A4_U+30E4_U+30FC 1
 62
     7
420
 16777215
370
    25
100
AcDbVertex
100
AcDb2dVertex
 10
104.4866367787683
 20
-122.897229691498
 30
0.0
  0
SEQEND
  5
67
330
64
100
AcDbEntity
  8
_U+30EC_U+30A4_U+30E4_U+30FC 1
 62
     7
420
 16777215
370
    25
  0
POLYLINE
  5
68
330
1F
100
AcDbEntity
  8
_U+30EC_U+30A4_U+30E4_U+30FC 1
 62
     7
420
 16777215
370
    25
100
AcDb2dPolyline
 66
     1
 10
0.0
 20
0.0
 30
0.0
  0
VERTEX
  5
69
330
68
100
AcDbEntity
  8
_U+30EC_U+30A4_U+30E4_U+30FC 1
 62
     7
420
 16777215
370
    25
100
AcDbVertex
100
AcDb2dVertex
 10
88.48622468697278
 20
-134.3969738552898
 30
0.0
  0
VERTEX
  5
6A
330
68
100
AcDbEntity
  8
_U+30EC_U+30A4_U+30E4_U+30FC 1
 62
     7
420
 16777215
370
    25
100
AcDbVertex
100
AcDb2dVertex
 10
89.48599688368868
 20
-134.3969738552898
 30
0.0
  0
SEQEND
  5
6B
330
68
100
AcDbEntity
  8
_U+30EC_U+30A4_U+30E4_U+30FC 1
 62
     7
420
 16777215
370
    25
  0
POLYLINE
  5
6C
330
1F
100
AcDbEntity
  8
_U+30EC_U+30A4_U+30E4_U+30FC 1
 62
     7
420
 16777215
370
    25
100
AcDb2dPolyline
 66
     1
 10
0.0
 20
0.0
 30
0.0
  0
VERTEX
  5
6D
330
6C
100
AcDbEntity
  8
_U+30EC_U+30A4_U+30E4_U+30FC 1
 62
     7
420
 16777215
370
    25
100
AcDbVertex
100
AcDb2dVertex
 10
89.48599688368868
 20
-137.3969607989841
 30
0.0
  0
VERTEX
  5
6E
330
6C
100
AcDbEntity
  8
_U+30EC_U+30A4_U+30E4_U+30FC 1
 62
     7
420
 16777215
370
    25
100
AcDbVertex
100
AcDb2dVertex
 10
89.48599688368868
 20
-134.3969738552898
 30
0.0
  0
SEQEND
  5
6F
330
6C
100
AcDbEntity
  8
_U+30EC_U+30A4_U+30E4_U+30FC 1
 62
     7
420
 16777215
370
    25
  0
POLYLINE
  5
70
330
1F
100
AcDbEntity
  8
_U+30EC_U+30A4_U+30E4_U+30FC 1
 62
     7
420
 16777215
370
    25
100
AcDb2dPolyline
 66
     1
 10
0.0
 20
0.0
 30
0.0
  0
VERTEX
  5
71
330
70
100
AcDbEntity
  8
_U+30EC_U+30A4_U+30E4_U+30FC 1
 62
     7
420
 16777215
370
    25
100
AcDbVertex
100
AcDb2dVertex
 10
73.42497757121721
 20
-123.8970019134702
 30
0.0
  0
VERTEX
  5
72
330
70
100
AcDbEntity
  8
_U+30EC_U+30A4_U+30E4_U+30FC 1
 62
     7
420
 16777215
370
    25
100
AcDbVertex
100
AcDb2dVertex
 10
73.42497757121721
 20
-122.897229691498
 30
0.0
  0
SEQEND
  5
73
330
70
100
AcDbEntity
  8
_U+30EC_U+30A4_U+30E4_U+30FC 1
 62
     7
420
 16777215
370
    25
  0
POLYLINE
  5
74
330
1F
100
AcDbEntity
  8
_U+30EC_U+30A4_U+30E4_U+30FC 1
 62
     7
420
 16777215
370
    25
100
AcDb2dPolyline
 66
     1
 10
0.0
 20
0.0
 30
0.0
  0
VERTEX
  5
75
330
74
100
AcDbEntity
  8
_U+30EC_U+30A4_U+30E4_U+30FC 1
 62
     7
420
 16777215
370
    25
100
AcDbVertex
100
AcDb2dVertex
 10
73.48629034743077
 20
-123.8970019134702
 30
0.0
  0
VERTEX
  5
76
330
74
100
AcDbEntity
  8
_U+30EC_U+30A4_U+30E4_U+30FC 1
 62
     7
420
 16777215
370
    25
100
AcDbVertex
100
AcDb2dVertex
 10
79.48626408324758
 20
-123.8970019134702
 30
0.0
  0
SEQEND
  5
77
330
74
100
AcDbEntity
  8
_U+30EC_U+30A4_U+30E4_U+30FC 1
 62
     7
420
 16777215
370
    25
  0
POLYLINE
  5
78
330
1F
100
AcDbEntity
  8
_U+30EC_U+30A4_U+30E4_U+30FC 1
 62
     7
420
 16777215
370
    25
100
AcDb2dPolyline
 66
     1
 10
0.0
 20
0.0
 30
0.0
  0
VERTEX
  5
79
330
78
100
AcDbEntity
  8
_U+30EC_U+30A4_U+30E4_U+30FC 1
 62
     7
420
 16777215
370
    25
100
AcDbVertex
100
AcDb2dVertex
 10
88.48622468697278
 20
-136.3971885770116
 30
0.0
  0
VERTEX
  5
7A
330
78
100
AcDbEntity
  8
_U+30EC_U+30A4_U+30E4_U+30FC 1
 62
     7
420
 16777215
370
    25
100
AcDbVertex
100
AcDb2dVertex
 10
88.48622468697278
 20
-134.3969738552898
 30
0.0
  0
SEQEND
  5
7B
330
78
100
AcDbEntity
  8
_U+30EC_U+30A4_U+30E4_U+30FC 1
 62
     7
420
 16777215
370
    25
  0
POLYLINE
  5
7C
330
1F
100
AcDbEntity
  8
_U+30EC_U+30A4_U+30E4_U+30FC 1
 62
     7
420
 16777215
370
    25
100
AcDb2dPolyline
 66
     1
 10
0.0
 20
0.0
 30
0.0
  0
VERTEX
  5
7D
330
7C
100
AcDbEntity
  8
_U+30EC_U+30A4_U+30E4_U+30FC 1
 62
     7
420
 16777215
370
    25
100
AcDbVertex
100
AcDb2dVertex
 10
80.38612961584565
 20
-136.3971885770116
 30
0.0
  0
VERTEX
  5
7E
330
7C
100
AcDbEntity
  8
_U+30EC_U+30A4_U+30E4_U+30FC 1
 62
     7
420
 16777215
370
    25
100
AcDbVertex
100
AcDb2dVertex
 10
88.48622468697278
 20
-136.3971885770116
 30
0.0
  0
SEQEND
  5
7F
330
7C
100
AcDbEntity
  8
_U+30EC_U+30A4_U+30E4_U+30FC 1
 62
     7
420
 16777215
370
    25
  0
POLYLINE
  5
80
330
1F
100
AcDbEntity
  8
_U+30EC_U+30A4_U+30E4_U+30FC 1
 62
     7
420
 16777215
370
    25
100
AcDb2dPolyline
 66
     1
 10
0.0
 20
0.0
 30
0.0
  0
VERTEX
  5
81
330
80
100
AcDbEntity
  8
_U+30EC_U+30A4_U+30E4_U+30FC 1
 62
     7
420
 16777215
370
    25
100
AcDbVertex
100
AcDb2dVertex
 10
79.48626408324758
 20
-137.3969607989841
 30
0.0
  0
VERTEX
  5
82
330
80
100
AcDbEntity
  8
_U+30EC_U+30A4_U+30E4_U+30FC 1
 62
     7
420
 16777215
370
    25
100
AcDbVertex
100
AcDb2dVertex
 10
79.48626408324758
 20
-123.8970019134702
 30
0.0
  0
SEQEND
  5
83
330
80
100
AcDbEntity
  8
_U+30EC_U+30A4_U+30E4_U+30FC 1
 62
     7
420
 16777215
370
    25
  0
POLYLINE
  5
84
330
1F
100
AcDbEntity
  8
_U+30EC_U+30A4_U+30E4_U+30FC 1
 62
     7
420
 16777215
370
    25
100
AcDb2dPolyline
 66
     1
 10
0.0
 20
0.0
 30
0.0
  0
VERTEX
  5
85
330
84
100
AcDbEntity
  8
_U+30EC_U+30A4_U+30E4_U+30FC 1
 62
     7
420
 16777215
370
    25
100
AcDbVertex
100
AcDb2dVertex
 10
104.4866367787683
 20
-123.8970019134702
 30
0.0
  0
VERTEX
  5
86
330
84
100
AcDbEntity
  8
_U+30EC_U+30A4_U+30E4_U+30FC 1
 62
     7
420
 16777215
370
    25
100
AcDbVertex
100
AcDb2dVertex
 10
104.4866367787683
 20
-122.897229691498
 30
0.0
  0
SEQEND
  5
87
330
84
100
AcDbEntity
  8
_U+30EC_U+30A4_U+30E4_U+30FC 1
 62
     7
420
 16777215
370
    25
  0
POLYLINE
  5
88
330
1F
100
AcDbEntity
  8
_U+30EC_U+30A4_U+30E4_U+30FC 1
 62
     7
420
 16777215
370
    25
100
AcDb2dPolyline
 66
     1
 10
0.0
 20
0.0
 30
0.0
  0
VERTEX
  5
89
330
88
100
AcDbEntity
  8
_U+30EC_U+30A4_U+30E4_U+30FC 1
 62
     7
420
 16777215
370
    25
100
AcDbVertex
100
AcDb2dVertex
 10
80.38612961584565
 20
-123.8970019134702
 30
0.0
  0
VERTEX
  5
8A
330
88
100
AcDbEntity
  8
_U+30EC_U+30A4_U+30E4_U+30FC 1
 62
     7
420
 16777215
370
    25
100
AcDbVertex
100
AcDb2dVertex
 10
104.4866367787683
 20
-123.8970019134702
 30
0.0
  0
SEQEND
  5
8B
330
88
100
AcDbEntity
  8
_U+30EC_U+30A4_U+30E4_U+30FC 1
 62
     7
420
 16777215
370
    25
  0
POLYLINE
  5
8C
330
1F
100
AcDbEntity
  8
_U+30EC_U+30A4_U+30E4_U+30FC 1
 62
     7
420
 16777215
370
    25
100
AcDb2dPolyline
 66
     1
 10
0.0
 20
0.0
 30
0.0
  0
VERTEX
  5
8D
330
8C
100
AcDbEntity
  8
_U+30EC_U+30A4_U+30E4_U+30FC 1
 62
     7
420
 16777215
370
    25
100
AcDbVertex
100
AcDb2dVertex
 10
80.38612961584565
 20
-136.3971885770116
 30
0.0
  0
VERTEX
  5
8E
330
8C
100
AcDbEntity
  8
_U+30EC_U+30A4_U+30E4_U+30FC 1
 62
     7
420
 16777215
370
    25
100
AcDbVertex
100
AcDb2dVertex
 10
80.38612961584565
 20
-123.8970019134702
 30
0.0
  0
SEQEND
  5
8F
330
8C
100
AcDbEntity
  8
_U+30EC_U+30A4_U+30E4_U+30FC 1
 62
     7
420
 16777215
370
    25
  0
SPLINE
  5
90
330
1F
100
AcDbEntity
  8
_U+30EC_U+30A4_U+30E4_U+30FC 1
 62
     7
420
 16777215
370
     9
100
AcDbSpline
210
0.0
220
0.0
230
1.0
 70
    11
 71
     3
 72
    17
 73
    13
 74
     0
 42
0.0000000001
 43
0.0000000001
 12
1.0
 22
0.0
 32
0.0
 13
1.0
 23
0.0
 33
0.0
 40
0.0
 40
0.0
 40
0.0
 40
0.0
 40
1.0
 40
1.0
 40
1.0
 40
2.0
 40
2.0
 40
2.0
 40
3.0
 40
3.0
 40
3.0
 40
4.0
 40
4.0
 40
4.0
 40
4.0
 10
79.5861707473654
 20
-141.3973902424284
 30
0.0
 10
79.5861707473654
 20
-141.3415807979979
 30
0.0
 10
79.54140324850752
 20
-141.2968132980094
 30
0.0
 10
79.48626408324758
 20
-141.2968132980094
 30
0.0
 10
79.4311601957645
 20
-141.2968132980094
 30
0.0
 10
79.38635741912974
 20
-141.3415807979979
 30
0.0
 10
79.38635741912974
 20
-141.3973902424284
 30
0.0
 10
79.38635741912974
 20
-141.4525294090814
 30
0.0
 10
79.4311601957645
 20
-141.49729690907
 30
0.0
 10
79.48626408324758
 20
-141.49729690907
 30
0.0
 10
79.54140324850752
 20
-141.49729690907
 30
0.0
 10
79.5861707473654
 20
-141.4525294090814
 30
0.0
 10
79.5861707473654
 20
-141.3973902424284
 30
0.0
  0
SPLINE
  5
91
330
1F
100
AcDbEntity
  8
_U+30EC_U+30A4_U+30E4_U+30FC 1
 62
     7
420
 16777215
370
     9
100
AcDbSpline
210
0.0
220
0.0
230
1.0
 70
    11
 71
     3
 72
    17
 73
    13
 74
     0
 42
0.0000000001
 43
0.0000000001
 12
1.0
 22
0.0
 32
0.0
 13
1.0
 23
0.0
 33
0.0
 40
0.0
 40
0.0
 40
0.0
 40
0.0
 40
1.0
 40
1.0
 40
1.0
 40
2.0
 40
2.0
 40
2.0
 40
3.0
 40
3.0
 40
3.0
 40
4.0
 40
4.0
 40
4.0
 40
4.0
 10
89.58660910334407
 20
-141.3973902424284
 30
0.0
 10
89.58660910334407
 20
-141.3415807979979
 30
0.0
 10
89.54180632670932
 20
-141.2968132980094
 30
0.0
 10
89.48599688368868
 20
-141.2968132980094
 30
0.0
 10
89.43089299620561
 20
-141.2968132980094
 30
0.0
 10
89.38609021957086
 20
-141.3415807979979
 30
0.0
 10
89.38609021957086
 20
-141.3973902424284
 30
0.0
 10
89.38609021957086
 20
-141.4525294090814
 30
0.0
 10
89.43089299620561
 20
-141.49729690907
 30
0.0
 10
89.48599688368868
 20
-141.49729690907
 30
0.0
 10
89.54180632670932
 20
-141.49729690907
 30
0.0
 10
89.58660910334407
 20
-141.4525294090814
 30
0.0
 10
89.58660910334407
 20
-141.3973902424284
 30
0.0
  0
SPLINE
  5
92
330
1F
100
AcDbEntity
  8
_U+30EC_U+30A4_U+30E4_U+30FC 1
 62
     7
420
 16777215
370
     9
100
AcDbSpline
210
0.0
220
0.0
230
1.0
 70
    11
 71
     3
 72
    17
 73
    13
 74
     0
 42
0.0000000001
 43
0.0000000001
 12
1.0
 22
0.0
 32
0.0
 13
1.0
 23
0.0
 33
0.0
 40
0.0
 40
0.0
 40
0.0
 40
0.0
 40
1.0
 40
1.0
 40
1.0
 40
2.0
 40
2.0
 40
2.0
 40
3.0
 40
3.0
 40
3.0
 40
4.0
 40
4.0
 40
4.0
 40
4.0
 10
108.5863025075104
 20
-137.3969607989841
 30
0.0
 10
108.5863025075104
 20
-137.341821632331
 30
0.0
 10
108.5415350086525
 20
-137.2970541323425
 30
0.0
 10
108.4863958433926
 20
-137.2970541323425
 30
0.0
 10
108.4312919559095
 20
-137.2970541323425
 30
0.0
 10
108.3864891792747
 20
-137.341821632331
 30
0.0
 10
108.3864891792747
 20
-137.3969607989841
 30
0.0
 10
108.3864891792747
 20
-137.452064687859
 30
0.0
 10
108.4312919559095
 20
-137.4968674656258
 30
0.0
 10
108.4863958433926
 20
-137.4968674656258
 30
0.0
 10
108.5415350086525
 20
-137.4968674656258
 30
0.0
 10
108.5863025075104
 20
-137.452064687859
 30
0.0
 10
108.5863025075104
 20
-137.3969607989841
 30
0.0
  0
SPLINE
  5
93
330
1F
100
AcDbEntity
  8
_U+30EC_U+30A4_U+30E4_U+30FC 1
 62
     7
420
 16777215
370
     9
100
AcDbSpline
210
0.0
220
0.0
230
1.0
 70
    11
 71
     3
 72
    17
 73
    13
 74
     0
 42
0.0000000001
 43
0.0000000001
 12
1.0
 22
0.0
 32
0.0
 13
1.0
 23
0.0
 33
0.0
 40
0.0
 40
0.0
 40
0.0
 40
0.0
 40
1.0
 40
1.0
 40
1.0
 40
2.0
 40
2.0
 40
2.0
 40
3.0
 40
3.0
 40
3.0
 40
4.0
 40
4.0
 40
4.0
 40
4.0
 10
108.5863025075104
 20
-134.3969738552898
 30
0.0
 10
108.5863025075104
 20
-134.3418346886367
 30
0.0
 10
108.5415350086525
 20
-134.2970671886481
 30
0.0
 10
108.4863958433926
 20
-134.2970671886481
 30
0.0
 10
108.4312919559095
 20
-134.2970671886481
 30
0.0
 10
108.3864891792747
 20
-134.3418346886367
 30
0.0
 10
108.3864891792747
 20
-134.3969738552898
 30
0.0
 10
108.3864891792747
 20
-134.4520777441647
 30
0.0
 10
108.4312919559095
 20
-134.4968805219314
 30
0.0
 10
108.4863958433926
 20
-134.4968805219314
 30
0.0
 10
108.5415350086525
 20
-134.4968805219314
 30
0.0
 10
108.5863025075104
 20
-134.4520777441647
 30
0.0
 10
108.5863025075104
 20
-134.3969738552898
 30
0.0
  0
SPLINE
  5
94
330
1F
100
AcDbEntity
  8
_U+30EC_U+30A4_U+30E4_U+30FC 1
 62
     7
420
 16777215
370
     9
100
AcDbSpline
210
0.0
220
0.0
230
1.0
 70
    11
 71
     3
 72
    17
 73
    13
 74
     0
 42
0.0000000001
 43
0.0000000001
 12
1.0
 22
0.0
 32
0.0
 13
1.0
 23
0.0
 33
0.0
 40
0.0
 40
0.0
 40
0.0
 40
0.0
 40
1.0
 40
1.0
 40
1.0
 40
2.0
 40
2.0
 40
2.0
 40
3.0
 40
3.0
 40
3.0
 40
4.0
 40
4.0
 40
4.0
 40
4.0
 10
108.5863025075104
 20
-122.897229691498
 30
0.0
 10
108.5863025075104
 20
-122.8421258026227
 30
0.0
 10
108.5415350086525
 20
-122.7973230248563
 30
0.0
 10
108.4863958433926
 20
-122.7973230248563
 30
0.0
 10
108.4312919559095
 20
-122.7973230248563
 30
0.0
 10
108.3864891792747
 20
-122.8421258026227
 30
0.0
 10
108.3864891792747
 20
-122.897229691498
 30
0.0
 10
108.3864891792747
 20
-122.9523688581507
 30
0.0
 10
108.4312919559095
 20
-122.9971363581396
 30
0.0
 10
108.4863958433926
 20
-122.9971363581396
 30
0.0
 10
108.5415350086525
 20
-122.9971363581396
 30
0.0
 10
108.5863025075104
 20
-122.9523688581507
 30
0.0
 10
108.5863025075104
 20
-122.897229691498
 30
0.0
  0
SPLINE
  5
95
330
1F
100
AcDbEntity
  8
_U+30EC_U+30A4_U+30E4_U+30FC 1
 62
     7
420
 16777215
370
     9
100
AcDbSpline
210
0.0
220
0.0
230
1.0
 70
    11
 71
     3
 72
    17
 73
    13
 74
     0
 42
0.0000000001
 43
0.0000000001
 12
1.0
 22
0.0
 32
0.0
 13
1.0
 23
0.0
 33
0.0
 40
0.0
 40
0.0
 40
0.0
 40
0.0
 40
1.0
 40
1.0
 40
1.0
 40
2.0
 40
2.0
 40
2.0
 40
3.0
 40
3.0
 40
3.0
 40
4.0
 40
4.0
 40
4.0
 40
4.0
 10
104.5865434428861
 20
-118.8968002480537
 30
0.0
 10
104.5865434428861
 20
-118.8416610814006
 30
0.0
 10
104.5417759440282
 20
-118.7968935814118
 30
0.0
 10
104.4866367787683
 20
-118.7968935814118
 30
0.0
 10
104.4308273357476
 20
-118.7968935814118
 30
0.0
 10
104.3860598368897
 20
-118.8416610814006
 30
0.0
 10
104.3860598368897
 20
-118.8968002480537
 30
0.0
 10
104.3860598368897
 20
-118.9526096924841
 30
0.0
 10
104.4308273357476
 20
-118.997377192473
 30
0.0
 10
104.4866367787683
 20
-118.997377192473
 30
0.0
 10
104.5417759440282
 20
-118.997377192473
 30
0.0
 10
104.5865434428861
 20
-118.9526096924841
 30
0.0
 10
104.5865434428861
 20
-118.8968002480537
 30
0.0
  0
SPLINE
  5
96
330
1F
100
AcDbEntity
  8
_U+30EC_U+30A4_U+30E4_U+30FC 1
 62
     7
420
 16777215
370
     9
100
AcDbSpline
210
0.0
220
0.0
230
1.0
 70
    11
 71
     3
 72
    17
 73
    13
 74
     0
 42
0.0000000001
 43
0.0000000001
 12
1.0
 22
0.0
 32
0.0
 13
1.0
 23
0.0
 33
0.0
 40
0.0
 40
0.0
 40
0.0
 40
0.0
 40
1.0
 40
1.0
 40
1.0
 40
2.0
 40
2.0
 40
2.0
 40
3.0
 40
3.0
 40
3.0
 40
4.0
 40
4.0
 40
4.0
 40
4.0
 10
108.5863025075104
 20
-123.8970019134702
 30
0.0
 10
108.5863025075104
 20
-123.8418980245949
 30
0.0
 10
108.5415350086525
 20
-123.7970952468285
 30
0.0
 10
108.4863958433926
 20
-123.7970952468285
 30
0.0
 10
108.4312919559095
 20
-123.7970952468285
 30
0.0
 10
108.3864891792747
 20
-123.8418980245949
 30
0.0
 10
108.3864891792747
 20
-123.8970019134702
 30
0.0
 10
108.3864891792747
 20
-123.9521410801229
 30
0.0
 10
108.4312919559095
 20
-123.9969085801118
 30
0.0
 10
108.4863958433926
 20
-123.9969085801118
 30
0.0
 10
108.5415350086525
 20
-123.9969085801118
 30
0.0
 10
108.5863025075104
 20
-123.9521410801229
 30
0.0
 10
108.5863025075104
 20
-123.8970019134702
 30
0.0
  0
SPLINE
  5
97
330
1F
100
AcDbEntity
  8
_U+30EC_U+30A4_U+30E4_U+30FC 1
 62
     7
420
 16777215
370
     9
100
AcDbSpline
210
0.0
220
0.0
230
1.0
 70
    11
 71
     3
 72
    17
 73
    13
 74
     0
 42
0.0000000001
 43
0.0000000001
 12
1.0
 22
0.0
 32
0.0
 13
1.0
 23
0.0
 33
0.0
 40
0.0
 40
0.0
 40
0.0
 40
0.0
 40
1.0
 40
1.0
 40
1.0
 40
2.0
 40
2.0
 40
2.0
 40
3.0
 40
3.0
 40
3.0
 40
4.0
 40
4.0
 40
4.0
 40
4.0
 10
73.52488609273003
 20
-141.3973902424284
 30
0.0
 10
73.52488609273003
 20
-141.3415807979979
 30
0.0
 10
73.48008331496331
 20
-141.2968132980094
 30
0.0
 10
73.42497757121721
 20
-141.2968132980094
 30
0.0
 10
73.36983840595725
 20
-141.2968132980094
 30
0.0
 10
73.32507090709937
 20
-141.3415807979979
 30
0.0
 10
73.32507090709937
 20
-141.3973902424284
 30
0.0
 10
73.32507090709937
 20
-141.4525294090814
 30
0.0
 10
73.36983840595725
 20
-141.49729690907
 30
0.0
 10
73.42497757121721
 20
-141.49729690907
 30
0.0
 10
73.48008331496331
 20
-141.49729690907
 30
0.0
 10
73.52488609273003
 20
-141.4525294090814
 30
0.0
 10
73.52488609273003
 20
-141.3973902424284
 30
0.0
  0
SPLINE
  5
98
330
1F
100
AcDbEntity
  8
_U+30EC_U+30A4_U+30E4_U+30FC 1
 62
     7
420
 16777215
370
     9
100
AcDbSpline
210
0.0
220
0.0
230
1.0
 70
    11
 71
     3
 72
    17
 73
    13
 74
     0
 42
0.0000000001
 43
0.0000000001
 12
1.0
 22
0.0
 32
0.0
 13
1.0
 23
0.0
 33
0.0
 40
0.0
 40
0.0
 40
0.0
 40
0.0
 40
1.0
 40
1.0
 40
1.0
 40
2.0
 40
2.0
 40
2.0
 40
3.0
 40
3.0
 40
3.0
 40
4.0
 40
4.0
 40
4.0
 40
4.0
 10
73.49525275940384
 20
-118.8968002480537
 30
0.0
 10
73.49525275940384
 20
-118.8416610814006
 30
0.0
 10
73.45048340389984
 20
-118.7968935814118
 30
0.0
 10
73.39534423863988
 20
-118.7968935814118
 30
0.0
 10
73.34024035115681
 20
-118.7968935814118
 30
0.0
 10
73.29543757452204
 20
-118.8416610814006
 30
0.0
 10
73.29543757452204
 20
-118.8968002480537
 30
0.0
 10
73.29543757452204
 20
-118.9526096924841
 30
0.0
 10
73.34024035115681
 20
-118.997377192473
 30
0.0
 10
73.39534423863988
 20
-118.997377192473
 30
0.0
 10
73.45048340389984
 20
-118.997377192473
 30
0.0
 10
73.49525275940384
 20
-118.9526096924841
 30
0.0
 10
73.49525275940384
 20
-118.8968002480537
 30
0.0
  0
INSERT
  5
9A
330
1F
100
AcDbEntity
  8
_U+30EC_U+30A4_U+30E4_U+30FC 1
100
AcDbBlockReference
  2
block 4
 10
0.0
 20
0.0
 30
0.0
  0
INSERT
  5
B4
330
1F
100
AcDbEntity
  8
_U+30EC_U+30A4_U+30E4_U+30FC 1
100
AcDbBlockReference
  2
block 6
 10
0.0
 20
0.0
 30
0.0
  0
INSERT
  5
C9
330
1F
100
AcDbEntity
  8
_U+30EC_U+30A4_U+30E4_U+30FC 1
100
AcDbBlockReference
  2
block 8
 10
0.0
 20
0.0
 30
0.0
  0
POLYLINE
  5
DA
330
1F
100
AcDbEntity
  8
_U+30EC_U+30A4_U+30E4_U+30FC 1
 62
     7
420
 16777215
370
     9
100
AcDb2dPolyline
 66
     1
 10
0.0
 20
0.0
 30
0.0
  0
VERTEX
  5
DB
330
DA
100
AcDbEntity
  8
_U+30EC_U+30A4_U+30E4_U+30FC 1
 62
     7
420
 16777215
370
     9
100
AcDbVertex
100
AcDb2dVertex
 10
73.48699590296832
 20
-118.8968002480537
 30
0.0
  0
VERTEX
  5
DC
330
DA
100
AcDbEntity
  8
_U+30EC_U+30A4_U+30E4_U+30FC 1
 62
     7
420
 16777215
370
     9
100
AcDbVertex
100
AcDb2dVertex
 10
104.4866367787683
 20
-118.8968002480537
 30
0.0
  0
SEQEND
  5
DD
330
DA
100
AcDbEntity
  8
_U+30EC_U+30A4_U+30E4_U+30FC 1
 62
     7
420
 16777215
370
     9
  0
POLYLINE
  5
DE
330
1F
100
AcDbEntity
  8
_U+30EC_U+30A4_U+30E4_U+30FC 1
 62
     7
420
 16777215
370
     9
100
AcDb2dPolyline
 66
     1
 10
0.0
 20
0.0
 30
0.0
  0
VERTEX
  5
DF
330
DE
100
AcDbEntity
  8
_U+30EC_U+30A4_U+30E4_U+30FC 1
 62
     7
420
 16777215
370
     9
100
AcDbVertex
100
AcDb2dVertex
 10
73.39534423863988
 20
-120.3568063587996
 30
0.0
  0
VERTEX
  5
E0
330
DE
100
AcDbEntity
  8
_U+30EC_U+30A4_U+30E4_U+30FC 1
 62
     7
420
 16777215
370
     9
100
AcDbVertex
100
AcDb2dVertex
 10
73.39534423863988
 20
-117.8970280260812
 30
0.0
  0
SEQEND
  5
E1
330
DE
100
AcDbEntity
  8
_U+30EC_U+30A4_U+30E4_U+30FC 1
 62
     7
420
 16777215
370
     9
  0
POLYLINE
  5
E2
330
1F
100
AcDbEntity
  8
_U+30EC_U+30A4_U+30E4_U+30FC 1
 62
     7
420
 16777215
370
     9
100
AcDb2dPolyline
 66
     1
 10
0.0
 20
0.0
 30
0.0
  0
VERTEX
  5
E3
330
E2
100
AcDbEntity
  8
_U+30EC_U+30A4_U+30E4_U+30FC 1
 62
     7
420
 16777215
370
     9
100
AcDbVertex
100
AcDb2dVertex
 10
104.4866367787683
 20
-120.3568063587996
 30
0.0
  0
VERTEX
  5
E4
330
E2
100
AcDbEntity
  8
_U+30EC_U+30A4_U+30E4_U+30FC 1
 62
     7
420
 16777215
370
     9
100
AcDbVertex
100
AcDb2dVertex
 10
104.4866367787683
 20
-117.8970280260812
 30
0.0
  0
SEQEND
  5
E5
330
E2
100
AcDbEntity
  8
_U+30EC_U+30A4_U+30E4_U+30FC 1
 62
     7
420
 16777215
370
     9
  0
POLYLINE
  5
E6
330
1F
100
AcDbEntity
  8
_U+30EC_U+30A4_U+30E4_U+30FC 1
 62
     7
420
 16777215
370
     9
100
AcDb2dPolyline
 66
     1
 10
0.0
 20
0.0
 30
0.0
  0
VERTEX
  5
E7
330
E6
100
AcDbEntity
  8
_U+30EC_U+30A4_U+30E4_U+30FC 1
 62
     7
420
 16777215
370
     9
100
AcDbVertex
100
AcDb2dVertex
 10
73.48629034743077
 20
-141.3973902424284
 30
0.0
  0
VERTEX
  5
E8
330
E6
100
AcDbEntity
  8
_U+30EC_U+30A4_U+30E4_U+30FC 1
 62
     7
420
 16777215
370
     9
100
AcDbVertex
100
AcDb2dVertex
 10
79.48626408324758
 20
-141.3973902424284
 30
0.0
  0
SEQEND
  5
E9
330
E6
100
AcDbEntity
  8
_U+30EC_U+30A4_U+30E4_U+30FC 1
 62
     7
420
 16777215
370
     9
  0
POLYLINE
  5
EA
330
1F
100
AcDbEntity
  8
_U+30EC_U+30A4_U+30E4_U+30FC 1
 62
     7
420
 16777215
370
     9
100
AcDb2dPolyline
 66
     1
 10
0.0
 20
0.0
 30
0.0
  0
VERTEX
  5
EB
330
EA
100
AcDbEntity
  8
_U+30EC_U+30A4_U+30E4_U+30FC 1
 62
     7
420
 16777215
370
     9
100
AcDbVertex
100
AcDb2dVertex
 10
73.42497757121721
 20
-126.4374252461685
 30
0.0
  0
VERTEX
  5
EC
330
EA
100
AcDbEntity
  8
_U+30EC_U+30A4_U+30E4_U+30FC 1
 62
     7
420
 16777215
370
     9
100
AcDbVertex
100
AcDb2dVertex
 10
73.42497757121721
 20
-142.3971624644009
 30
0.0
  0
SEQEND
  5
ED
330
EA
100
AcDbEntity
  8
_U+30EC_U+30A4_U+30E4_U+30FC 1
 62
     7
420
 16777215
370
     9
  0
POLYLINE
  5
EE
330
1F
100
AcDbEntity
  8
_U+30EC_U+30A4_U+30E4_U+30FC 1
 62
     7
420
 16777215
370
     9
100
AcDb2dPolyline
 66
     1
 10
0.0
 20
0.0
 30
0.0
  0
VERTEX
  5
EF
330
EE
100
AcDbEntity
  8
_U+30EC_U+30A4_U+30E4_U+30FC 1
 62
     7
420
 16777215
370
     9
100
AcDbVertex
100
AcDb2dVertex
 10
79.48626408324758
 20
-139.9373841316822
 30
0.0
  0
VERTEX
  5
F0
330
EE
100
AcDbEntity
  8
_U+30EC_U+30A4_U+30E4_U+30FC 1
 62
     7
420
 16777215
370
     9
100
AcDbVertex
100
AcDb2dVertex
 10
79.48626408324758
 20
-142.3971624644009
 30
0.0
  0
SEQEND
  5
F1
330
EE
100
AcDbEntity
  8
_U+30EC_U+30A4_U+30E4_U+30FC 1
 62
     7
420
 16777215
370
     9
  0
INSERT
  5
F3
330
1F
100
AcDbEntity
  8
_U+30EC_U+30A4_U+30E4_U+30FC 1
100
AcDbBlockReference
  2
block 10
 10
0.0
 20
0.0
 30
0.0
  0
ENDSEC
  0
SECTION
  2
OBJECTS
  0
DICTIONARY
  5
C
330
0
100
AcDbDictionary
281
     1
  3
ACAD_GROUP
350
D
  3
ACAD_LAYOUT
350
1A
  3
ACAD_MATERIAL
350
3B
  3
ACAD_MLEADERSTYLE
350
112
  3
ACAD_MLINESTYLE
350
17
  3
ACAD_PLOTSETTINGS
350
19
  3
ACAD_PLOTSTYLENAME
350
E
  3
ACAD_TABLESTYLE
350
111
  3
ACAD_VISUALSTYLE
350
2A
  0
SUN
  5
3F
330
29
100
AcDbSun
 90
        1
290
     0
 63
     7
421
 16777215
 40
1.0
291
     1
 91
  2455826
 92
 54000000
292
     0
 70
     2
 71
   256
280
     1
  0
DICTIONARY
  5
D
102
{ACAD_REACTORS
330
C
102
}
330
C
100
AcDbDictionary
281
     1
  0
DICTIONARY
  5
1A
102
{ACAD_REACTORS
330
C
102
}
330
C
100
AcDbDictionary
281
     1
  3
Layout1
350
1E
  3
Layout2
350
26
  3
Model
350
22
  0
DICTIONARY
  5
3B
102
{ACAD_REACTORS
330
C
102
}
330
C
100
AcDbDictionary
281
     1
  3
ByBlock
350
3D
  3
ByLayer
350
3C
  3
Global
350
3E
  0
DICTIONARY
  5
112
102
{ACAD_REACTORS
330
C
102
}
330
C
100
AcDbDictionary
281
     1
  0
DICTIONARY
  5
17
102
{ACAD_REACTORS
330
C
102
}
330
C
100
AcDbDictionary
281
     1
  3
Standard
350
18
  0
DICTIONARY
  5
19
102
{ACAD_REACTORS
330
C
102
}
330
C
100
AcDbDictionary
281
     1
  0
ACDBDICTIONARYWDFLT
  5
E
102
{ACAD_REACTORS
330
C
102
}
330
C
100
AcDbDictionary
281
     1
  3
Normal
350
F
100
AcDbDictionaryWithDefault
340
F
  0
DICTIONARY
  5
111
102
{ACAD_REACTORS
330
C
102
}
330
C
100
AcDbDictionary
281
     1
  0
DICTIONARY
  5
2A
102
{ACAD_REACTORS
330
C
102
}
330
C
100
AcDbDictionary
281
     1
  3
2dWireframe
350
2F
  3
3D Hidden
350
31
  3
3dWireframe
350
30
  3
Basic
350
32
  3
Brighten
350
36
  3
ColorChange
350
3A
  3
Conceptual
350
34
  3
Dim
350
35
  3
Facepattern
350
39
  3
Flat
350
2B
  3
FlatWithEdges
350
2C
  3
Gouraud
350
2D
  3
GouraudWithEdges
350
2E
  3
Linepattern
350
38
  3
Realistic
350
33
  3
Thicken
350
37
  0
LAYOUT
  5
1E
102
{ACAD_REACTORS
330
1A
102
}
330
1A
100
AcDbPlotSettings
  1

  2
none_device
  4

  6

 40
0.0
 41
0.0
 42
0.0
 43
0.0
 44
0.0
 45
0.0
 46
0.0
 47
0.0
 48
0.0
 49
0.0
140
0.0
141
0.0
142
1.0
143
1.0
 70
   688
 72
     0
 73
     0
 74
     5
  7

 75
    16
 76
     0
 77
     2
 78
   300
147
1.0
148
0.0
149
0.0
100
AcDbLayout
  1
Layout1
 70
     1
 71
     1
 10
0.0
 20
0.0
 11
12.0
 21
9.0
 12
0.0
 22
0.0
 32
0.0
 14
1.000000000000000E+20
 24
1.000000000000000E+20
 34
1.000000000000000E+20
 15
-1.000000000000000E+20
 25
-1.000000000000000E+20
 35
-1.000000000000000E+20
146
0.0
 13
0.0
 23
0.0
 33
0.0
 16
1.0
 26
0.0
 36
0.0
 17
0.0
 27
1.0
 37
0.0
 76
     0
330
1B
  0
LAYOUT
  5
26
102
{ACAD_REACTORS
330
1A
102
}
330
1A
100
AcDbPlotSettings
  1

  2
none_device
  4

  6

 40
0.0
 41
0.0
 42
0.0
 43
0.0
 44
0.0
 45
0.0
 46
0.0
 47
0.0
 48
0.0
 49
0.0
140
0.0
141
0.0
142
1.0
143
1.0
 70
   688
 72
     0
 73
     0
 74
     5
  7

 75
    16
 76
     0
 77
     2
 78
   300
147
1.0
148
0.0
149
0.0
100
AcDbLayout
  1
Layout2
 70
     1
 71
     2
 10
0.0
 20
0.0
 11
0.0
 21
0.0
 12
0.0
 22
0.0
 32
0.0
 14
0.0
 24
0.0
 34
0.0
 15
0.0
 25
0.0
 35
0.0
146
0.0
 13
0.0
 23
0.0
 33
0.0
 16
1.0
 26
0.0
 36
0.0
 17
0.0
 27
1.0
 37
0.0
 76
     0
330
23
  0
LAYOUT
  5
22
102
{ACAD_REACTORS
330
1A
102
}
330
1A
100
AcDbPlotSettings
  1

  2
none_device
  4

  6

 40
0.0
 41
0.0
 42
0.0
 43
0.0
 44
0.0
 45
0.0
 46
0.0
 47
0.0
 48
0.0
 49
0.0
140
0.0
141
0.0
142
1.0
143
1.0
 70
  1712
 72
     0
 73
     0
 74
     0
  7

 75
     0
 76
     0
 77
     2
 78
   300
147
1.0
148
0.0
149
0.0
100
AcDbLayout
  1
Model
 70
     1
 71
     0
 10
0.0
 20
0.0
 11
12.0
 21
9.0
 12
0.0
 22
0.0
 32
0.0
 14
1.000000000000000E+20
 24
1.000000000000000E+20
 34
1.000000000000000E+20
 15
-1.000000000000000E+20
 25
-1.000000000000000E+20
 35
-1.000000000000000E+20
146
0.0
 13
0.0
 23
0.0
 33
0.0
 16
1.0
 26
0.0
 36
0.0
 17
0.0
 27
1.0
 37
0.0
 76
     0
330
1F
331
29
  0
MATERIAL
  5
3D
102
{ACAD_REACTORS
330
3B
102
}
330
3B
100
AcDbMaterial
  1
ByBlock
 72
     1
 94
      127
  0
MATERIAL
  5
3C
102
{ACAD_REACTORS
330
3B
102
}
330
3B
100
AcDbMaterial
  1
ByLayer
 72
     1
 94
      127
  0
MATERIAL
  5
3E
102
{ACAD_REACTORS
330
3B
102
}
330
3B
100
AcDbMaterial
  1
Global
 72
     1
 94
      127
  0
MLINESTYLE
  5
18
102
{ACAD_REACTORS
330
17
102
}
330
17
100
AcDbMlineStyle
  2
Standard
 70
     0
  3

 62
   256
 51
90.0
 52
90.0
 71
     2
 49
0.5
 62
   256
  6
BYLAYER
 49
-0.5
 62
   256
  6
BYLAYER
  0
ACDBPLACEHOLDER
  5
F
102
{ACAD_REACTORS
330
E
102
}
330
E
  0
VISUALSTYLE
  5
2F
102
{ACAD_REACTORS
330
2A
102
}
330
2A
100
AcDbVisualStyle
  2
2dWireframe
 70
     4
177
     2
291
     0
 71
     0
176
     1
 72
     2
176
     1
 73
     0
176
     1
 90
        0
176
     1
 40
-0.6
176
     1
 41
-30.0
176
     1
 62
     5
 63
     7
421
 16777215
176
     1
 74
     1
176
     1
 91
        4
176
     1
 64
     7
176
     1
 65
   257
176
     1
 75
     1
176
     1
175
     1
176
     1
 42
1.0
176
     1
 92
        0
176
     1
 66
   257
176
     1
 43
1.0
176
     1
 76
     1
176
     1
 77
     6
176
     1
 78
     2
176
     1
 67
     7
176
     1
 79
     5
176
     1
170
     0
176
     1
171
     0
176
     1
290
     0
176
     1
 93
        1
176
     1
 44
0.0
176
     1
173
     0
176
     1
  0
VISUALSTYLE
  5
31
102
{ACAD_REACTORS
330
2A
102
}
330
2A
100
AcDbVisualStyle
  2
3D Hidden
 70
     6
177
     2
291
     0
 71
     1
176
     1
 72
     2
176
     1
 73
     2
176
     1
 90
        0
176
     1
 40
-0.6
176
     1
 41
-30.0
176
     1
 62
     5
 63
     7
421
 16777215
176
     1
 74
     2
176
     1
 91
        2
176
     1
 64
     7
176
     1
 65
   257
176
     1
 75
     2
176
     1
175
     1
176
     1
 42
40.0
176
     1
 92
        0
176
     1
 66
   257
176
     1
 43
1.0
176
     1
 76
     1
176
     1
 77
     6
176
     1
 78
     2
176
     1
 67
     7
176
     1
 79
     3
176
     1
170
     0
176
     1
171
     0
176
     1
290
     0
176
     1
 93
        1
176
     1
 44
0.0
176
     1
173
     0
176
     1
  0
VISUALSTYLE
  5
30
102
{ACAD_REACTORS
330
2A
102
}
330
2A
100
AcDbVisualStyle
  2
3dWireframe
 70
     5
177
     2
291
     0
 71
     0
176
     1
 72
     2
176
     1
 73
     0
176
     1
 90
        0
176
     1
 40
-0.6
176
     1
 41
-30.0
176
     1
 62
     5
 63
     7
421
 16777215
176
     1
 74
     1
176
     1
 91
        4
176
     1
 64
     7
176
     1
 65
   257
176
     1
 75
     1
176
     1
175
     1
176
     1
 42
1.0
176
     1
 92
        0
176
     1
 66
   257
176
     1
 43
1.0
176
     1
 76
     1
176
     1
 77
     6
176
     1
 78
     2
176
     1
 67
     7
176
     1
 79
     5
176
     1
170
     0
176
     1
171
     0
176
     1
290
     0
176
     1
 93
        1
176
     1
 44
0.0
176
     1
173
     0
176
     1
  0
VISUALSTYLE
  5
32
102
{ACAD_REACTORS
330
2A
102
}
330
2A
100
AcDbVisualStyle
  2
Basic
 70
     7
177
     2
291
     1
 71
     1
176
     1
 72
     0
176
     1
 73
     1
176
     1
 90
        0
176
     1
 40
-0.6
176
     1
 41
-30.0
176
     1
 62
     5
 63
     7
421
 16777215
176
     1
 74
     0
176
     1
 91
        4
176
     1
 64
     7
176
     1
 65
   257
176
     1
 75
     1
176
     1
175
     1
176
     1
 42
1.0
176
     1
 92
        8
176
     1
 66
     7
176
     1
 43
1.0
176
     1
 76
     1
176
     1
 77
     6
176
     1
 78
     2
176
     1
 67
     7
176
     1
 79
     5
176
     1
170
     0
176
     1
171
     0
176
     1
290
     0
176
     1
 93
        1
176
     1
 44
0.0
176
     1
173
     0
176
     1
  0
VISUALSTYLE
  5
36
102
{ACAD_REACTORS
330
2A
102
}
330
2A
100
AcDbVisualStyle
  2
Brighten
 70
    12
177
     2
291
     1
 71
     2
176
     1
 72
     2
176
     1
 73
     0
176
     1
 90
        0
176
     1
 40
-0.6
176
     1
 41
-30.0
176
     1
 62
     5
 63
     7
421
 16777215
176
     1
 74
     1
176
     1
 91
        4
176
     1
 64
     7
176
     1
 65
   257
176
     1
 75
     1
176
     1
175
     1
176
     1
 42
1.0
176
     1
 92
        8
176
     1
 66
     7
176
     1
 43
1.0
176
     1
 76
     1
176
     1
 77
     6
176
     1
 78
     2
176
     1
 67
     7
176
     1
 79
     5
176
     1
170
     0
176
     1
171
     0
176
     1
290
     0
176
     1
 93
        1
176
     1
 44
50.0
176
     1
173
     0
176
     1
  0
VISUALSTYLE
  5
3A
102
{ACAD_REACTORS
330
2A
102
}
330
2A
100
AcDbVisualStyle
  2
ColorChange
 70
    16
177
     2
291
     1
 71
     2
176
     1
 72
     2
176
     1
 73
     3
176
     1
 90
        0
176
     1
 40
-0.6
176
     1
 41
-30.0
176
     1
 62
     5
 63
     8
421
  8421504
176
     1
 74
     1
176
     1
 91
        4
176
     1
 64
     7
176
     1
 65
   257
176
     1
 75
     1
176
     1
175
     1
176
     1
 42
1.0
176
     1
 92
        8
176
     1
 66
     8
424
  8421504
176
     1
 43
1.0
176
     1
 76
     1
176
     1
 77
     6
176
     1
 78
     2
176
     1
 67
     7
176
     1
 79
     5
176
     1
170
     0
176
     1
171
     0
176
     1
290
     0
176
     1
 93
        1
176
     1
 44
0.0
176
     1
173
     0
176
     1
  0
VISUALSTYLE
  5
34
102
{ACAD_REACTORS
330
2A
102
}
330
2A
100
AcDbVisualStyle
  2
Conceptual
 70
     9
177
     2
291
     0
 71
     3
176
     1
 72
     2
176
     1
 73
     0
176
     1
 90
        0
176
     1
 40
-0.6
176
     1
 41
-30.0
176
     1
 62
     5
 63
     7
421
 16777215
176
     1
 74
     2
176
     1
 91
        2
176
     1
 64
     7
176
     1
 65
   257
176
     1
 75
     1
176
     1
175
     1
176
     1
 42
40.0
176
     1
 92
        8
176
     1
 66
     7
176
     1
 43
1.0
176
     1
 76
     1
176
     1
 77
     6
176
     1
 78
     2
176
     1
 67
     7
176
     1
 79
     3
176
     1
170
     0
176
     1
171
     0
176
     1
290
     0
176
     1
 93
        1
176
     1
 44
0.0
176
     1
173
     0
176
     1
  0
VISUALSTYLE
  5
35
102
{ACAD_REACTORS
330
2A
102
}
330
2A
100
AcDbVisualStyle
  2
Dim
 70
    11
177
     2
291
     1
 71
     2
176
     1
 72
     2
176
     1
 73
     0
176
     1
 90
        0
176
     1
 40
-0.6
176
     1
 41
-30.0
176
     1
 62
     5
 63
     7
421
 16777215
176
     1
 74
     1
176
     1
 91
        4
176
     1
 64
     7
176
     1
 65
   257
176
     1
 75
     1
176
     1
175
     1
176
     1
 42
1.0
176
     1
 92
        8
176
     1
 66
     7
176
     1
 43
1.0
176
     1
 76
     1
176
     1
 77
     6
176
     1
 78
     2
176
     1
 67
     7
176
     1
 79
     5
176
     1
170
     0
176
     1
171
     0
176
     1
290
     0
176
     1
 93
        1
176
     1
 44
-50.0
176
     1
173
     0
176
     1
  0
VISUALSTYLE
  5
39
102
{ACAD_REACTORS
330
2A
102
}
330
2A
100
AcDbVisualStyle
  2
Facepattern
 70
    15
177
     2
291
     1
 71
     2
176
     1
 72
     2
176
     1
 73
     0
176
     1
 90
        0
176
     1
 40
-0.6
176
     1
 41
-30.0
176
     1
 62
     5
 63
     7
421
 16777215
176
     1
 74
     1
176
     1
 91
        4
176
     1
 64
     7
176
     1
 65
   257
176
     1
 75
     1
176
     1
175
     1
176
     1
 42
1.0
176
     1
 92
        8
176
     1
 66
     7
176
     1
 43
1.0
176
     1
 76
     1
176
     1
 77
     6
176
     1
 78
     2
176
     1
 67
     7
176
     1
 79
     5
176
     1
170
     0
176
     1
171
     0
176
     1
290
     0
176
     1
 93
        1
176
     1
 44
0.0
176
     1
173
     0
176
     1
  0
VISUALSTYLE
  5
2B
102
{ACAD_REACTORS
330
2A
102
}
330
2A
100
AcDbVisualStyle
  2
Flat
 70
     0
177
     2
291
     1
 71
     2
176
     1
 72
     1
176
     1
 73
     1
176
     1
 90
        2
176
     1
 40
-0.6
176
     1
 41
30.0
176
     1
 62
     5
 63
     7
421
 16777215
176
     1
 74
     0
176
     1
 91
        4
176
     1
 64
     7
176
     1
 65
   257
176
     1
 75
     1
176
     1
175
     1
176
     1
 42
1.0
176
     1
 92
        8
176
     1
 66
     7
176
     1
 43
1.0
176
     1
 76
     1
176
     1
 77
     6
176
     1
 78
     2
176
     1
 67
     7
176
     1
 79
     5
176
     1
170
     0
176
     1
171
     0
176
     1
290
     0
176
     1
 93
       13
176
     1
 44
0.0
176
     1
173
     0
176
     1
  0
VISUALSTYLE
  5
2C
102
{ACAD_REACTORS
330
2A
102
}
330
2A
100
AcDbVisualStyle
  2
FlatWithEdges
 70
     1
177
     2
291
     1
 71
     2
176
     1
 72
     1
176
     1
 73
     1
176
     1
 90
        2
176
     1
 40
-0.6
176
     1
 41
30.0
176
     1
 62
     5
 63
     7
421
 16777215
176
     1
 74
     1
176
     1
 91
        4
176
     1
 64
     7
176
     1
 65
   257
176
     1
 75
     1
176
     1
175
     1
176
     1
 42
1.0
176
     1
 92
        0
176
     1
 66
   257
176
     1
 43
1.0
176
     1
 76
     1
176
     1
 77
     6
176
     1
 78
     2
176
     1
 67
     7
176
     1
 79
     5
176
     1
170
     0
176
     1
171
     0
176
     1
290
     0
176
     1
 93
       13
176
     1
 44
0.0
176
     1
173
     0
176
     1
  0
VISUALSTYLE
  5
2D
102
{ACAD_REACTORS
330
2A
102
}
330
2A
100
AcDbVisualStyle
  2
Gouraud
 70
     2
177
     2
291
     1
 71
     2
176
     1
 72
     2
176
     1
 73
     1
176
     1
 90
        2
176
     1
 40
-0.6
176
     1
 41
30.0
176
     1
 62
     5
 63
     7
421
 16777215
176
     1
 74
     0
176
     1
 91
        4
176
     1
 64
     7
176
     1
 65
   257
176
     1
 75
     1
176
     1
175
     1
176
     1
 42
1.0
176
     1
 92
        0
176
     1
 66
     7
176
     1
 43
1.0
176
     1
 76
     1
176
     1
 77
     6
176
     1
 78
     2
176
     1
 67
     7
176
     1
 79
     5
176
     1
170
     0
176
     1
171
     0
176
     1
290
     0
176
     1
 93
       13
176
     1
 44
0.0
176
     1
173
     0
176
     1
  0
VISUALSTYLE
  5
2E
102
{ACAD_REACTORS
330
2A
102
}
330
2A
100
AcDbVisualStyle
  2
GouraudWithEdges
 70
     3
177
     2
291
     1
 71
     2
176
     1
 72
     2
176
     1
 73
     1
176
     1
 90
        2
176
     1
 40
-0.6
176
     1
 41
30.0
176
     1
 62
     5
 63
     7
421
 16777215
176
     1
 74
     1
176
     1
 91
        4
176
     1
 64
     7
176
     1
 65
   257
176
     1
 75
     1
176
     1
175
     1
176
     1
 42
1.0
176
     1
 92
        0
176
     1
 66
   257
176
     1
 43
1.0
176
     1
 76
     1
176
     1
 77
     6
176
     1
 78
     2
176
     1
 67
     7
176
     1
 79
     5
176
     1
170
     0
176
     1
171
     0
176
     1
290
     0
176
     1
 93
       13
176
     1
 44
0.0
176
     1
173
     0
176
     1
  0
VISUALSTYLE
  5
38
102
{ACAD_REACTORS
330
2A
102
}
330
2A
100
AcDbVisualStyle
  2
Linepattern
 70
    14
177
     2
291
     1
 71
     2
176
     1
 72
     2
176
     1
 73
     0
176
     1
 90
        0
176
     1
 40
-0.6
176
     1
 41
-30.0
176
     1
 62
     5
 63
     7
421
 16777215
176
     1
 74
     1
176
     1
 91
        4
176
     1
 64
     7
176
     1
 65
   257
176
     1
 75
     7
176
     1
175
     7
176
     1
 42
1.0
176
     1
 92
        8
176
     1
 66
     7
176
     1
 43
1.0
176
     1
 76
     1
176
     1
 77
     6
176
     1
 78
     2
176
     1
 67
     7
176
     1
 79
     5
176
     1
170
     0
176
     1
171
     0
176
     1
290
     0
176
     1
 93
        1
176
     1
 44
0.0
176
     1
173
     0
176
     1
  0
VISUALSTYLE
  5
33
102
{ACAD_REACTORS
330
2A
102
}
330
2A
100
AcDbVisualStyle
  2
Realistic
 70
     8
177
     2
291
     0
 71
     2
176
     1
 72
     2
176
     1
 73
     0
176
     1
 90
        0
176
     1
 40
-0.6
176
     1
 41
-30.0
176
     1
 62
     5
 63
     7
421
 16777215
176
     1
 74
     1
176
     1
 91
        0
176
     1
 64
     7
176
     1
 65
   257
176
     1
 75
     1
176
     1
175
     1
176
     1
 42
1.0
176
     1
 92
        8
176
     1
 66
     8
424
  7895160
176
     1
 43
1.0
176
     1
 76
     1
176
     1
 77
     6
176
     1
 78
     2
176
     1
 67
     7
176
     1
 79
     5
176
     1
170
     0
176
     1
171
     0
176
     1
290
     0
176
     1
 93
       13
176
     1
 44
0.0
176
     1
173
     0
176
     1
  0
VISUALSTYLE
  5
37
102
{ACAD_REACTORS
330
2A
102
}
330
2A
100
AcDbVisualStyle
  2
Thicken
 70
    13
177
     2
291
     1
 71
     2
176
     1
 72
     2
176
     1
 73
     0
176
     1
 90
        0
176
     1
 40
-0.6
176
     1
 41
-30.0
176
     1
 62
     5
 63
     7
421
 16777215
176
     1
 74
     1
176
     1
 91
        4
176
     1
 64
     7
176
     1
 65
   257
176
     1
 75
     1
176
     1
175
     1
176
     1
 42
1.0
176
     1
 92
       12
176
     1
 66
     7
176
     1
 43
1.0
176
     1
 76
     1
176
     1
 77
     6
176
     1
 78
     2
176
     1
 67
     7
176
     1
 79
     5
176
     1
170
     0
176
     1
171
     0
176
     1
290
     0
176
     1
 93
        1
176
     1
 44
0.0
176
     1
173
     0
176
     1
  0
ENDSEC
  0
EOF
