  0
SECTION
  2
HEADER
  9
$ACADVER
  1
AC1024
  9
$ACADMAINTVER
 70
     6
  9
$DWGCODEPAGE
  3
UNDEFINED
  9
$INSBASE
 10
0.0
 20
0.0
 30
0.0
  9
$EXTMIN
 10
1.000000000000000E+20
 20
1.000000000000000E+20
 30
1.000000000000000E+20
  9
$EXTMAX
 10
-1.000000000000000E+20
 20
-1.000000000000000E+20
 30
-1.000000000000000E+20
  9
$LIMMIN
 10
0.0
 20
0.0
  9
$LIMMAX
 10
12.0
 20
9.0
  9
$ORTHOMODE
 70
     0
  9
$REGENMODE
 70
     1
  9
$FILLMODE
 70
     1
  9
$QTEXTMODE
 70
     0
  9
$MIRRTEXT
 70
     1
  9
$LTSCALE
 40
1.0
  9
$ATTMODE
 70
     1
  9
$TEXTSIZE
 40
0.2
  9
$TRACEWID
 40
0.05
  9
$TEXTSTYLE
  7
Standard
  9
$CLAYER
  8
0
  9
$CELTYPE
  6
ByLayer
  9
$CECOLOR
 62
   256
  9
$CELTSCALE
 40
1.0
  9
$DISPSILH
 70
     0
  9
$DIMSCALE
 40
1.0
  9
$DIMASZ
 40
0.18
  9
$DIMEXO
 40
0.0625
  9
$DIMDLI
 40
0.38
  9
$DIMRND
 40
0.0
  9
$DIMDLE
 40
0.0
  9
$DIMEXE
 40
0.18
  9
$DIMTP
 40
0.0
  9
$DIMTM
 40
0.0
  9
$DIMTXT
 40
0.18
  9
$DIMCEN
 40
0.09
  9
$DIMTSZ
 40
0.0
  9
$DIMTOL
 70
     0
  9
$DIMLIM
 70
     0
  9
$DIMTIH
 70
     1
  9
$DIMTOH
 70
     1
  9
$DIMSE1
 70
     0
  9
$DIMSE2
 70
     0
  9
$DIMTAD
 70
     0
  9
$DIMZIN
 70
     0
  9
$DIMBLK
  1

  9
$DIMASO
 70
     1
  9
$DIMSHO
 70
     1
  9
$DIMPOST
  1

  9
$DIMAPOST
  1

  9
$DIMALT
 70
     0
  9
$DIMALTD
 70
     2
  9
$DIMALTF
 40
25.4
  9
$DIMLFAC
 40
1.0
  9
$DIMTOFL
 70
     0
  9
$DIMTVP
 40
0.0
  9
$DIMTIX
 70
     0
  9
$DIMSOXD
 70
     0
  9
$DIMSAH
 70
     0
  9
$DIMBLK1
  1

  9
$DIMBLK2
  1

  9
$DIMSTYLE
  2
Standard
  9
$DIMCLRD
 70
     0
  9
$DIMCLRE
 70
     0
  9
$DIMCLRT
 70
     0
  9
$DIMTFAC
 40
1.0
  9
$DIMGAP
 40
0.09
  9
$DIMJUST
 70
     0
  9
$DIMSD1
 70
     0
  9
$DIMSD2
 70
     0
  9
$DIMTOLJ
 70
     1
  9
$DIMTZIN
 70
     0
  9
$DIMALTZ
 70
     0
  9
$DIMALTTZ
 70
     0
  9
$DIMUPT
 70
     0
  9
$DIMDEC
 70
     4
  9
$DIMTDEC
 70
     4
  9
$DIMALTU
 70
     2
  9
$DIMALTTD
 70
     2
  9
$DIMTXSTY
  7
Standard
  9
$DIMAUNIT
 70
     0
  9
$DIMADEC
 70
     0
  9
$DIMALTRND
 40
0.0
  9
$DIMAZIN
 70
     0
  9
$DIMDSEP
 70
    46
  9
$DIMATFIT
 70
     3
  9
$DIMFRAC
 70
     0
  9
$DIMLDRBLK
  1

  9
$DIMLUNIT
 70
     2
  9
$DIMLWD
 70
    -2
  9
$DIMLWE
 70
    -2
  9
$DIMTMOVE
 70
     0
  9
$DIMFXL
 40
1.0
  9
$DIMFXLON
 70
     0
  9
$DIMJOGANG
 40
0.7853981633974483
  9
$DIMTFILL
 70
     0
  9
$DIMTFILLCLR
 70
     0
  9
$DIMARCSYM
 70
     0
  9
$DIMLTYPE
  6

  9
$DIMLTEX1
  6

  9
$DIMLTEX2
  6

  9
$DIMTXTDIRECTION
 70
     0
  9
$LUNITS
 70
     2
  9
$LUPREC
 70
     4
  9
$SKETCHINC
 40
0.1
  9
$FILLETRAD
 40
0.5
  9
$AUNITS
 70
     0
  9
$AUPREC
 70
     0
  9
$MENU
  1
.
  9
$ELEVATION
 40
0.0
  9
$PELEVATION
 40
0.0
  9
$THICKNESS
 40
0.0
  9
$LIMCHECK
 70
     0
  9
$CHAMFERA
 40
0.5
  9
$CHAMFERB
 40
0.5
  9
$CHAMFERC
 40
1.0
  9
$CHAMFERD
 40
0.0
  9
$SKPOLY
 70
     0
  9
$TDCREATE
 40
2457917.61335647
  9
$TDUCREATE
 40
2457917.238356481
  9
$TDUPDATE
 40
2457917.61335647
  9
$TDUUPDATE
 40
2457917.238356481
  9
$TDINDWG
 40
0.0000000116
  9
$TDUSRTIMER
 40
0.0000000116
  9
$USRTIMER
 70
     1
  9
$ANGBASE
 50
0.0
  9
$ANGDIR
 70
     0
  9
$PDMODE
 70
     0
  9
$PDSIZE
 40
0.0
  9
$PLINEWID
 40
0.0
  9
$SPLFRAME
 70
     0
  9
$SPLINETYPE
 70
     6
  9
$SPLINESEGS
 70
     8
  9
$HANDSEED
  5
102
  9
$SURFTAB1
 70
     6
  9
$SURFTAB2
 70
     6
  9
$SURFTYPE
 70
     6
  9
$SURFU
 70
     6
  9
$SURFV
 70
     6
  9
$UCSBASE
  2

  9
$UCSNAME
  2

  9
$UCSORG
 10
0.0
 20
0.0
 30
0.0
  9
$UCSXDIR
 10
1.0
 20
0.0
 30
0.0
  9
$UCSYDIR
 10
0.0
 20
1.0
 30
0.0
  9
$UCSORTHOREF
  2

  9
$UCSORTHOVIEW
 70
     0
  9
$UCSORGTOP
 10
0.0
 20
0.0
 30
0.0
  9
$UCSORGBOTTOM
 10
0.0
 20
0.0
 30
0.0
  9
$UCSORGLEFT
 10
0.0
 20
0.0
 30
0.0
  9
$UCSORGRIGHT
 10
0.0
 20
0.0
 30
0.0
  9
$UCSORGFRONT
 10
0.0
 20
0.0
 30
0.0
  9
$UCSORGBACK
 10
0.0
 20
0.0
 30
0.0
  9
$PUCSBASE
  2

  9
$PUCSNAME
  2

  9
$PUCSORG
 10
0.0
 20
0.0
 30
0.0
  9
$PUCSXDIR
 10
1.0
 20
0.0
 30
0.0
  9
$PUCSYDIR
 10
0.0
 20
1.0
 30
0.0
  9
$PUCSORTHOREF
  2

  9
$PUCSORTHOVIEW
 70
     0
  9
$PUCSORGTOP
 10
0.0
 20
0.0
 30
0.0
  9
$PUCSORGBOTTOM
 10
0.0
 20
0.0
 30
0.0
  9
$PUCSORGLEFT
 10
0.0
 20
0.0
 30
0.0
  9
$PUCSORGRIGHT
 10
0.0
 20
0.0
 30
0.0
  9
$PUCSORGFRONT
 10
0.0
 20
0.0
 30
0.0
  9
$PUCSORGBACK
 10
0.0
 20
0.0
 30
0.0
  9
$USERI1
 70
     0
  9
$USERI2
 70
     0
  9
$USERI3
 70
     0
  9
$USERI4
 70
     0
  9
$USERI5
 70
     0
  9
$USERR1
 40
0.0
  9
$USERR2
 40
0.0
  9
$USERR3
 40
0.0
  9
$USERR4
 40
0.0
  9
$USERR5
 40
0.0
  9
$WORLDVIEW
 70
     1
  9
$SHADEDGE
 70
     3
  9
$SHADEDIF
 70
    70
  9
$TILEMODE
 70
     1
  9
$MAXACTVP
 70
    64
  9
$PINSBASE
 10
0.0
 20
0.0
 30
0.0
  9
$PLIMCHECK
 70
     0
  9
$PEXTMIN
 10
1.000000000000000E+20
 20
1.000000000000000E+20
 30
1.000000000000000E+20
  9
$PEXTMAX
 10
-1.000000000000000E+20
 20
-1.000000000000000E+20
 30
-1.000000000000000E+20
  9
$PLIMMIN
 10
0.0
 20
0.0
  9
$PLIMMAX
 10
12.0
 20
9.0
  9
$UNITMODE
 70
     0
  9
$VISRETAIN
 70
     1
  9
$PLINEGEN
 70
     0
  9
$PSLTSCALE
 70
     1
  9
$TREEDEPTH
 70
  3020
  9
$CMLSTYLE
  2
Standard
  9
$CMLJUST
 70
     0
  9
$CMLSCALE
 40
1.0
  9
$PROXYGRAPHICS
 70
     1
  9
$MEASUREMENT
 70
     0
  9
$CELWEIGHT
370
    -1
  9
$ENDCAPS
280
     0
  9
$JOINSTYLE
280
     0
  9
$LWDISPLAY
290
     1
  9
$INSUNITS
 70
     1
  9
$HYPERLINKBASE
  1

  9
$STYLESHEET
  1

  9
$XEDIT
290
     1
  9
$CEPSNTYPE
380
     0
  9
$PSTYLEMODE
290
     1
  9
$FINGERPRINTGUID
  2
{E6D5A280-B035-DA43-AB2F-09C2FF384F1C}
  9
$VERSIONGUID
  2
{FAEB1C32-E019-11D5-929B-00C0DF256EC4}
  9
$EXTNAMES
290
     1
  9
$PSVPSCALE
 40
0.0
  9
$OLESTARTUP
290
     0
  9
$SORTENTS
280
   127
  9
$INDEXCTL
280
     0
  9
$HIDETEXT
280
     1
  9
$XCLIPFRAME
280
     2
  9
$HALOGAP
280
     0
  9
$OBSCOLOR
 70
   257
  9
$OBSLTYPE
280
     0
  9
$INTERSECTIONDISPLAY
280
     0
  9
$INTERSECTIONCOLOR
 70
   257
  9
$DIMASSOC
280
     2
  9
$PROJECTNAME
  1

  9
$CAMERADISPLAY
290
     0
  9
$LENSLENGTH
 40
50.0
  9
$CAMERAHEIGHT
 40
0.0
  9
$STEPSPERSEC
 40
2.0
  9
$STEPSIZE
 40
6.0
  9
$3DDWFPREC
 40
2.0
  9
$PSOLWIDTH
 40
0.25
  9
$PSOLHEIGHT
 40
4.0
  9
$LOFTANG1
 40
1.570796326794897
  9
$LOFTANG2
 40
1.570796326794897
  9
$LOFTMAG1
 40
0.0
  9
$LOFTMAG2
 40
0.0
  9
$LOFTPARAM
 70
     7
  9
$LOFTNORMALS
280
     1
  9
$LATITUDE
 40
37.795
  9
$LONGITUDE
 40
-122.394
  9
$NORTHDIRECTION
 40
0.0
  9
$TIMEZONE
 70
 -8000
  9
$LIGHTGLYPHDISPLAY
280
     1
  9
$TILEMODELIGHTSYNCH
280
     1
  9
$CMATERIAL
347
3C
  9
$SOLIDHIST
280
     1
  9
$SHOWHIST
280
     1
  9
$DWFFRAME
280
     2
  9
$DGNFRAME
280
     2
  9
$REALWORLDSCALE
290
     1
  9
$INTERFERECOLOR
 62
   256
  9
$CSHADOW
280
     0
  9
$SHADOWPLANELOCATION
 40
0.0
  0
ENDSEC
  0
SECTION
  2
CLASSES
  0
CLASS
  1
ACDBDICTIONARYWDFLT
  2
AcDbDictionaryWithDefault
  3
ObjectDBX Classes
 90
        0
 91
        4
280
     0
281
     0
  0
CLASS
  1
VISUALSTYLE
  2
AcDbVisualStyle
  3
ObjectDBX Classes
 90
     4095
 91
        4
280
     0
281
     0
  0
CLASS
  1
MATERIAL
  2
AcDbMaterial
  3
ObjectDBX Classes
 90
     1153
 91
        4
280
     0
281
     0
  0
CLASS
  1
SUN
  2
AcDbSun
  3
SCENEOE
 90
     1024
 91
        4
280
     0
281
     0
  0
ENDSEC
  0
SECTION
  2
TABLES
  0
TABLE
  2
VPORT
  5
8
330
0
100
AcDbSymbolTable
 70
     1
  0
VPORT
  5
29
330
8
100
AcDbSymbolTableRecord
100
AcDbViewportTableRecord
  2
*Active
 70
     0
 10
0.0
 20
0.0
 11
1.0
 21
1.0
 12
0.0
 22
0.0
 13
0.0
 23
0.0
 14
0.5
 24
0.5
 15
0.5
 25
0.5
 16
0.0
 26
0.0
 36
1.0
 17
91.00082462281999
 27
-128.4993055234307
 37
0.0
 40
256.9986110468615
 41
0.7081814508812795
 42
50.0
 43
0.0
 44
0.0
 50
0.0
 51
0.0
 71
     0
 72
   100
 73
     1
 74
     3
 75
     0
 76
     0
 77
     0
 78
     0
281
     0
 65
     1
110
0.0
120
0.0
130
0.0
111
1.0
121
0.0
131
0.0
112
0.0
122
1.0
132
0.0
 79
     0
146
0.0
 60
     3
 61
     5
292
     1
282
     1
141
0.0
142
0.0
 63
   250
361
3F
  0
ENDTAB
  0
TABLE
  2
LTYPE
  5
5
330
0
100
AcDbSymbolTable
 70
     1
  0
LTYPE
  5
14
330
5
100
AcDbSymbolTableRecord
100
AcDbLinetypeTableRecord
  2
ByBlock
 70
     0
  3

 72
    65
 73
     0
 40
0.0
  0
LTYPE
  5
15
330
5
100
AcDbSymbolTableRecord
100
AcDbLinetypeTableRecord
  2
ByLayer
 70
     0
  3

 72
    65
 73
     0
 40
0.0
  0
LTYPE
  5
16
330
5
100
AcDbSymbolTableRecord
100
AcDbLinetypeTableRecord
  2
Continuous
 70
     0
  3
Solid line
 72
    65
 73
     0
 40
0.0
  0
ENDTAB
  0
TABLE
  2
LAYER
  5
2
330
0
100
AcDbSymbolTable
 70
     2
  0
LAYER
  5
10
330
2
100
AcDbSymbolTableRecord
100
AcDbLayerTableRecord
  2
0
 70
     0
 62
     7
  6
Continuous
370
    -3
390
F
347
3E
  0
LAYER
  5
40
330
2
100
AcDbSymbolTableRecord
100
AcDbLayerTableRecord
  2
_U+30EC_U+30A4_U+30E4_U+30FC 1
 70
     0
 62
     7
  6
Continuous
370
    -3
390
F
347
3E
  0
ENDTAB
  0
TABLE
  2
STYLE
  5
3
330
0
100
AcDbSymbolTable
 70
     1
  0
STYLE
  5
11
330
3
100
AcDbSymbolTableRecord
100
AcDbTextStyleTableRecord
  2
Standard
 70
     0
 40
0.0
 41
1.0
 50
0.0
 71
     0
 42
0.2
  3
txt
  4

  0
ENDTAB
  0
TABLE
  2
VIEW
  5
6
330
0
100
AcDbSymbolTable
 70
     0
  0
ENDTAB
  0
TABLE
  2
UCS
  5
7
330
0
100
AcDbSymbolTable
 70
     0
  0
ENDTAB
  0
TABLE
  2
APPID
  5
9
330
0
100
AcDbSymbolTable
 70
     1
  0
APPID
  5
12
330
9
100
AcDbSymbolTableRecord
100
AcDbRegAppTableRecord
  2
ACAD
 70
     0
  0
ENDTAB
  0
TABLE
  2
DIMSTYLE
  5
A
330
0
100
AcDbSymbolTable
 70
     1
100
AcDbDimStyleTable
  0
DIMSTYLE
105
27
330
A
100
AcDbSymbolTableRecord
100
AcDbDimStyleTableRecord
  2
Standard
 70
     0
178
     0
340
11
  0
ENDTAB
  0
TABLE
  2
BLOCK_RECORD
  5
1
330
0
100
AcDbSymbolTable
 70
     7
  0
BLOCK_RECORD
  5
1F
330
1
100
AcDbSymbolTableRecord
100
AcDbBlockTableRecord
  2
*Model_Space
340
22
 70
     0
280
     1
281
     0
  0
BLOCK_RECORD
  5
1B
330
1
100
AcDbSymbolTableRecord
100
AcDbBlockTableRecord
  2
*Paper_Space
340
1E
 70
     0
280
     1
281
     0
  0
BLOCK_RECORD
  5
23
330
1
100
AcDbSymbolTableRecord
100
AcDbBlockTableRecord
  2
*Paper_Space0
340
26
 70
     0
280
     1
281
     0
  0
BLOCK_RECORD
  5
9A
330
1
100
AcDbSymbolTableRecord
100
AcDbBlockTableRecord
  2
block 2
340
0
102
{BLKREFS
331
9B
102
}
 70
     0
280
     1
281
     0
  0
BLOCK_RECORD
  5
A8
330
1
100
AcDbSymbolTableRecord
100
AcDbBlockTableRecord
  2
block 3
340
0
102
{BLKREFS
331
A9
102
}
 70
     0
280
     1
281
     0
  0
BLOCK_RECORD
  5
B9
330
1
100
AcDbSymbolTableRecord
100
AcDbBlockTableRecord
  2
block 4
340
0
102
{BLKREFS
331
BA
102
}
 70
     0
280
     1
281
     0
  0
BLOCK_RECORD
  5
C7
330
1
100
AcDbSymbolTableRecord
100
AcDbBlockTableRecord
  2
block 5
340
0
102
{BLKREFS
331
C8
102
}
 70
     0
280
     1
281
     0
  0
BLOCK_RECORD
  5
E5
330
1
100
AcDbSymbolTableRecord
100
AcDbBlockTableRecord
  2
block 6
340
0
102
{BLKREFS
331
E6
102
}
 70
     0
280
     1
281
     0
  0
BLOCK_RECORD
  5
F9
330
1
100
AcDbSymbolTableRecord
100
AcDbBlockTableRecord
  2
block 7
340
0
102
{BLKREFS
331
FA
102
}
 70
     0
280
     1
281
     0
  0
ENDTAB
  0
ENDSEC
  0
SECTION
  2
BLOCKS
  0
BLOCK
  5
20
330
1F
100
AcDbEntity
  8
0
100
AcDbBlockBegin
  2
*Model_Space
 70
     0
 10
0.0
 20
0.0
 30
0.0
  3
*Model_Space
  1

  0
ENDBLK
  5
21
330
1F
100
AcDbEntity
  8
0
100
AcDbBlockEnd
  0
BLOCK
  5
1C
330
1B
100
AcDbEntity
 67
     1
  8
0
100
AcDbBlockBegin
  2
*Paper_Space
 70
     0
 10
0.0
 20
0.0
 30
0.0
  3
*Paper_Space
  1

  0
ENDBLK
  5
1D
330
1B
100
AcDbEntity
 67
     1
  8
0
100
AcDbBlockEnd
  0
BLOCK
  5
24
330
23
100
AcDbEntity
  8
0
100
AcDbBlockBegin
  2
*Paper_Space0
 70
     0
 10
0.0
 20
0.0
 30
0.0
  3
*Paper_Space0
  1

  0
ENDBLK
  5
25
330
23
100
AcDbEntity
  8
0
100
AcDbBlockEnd
  0
BLOCK
  5
9C
330
9A
100
AcDbEntity
  8
0
100
AcDbBlockBegin
  2
block 2
 70
     0
 10
0.0
 20
0.0
 30
0.0
  3
block 2
  1

  0
SPLINE
  5
9E
330
9A
100
AcDbEntity
  8
_U+30EC_U+30A4_U+30E4_U+30FC 1
370
     0
100
AcDbSpline
210
0.0
220
0.0
230
1.0
 70
    11
 71
     3
 72
    26
 73
    22
 74
     0
 42
0.0000000001
 43
0.0000000001
 12
1.0
 22
0.0
 32
0.0
 13
1.0
 23
0.0
 33
0.0
 40
0.0
 40
0.0
 40
0.0
 40
0.0
 40
1.0
 40
1.0
 40
1.0
 40
2.0
 40
2.0
 40
2.0
 40
3.0
 40
3.0
 40
3.0
 40
4.0
 40
4.0
 40
4.0
 40
5.0
 40
5.0
 40
5.0
 40
6.0
 40
6.0
 40
6.0
 40
7.0
 40
7.0
 40
7.0
 40
7.0
 10
106.9033799645936
 20
-124.27665198716
 30
0.0
 10
106.9033799645936
 20
-124.27665198716
 30
0.0
 10
105.799226861571
 20
-124.27665198716
 30
0.0
 10
105.799226861571
 20
-124.27665198716
 30
0.0
 10
105.799226861571
 20
-124.27665198716
 30
0.0
 10
105.799226861571
 20
-124.6066921346469
 30
0.0
 10
105.799226861571
 20
-124.6066921346469
 30
0.0
 10
105.799226861571
 20
-124.6066921346469
 30
0.0
 10
105.6510877557053
 20
-124.6066921346469
 30
0.0
 10
105.6510877557053
 20
-124.6066921346469
 30
0.0
 10
105.6362738451187
 20
-124.2745849298689
 30
0.0
 10
105.4733208286664
 20
-124.228076140818
 30
0.0
 10
105.3589436585561
 20
-124.1984483196448
 30
0.0
 10
105.3589436585561
 20
-124.1984483196448
 30
0.0
 10
105.3589436585561
 20
-124.0523762710702
 30
0.0
 10
105.3589436585561
 20
-124.0523762710702
 30
0.0
 10
105.3589436585561
 20
-124.0523762710702
 30
0.0
 10
106.9033799645936
 20
-124.0523762710702
 30
0.0
 10
106.9033799645936
 20
-124.0523762710702
 30
0.0
 10
106.9033799645936
 20
-124.0523762710702
 30
0.0
 10
106.9033799645936
 20
-124.27665198716
 30
0.0
 10
106.9033799645936
 20
-124.27665198716
 30
0.0
  0
HATCH
  5
9F
330
9A
100
AcDbEntity
  8
_U+30EC_U+30A4_U+30E4_U+30FC 1
 62
     7
420
 16777215
100
AcDbHatch
 10
0.0
 20
0.0
 30
0.0
210
0.0
220
0.0
230
1.0
  2
SOLID
 70
     1
 71
     0
 91
        1
 92
        1
 93
        1
 72
     4
 94
        3
 73
     0
 74
     1
 95
       26
 96
       22
 40
0.0
 40
0.0
 40
0.0
 40
0.0
 40
1.0
 40
1.0
 40
1.0
 40
2.0
 40
2.0
 40
2.0
 40
3.0
 40
3.0
 40
3.0
 40
4.0
 40
4.0
 40
4.0
 40
5.0
 40
5.0
 40
5.0
 40
6.0
 40
6.0
 40
6.0
 40
7.0
 40
7.0
 40
7.0
 40
7.0
 10
106.9033799645936
 20
-124.27665198716
 10
106.9033799645936
 20
-124.27665198716
 10
105.799226861571
 20
-124.27665198716
 10
105.799226861571
 20
-124.27665198716
 10
105.799226861571
 20
-124.27665198716
 10
105.799226861571
 20
-124.6066921346469
 10
105.799226861571
 20
-124.6066921346469
 10
105.799226861571
 20
-124.6066921346469
 10
105.6510877557053
 20
-124.6066921346469
 10
105.6510877557053
 20
-124.6066921346469
 10
105.6362738451187
 20
-124.2745849298689
 10
105.4733208286664
 20
-124.228076140818
 10
105.3589436585561
 20
-124.1984483196448
 10
105.3589436585561
 20
-124.1984483196448
 10
105.3589436585561
 20
-124.0523762710702
 10
105.3589436585561
 20
-124.0523762710702
 10
105.3589436585561
 20
-124.0523762710702
 10
106.9033799645936
 20
-124.0523762710702
 10
106.9033799645936
 20
-124.0523762710702
 10
106.9033799645936
 20
-124.0523762710702
 10
106.9033799645936
 20
-124.27665198716
 10
106.9033799645936
 20
-124.27665198716
 97
        0
 97
        0
 75
     2
 76
     1
 98
        0
  0
ENDBLK
  5
9D
330
9A
100
AcDbEntity
  8
0
100
AcDbBlockEnd
  0
BLOCK
  5
AA
330
A8
100
AcDbEntity
  8
0
100
AcDbBlockBegin
  2
block 3
 70
     0
 10
0.0
 20
0.0
 30
0.0
  3
block 3
  1

  0
SPLINE
  5
AC
330
A8
100
AcDbEntity
  8
_U+30EC_U+30A4_U+30E4_U+30FC 1
370
     0
100
AcDbSpline
210
0.0
220
0.0
230
1.0
 70
    11
 71
     3
 72
    26
 73
    22
 74
     0
 42
0.0000000001
 43
0.0000000001
 12
1.0
 22
0.0
 32
0.0
 13
1.0
 23
0.0
 33
0.0
 40
0.0
 40
0.0
 40
0.0
 40
0.0
 40
1.0
 40
1.0
 40
1.0
 40
2.0
 40
2.0
 40
2.0
 40
3.0
 40
3.0
 40
3.0
 40
4.0
 40
4.0
 40
4.0
 40
5.0
 40
5.0
 40
5.0
 40
6.0
 40
6.0
 40
6.0
 40
7.0
 40
7.0
 40
7.0
 40
7.0
 10
83.52375621826837
 20
-139.5542724260489
 30
0.0
 10
83.52375621826837
 20
-139.5542724260489
 30
0.0
 10
83.52375621826837
 20
-138.4501193230264
 30
0.0
 10
83.52375621826837
 20
-138.4501193230264
 30
0.0
 10
83.52375621826837
 20
-138.4501193230264
 30
0.0
 10
83.19371607078143
 20
-138.4501193230264
 30
0.0
 10
83.19371607078143
 20
-138.4501193230264
 30
0.0
 10
83.19371607078143
 20
-138.4501193230264
 30
0.0
 10
83.19371607078143
 20
-138.3019802171606
 30
0.0
 10
83.19371607078143
 20
-138.3019802171606
 30
0.0
 10
83.52582327555952
 20
-138.2871663065741
 30
0.0
 10
83.57233206461039
 20
-138.1242132901217
 30
0.0
 10
83.60195988578354
 20
-138.01018062956
 30
0.0
 10
83.60195988578354
 20
-138.01018062956
 30
0.0
 10
83.74803193435814
 20
-138.01018062956
 30
0.0
 10
83.74803193435814
 20
-138.01018062956
 30
0.0
 10
83.74803193435814
 20
-138.01018062956
 30
0.0
 10
83.74803193435814
 20
-139.5542724260489
 30
0.0
 10
83.74803193435814
 20
-139.5542724260489
 30
0.0
 10
83.74803193435814
 20
-139.5542724260489
 30
0.0
 10
83.52375621826837
 20
-139.5542724260489
 30
0.0
 10
83.52375621826837
 20
-139.5542724260489
 30
0.0
  0
HATCH
  5
AD
330
A8
100
AcDbEntity
  8
_U+30EC_U+30A4_U+30E4_U+30FC 1
 62
     7
420
 16777215
100
AcDbHatch
 10
0.0
 20
0.0
 30
0.0
210
0.0
220
0.0
230
1.0
  2
SOLID
 70
     1
 71
     0
 91
        1
 92
        1
 93
        1
 72
     4
 94
        3
 73
     0
 74
     1
 95
       26
 96
       22
 40
0.0
 40
0.0
 40
0.0
 40
0.0
 40
1.0
 40
1.0
 40
1.0
 40
2.0
 40
2.0
 40
2.0
 40
3.0
 40
3.0
 40
3.0
 40
4.0
 40
4.0
 40
4.0
 40
5.0
 40
5.0
 40
5.0
 40
6.0
 40
6.0
 40
6.0
 40
7.0
 40
7.0
 40
7.0
 40
7.0
 10
83.52375621826837
 20
-139.5542724260489
 10
83.52375621826837
 20
-139.5542724260489
 10
83.52375621826837
 20
-138.4501193230264
 10
83.52375621826837
 20
-138.4501193230264
 10
83.52375621826837
 20
-138.4501193230264
 10
83.19371607078143
 20
-138.4501193230264
 10
83.19371607078143
 20
-138.4501193230264
 10
83.19371607078143
 20
-138.4501193230264
 10
83.19371607078143
 20
-138.3019802171606
 10
83.19371607078143
 20
-138.3019802171606
 10
83.52582327555952
 20
-138.2871663065741
 10
83.57233206461039
 20
-138.1242132901217
 10
83.60195988578354
 20
-138.01018062956
 10
83.60195988578354
 20
-138.01018062956
 10
83.74803193435814
 20
-138.01018062956
 10
83.74803193435814
 20
-138.01018062956
 10
83.74803193435814
 20
-138.01018062956
 10
83.74803193435814
 20
-139.5542724260489
 10
83.74803193435814
 20
-139.5542724260489
 10
83.74803193435814
 20
-139.5542724260489
 10
83.52375621826837
 20
-139.5542724260489
 10
83.52375621826837
 20
-139.5542724260489
 97
        0
 97
        0
 75
     2
 76
     1
 98
        0
  0
SPLINE
  5
AE
330
A8
100
AcDbEntity
  8
_U+30EC_U+30A4_U+30E4_U+30FC 1
370
     0
100
AcDbSpline
210
0.0
220
0.0
230
1.0
 70
    11
 71
     3
 72
    29
 73
    25
 74
     0
 42
0.0000000001
 43
0.0000000001
 12
1.0
 22
0.0
 32
0.0
 13
1.0
 23
0.0
 33
0.0
 40
0.0
 40
0.0
 40
0.0
 40
0.0
 40
1.0
 40
1.0
 40
1.0
 40
2.0
 40
2.0
 40
2.0
 40
3.0
 40
3.0
 40
3.0
 40
4.0
 40
4.0
 40
4.0
 40
5.0
 40
5.0
 40
5.0
 40
6.0
 40
6.0
 40
6.0
 40
7.0
 40
7.0
 40
7.0
 40
8.0
 40
8.0
 40
8.0
 40
8.0
 10
85.14691295614384
 20
-139.3765054990101
 30
0.0
 10
85.03908146745552
 20
-139.5859673045132
 30
0.0
 10
84.86562090977318
 20
-139.6052598392306
 30
0.0
 10
84.74917668237174
 20
-139.6052598392306
 30
0.0
 10
84.58846297798483
 20
-139.6052598392306
 30
0.0
 10
84.44669729876681
 20
-139.5587510501798
 30
0.0
 10
84.35144040859964
 20
-139.3765054990101
 30
0.0
 10
84.24791528926788
 20
-139.1818576040934
 30
0.0
 10
84.22879500932476
 20
-138.9451795442568
 30
0.0
 10
84.22879500932476
 20
-138.7822265278045
 30
0.0
 10
84.22879500932476
 20
-138.638221536521
 30
0.0
 10
84.24567597720247
 20
-138.3867295660978
 30
0.0
 10
84.35144040859964
 20
-138.1876030470503
 30
0.0
 10
84.45944415206223
 20
-137.9846869229691
 30
0.0
 10
84.62015785644913
 20
-137.9612602736694
 30
0.0
 10
84.74917668237174
 20
-137.9612602736694
 30
0.0
 10
84.90782332946749
 20
-137.9612602736694
 30
0.0
 10
85.05165606597667
 20
-138.0057020054291
 30
0.0
 10
85.14691295614384
 20
-138.1876030470503
 30
0.0
 10
85.24630396089329
 20
-138.3801838846758
 30
0.0
 10
85.26955835541872
 20
-138.6085937153479
 30
0.0
 10
85.26955835541872
 20
-138.7822265278045
 30
0.0
 10
85.26955835541872
 20
-138.9534477734214
 30
0.0
 10
85.2485432729587
 20
-139.1842691709331
 30
0.0
 10
85.14691295614384
 20
-139.3765054990101
 30
0.0
  0
SPLINE
  5
AF
330
A8
100
AcDbEntity
  8
_U+30EC_U+30A4_U+30E4_U+30FC 1
370
     0
100
AcDbSpline
210
0.0
220
0.0
230
1.0
 70
    11
 71
     3
 72
    17
 73
    13
 74
     0
 42
0.0000000001
 43
0.0000000001
 12
1.0
 22
0.0
 32
0.0
 13
1.0
 23
0.0
 33
0.0
 40
0.0
 40
0.0
 40
0.0
 40
0.0
 40
1.0
 40
1.0
 40
1.0
 40
2.0
 40
2.0
 40
2.0
 40
3.0
 40
3.0
 40
3.0
 40
4.0
 40
4.0
 40
4.0
 40
4.0
 10
84.74917668237174
 20
-138.1538411112949
 30
0.0
 10
84.49957951446538
 20
-138.1538411112949
 30
0.0
 10
84.45307072541452
 20
-138.4373724697309
 30
0.0
 10
84.45307072541452
 20
-138.7822265278045
 30
0.0
 10
84.45307072541452
 20
-139.1015868792871
 30
0.0
 10
84.48907197323537
 20
-139.410611944314
 30
0.0
 10
84.74917668237174
 20
-139.410611944314
 30
0.0
 10
84.99670679298694
 20
-139.410611944314
 30
0.0
 10
85.04545489410323
 20
-139.1291476431691
 30
0.0
 10
85.04545489410323
 20
-138.7822265278045
 30
0.0
 10
85.04545489410323
 20
-138.4628661763218
 30
0.0
 10
85.00721433421695
 20
-138.1538411112949
 30
0.0
 10
84.74917668237174
 20
-138.1538411112949
 30
0.0
  0
HATCH
  5
B0
330
A8
100
AcDbEntity
  8
_U+30EC_U+30A4_U+30E4_U+30FC 1
 62
     7
420
 16777215
100
AcDbHatch
 10
0.0
 20
0.0
 30
0.0
210
0.0
220
0.0
230
1.0
  2
SOLID
 70
     1
 71
     0
 91
        2
 92
        1
 93
        1
 72
     4
 94
        3
 73
     0
 74
     1
 95
       29
 96
       25
 40
0.0
 40
0.0
 40
0.0
 40
0.0
 40
1.0
 40
1.0
 40
1.0
 40
2.0
 40
2.0
 40
2.0
 40
3.0
 40
3.0
 40
3.0
 40
4.0
 40
4.0
 40
4.0
 40
5.0
 40
5.0
 40
5.0
 40
6.0
 40
6.0
 40
6.0
 40
7.0
 40
7.0
 40
7.0
 40
8.0
 40
8.0
 40
8.0
 40
8.0
 10
85.14691295614384
 20
-139.3765054990101
 10
85.03908146745552
 20
-139.5859673045132
 10
84.86562090977318
 20
-139.6052598392306
 10
84.74917668237174
 20
-139.6052598392306
 10
84.58846297798483
 20
-139.6052598392306
 10
84.44669729876681
 20
-139.5587510501798
 10
84.35144040859964
 20
-139.3765054990101
 10
84.24791528926788
 20
-139.1818576040934
 10
84.22879500932476
 20
-138.9451795442568
 10
84.22879500932476
 20
-138.7822265278045
 10
84.22879500932476
 20
-138.638221536521
 10
84.24567597720247
 20
-138.3867295660978
 10
84.35144040859964
 20
-138.1876030470503
 10
84.45944415206223
 20
-137.9846869229691
 10
84.62015785644913
 20
-137.9612602736694
 10
84.74917668237174
 20
-137.9612602736694
 10
84.90782332946749
 20
-137.9612602736694
 10
85.05165606597667
 20
-138.0057020054291
 10
85.14691295614384
 20
-138.1876030470503
 10
85.24630396089329
 20
-138.3801838846758
 10
85.26955835541872
 20
-138.6085937153479
 10
85.26955835541872
 20
-138.7822265278045
 10
85.26955835541872
 20
-138.9534477734214
 10
85.2485432729587
 20
-139.1842691709331
 10
85.14691295614384
 20
-139.3765054990101
 97
        0
 97
        0
 92
        1
 93
        1
 72
     4
 94
        3
 73
     0
 74
     1
 95
       17
 96
       13
 40
0.0
 40
0.0
 40
0.0
 40
0.0
 40
1.0
 40
1.0
 40
1.0
 40
2.0
 40
2.0
 40
2.0
 40
3.0
 40
3.0
 40
3.0
 40
4.0
 40
4.0
 40
4.0
 40
4.0
 10
84.74917668237174
 20
-138.1538411112949
 10
84.49957951446538
 20
-138.1538411112949
 10
84.45307072541452
 20
-138.4373724697309
 10
84.45307072541452
 20
-138.7822265278045
 10
84.45307072541452
 20
-139.1015868792871
 10
84.48907197323537
 20
-139.410611944314
 10
84.74917668237174
 20
-139.410611944314
 10
84.99670679298694
 20
-139.410611944314
 10
85.04545489410323
 20
-139.1291476431691
 10
85.04545489410323
 20
-138.7822265278045
 10
85.04545489410323
 20
-138.4628661763218
 10
85.00721433421695
 20
-138.1538411112949
 10
84.74917668237174
 20
-138.1538411112949
 97
        0
 97
        0
 75
     2
 76
     1
 98
        0
  0
ENDBLK
  5
AB
330
A8
100
AcDbEntity
  8
0
100
AcDbBlockEnd
  0
BLOCK
  5
BB
330
B9
100
AcDbEntity
  8
0
100
AcDbBlockBegin
  2
block 4
 70
     0
 10
0.0
 20
0.0
 30
0.0
  3
block 4
  1

  0
SPLINE
  5
BD
330
B9
100
AcDbEntity
  8
_U+30EC_U+30A4_U+30E4_U+30FC 1
370
     0
100
AcDbSpline
210
0.0
220
0.0
230
1.0
 70
    11
 71
     3
 72
    62
 73
    58
 74
     0
 42
0.0000000001
 43
0.0000000001
 12
1.0
 22
0.0
 32
0.0
 13
1.0
 23
0.0
 33
0.0
 40
0.0
 40
0.0
 40
0.0
 40
0.0
 40
1.0
 40
1.0
 40
1.0
 40
2.0
 40
2.0
 40
2.0
 40
3.0
 40
3.0
 40
3.0
 40
4.0
 40
4.0
 40
4.0
 40
5.0
 40
5.0
 40
5.0
 40
6.0
 40
6.0
 40
6.0
 40
7.0
 40
7.0
 40
7.0
 40
8.0
 40
8.0
 40
8.0
 40
9.0
 40
9.0
 40
9.0
 40
10.0
 40
10.0
 40
10.0
 40
11.0
 40
11.0
 40
11.0
 40
12.0
 40
12.0
 40
12.0
 40
13.0
 40
13.0
 40
13.0
 40
14.0
 40
14.0
 40
14.0
 40
15.0
 40
15.0
 40
15.0
 40
16.0
 40
16.0
 40
16.0
 40
17.0
 40
17.0
 40
17.0
 40
18.0
 40
18.0
 40
18.0
 40
19.0
 40
19.0
 40
19.0
 40
19.0
 10
106.9540228682268
 20
-134.708745626045
 30
0.0
 10
106.9540228682268
 20
-134.8041747709865
 30
0.0
 10
106.9330077857667
 20
-135.0219048056543
 30
0.0
 10
106.7469726295633
 20
-135.1469617717688
 30
0.0
 10
106.6346625167441
 20
-135.2206868151532
 30
0.0
 10
106.5354437667689
 20
-135.225165439284
 30
0.0
 10
106.4506944178318
 20
-135.2292995538663
 30
0.0
 10
106.4506944178318
 20
-135.2292995538663
 30
0.0
 10
106.4506944178318
 20
-135.0091579523588
 30
0.0
 10
106.4506944178318
 20
-135.0091579523588
 30
0.0
 10
106.5247639707647
 20
-135.0070908950677
 30
0.0
 10
106.7593749733102
 20
-134.9967556086119
 30
0.0
 10
106.7593749733102
 20
-134.7132242501759
 30
0.0
 10
106.7593749733102
 20
-134.5757649403144
 30
0.0
 10
106.6897840445081
 20
-134.4231472103178
 30
0.0
 10
106.4613742138361
 20
-134.4231472103178
 30
0.0
 10
106.3449299864346
 20
-134.4231472103178
 30
0.0
 10
106.2963541400926
 20
-134.4613877702041
 30
0.0
 10
106.2646592616283
 20
-134.4930826486684
 30
0.0
 10
106.1905897086954
 20
-134.5671522016013
 30
0.0
 10
106.1778428554
 20
-134.6835964290027
 30
0.0
 10
106.1778428554
 20
-134.7383734472182
 30
0.0
 10
106.1778428554
 20
-134.7576659819356
 30
0.0
 10
106.1799099126911
 20
-134.7934949749822
 30
0.0
 10
106.1840440272734
 20
-134.8210557388642
 30
0.0
 10
106.1840440272734
 20
-134.8210557388642
 30
0.0
 10
105.9893961323568
 20
-134.8210557388642
 30
0.0
 10
105.9893961323568
 20
-134.8210557388642
 30
0.0
 10
105.9959418137788
 20
-134.7828151789779
 30
0.0
 10
105.9980088710699
 20
-134.7407850140579
 30
0.0
 10
105.9980088710699
 20
-134.7342393326359
 30
0.0
 10
105.9980088710699
 20
-134.6687825184162
 30
0.0
 10
105.9766492790614
 20
-134.4700005089172
 30
0.0
 10
105.7399712192247
 20
-134.4700005089172
 30
0.0
 10
105.5622042921858
 20
-134.4700005089172
 30
0.0
 10
105.5070827644218
 20
-134.6009141373567
 30
0.0
 10
105.5070827644218
 20
-134.7111571928847
 30
0.0
 10
105.5070827644218
 20
-134.9753960166034
 30
0.0
 10
105.7399712192247
 20
-134.9840087553165
 30
0.0
 10
105.8116292053179
 20
-134.9881428698988
 30
0.0
 10
105.8116292053179
 20
-134.9881428698988
 30
0.0
 10
105.8116292053179
 20
-135.1914035035285
 30
0.0
 10
105.8116292053179
 20
-135.1914035035285
 30
0.0
 10
105.6869167487519
 20
-135.1827907648154
 30
0.0
 10
105.3103678122141
 20
-135.1552300009334
 30
0.0
 10
105.3103678122141
 20
-134.6984103395893
 30
0.0
 10
105.3103678122141
 20
-134.4741346234995
 30
0.0
 10
105.4374918356198
 20
-134.232977939532
 30
0.0
 10
105.7334255378028
 20
-134.232977939532
 30
0.0
 10
105.9198052035548
 20
-134.232977939532
 30
0.0
 10
106.0021429856522
 20
-134.3280625749249
 30
0.0
 10
106.0634656852897
 20
-134.4276258344487
 30
0.0
 10
106.0910264491717
 20
-134.3663031348112
 30
0.0
 10
106.171297173978
 20
-134.18440209319
 30
0.0
 10
106.4486273605406
 20
-134.18440209319
 30
0.0
 10
106.7869357371922
 20
-134.18440209319
 30
0.0
 10
106.9540228682268
 20
-134.4317599490309
 30
0.0
 10
106.9540228682268
 20
-134.708745626045
 30
0.0
  0
HATCH
  5
BE
330
B9
100
AcDbEntity
  8
_U+30EC_U+30A4_U+30E4_U+30FC 1
 62
     7
420
 16777215
100
AcDbHatch
 10
0.0
 20
0.0
 30
0.0
210
0.0
220
0.0
230
1.0
  2
SOLID
 70
     1
 71
     0
 91
        1
 92
        1
 93
        1
 72
     4
 94
        3
 73
     0
 74
     1
 95
       62
 96
       58
 40
0.0
 40
0.0
 40
0.0
 40
0.0
 40
1.0
 40
1.0
 40
1.0
 40
2.0
 40
2.0
 40
2.0
 40
3.0
 40
3.0
 40
3.0
 40
4.0
 40
4.0
 40
4.0
 40
5.0
 40
5.0
 40
5.0
 40
6.0
 40
6.0
 40
6.0
 40
7.0
 40
7.0
 40
7.0
 40
8.0
 40
8.0
 40
8.0
 40
9.0
 40
9.0
 40
9.0
 40
10.0
 40
10.0
 40
10.0
 40
11.0
 40
11.0
 40
11.0
 40
12.0
 40
12.0
 40
12.0
 40
13.0
 40
13.0
 40
13.0
 40
14.0
 40
14.0
 40
14.0
 40
15.0
 40
15.0
 40
15.0
 40
16.0
 40
16.0
 40
16.0
 40
17.0
 40
17.0
 40
17.0
 40
18.0
 40
18.0
 40
18.0
 40
19.0
 40
19.0
 40
19.0
 40
19.0
 10
106.9540228682268
 20
-134.708745626045
 10
106.9540228682268
 20
-134.8041747709865
 10
106.9330077857667
 20
-135.0219048056543
 10
106.7469726295633
 20
-135.1469617717688
 10
106.6346625167441
 20
-135.2206868151532
 10
106.5354437667689
 20
-135.225165439284
 10
106.4506944178318
 20
-135.2292995538663
 10
106.4506944178318
 20
-135.2292995538663
 10
106.4506944178318
 20
-135.0091579523588
 10
106.4506944178318
 20
-135.0091579523588
 10
106.5247639707647
 20
-135.0070908950677
 10
106.7593749733102
 20
-134.9967556086119
 10
106.7593749733102
 20
-134.7132242501759
 10
106.7593749733102
 20
-134.5757649403144
 10
106.6897840445081
 20
-134.4231472103178
 10
106.4613742138361
 20
-134.4231472103178
 10
106.3449299864346
 20
-134.4231472103178
 10
106.2963541400926
 20
-134.4613877702041
 10
106.2646592616283
 20
-134.4930826486684
 10
106.1905897086954
 20
-134.5671522016013
 10
106.1778428554
 20
-134.6835964290027
 10
106.1778428554
 20
-134.7383734472182
 10
106.1778428554
 20
-134.7576659819356
 10
106.1799099126911
 20
-134.7934949749822
 10
106.1840440272734
 20
-134.8210557388642
 10
106.1840440272734
 20
-134.8210557388642
 10
105.9893961323568
 20
-134.8210557388642
 10
105.9893961323568
 20
-134.8210557388642
 10
105.9959418137788
 20
-134.7828151789779
 10
105.9980088710699
 20
-134.7407850140579
 10
105.9980088710699
 20
-134.7342393326359
 10
105.9980088710699
 20
-134.6687825184162
 10
105.9766492790614
 20
-134.4700005089172
 10
105.7399712192247
 20
-134.4700005089172
 10
105.5622042921858
 20
-134.4700005089172
 10
105.5070827644218
 20
-134.6009141373567
 10
105.5070827644218
 20
-134.7111571928847
 10
105.5070827644218
 20
-134.9753960166034
 10
105.7399712192247
 20
-134.9840087553165
 10
105.8116292053179
 20
-134.9881428698988
 10
105.8116292053179
 20
-134.9881428698988
 10
105.8116292053179
 20
-135.1914035035285
 10
105.8116292053179
 20
-135.1914035035285
 10
105.6869167487519
 20
-135.1827907648154
 10
105.3103678122141
 20
-135.1552300009334
 10
105.3103678122141
 20
-134.6984103395893
 10
105.3103678122141
 20
-134.4741346234995
 10
105.4374918356198
 20
-134.232977939532
 10
105.7334255378028
 20
-134.232977939532
 10
105.9198052035548
 20
-134.232977939532
 10
106.0021429856522
 20
-134.3280625749249
 10
106.0634656852897
 20
-134.4276258344487
 10
106.0910264491717
 20
-134.3663031348112
 10
106.171297173978
 20
-134.18440209319
 10
106.4486273605406
 20
-134.18440209319
 10
106.7869357371922
 20
-134.18440209319
 10
106.9540228682268
 20
-134.4317599490309
 10
106.9540228682268
 20
-134.708745626045
 97
        0
 97
        0
 75
     2
 76
     1
 98
        0
  0
ENDBLK
  5
BC
330
B9
100
AcDbEntity
  8
0
100
AcDbBlockEnd
  0
BLOCK
  5
C9
330
C7
100
AcDbEntity
  8
0
100
AcDbBlockBegin
  2
block 5
 70
     0
 10
0.0
 20
0.0
 30
0.0
  3
block 5
  1

  0
SPLINE
  5
CB
330
C7
100
AcDbEntity
  8
_U+30EC_U+30A4_U+30E4_U+30FC 1
370
     0
100
AcDbSpline
210
0.0
220
0.0
230
1.0
 70
    11
 71
     3
 72
    29
 73
    25
 74
     0
 42
0.0000000001
 43
0.0000000001
 12
1.0
 22
0.0
 32
0.0
 13
1.0
 23
0.0
 33
0.0
 40
0.0
 40
0.0
 40
0.0
 40
0.0
 40
1.0
 40
1.0
 40
1.0
 40
2.0
 40
2.0
 40
2.0
 40
3.0
 40
3.0
 40
3.0
 40
4.0
 40
4.0
 40
4.0
 40
5.0
 40
5.0
 40
5.0
 40
6.0
 40
6.0
 40
6.0
 40
7.0
 40
7.0
 40
7.0
 40
8.0
 40
8.0
 40
8.0
 40
8.0
 10
106.9540228682268
 20
-129.8129204319565
 30
0.0
 10
106.9540228682268
 20
-130.0795708225148
 30
0.0
 10
106.8165635583653
 20
-130.3334743597777
 30
0.0
 10
106.4675753857095
 20
-130.3334743597777
 30
0.0
 10
106.2116047911554
 20
-130.3334743597777
 30
0.0
 10
106.1165201557625
 20
-130.1915364257854
 30
0.0
 10
106.0551974561251
 20
-130.0857719943883
 30
0.0
 10
105.9959418137788
 20
-130.2104844509543
 30
0.0
 10
105.8815646436685
 20
-130.2866210611784
 30
0.0
 10
105.7206786845073
 20
-130.2866210611784
 30
0.0
 10
105.4457600647844
 20
-130.2866210611784
 30
0.0
 10
105.3103678122141
 20
-130.0878390516794
 30
0.0
 10
105.3103678122141
 20
-129.8129204319565
 30
0.0
 10
105.3103678122141
 20
-129.5293890735204
 30
0.0
 10
105.4543728034975
 20
-129.3388752931861
 30
0.0
 10
105.7206786845073
 20
-129.3388752931861
 30
0.0
 10
105.8815646436685
 20
-129.3388752931861
 30
0.0
 10
105.9959418137788
 20
-129.4174234702498
 30
0.0
 10
106.0551974561251
 20
-129.5421359268159
 30
0.0
 10
106.1058403597583
 20
-129.4532524632964
 30
0.0
 10
106.2009249951512
 20
-129.2944335614264
 30
0.0
 10
106.4634412711272
 20
-129.2944335614264
 30
0.0
 10
106.8379231503739
 20
-129.2944335614264
 30
0.0
 10
106.9540228682268
 20
-129.5738308052802
 30
0.0
 10
106.9540228682268
 20
-129.8129204319565
 30
0.0
  0
SPLINE
  5
CC
330
C7
100
AcDbEntity
  8
_U+30EC_U+30A4_U+30E4_U+30FC 1
370
     0
100
AcDbSpline
210
0.0
220
0.0
230
1.0
 70
    11
 71
     3
 72
    17
 73
    13
 74
     0
 42
0.0000000001
 43
0.0000000001
 12
1.0
 22
0.0
 32
0.0
 13
1.0
 23
0.0
 33
0.0
 40
0.0
 40
0.0
 40
0.0
 40
0.0
 40
1.0
 40
1.0
 40
1.0
 40
2.0
 40
2.0
 40
2.0
 40
3.0
 40
3.0
 40
3.0
 40
4.0
 40
4.0
 40
4.0
 40
4.0
 10
105.5029486498395
 20
-129.8129204319565
 30
0.0
 10
105.5029486498395
 20
-129.9779405057
 30
0.0
 10
105.5980332852324
 20
-130.0626898546371
 30
0.0
 10
105.7334255378028
 20
-130.0626898546371
 30
0.0
 10
105.8560709370777
 20
-130.0626898546371
 30
0.0
 10
105.9745822217702
 20
-129.9906873589954
 30
0.0
 10
105.9745822217702
 20
-129.8129204319565
 30
0.0
 10
105.9745822217702
 20
-129.6351535049176
 30
0.0
 10
105.8560709370777
 20
-129.5631510092759
 30
0.0
 10
105.7334255378028
 20
-129.5631510092759
 30
0.0
 10
105.5980332852324
 20
-129.5631510092759
 30
0.0
 10
105.5029486498395
 20
-129.6499674155042
 30
0.0
 10
105.5029486498395
 20
-129.8129204319565
 30
0.0
  0
SPLINE
  5
CD
330
C7
100
AcDbEntity
  8
_U+30EC_U+30A4_U+30E4_U+30FC 1
370
     0
100
AcDbSpline
210
0.0
220
0.0
230
1.0
 70
    11
 71
     3
 72
    17
 73
    13
 74
     0
 42
0.0000000001
 43
0.0000000001
 12
1.0
 22
0.0
 32
0.0
 13
1.0
 23
0.0
 33
0.0
 40
0.0
 40
0.0
 40
0.0
 40
0.0
 40
1.0
 40
1.0
 40
1.0
 40
2.0
 40
2.0
 40
2.0
 40
3.0
 40
3.0
 40
3.0
 40
4.0
 40
4.0
 40
4.0
 40
4.0
 10
106.1630289448134
 20
-129.8129204319565
 30
0.0
 10
106.1630289448134
 20
-129.9565809136914
 30
0.0
 10
106.2498453510417
 20
-130.109198643688
 30
0.0
 10
106.4527614751229
 20
-130.109198643688
 30
0.0
 10
106.6580891660438
 20
-130.109198643688
 30
0.0
 10
106.7593749733102
 20
-129.9820746202823
 30
0.0
 10
106.7593749733102
 20
-129.8129204319565
 30
0.0
 10
106.7593749733102
 20
-129.626885275753
 30
0.0
 10
106.6367295740353
 20
-129.516642220225
 30
0.0
 10
106.4589626469964
 20
-129.516642220225
 30
0.0
 10
106.2370984977463
 20
-129.516642220225
 30
0.0
 10
106.1630289448134
 20
-129.6795952366773
 30
0.0
 10
106.1630289448134
 20
-129.8129204319565
 30
0.0
  0
HATCH
  5
CE
330
C7
100
AcDbEntity
  8
_U+30EC_U+30A4_U+30E4_U+30FC 1
 62
     7
420
 16777215
100
AcDbHatch
 10
0.0
 20
0.0
 30
0.0
210
0.0
220
0.0
230
1.0
  2
SOLID
 70
     1
 71
     0
 91
        3
 92
        1
 93
        1
 72
     4
 94
        3
 73
     0
 74
     1
 95
       29
 96
       25
 40
0.0
 40
0.0
 40
0.0
 40
0.0
 40
1.0
 40
1.0
 40
1.0
 40
2.0
 40
2.0
 40
2.0
 40
3.0
 40
3.0
 40
3.0
 40
4.0
 40
4.0
 40
4.0
 40
5.0
 40
5.0
 40
5.0
 40
6.0
 40
6.0
 40
6.0
 40
7.0
 40
7.0
 40
7.0
 40
8.0
 40
8.0
 40
8.0
 40
8.0
 10
106.9540228682268
 20
-129.8129204319565
 10
106.9540228682268
 20
-130.0795708225148
 10
106.8165635583653
 20
-130.3334743597777
 10
106.4675753857095
 20
-130.3334743597777
 10
106.2116047911554
 20
-130.3334743597777
 10
106.1165201557625
 20
-130.1915364257854
 10
106.0551974561251
 20
-130.0857719943883
 10
105.9959418137788
 20
-130.2104844509543
 10
105.8815646436685
 20
-130.2866210611784
 10
105.7206786845073
 20
-130.2866210611784
 10
105.4457600647844
 20
-130.2866210611784
 10
105.3103678122141
 20
-130.0878390516794
 10
105.3103678122141
 20
-129.8129204319565
 10
105.3103678122141
 20
-129.5293890735204
 10
105.4543728034975
 20
-129.3388752931861
 10
105.7206786845073
 20
-129.3388752931861
 10
105.8815646436685
 20
-129.3388752931861
 10
105.9959418137788
 20
-129.4174234702498
 10
106.0551974561251
 20
-129.5421359268159
 10
106.1058403597583
 20
-129.4532524632964
 10
106.2009249951512
 20
-129.2944335614264
 10
106.4634412711272
 20
-129.2944335614264
 10
106.8379231503739
 20
-129.2944335614264
 10
106.9540228682268
 20
-129.5738308052802
 10
106.9540228682268
 20
-129.8129204319565
 97
        0
 97
        0
 92
        1
 93
        1
 72
     4
 94
        3
 73
     0
 74
     1
 95
       17
 96
       13
 40
0.0
 40
0.0
 40
0.0
 40
0.0
 40
1.0
 40
1.0
 40
1.0
 40
2.0
 40
2.0
 40
2.0
 40
3.0
 40
3.0
 40
3.0
 40
4.0
 40
4.0
 40
4.0
 40
4.0
 10
105.5029486498395
 20
-129.8129204319565
 10
105.5029486498395
 20
-129.9779405057
 10
105.5980332852324
 20
-130.0626898546371
 10
105.7334255378028
 20
-130.0626898546371
 10
105.8560709370777
 20
-130.0626898546371
 10
105.9745822217702
 20
-129.9906873589954
 10
105.9745822217702
 20
-129.8129204319565
 10
105.9745822217702
 20
-129.6351535049176
 10
105.8560709370777
 20
-129.5631510092759
 10
105.7334255378028
 20
-129.5631510092759
 10
105.5980332852324
 20
-129.5631510092759
 10
105.5029486498395
 20
-129.6499674155042
 10
105.5029486498395
 20
-129.8129204319565
 97
        0
 97
        0
 92
        1
 93
        1
 72
     4
 94
        3
 73
     0
 74
     1
 95
       17
 96
       13
 40
0.0
 40
0.0
 40
0.0
 40
0.0
 40
1.0
 40
1.0
 40
1.0
 40
2.0
 40
2.0
 40
2.0
 40
3.0
 40
3.0
 40
3.0
 40
4.0
 40
4.0
 40
4.0
 40
4.0
 10
106.1630289448134
 20
-129.8129204319565
 10
106.1630289448134
 20
-129.9565809136914
 10
106.2498453510417
 20
-130.109198643688
 10
106.4527614751229
 20
-130.109198643688
 10
106.6580891660438
 20
-130.109198643688
 10
106.7593749733102
 20
-129.9820746202823
 10
106.7593749733102
 20
-129.8129204319565
 10
106.7593749733102
 20
-129.626885275753
 10
106.6367295740353
 20
-129.516642220225
 10
106.4589626469964
 20
-129.516642220225
 10
106.2370984977463
 20
-129.516642220225
 10
106.1630289448134
 20
-129.6795952366773
 10
106.1630289448134
 20
-129.8129204319565
 97
        0
 97
        0
 75
     2
 76
     1
 98
        0
  0
POLYLINE
  5
CF
330
C7
100
AcDbEntity
  8
_U+30EC_U+30A4_U+30E4_U+30FC 1
370
     0
100
AcDb2dPolyline
 66
     1
 10
0.0
 20
0.0
 30
0.0
  0
VERTEX
  5
D0
330
CF
100
AcDbEntity
  8
_U+30EC_U+30A4_U+30E4_U+30FC 1
370
     0
100
AcDbVertex
100
AcDb2dVertex
 10
106.9033799645936
 20
-129.0760145076616
 30
0.0
  0
VERTEX
  5
D1
330
CF
100
AcDbEntity
  8
_U+30EC_U+30A4_U+30E4_U+30FC 1
370
     0
100
AcDbVertex
100
AcDb2dVertex
 10
106.6515434846218
 20
-129.0760145076616
 30
0.0
  0
VERTEX
  5
D2
330
CF
100
AcDbEntity
  8
_U+30EC_U+30A4_U+30E4_U+30FC 1
370
     0
100
AcDbVertex
100
AcDb2dVertex
 10
106.6515434846218
 20
-128.8241780276898
 30
0.0
  0
VERTEX
  5
D3
330
CF
100
AcDbEntity
  8
_U+30EC_U+30A4_U+30E4_U+30FC 1
370
     0
100
AcDbVertex
100
AcDb2dVertex
 10
106.9033799645936
 20
-128.8241780276898
 30
0.0
  0
VERTEX
  5
D4
330
CF
100
AcDbEntity
  8
_U+30EC_U+30A4_U+30E4_U+30FC 1
370
     0
100
AcDbVertex
100
AcDb2dVertex
 10
106.9033799645936
 20
-129.0760145076616
 30
0.0
  0
SEQEND
  5
D5
330
CF
100
AcDbEntity
  8
_U+30EC_U+30A4_U+30E4_U+30FC 1
370
     0
  0
HATCH
  5
D6
330
C7
100
AcDbEntity
  8
_U+30EC_U+30A4_U+30E4_U+30FC 1
 62
     7
420
 16777215
100
AcDbHatch
 10
0.0
 20
0.0
 30
0.0
210
0.0
220
0.0
230
1.0
  2
SOLID
 70
     1
 71
     0
 91
        1
 92
        1
 93
        4
 72
     1
 10
106.9033799645936
 20
-129.0760145076616
 11
106.6515434846218
 21
-129.0760145076616
 72
     1
 10
106.6515434846218
 20
-129.0760145076616
 11
106.6515434846218
 21
-128.8241780276898
 72
     1
 10
106.6515434846218
 20
-128.8241780276898
 11
106.9033799645936
 21
-128.8241780276898
 72
     1
 10
106.9033799645936
 20
-128.8241780276898
 11
106.9033799645936
 21
-129.0760145076616
 97
        0
 75
     2
 76
     1
 98
        0
  0
SPLINE
  5
D7
330
C7
100
AcDbEntity
  8
_U+30EC_U+30A4_U+30E4_U+30FC 1
370
     0
100
AcDbSpline
210
0.0
220
0.0
230
1.0
 70
    11
 71
     3
 72
    53
 73
    49
 74
     0
 42
0.0000000001
 43
0.0000000001
 12
1.0
 22
0.0
 32
0.0
 13
1.0
 23
0.0
 33
0.0
 40
0.0
 40
0.0
 40
0.0
 40
0.0
 40
1.0
 40
1.0
 40
1.0
 40
2.0
 40
2.0
 40
2.0
 40
3.0
 40
3.0
 40
3.0
 40
4.0
 40
4.0
 40
4.0
 40
5.0
 40
5.0
 40
5.0
 40
6.0
 40
6.0
 40
6.0
 40
7.0
 40
7.0
 40
7.0
 40
8.0
 40
8.0
 40
8.0
 40
9.0
 40
9.0
 40
9.0
 40
10.0
 40
10.0
 40
10.0
 40
11.0
 40
11.0
 40
11.0
 40
12.0
 40
12.0
 40
12.0
 40
13.0
 40
13.0
 40
13.0
 40
14.0
 40
14.0
 40
14.0
 40
15.0
 40
15.0
 40
15.0
 40
16.0
 40
16.0
 40
16.0
 40
16.0
 10
106.9540228682268
 20
-128.1069091476608
 30
0.0
 10
106.9540228682268
 20
-128.185112815176
 30
0.0
 10
106.937141900349
 20
-128.2867431319908
 30
0.0
 10
106.8737521434205
 20
-128.3883734488057
 30
0.0
 10
106.763853597441
 20
-128.5616617517138
 30
0.0
 10
106.632595459453
 20
-128.5830213437223
 30
0.0
 10
106.5247639707647
 20
-128.6019693688912
 30
0.0
 10
106.5247639707647
 20
-128.6019693688912
 30
0.0
 10
106.5247639707647
 20
-128.3797607100926
 30
0.0
 10
106.5247639707647
 20
-128.3797607100926
 30
0.0
 10
106.7235459802636
 20
-128.3249836918771
 30
0.0
 10
106.7531738014367
 20
-128.1978596684714
 30
0.0
 10
106.7531738014367
 20
-128.1048420903696
 30
0.0
 10
106.7531738014367
 20
-127.965315723217
 30
0.0
 10
106.653610541913
 20
-127.813042502769
 30
0.0
 10
106.4210665966586
 20
-127.813042502769
 30
0.0
 10
106.1650960021046
 20
-127.813042502769
 30
0.0
 10
106.095160563754
 20
-127.992876487099
 30
0.0
 10
106.095160563754
 20
-128.1134548290827
 30
0.0
 10
106.095160563754
 20
-128.1451497075471
 30
0.0
 10
106.095160563754
 20
-128.2867431319908
 30
0.0
 10
106.2243516444509
 20
-128.3756265955103
 30
0.0
 10
106.2243516444509
 20
-128.3756265955103
 30
0.0
 10
106.205403619282
 20
-128.551326465258
 30
0.0
 10
106.205403619282
 20
-128.551326465258
 30
0.0
 10
106.205403619282
 20
-128.551326465258
 30
0.0
 10
105.3589436585561
 20
-128.4307481232743
 30
0.0
 10
105.3589436585561
 20
-128.4307481232743
 30
0.0
 10
105.3589436585561
 20
-128.4307481232743
 30
0.0
 10
105.3589436585561
 20
-127.6521565436078
 30
0.0
 10
105.3589436585561
 20
-127.6521565436078
 30
0.0
 10
105.3589436585561
 20
-127.6521565436078
 30
0.0
 10
105.5535915534727
 20
-127.6521565436078
 30
0.0
 10
105.5535915534727
 20
-127.6521565436078
 30
0.0
 10
105.5535915534727
 20
-127.6521565436078
 30
0.0
 10
105.5535915534727
 20
-128.2677951068219
 30
0.0
 10
105.5535915534727
 20
-128.2677951068219
 30
0.0
 10
105.5535915534727
 20
-128.2677951068219
 30
0.0
 10
105.9766492790614
 20
-128.3332519210417
 30
0.0
 10
105.9766492790614
 20
-128.3332519210417
 30
0.0
 10
105.942887343306
 20
-128.2719292214042
 30
0.0
 10
105.9025797261285
 20
-128.1895914393068
 30
0.0
 10
105.9025797261285
 20
-128.0710801546142
 30
0.0
 10
105.9025797261285
 20
-127.8171766173513
 30
0.0
 10
106.0889593918805
 20
-127.5801540479661
 30
0.0
 10
106.4021185714898
 20
-127.5801540479661
 30
0.0
 10
106.7194118656813
 20
-127.5801540479661
 30
0.0
 10
106.9540228682268
 20
-127.8044297640558
 30
0.0
 10
106.9540228682268
 20
-128.1069091476608
 30
0.0
  0
HATCH
  5
D8
330
C7
100
AcDbEntity
  8
_U+30EC_U+30A4_U+30E4_U+30FC 1
 62
     7
420
 16777215
100
AcDbHatch
 10
0.0
 20
0.0
 30
0.0
210
0.0
220
0.0
230
1.0
  2
SOLID
 70
     1
 71
     0
 91
        1
 92
        1
 93
        1
 72
     4
 94
        3
 73
     0
 74
     1
 95
       53
 96
       49
 40
0.0
 40
0.0
 40
0.0
 40
0.0
 40
1.0
 40
1.0
 40
1.0
 40
2.0
 40
2.0
 40
2.0
 40
3.0
 40
3.0
 40
3.0
 40
4.0
 40
4.0
 40
4.0
 40
5.0
 40
5.0
 40
5.0
 40
6.0
 40
6.0
 40
6.0
 40
7.0
 40
7.0
 40
7.0
 40
8.0
 40
8.0
 40
8.0
 40
9.0
 40
9.0
 40
9.0
 40
10.0
 40
10.0
 40
10.0
 40
11.0
 40
11.0
 40
11.0
 40
12.0
 40
12.0
 40
12.0
 40
13.0
 40
13.0
 40
13.0
 40
14.0
 40
14.0
 40
14.0
 40
15.0
 40
15.0
 40
15.0
 40
16.0
 40
16.0
 40
16.0
 40
16.0
 10
106.9540228682268
 20
-128.1069091476608
 10
106.9540228682268
 20
-128.185112815176
 10
106.937141900349
 20
-128.2867431319908
 10
106.8737521434205
 20
-128.3883734488057
 10
106.763853597441
 20
-128.5616617517138
 10
106.632595459453
 20
-128.5830213437223
 10
106.5247639707647
 20
-128.6019693688912
 10
106.5247639707647
 20
-128.6019693688912
 10
106.5247639707647
 20
-128.3797607100926
 10
106.5247639707647
 20
-128.3797607100926
 10
106.7235459802636
 20
-128.3249836918771
 10
106.7531738014367
 20
-128.1978596684714
 10
106.7531738014367
 20
-128.1048420903696
 10
106.7531738014367
 20
-127.965315723217
 10
106.653610541913
 20
-127.813042502769
 10
106.4210665966586
 20
-127.813042502769
 10
106.1650960021046
 20
-127.813042502769
 10
106.095160563754
 20
-127.992876487099
 10
106.095160563754
 20
-128.1134548290827
 10
106.095160563754
 20
-128.1451497075471
 10
106.095160563754
 20
-128.2867431319908
 10
106.2243516444509
 20
-128.3756265955103
 10
106.2243516444509
 20
-128.3756265955103
 10
106.205403619282
 20
-128.551326465258
 10
106.205403619282
 20
-128.551326465258
 10
106.205403619282
 20
-128.551326465258
 10
105.3589436585561
 20
-128.4307481232743
 10
105.3589436585561
 20
-128.4307481232743
 10
105.3589436585561
 20
-128.4307481232743
 10
105.3589436585561
 20
-127.6521565436078
 10
105.3589436585561
 20
-127.6521565436078
 10
105.3589436585561
 20
-127.6521565436078
 10
105.5535915534727
 20
-127.6521565436078
 10
105.5535915534727
 20
-127.6521565436078
 10
105.5535915534727
 20
-127.6521565436078
 10
105.5535915534727
 20
-128.2677951068219
 10
105.5535915534727
 20
-128.2677951068219
 10
105.5535915534727
 20
-128.2677951068219
 10
105.9766492790614
 20
-128.3332519210417
 10
105.9766492790614
 20
-128.3332519210417
 10
105.942887343306
 20
-128.2719292214042
 10
105.9025797261285
 20
-128.1895914393068
 10
105.9025797261285
 20
-128.0710801546142
 10
105.9025797261285
 20
-127.8171766173513
 10
106.0889593918805
 20
-127.5801540479661
 10
106.4021185714898
 20
-127.5801540479661
 10
106.7194118656813
 20
-127.5801540479661
 10
106.9540228682268
 20
-127.8044297640558
 10
106.9540228682268
 20
-128.1069091476608
 97
        0
 97
        0
 75
     2
 76
     1
 98
        0
  0
ENDBLK
  5
CA
330
C7
100
AcDbEntity
  8
0
100
AcDbBlockEnd
  0
BLOCK
  5
E7
330
E5
100
AcDbEntity
  8
0
100
AcDbBlockBegin
  2
block 6
 70
     0
 10
0.0
 20
0.0
 30
0.0
  3
block 6
  1

  0
SPLINE
  5
E9
330
E5
100
AcDbEntity
  8
_U+30EC_U+30A4_U+30E4_U+30FC 1
370
     0
100
AcDbSpline
210
0.0
220
0.0
230
1.0
 70
    11
 71
     3
 72
    62
 73
    58
 74
     0
 42
0.0000000001
 43
0.0000000001
 12
1.0
 22
0.0
 32
0.0
 13
1.0
 23
0.0
 33
0.0
 40
0.0
 40
0.0
 40
0.0
 40
0.0
 40
1.0
 40
1.0
 40
1.0
 40
2.0
 40
2.0
 40
2.0
 40
3.0
 40
3.0
 40
3.0
 40
4.0
 40
4.0
 40
4.0
 40
5.0
 40
5.0
 40
5.0
 40
6.0
 40
6.0
 40
6.0
 40
7.0
 40
7.0
 40
7.0
 40
8.0
 40
8.0
 40
8.0
 40
9.0
 40
9.0
 40
9.0
 40
10.0
 40
10.0
 40
10.0
 40
11.0
 40
11.0
 40
11.0
 40
12.0
 40
12.0
 40
12.0
 40
13.0
 40
13.0
 40
13.0
 40
14.0
 40
14.0
 40
14.0
 40
15.0
 40
15.0
 40
15.0
 40
16.0
 40
16.0
 40
16.0
 40
17.0
 40
17.0
 40
17.0
 40
18.0
 40
18.0
 40
18.0
 40
19.0
 40
19.0
 40
19.0
 40
19.0
 10
88.09229734125817
 20
-119.1050468994772
 30
0.0
 10
87.99704045109102
 20
-119.1050468994772
 30
0.0
 10
87.77913816164897
 20
-119.0838595622429
 30
0.0
 10
87.65442570508293
 20
-118.8976521512652
 30
0.0
 10
87.58035615215006
 20
-118.7855142932203
 30
0.0
 10
87.57604978279349
 20
-118.6861232884708
 30
0.0
 10
87.57191566821119
 20
-118.601546194308
 30
0.0
 10
87.57191566821119
 20
-118.601546194308
 30
0.0
 10
87.7918850149444
 20
-118.601546194308
 30
0.0
 10
87.7918850149444
 20
-118.601546194308
 30
0.0
 10
87.79395207223554
 20
-118.6756157472408
 30
0.0
 10
87.80463186823982
 20
-118.9103990045606
 30
0.0
 10
88.08799097190162
 20
-118.9103990045606
 30
0.0
 10
88.22562253653734
 20
-118.9103990045606
 30
0.0
 10
88.3778957569854
 20
-118.8406358209843
 30
0.0
 10
88.3778957569854
 20
-118.612053735538
 30
0.0
 10
88.3778957569854
 20
-118.4957817629108
 30
0.0
 10
88.33982745187338
 20
-118.4470336617945
 30
0.0
 10
88.30813257340908
 20
-118.4153387833302
 30
0.0
 10
88.23406302047621
 20
-118.3412692303973
 30
0.0
 10
88.11761879307477
 20
-118.3286946318762
 30
0.0
 10
88.06266952008504
 20
-118.3286946318762
 30
0.0
 10
88.04372149491616
 20
-118.3286946318762
 30
0.0
 10
88.00772024709529
 20
-118.3307616891673
 30
0.0
 10
87.9801594832133
 20
-118.3348958037496
 30
0.0
 10
87.9801594832133
 20
-118.3348958037496
 30
0.0
 10
87.9801594832133
 20
-118.140247908833
 30
0.0
 10
87.9801594832133
 20
-118.140247908833
 30
0.0
 10
88.0182277883253
 20
-118.1466213354807
 30
0.0
 10
88.06060246279388
 20
-118.1488606475461
 30
0.0
 10
88.0669758894416
 20
-118.1488606475461
 30
0.0
 10
88.13243270366134
 20
-118.1488606475461
 30
0.0
 10
88.33138696793452
 20
-118.1276733103118
 30
0.0
 10
88.33138696793452
 20
-117.8906507409266
 30
0.0
 10
88.33138696793452
 20
-117.713056068662
 30
0.0
 10
88.2001288299465
 20
-117.657934540898
 30
0.0
 10
88.09023028396703
 20
-117.657934540898
 30
0.0
 10
87.8258192054741
 20
-117.657934540898
 30
0.0
 10
87.81720646676098
 20
-117.8906507409266
 30
0.0
 10
87.81307235217868
 20
-117.9626532365684
 30
0.0
 10
87.81307235217868
 20
-117.9626532365684
 30
0.0
 10
87.6099839733232
 20
-117.9626532365684
 30
0.0
 10
87.6099839733232
 20
-117.9626532365684
 30
0.0
 10
87.61842445726207
 20
-117.8377685252281
 30
0.0
 10
87.64598522114406
 20
-117.4612195886903
 30
0.0
 10
88.10280488248819
 20
-117.4612195886903
 30
0.0
 10
88.32708059857795
 20
-117.4612195886903
 30
0.0
 10
88.56823728254544
 20
-117.5881713573217
 30
0.0
 10
88.56823728254544
 20
-117.8842773142789
 30
0.0
 10
88.56823728254544
 20
-118.0704847252567
 30
0.0
 10
88.47315264715255
 20
-118.1529947621284
 30
0.0
 10
88.37358938762883
 20
-118.2143174617659
 30
0.0
 10
88.43508434204054
 20
-118.2418782256479
 30
0.0
 10
88.61698538366173
 20
-118.3223212052284
 30
0.0
 10
88.61698538366173
 20
-118.5994791370168
 30
0.0
 10
88.61698538366173
 20
-118.9379597684426
 30
0.0
 10
88.36945527304653
 20
-119.1050468994772
 30
0.0
 10
88.09229734125817
 20
-119.1050468994772
 30
0.0
  0
HATCH
  5
EA
330
E5
100
AcDbEntity
  8
_U+30EC_U+30A4_U+30E4_U+30FC 1
 62
     7
420
 16777215
100
AcDbHatch
 10
0.0
 20
0.0
 30
0.0
210
0.0
220
0.0
230
1.0
  2
SOLID
 70
     1
 71
     0
 91
        1
 92
        1
 93
        1
 72
     4
 94
        3
 73
     0
 74
     1
 95
       62
 96
       58
 40
0.0
 40
0.0
 40
0.0
 40
0.0
 40
1.0
 40
1.0
 40
1.0
 40
2.0
 40
2.0
 40
2.0
 40
3.0
 40
3.0
 40
3.0
 40
4.0
 40
4.0
 40
4.0
 40
5.0
 40
5.0
 40
5.0
 40
6.0
 40
6.0
 40
6.0
 40
7.0
 40
7.0
 40
7.0
 40
8.0
 40
8.0
 40
8.0
 40
9.0
 40
9.0
 40
9.0
 40
10.0
 40
10.0
 40
10.0
 40
11.0
 40
11.0
 40
11.0
 40
12.0
 40
12.0
 40
12.0
 40
13.0
 40
13.0
 40
13.0
 40
14.0
 40
14.0
 40
14.0
 40
15.0
 40
15.0
 40
15.0
 40
16.0
 40
16.0
 40
16.0
 40
17.0
 40
17.0
 40
17.0
 40
18.0
 40
18.0
 40
18.0
 40
19.0
 40
19.0
 40
19.0
 40
19.0
 10
88.09229734125817
 20
-119.1050468994772
 10
87.99704045109102
 20
-119.1050468994772
 10
87.77913816164897
 20
-119.0838595622429
 10
87.65442570508293
 20
-118.8976521512652
 10
87.58035615215006
 20
-118.7855142932203
 10
87.57604978279349
 20
-118.6861232884708
 10
87.57191566821119
 20
-118.601546194308
 10
87.57191566821119
 20
-118.601546194308
 10
87.7918850149444
 20
-118.601546194308
 10
87.7918850149444
 20
-118.601546194308
 10
87.79395207223554
 20
-118.6756157472408
 10
87.80463186823982
 20
-118.9103990045606
 10
88.08799097190162
 20
-118.9103990045606
 10
88.22562253653734
 20
-118.9103990045606
 10
88.3778957569854
 20
-118.8406358209843
 10
88.3778957569854
 20
-118.612053735538
 10
88.3778957569854
 20
-118.4957817629108
 10
88.33982745187338
 20
-118.4470336617945
 10
88.30813257340908
 20
-118.4153387833302
 10
88.23406302047621
 20
-118.3412692303973
 10
88.11761879307477
 20
-118.3286946318762
 10
88.06266952008504
 20
-118.3286946318762
 10
88.04372149491616
 20
-118.3286946318762
 10
88.00772024709529
 20
-118.3307616891673
 10
87.9801594832133
 20
-118.3348958037496
 10
87.9801594832133
 20
-118.3348958037496
 10
87.9801594832133
 20
-118.140247908833
 10
87.9801594832133
 20
-118.140247908833
 10
88.0182277883253
 20
-118.1466213354807
 10
88.06060246279388
 20
-118.1488606475461
 10
88.0669758894416
 20
-118.1488606475461
 10
88.13243270366134
 20
-118.1488606475461
 10
88.33138696793452
 20
-118.1276733103118
 10
88.33138696793452
 20
-117.8906507409266
 10
88.33138696793452
 20
-117.713056068662
 10
88.2001288299465
 20
-117.657934540898
 10
88.09023028396703
 20
-117.657934540898
 10
87.8258192054741
 20
-117.657934540898
 10
87.81720646676098
 20
-117.8906507409266
 10
87.81307235217868
 20
-117.9626532365684
 10
87.81307235217868
 20
-117.9626532365684
 10
87.6099839733232
 20
-117.9626532365684
 10
87.6099839733232
 20
-117.9626532365684
 10
87.61842445726207
 20
-117.8377685252281
 10
87.64598522114406
 20
-117.4612195886903
 10
88.10280488248819
 20
-117.4612195886903
 10
88.32708059857795
 20
-117.4612195886903
 10
88.56823728254544
 20
-117.5881713573217
 10
88.56823728254544
 20
-117.8842773142789
 10
88.56823728254544
 20
-118.0704847252567
 10
88.47315264715255
 20
-118.1529947621284
 10
88.37358938762883
 20
-118.2143174617659
 10
88.43508434204054
 20
-118.2418782256479
 10
88.61698538366173
 20
-118.3223212052284
 10
88.61698538366173
 20
-118.5994791370168
 10
88.61698538366173
 20
-118.9379597684426
 10
88.36945527304653
 20
-119.1050468994772
 10
88.09229734125817
 20
-119.1050468994772
 97
        0
 97
        0
 75
     2
 76
     1
 98
        0
  0
SPLINE
  5
EB
330
E5
100
AcDbEntity
  8
_U+30EC_U+30A4_U+30E4_U+30FC 1
370
     0
100
AcDbSpline
210
0.0
220
0.0
230
1.0
 70
    11
 71
     3
 72
    26
 73
    22
 74
     0
 42
0.0000000001
 43
0.0000000001
 12
1.0
 22
0.0
 32
0.0
 13
1.0
 23
0.0
 33
0.0
 40
0.0
 40
0.0
 40
0.0
 40
0.0
 40
1.0
 40
1.0
 40
1.0
 40
2.0
 40
2.0
 40
2.0
 40
3.0
 40
3.0
 40
3.0
 40
4.0
 40
4.0
 40
4.0
 40
5.0
 40
5.0
 40
5.0
 40
6.0
 40
6.0
 40
6.0
 40
7.0
 40
7.0
 40
7.0
 40
7.0
 10
89.22900659661636
 20
-119.0542317410698
 30
0.0
 10
89.22900659661636
 20
-119.0542317410698
 30
0.0
 10
89.22900659661636
 20
-117.9499063832729
 30
0.0
 10
89.22900659661636
 20
-117.9499063832729
 30
0.0
 10
89.22900659661636
 20
-117.9499063832729
 30
0.0
 10
88.89896644912943
 20
-117.9499063832729
 30
0.0
 10
88.89896644912943
 20
-117.9499063832729
 30
0.0
 10
88.89896644912943
 20
-117.9499063832729
 30
0.0
 10
88.89896644912943
 20
-117.8019395321815
 30
0.0
 10
88.89896644912943
 20
-117.8019395321815
 30
0.0
 10
89.23107365390752
 20
-117.7871256215949
 30
0.0
 10
89.27758244295839
 20
-117.6241726051426
 30
0.0
 10
89.30721026413154
 20
-117.5099676898065
 30
0.0
 10
89.30721026413154
 20
-117.5099676898065
 30
0.0
 10
89.45328231270612
 20
-117.5099676898065
 30
0.0
 10
89.45328231270612
 20
-117.5099676898065
 30
0.0
 10
89.45328231270612
 20
-117.5099676898065
 30
0.0
 10
89.45328231270612
 20
-119.0542317410698
 30
0.0
 10
89.45328231270612
 20
-119.0542317410698
 30
0.0
 10
89.45328231270612
 20
-119.0542317410698
 30
0.0
 10
89.22900659661636
 20
-119.0542317410698
 30
0.0
 10
89.22900659661636
 20
-119.0542317410698
 30
0.0
  0
HATCH
  5
EC
330
E5
100
AcDbEntity
  8
_U+30EC_U+30A4_U+30E4_U+30FC 1
 62
     7
420
 16777215
100
AcDbHatch
 10
0.0
 20
0.0
 30
0.0
210
0.0
220
0.0
230
1.0
  2
SOLID
 70
     1
 71
     0
 91
        1
 92
        1
 93
        1
 72
     4
 94
        3
 73
     0
 74
     1
 95
       26
 96
       22
 40
0.0
 40
0.0
 40
0.0
 40
0.0
 40
1.0
 40
1.0
 40
1.0
 40
2.0
 40
2.0
 40
2.0
 40
3.0
 40
3.0
 40
3.0
 40
4.0
 40
4.0
 40
4.0
 40
5.0
 40
5.0
 40
5.0
 40
6.0
 40
6.0
 40
6.0
 40
7.0
 40
7.0
 40
7.0
 40
7.0
 10
89.22900659661636
 20
-119.0542317410698
 10
89.22900659661636
 20
-119.0542317410698
 10
89.22900659661636
 20
-117.9499063832729
 10
89.22900659661636
 20
-117.9499063832729
 10
89.22900659661636
 20
-117.9499063832729
 10
88.89896644912943
 20
-117.9499063832729
 10
88.89896644912943
 20
-117.9499063832729
 10
88.89896644912943
 20
-117.9499063832729
 10
88.89896644912943
 20
-117.8019395321815
 10
88.89896644912943
 20
-117.8019395321815
 10
89.23107365390752
 20
-117.7871256215949
 10
89.27758244295839
 20
-117.6241726051426
 10
89.30721026413154
 20
-117.5099676898065
 10
89.30721026413154
 20
-117.5099676898065
 10
89.45328231270612
 20
-117.5099676898065
 10
89.45328231270612
 20
-117.5099676898065
 10
89.45328231270612
 20
-117.5099676898065
 10
89.45328231270612
 20
-119.0542317410698
 10
89.45328231270612
 20
-119.0542317410698
 10
89.45328231270612
 20
-119.0542317410698
 10
89.22900659661636
 20
-119.0542317410698
 10
89.22900659661636
 20
-119.0542317410698
 97
        0
 97
        0
 75
     2
 76
     1
 98
        0
  0
ENDBLK
  5
E8
330
E5
100
AcDbEntity
  8
0
100
AcDbBlockEnd
  0
BLOCK
  5
FB
330
F9
100
AcDbEntity
  8
0
100
AcDbBlockBegin
  2
block 7
 70
     0
 10
0.0
 20
0.0
 30
0.0
  3
block 7
  1

  0
SPLINE
  5
FD
330
F9
100
AcDbEntity
  8
_U+30EC_U+30A4_U+30E4_U+30FC 1
370
     0
100
AcDbSpline
210
0.0
220
0.0
230
1.0
 70
    11
 71
     3
 72
    32
 73
    28
 74
     0
 42
0.0000000001
 43
0.0000000001
 12
1.0
 22
0.0
 32
0.0
 13
1.0
 23
0.0
 33
0.0
 40
0.0
 40
0.0
 40
0.0
 40
0.0
 40
1.0
 40
1.0
 40
1.0
 40
2.0
 40
2.0
 40
2.0
 40
3.0
 40
3.0
 40
3.0
 40
4.0
 40
4.0
 40
4.0
 40
5.0
 40
5.0
 40
5.0
 40
6.0
 40
6.0
 40
6.0
 40
7.0
 40
7.0
 40
7.0
 40
8.0
 40
8.0
 40
8.0
 40
9.0
 40
9.0
 40
9.0
 40
9.0
 10
76.16503226177471
 20
-139.6045708201336
 30
0.0
 10
75.64878470331003
 20
-139.6045708201336
 30
0.0
 10
75.64034421937117
 20
-139.0502549565569
 30
0.0
 10
75.64034421937117
 20
-138.8366590364714
 30
0.0
 10
75.64034421937117
 20
-138.6058376389597
 30
0.0
 10
75.65946449931431
 20
-137.9585041972812
 30
0.0
 10
76.20310056688673
 20
-137.9585041972812
 30
0.0
 10
76.37656112456905
 20
-137.9585041972812
 30
0.0
 10
76.62202417789311
 20
-138.0284396356318
 30
0.0
 10
76.66009248300512
 20
-138.3605468404099
 30
0.0
 10
76.66009248300512
 20
-138.3605468404099
 30
0.0
 10
76.44632430814536
 20
-138.3605468404099
 30
0.0
 10
76.44632430814536
 20
-138.3605468404099
 30
0.0
 10
76.43581676691535
 20
-138.3033582553547
 30
0.0
 10
76.40412188845106
 20
-138.155219149489
 30
0.0
 10
76.20103350959558
 20
-138.155219149489
 30
0.0
 10
75.90906166722066
 20
-138.155219149489
 30
0.0
 10
75.86875405004324
 20
-138.4831922396848
 30
0.0
 10
75.85617945152207
 20
-138.6885199306057
 30
0.0
 10
75.94919702962382
 20
-138.6103162630905
 30
0.0
 10
76.01689315590897
 20
-138.5510606207442
 30
0.0
 10
76.19879419753016
 20
-138.5510606207442
 30
0.0
 10
76.37862818186021
 20
-138.5510606207442
 30
0.0
 10
76.68110756546514
 20
-138.6588921094325
 30
0.0
 10
76.68110756546514
 20
-139.0650688671435
 30
0.0
 10
76.68110756546514
 20
-139.3844292186261
 30
0.0
 10
76.48232555596623
 20
-139.6045708201336
 30
0.0
 10
76.16503226177471
 20
-139.6045708201336
 30
0.0
  0
SPLINE
  5
FE
330
F9
100
AcDbEntity
  8
_U+30EC_U+30A4_U+30E4_U+30FC 1
370
     0
100
AcDbSpline
210
0.0
220
0.0
230
1.0
 70
    11
 71
     3
 72
    17
 73
    13
 74
     0
 42
0.0000000001
 43
0.0000000001
 12
1.0
 22
0.0
 32
0.0
 13
1.0
 23
0.0
 33
0.0
 40
0.0
 40
0.0
 40
0.0
 40
0.0
 40
1.0
 40
1.0
 40
1.0
 40
2.0
 40
2.0
 40
2.0
 40
3.0
 40
3.0
 40
3.0
 40
4.0
 40
4.0
 40
4.0
 40
4.0
 10
76.18191322965244
 20
-138.7457085156608
 30
0.0
 10
75.91956920845067
 20
-138.7457085156608
 30
0.0
 10
75.88150090333866
 20
-138.9572373784551
 30
0.0
 10
75.88150090333866
 20
-139.0733370963081
 30
0.0
 10
75.88150090333866
 20
-139.2490369660558
 30
0.0
 10
75.97675779350581
 20
-139.4119899825081
 30
0.0
 10
76.16072589241816
 20
-139.4119899825081
 30
0.0
 10
76.2813042344019
 20
-139.4119899825081
 30
0.0
 10
76.45700410414965
 20
-139.3527343401618
 30
0.0
 10
76.45700410414965
 20
-139.0671359244346
 30
0.0
 10
76.45700410414965
 20
-138.8428602083449
 30
0.0
 10
76.31730548222276
 20
-138.7457085156608
 30
0.0
 10
76.18191322965244
 20
-138.7457085156608
 30
0.0
  0
HATCH
  5
FF
330
F9
100
AcDbEntity
  8
_U+30EC_U+30A4_U+30E4_U+30FC 1
 62
     7
420
 16777215
100
AcDbHatch
 10
0.0
 20
0.0
 30
0.0
210
0.0
220
0.0
230
1.0
  2
SOLID
 70
     1
 71
     0
 91
        2
 92
        1
 93
        1
 72
     4
 94
        3
 73
     0
 74
     1
 95
       32
 96
       28
 40
0.0
 40
0.0
 40
0.0
 40
0.0
 40
1.0
 40
1.0
 40
1.0
 40
2.0
 40
2.0
 40
2.0
 40
3.0
 40
3.0
 40
3.0
 40
4.0
 40
4.0
 40
4.0
 40
5.0
 40
5.0
 40
5.0
 40
6.0
 40
6.0
 40
6.0
 40
7.0
 40
7.0
 40
7.0
 40
8.0
 40
8.0
 40
8.0
 40
9.0
 40
9.0
 40
9.0
 40
9.0
 10
76.16503226177471
 20
-139.6045708201336
 10
75.64878470331003
 20
-139.6045708201336
 10
75.64034421937117
 20
-139.0502549565569
 10
75.64034421937117
 20
-138.8366590364714
 10
75.64034421937117
 20
-138.6058376389597
 10
75.65946449931431
 20
-137.9585041972812
 10
76.20310056688673
 20
-137.9585041972812
 10
76.37656112456905
 20
-137.9585041972812
 10
76.62202417789311
 20
-138.0284396356318
 10
76.66009248300512
 20
-138.3605468404099
 10
76.66009248300512
 20
-138.3605468404099
 10
76.44632430814536
 20
-138.3605468404099
 10
76.44632430814536
 20
-138.3605468404099
 10
76.43581676691535
 20
-138.3033582553547
 10
76.40412188845106
 20
-138.155219149489
 10
76.20103350959558
 20
-138.155219149489
 10
75.90906166722066
 20
-138.155219149489
 10
75.86875405004324
 20
-138.4831922396848
 10
75.85617945152207
 20
-138.6885199306057
 10
75.94919702962382
 20
-138.6103162630905
 10
76.01689315590897
 20
-138.5510606207442
 10
76.19879419753016
 20
-138.5510606207442
 10
76.37862818186021
 20
-138.5510606207442
 10
76.68110756546514
 20
-138.6588921094325
 10
76.68110756546514
 20
-139.0650688671435
 10
76.68110756546514
 20
-139.3844292186261
 10
76.48232555596623
 20
-139.6045708201336
 10
76.16503226177471
 20
-139.6045708201336
 97
        0
 97
        0
 92
        1
 93
        1
 72
     4
 94
        3
 73
     0
 74
     1
 95
       17
 96
       13
 40
0.0
 40
0.0
 40
0.0
 40
0.0
 40
1.0
 40
1.0
 40
1.0
 40
2.0
 40
2.0
 40
2.0
 40
3.0
 40
3.0
 40
3.0
 40
4.0
 40
4.0
 40
4.0
 40
4.0
 10
76.18191322965244
 20
-138.7457085156608
 10
75.91956920845067
 20
-138.7457085156608
 10
75.88150090333866
 20
-138.9572373784551
 10
75.88150090333866
 20
-139.0733370963081
 10
75.88150090333866
 20
-139.2490369660558
 10
75.97675779350581
 20
-139.4119899825081
 10
76.16072589241816
 20
-139.4119899825081
 10
76.2813042344019
 20
-139.4119899825081
 10
76.45700410414965
 20
-139.3527343401618
 10
76.45700410414965
 20
-139.0671359244346
 10
76.45700410414965
 20
-138.8428602083449
 10
76.31730548222276
 20
-138.7457085156608
 10
76.18191322965244
 20
-138.7457085156608
 97
        0
 97
        0
 75
     2
 76
     1
 98
        0
  0
ENDBLK
  5
FC
330
F9
100
AcDbEntity
  8
0
100
AcDbBlockEnd
  0
ENDSEC
  0
SECTION
  2
ENTITIES
  0
POLYLINE
  5
41
330
1F
100
AcDbEntity
  8
_U+30EC_U+30A4_U+30E4_U+30FC 1
370
     0
100
AcDb2dPolyline
 66
     1
 10
0.0
 20
0.0
 30
0.0
  0
VERTEX
  5
42
330
41
100
AcDbEntity
  8
_U+30EC_U+30A4_U+30E4_U+30FC 1
370
     0
100
AcDbVertex
100
AcDb2dVertex
 10
73.09079119085412
 20
-124.7000652466026
 30
0.0
  0
VERTEX
  5
43
330
41
100
AcDbEntity
  8
_U+30EC_U+30A4_U+30E4_U+30FC 1
370
     0
100
AcDbVertex
100
AcDb2dVertex
 10
79.16036798045076
 20
-124.7000652466026
 30
0.0
  0
VERTEX
  5
44
330
41
100
AcDbEntity
  8
_U+30EC_U+30A4_U+30E4_U+30FC 1
370
     0
100
AcDbVertex
100
AcDb2dVertex
 10
79.16036798045076
 20
-136.199774132617
 30
0.0
  0
VERTEX
  5
45
330
41
100
AcDbEntity
  8
_U+30EC_U+30A4_U+30E4_U+30FC 1
370
     0
100
AcDbVertex
100
AcDb2dVertex
 10
89.16010078089188
 20
-136.199774132617
 30
0.0
  0
VERTEX
  5
46
330
41
100
AcDbEntity
  8
_U+30EC_U+30A4_U+30E4_U+30FC 1
370
     0
100
AcDbVertex
100
AcDb2dVertex
 10
89.16010078089188
 20
-133.2001399666997
 30
0.0
  0
VERTEX
  5
47
330
41
100
AcDbEntity
  8
_U+30EC_U+30A4_U+30E4_U+30FC 1
370
     0
100
AcDbVertex
100
AcDb2dVertex
 10
88.16032858417597
 20
-133.2001399666997
 30
0.0
  0
VERTEX
  5
48
330
41
100
AcDbEntity
  8
_U+30EC_U+30A4_U+30E4_U+30FC 1
370
     0
100
AcDbVertex
100
AcDb2dVertex
 10
88.16032858417597
 20
-135.1996844106448
 30
0.0
  0
VERTEX
  5
49
330
41
100
AcDbEntity
  8
_U+30EC_U+30A4_U+30E4_U+30FC 1
370
     0
100
AcDbVertex
100
AcDb2dVertex
 10
80.06023351304884
 20
-135.1996844106448
 30
0.0
  0
VERTEX
  5
4A
330
41
100
AcDbEntity
  8
_U+30EC_U+30A4_U+30E4_U+30FC 1
370
     0
100
AcDbVertex
100
AcDb2dVertex
 10
80.06023351304884
 20
-124.7000652466026
 30
0.0
  0
VERTEX
  5
4B
330
41
100
AcDbEntity
  8
_U+30EC_U+30A4_U+30E4_U+30FC 1
370
     0
100
AcDbVertex
100
AcDb2dVertex
 10
104.083555529535
 20
-124.7000652466026
 30
0.0
  0
VERTEX
  5
4C
330
41
100
AcDbEntity
  8
_U+30EC_U+30A4_U+30E4_U+30FC 1
370
     0
100
AcDbVertex
100
AcDb2dVertex
 10
104.1276527517462
 20
-123.7002930246304
 30
0.0
  0
VERTEX
  5
4D
330
41
100
AcDbEntity
  8
_U+30EC_U+30A4_U+30E4_U+30FC 1
370
     0
100
AcDbVertex
100
AcDb2dVertex
 10
73.09079119085412
 20
-123.7002930246304
 30
0.0
  0
VERTEX
  5
4E
330
41
100
AcDbEntity
  8
_U+30EC_U+30A4_U+30E4_U+30FC 1
370
     0
100
AcDbVertex
100
AcDb2dVertex
 10
73.09079119085412
 20
-124.7000652466026
 30
0.0
  0
SEQEND
  5
50
330
41
100
AcDbEntity
  8
_U+30EC_U+30A4_U+30E4_U+30FC 1
370
     0
  0
HATCH
  5
4F
330
1F
100
AcDbEntity
  8
_U+30EC_U+30A4_U+30E4_U+30FC 1
 62
   253
420
 11711154
100
AcDbHatch
 10
0.0
 20
0.0
 30
0.0
210
0.0
220
0.0
230
1.0
  2
SOLID
 70
     1
 71
     0
 91
        1
 92
        1
 93
       12
 72
     1
 10
73.09079119085412
 20
-124.7000652466026
 11
79.16036798045076
 21
-124.7000652466026
 72
     1
 10
79.16036798045076
 20
-124.7000652466026
 11
79.16036798045076
 21
-136.199774132617
 72
     1
 10
79.16036798045076
 20
-136.199774132617
 11
89.16010078089188
 21
-136.199774132617
 72
     1
 10
89.16010078089188
 20
-136.199774132617
 11
89.16010078089188
 21
-133.2001399666997
 72
     1
 10
89.16010078089188
 20
-133.2001399666997
 11
88.16032858417597
 21
-133.2001399666997
 72
     1
 10
88.16032858417597
 20
-133.2001399666997
 11
88.16032858417597
 21
-135.1996844106448
 72
     1
 10
88.16032858417597
 20
-135.1996844106448
 11
80.06023351304884
 21
-135.1996844106448
 72
     1
 10
80.06023351304884
 20
-135.1996844106448
 11
80.06023351304884
 21
-124.7000652466026
 72
     1
 10
80.06023351304884
 20
-124.7000652466026
 11
104.083555529535
 21
-124.7000652466026
 72
     1
 10
104.083555529535
 20
-124.7000652466026
 11
104.1276527517462
 21
-123.7002930246304
 72
     1
 10
104.1276527517462
 20
-123.7002930246304
 11
73.09079119085412
 21
-123.7002930246304
 72
     1
 10
73.09079119085412
 20
-123.7002930246304
 11
73.09079119085412
 21
-124.7000652466026
 97
        0
 75
     2
 76
     1
 98
        0
  0
POLYLINE
  5
51
330
1F
100
AcDbEntity
  8
_U+30EC_U+30A4_U+30E4_U+30FC 1
 62
     7
420
 16777215
370
    25
100
AcDb2dPolyline
 66
     1
 10
0.0
 20
0.0
 30
0.0
  0
VERTEX
  5
52
330
51
100
AcDbEntity
  8
_U+30EC_U+30A4_U+30E4_U+30FC 1
 62
     7
420
 16777215
370
    25
100
AcDbVertex
100
AcDb2dVertex
 10
79.16036798045076
 20
-136.199774132617
 30
0.0
  0
VERTEX
  5
53
330
51
100
AcDbEntity
  8
_U+30EC_U+30A4_U+30E4_U+30FC 1
 62
     7
420
 16777215
370
    25
100
AcDbVertex
100
AcDb2dVertex
 10
89.16010078089188
 20
-136.199774132617
 30
0.0
  0
SEQEND
  5
54
330
51
100
AcDbEntity
  8
_U+30EC_U+30A4_U+30E4_U+30FC 1
 62
     7
420
 16777215
370
    25
  0
POLYLINE
  5
55
330
1F
100
AcDbEntity
  8
_U+30EC_U+30A4_U+30E4_U+30FC 1
 62
     7
420
 16777215
370
    25
100
AcDb2dPolyline
 66
     1
 10
0.0
 20
0.0
 30
0.0
  0
VERTEX
  5
56
330
55
100
AcDbEntity
  8
_U+30EC_U+30A4_U+30E4_U+30FC 1
 62
     7
420
 16777215
370
    25
100
AcDbVertex
100
AcDb2dVertex
 10
73.16039424463396
 20
-123.7002930246304
 30
0.0
  0
VERTEX
  5
57
330
55
100
AcDbEntity
  8
_U+30EC_U+30A4_U+30E4_U+30FC 1
 62
     7
420
 16777215
370
    25
100
AcDbVertex
100
AcDb2dVertex
 10
104.1607406759715
 20
-123.7002930246304
 30
0.0
  0
SEQEND
  5
58
330
55
100
AcDbEntity
  8
_U+30EC_U+30A4_U+30E4_U+30FC 1
 62
     7
420
 16777215
370
    25
  0
POLYLINE
  5
59
330
1F
100
AcDbEntity
  8
_U+30EC_U+30A4_U+30E4_U+30FC 1
 62
     7
420
 16777215
370
    25
100
AcDb2dPolyline
 66
     1
 10
0.0
 20
0.0
 30
0.0
  0
VERTEX
  5
5A
330
59
100
AcDbEntity
  8
_U+30EC_U+30A4_U+30E4_U+30FC 1
 62
     7
420
 16777215
370
    25
100
AcDbVertex
100
AcDb2dVertex
 10
88.16032858417597
 20
-133.2001399666997
 30
0.0
  0
VERTEX
  5
5B
330
59
100
AcDbEntity
  8
_U+30EC_U+30A4_U+30E4_U+30FC 1
 62
     7
420
 16777215
370
    25
100
AcDbVertex
100
AcDb2dVertex
 10
89.16010078089188
 20
-133.2001399666997
 30
0.0
  0
SEQEND
  5
5C
330
59
100
AcDbEntity
  8
_U+30EC_U+30A4_U+30E4_U+30FC 1
 62
     7
420
 16777215
370
    25
  0
POLYLINE
  5
5D
330
1F
100
AcDbEntity
  8
_U+30EC_U+30A4_U+30E4_U+30FC 1
 62
     7
420
 16777215
370
    25
100
AcDb2dPolyline
 66
     1
 10
0.0
 20
0.0
 30
0.0
  0
VERTEX
  5
5E
330
5D
100
AcDbEntity
  8
_U+30EC_U+30A4_U+30E4_U+30FC 1
 62
     7
420
 16777215
370
    25
100
AcDbVertex
100
AcDb2dVertex
 10
89.16010078089188
 20
-136.199774132617
 30
0.0
  0
VERTEX
  5
5F
330
5D
100
AcDbEntity
  8
_U+30EC_U+30A4_U+30E4_U+30FC 1
 62
     7
420
 16777215
370
    25
100
AcDbVertex
100
AcDb2dVertex
 10
89.16010078089188
 20
-133.2001399666997
 30
0.0
  0
SEQEND
  5
60
330
5D
100
AcDbEntity
  8
_U+30EC_U+30A4_U+30E4_U+30FC 1
 62
     7
420
 16777215
370
    25
  0
POLYLINE
  5
61
330
1F
100
AcDbEntity
  8
_U+30EC_U+30A4_U+30E4_U+30FC 1
 62
     7
420
 16777215
370
    25
100
AcDb2dPolyline
 66
     1
 10
0.0
 20
0.0
 30
0.0
  0
VERTEX
  5
62
330
61
100
AcDbEntity
  8
_U+30EC_U+30A4_U+30E4_U+30FC 1
 62
     7
420
 16777215
370
    25
100
AcDbVertex
100
AcDb2dVertex
 10
73.12801109282924
 20
-124.7000652466026
 30
0.0
  0
VERTEX
  5
63
330
61
100
AcDbEntity
  8
_U+30EC_U+30A4_U+30E4_U+30FC 1
 62
     7
420
 16777215
370
    25
100
AcDbVertex
100
AcDb2dVertex
 10
73.12801109282924
 20
-123.7002930246304
 30
0.0
  0
SEQEND
  5
64
330
61
100
AcDbEntity
  8
_U+30EC_U+30A4_U+30E4_U+30FC 1
 62
     7
420
 16777215
370
    25
  0
POLYLINE
  5
65
330
1F
100
AcDbEntity
  8
_U+30EC_U+30A4_U+30E4_U+30FC 1
 62
     7
420
 16777215
370
    25
100
AcDb2dPolyline
 66
     1
 10
0.0
 20
0.0
 30
0.0
  0
VERTEX
  5
66
330
65
100
AcDbEntity
  8
_U+30EC_U+30A4_U+30E4_U+30FC 1
 62
     7
420
 16777215
370
    25
100
AcDbVertex
100
AcDb2dVertex
 10
73.16039424463396
 20
-124.7000652466026
 30
0.0
  0
VERTEX
  5
67
330
65
100
AcDbEntity
  8
_U+30EC_U+30A4_U+30E4_U+30FC 1
 62
     7
420
 16777215
370
    25
100
AcDbVertex
100
AcDb2dVertex
 10
79.16036798045076
 20
-124.7000652466026
 30
0.0
  0
SEQEND
  5
68
330
65
100
AcDbEntity
  8
_U+30EC_U+30A4_U+30E4_U+30FC 1
 62
     7
420
 16777215
370
    25
  0
POLYLINE
  5
69
330
1F
100
AcDbEntity
  8
_U+30EC_U+30A4_U+30E4_U+30FC 1
 62
     7
420
 16777215
370
    25
100
AcDb2dPolyline
 66
     1
 10
0.0
 20
0.0
 30
0.0
  0
VERTEX
  5
6A
330
69
100
AcDbEntity
  8
_U+30EC_U+30A4_U+30E4_U+30FC 1
 62
     7
420
 16777215
370
    25
100
AcDbVertex
100
AcDb2dVertex
 10
88.16032858417597
 20
-135.1996844106448
 30
0.0
  0
VERTEX
  5
6B
330
69
100
AcDbEntity
  8
_U+30EC_U+30A4_U+30E4_U+30FC 1
 62
     7
420
 16777215
370
    25
100
AcDbVertex
100
AcDb2dVertex
 10
88.16032858417597
 20
-133.2001399666997
 30
0.0
  0
SEQEND
  5
6C
330
69
100
AcDbEntity
  8
_U+30EC_U+30A4_U+30E4_U+30FC 1
 62
     7
420
 16777215
370
    25
  0
POLYLINE
  5
6D
330
1F
100
AcDbEntity
  8
_U+30EC_U+30A4_U+30E4_U+30FC 1
 62
     7
420
 16777215
370
    25
100
AcDb2dPolyline
 66
     1
 10
0.0
 20
0.0
 30
0.0
  0
VERTEX
  5
6E
330
6D
100
AcDbEntity
  8
_U+30EC_U+30A4_U+30E4_U+30FC 1
 62
     7
420
 16777215
370
    25
100
AcDbVertex
100
AcDb2dVertex
 10
80.06023351304884
 20
-135.1996844106448
 30
0.0
  0
VERTEX
  5
6F
330
6D
100
AcDbEntity
  8
_U+30EC_U+30A4_U+30E4_U+30FC 1
 62
     7
420
 16777215
370
    25
100
AcDbVertex
100
AcDb2dVertex
 10
88.16032858417597
 20
-135.1996844106448
 30
0.0
  0
SEQEND
  5
70
330
6D
100
AcDbEntity
  8
_U+30EC_U+30A4_U+30E4_U+30FC 1
 62
     7
420
 16777215
370
    25
  0
POLYLINE
  5
71
330
1F
100
AcDbEntity
  8
_U+30EC_U+30A4_U+30E4_U+30FC 1
 62
     7
420
 16777215
370
    25
100
AcDb2dPolyline
 66
     1
 10
0.0
 20
0.0
 30
0.0
  0
VERTEX
  5
72
330
71
100
AcDbEntity
  8
_U+30EC_U+30A4_U+30E4_U+30FC 1
 62
     7
420
 16777215
370
    25
100
AcDbVertex
100
AcDb2dVertex
 10
79.16036798045076
 20
-136.199774132617
 30
0.0
  0
VERTEX
  5
73
330
71
100
AcDbEntity
  8
_U+30EC_U+30A4_U+30E4_U+30FC 1
 62
     7
420
 16777215
370
    25
100
AcDbVertex
100
AcDb2dVertex
 10
79.16036798045076
 20
-124.7000652466026
 30
0.0
  0
SEQEND
  5
74
330
71
100
AcDbEntity
  8
_U+30EC_U+30A4_U+30E4_U+30FC 1
 62
     7
420
 16777215
370
    25
  0
POLYLINE
  5
75
330
1F
100
AcDbEntity
  8
_U+30EC_U+30A4_U+30E4_U+30FC 1
 62
     7
420
 16777215
370
    25
100
AcDb2dPolyline
 66
     1
 10
0.0
 20
0.0
 30
0.0
  0
VERTEX
  5
76
330
75
100
AcDbEntity
  8
_U+30EC_U+30A4_U+30E4_U+30FC 1
 62
     7
420
 16777215
370
    25
100
AcDbVertex
100
AcDb2dVertex
 10
80.06023351304884
 20
-135.1996844106448
 30
0.0
  0
VERTEX
  5
77
330
75
100
AcDbEntity
  8
_U+30EC_U+30A4_U+30E4_U+30FC 1
 62
     7
420
 16777215
370
    25
100
AcDbVertex
100
AcDb2dVertex
 10
80.06023351304884
 20
-124.7000652466026
 30
0.0
  0
SEQEND
  5
78
330
75
100
AcDbEntity
  8
_U+30EC_U+30A4_U+30E4_U+30FC 1
 62
     7
420
 16777215
370
    25
  0
POLYLINE
  5
79
330
1F
100
AcDbEntity
  8
_U+30EC_U+30A4_U+30E4_U+30FC 1
 62
     7
420
 16777215
370
    25
100
AcDb2dPolyline
 66
     1
 10
0.0
 20
0.0
 30
0.0
  0
VERTEX
  5
7A
330
79
100
AcDbEntity
  8
_U+30EC_U+30A4_U+30E4_U+30FC 1
 62
     7
420
 16777215
370
    25
100
AcDbVertex
100
AcDb2dVertex
 10
104.1449009541533
 20
-124.7000652466026
 30
0.0
  0
VERTEX
  5
7B
330
79
100
AcDbEntity
  8
_U+30EC_U+30A4_U+30E4_U+30FC 1
 62
     7
420
 16777215
370
    25
100
AcDbVertex
100
AcDb2dVertex
 10
104.1449009541533
 20
-123.7002930246304
 30
0.0
  0
SEQEND
  5
7C
330
79
100
AcDbEntity
  8
_U+30EC_U+30A4_U+30E4_U+30FC 1
 62
     7
420
 16777215
370
    25
  0
POLYLINE
  5
7D
330
1F
100
AcDbEntity
  8
_U+30EC_U+30A4_U+30E4_U+30FC 1
 62
     7
420
 16777215
370
    25
100
AcDb2dPolyline
 66
     1
 10
0.0
 20
0.0
 30
0.0
  0
VERTEX
  5
7E
330
7D
100
AcDbEntity
  8
_U+30EC_U+30A4_U+30E4_U+30FC 1
 62
     7
420
 16777215
370
    25
100
AcDbVertex
100
AcDb2dVertex
 10
80.06023351304884
 20
-124.7000652466026
 30
0.0
  0
VERTEX
  5
7F
330
7D
100
AcDbEntity
  8
_U+30EC_U+30A4_U+30E4_U+30FC 1
 62
     7
420
 16777215
370
    25
100
AcDbVertex
100
AcDb2dVertex
 10
104.1607406759715
 20
-124.7000652466026
 30
0.0
  0
SEQEND
  5
80
330
7D
100
AcDbEntity
  8
_U+30EC_U+30A4_U+30E4_U+30FC 1
 62
     7
420
 16777215
370
    25
  0
SPLINE
  5
81
330
1F
100
AcDbEntity
  8
_U+30EC_U+30A4_U+30E4_U+30FC 1
 62
     7
420
 16777215
370
     9
100
AcDbSpline
210
0.0
220
0.0
230
1.0
 70
    11
 71
     3
 72
    17
 73
    13
 74
     0
 42
0.0000000001
 43
0.0000000001
 12
1.0
 22
0.0
 32
0.0
 13
1.0
 23
0.0
 33
0.0
 40
0.0
 40
0.0
 40
0.0
 40
0.0
 40
1.0
 40
1.0
 40
1.0
 40
2.0
 40
2.0
 40
2.0
 40
3.0
 40
3.0
 40
3.0
 40
4.0
 40
4.0
 40
4.0
 40
4.0
 10
79.2602746445686
 20
-140.1995332982832
 30
0.0
 10
79.2602746445686
 20
-140.1444294094083
 30
0.0
 10
79.21550714571072
 20
-140.0996266316416
 30
0.0
 10
79.16036798045076
 20
-140.0996266316416
 30
0.0
 10
79.10526409296769
 20
-140.0996266316416
 30
0.0
 10
79.06046131633293
 20
-140.1444294094083
 30
0.0
 10
79.06046131633293
 20
-140.1995332982832
 30
0.0
 10
79.06046131633293
 20
-140.2546724649363
 30
0.0
 10
79.10526409296769
 20
-140.2994399649248
 30
0.0
 10
79.16036798045076
 20
-140.2994399649248
 30
0.0
 10
79.21550714571072
 20
-140.2994399649248
 30
0.0
 10
79.2602746445686
 20
-140.2546724649363
 30
0.0
 10
79.2602746445686
 20
-140.1995332982832
 30
0.0
  0
SPLINE
  5
82
330
1F
100
AcDbEntity
  8
_U+30EC_U+30A4_U+30E4_U+30FC 1
 62
     7
420
 16777215
370
     9
100
AcDbSpline
210
0.0
220
0.0
230
1.0
 70
    11
 71
     3
 72
    17
 73
    13
 74
     0
 42
0.0000000001
 43
0.0000000001
 12
1.0
 22
0.0
 32
0.0
 13
1.0
 23
0.0
 33
0.0
 40
0.0
 40
0.0
 40
0.0
 40
0.0
 40
1.0
 40
1.0
 40
1.0
 40
2.0
 40
2.0
 40
2.0
 40
3.0
 40
3.0
 40
3.0
 40
4.0
 40
4.0
 40
4.0
 40
4.0
 10
89.26071300054727
 20
-140.1995332982832
 30
0.0
 10
89.26071300054727
 20
-140.1444294094083
 30
0.0
 10
89.2159102239125
 20
-140.0996266316416
 30
0.0
 10
89.16010078089188
 20
-140.0996266316416
 30
0.0
 10
89.10499689340881
 20
-140.0996266316416
 30
0.0
 10
89.06019411677404
 20
-140.1444294094083
 30
0.0
 10
89.06019411677404
 20
-140.1995332982832
 30
0.0
 10
89.06019411677404
 20
-140.2546724649363
 30
0.0
 10
89.10499689340881
 20
-140.2994399649248
 30
0.0
 10
89.16010078089188
 20
-140.2994399649248
 30
0.0
 10
89.2159102239125
 20
-140.2994399649248
 30
0.0
 10
89.26071300054727
 20
-140.2546724649363
 30
0.0
 10
89.26071300054727
 20
-140.1995332982832
 30
0.0
  0
SPLINE
  5
83
330
1F
100
AcDbEntity
  8
_U+30EC_U+30A4_U+30E4_U+30FC 1
 62
     7
420
 16777215
370
     9
100
AcDbSpline
210
0.0
220
0.0
230
1.0
 70
    11
 71
     3
 72
    17
 73
    13
 74
     0
 42
0.0000000001
 43
0.0000000001
 12
1.0
 22
0.0
 32
0.0
 13
1.0
 23
0.0
 33
0.0
 40
0.0
 40
0.0
 40
0.0
 40
0.0
 40
1.0
 40
1.0
 40
1.0
 40
2.0
 40
2.0
 40
2.0
 40
3.0
 40
3.0
 40
3.0
 40
4.0
 40
4.0
 40
4.0
 40
4.0
 10
108.4719319548727
 20
-136.199774132617
 30
0.0
 10
108.4719319548727
 20
-136.1443174659636
 30
0.0
 10
108.4271291782379
 20
-136.0995146881976
 30
0.0
 10
108.3720252907548
 20
-136.0995146881976
 30
0.0
 10
108.31688886181
 20
-136.0995146881976
 30
0.0
 10
108.272118626637
 20
-136.1443174659636
 30
0.0
 10
108.272118626637
 20
-136.199774132617
 30
0.0
 10
108.272118626637
 20
-136.2549132992694
 30
0.0
 10
108.31688886181
 20
-136.2996807992586
 30
0.0
 10
108.3720252907548
 20
-136.2996807992586
 30
0.0
 10
108.4271291782379
 20
-136.2996807992586
 30
0.0
 10
108.4719319548727
 20
-136.2549132992694
 30
0.0
 10
108.4719319548727
 20
-136.199774132617
 30
0.0
  0
SPLINE
  5
84
330
1F
100
AcDbEntity
  8
_U+30EC_U+30A4_U+30E4_U+30FC 1
 62
     7
420
 16777215
370
     9
100
AcDbSpline
210
0.0
220
0.0
230
1.0
 70
    11
 71
     3
 72
    17
 73
    13
 74
     0
 42
0.0000000001
 43
0.0000000001
 12
1.0
 22
0.0
 32
0.0
 13
1.0
 23
0.0
 33
0.0
 40
0.0
 40
0.0
 40
0.0
 40
0.0
 40
1.0
 40
1.0
 40
1.0
 40
2.0
 40
2.0
 40
2.0
 40
3.0
 40
3.0
 40
3.0
 40
4.0
 40
4.0
 40
4.0
 40
4.0
 10
108.4719319548727
 20
-133.2001399666997
 30
0.0
 10
108.4719319548727
 20
-133.1446833000471
 30
0.0
 10
108.4271291782379
 20
-133.0998805222803
 30
0.0
 10
108.3720252907548
 20
-133.0998805222803
 30
0.0
 10
108.31688886181
 20
-133.0998805222803
 30
0.0
 10
108.272118626637
 20
-133.1446833000471
 30
0.0
 10
108.272118626637
 20
-133.2001399666997
 30
0.0
 10
108.272118626637
 20
-133.2552438555753
 30
0.0
 10
108.31688886181
 20
-133.2996938555642
 30
0.0
 10
108.3720252907548
 20
-133.2996938555642
 30
0.0
 10
108.4271291782379
 20
-133.2996938555642
 30
0.0
 10
108.4719319548727
 20
-133.2552438555753
 30
0.0
 10
108.4719319548727
 20
-133.2001399666997
 30
0.0
  0
SPLINE
  5
85
330
1F
100
AcDbEntity
  8
_U+30EC_U+30A4_U+30E4_U+30FC 1
 62
     7
420
 16777215
370
     9
100
AcDbSpline
210
0.0
220
0.0
230
1.0
 70
    11
 71
     3
 72
    17
 73
    13
 74
     0
 42
0.0000000001
 43
0.0000000001
 12
1.0
 22
0.0
 32
0.0
 13
1.0
 23
0.0
 33
0.0
 40
0.0
 40
0.0
 40
0.0
 40
0.0
 40
1.0
 40
1.0
 40
1.0
 40
2.0
 40
2.0
 40
2.0
 40
3.0
 40
3.0
 40
3.0
 40
4.0
 40
4.0
 40
4.0
 40
4.0
 10
108.4719319548727
 20
-123.7002930246304
 30
0.0
 10
108.4719319548727
 20
-123.6448363579778
 30
0.0
 10
108.4271291782379
 20
-123.600033580211
 30
0.0
 10
108.3720252907548
 20
-123.600033580211
 30
0.0
 10
108.31688886181
 20
-123.600033580211
 30
0.0
 10
108.272118626637
 20
-123.6448363579778
 30
0.0
 10
108.272118626637
 20
-123.7002930246304
 30
0.0
 10
108.272118626637
 20
-123.7553969135057
 30
0.0
 10
108.31688886181
 20
-123.8001996912721
 30
0.0
 10
108.3720252907548
 20
-123.8001996912721
 30
0.0
 10
108.4271291782379
 20
-123.8001996912721
 30
0.0
 10
108.4719319548727
 20
-123.7553969135057
 30
0.0
 10
108.4719319548727
 20
-123.7002930246304
 30
0.0
  0
SPLINE
  5
86
330
1F
100
AcDbEntity
  8
_U+30EC_U+30A4_U+30E4_U+30FC 1
 62
     7
420
 16777215
370
     9
100
AcDbSpline
210
0.0
220
0.0
230
1.0
 70
    11
 71
     3
 72
    17
 73
    13
 74
     0
 42
0.0000000001
 43
0.0000000001
 12
1.0
 22
0.0
 32
0.0
 13
1.0
 23
0.0
 33
0.0
 40
0.0
 40
0.0
 40
0.0
 40
0.0
 40
1.0
 40
1.0
 40
1.0
 40
2.0
 40
2.0
 40
2.0
 40
3.0
 40
3.0
 40
3.0
 40
4.0
 40
4.0
 40
4.0
 40
4.0
 10
104.2889048393684
 20
-119.7001810811861
 30
0.0
 10
104.2889048393684
 20
-119.6450771923109
 30
0.0
 10
104.2441020627336
 20
-119.6002744145445
 30
0.0
 10
104.1889981752505
 20
-119.6002744145445
 30
0.0
 10
104.1338590099906
 20
-119.6002744145445
 30
0.0
 10
104.0890915111327
 20
-119.6450771923109
 30
0.0
 10
104.0890915111327
 20
-119.7001810811861
 30
0.0
 10
104.0890915111327
 20
-119.7553202478389
 30
0.0
 10
104.1338590099906
 20
-119.8000877478277
 30
0.0
 10
104.1889981752505
 20
-119.8000877478277
 30
0.0
 10
104.2441020627336
 20
-119.8000877478277
 30
0.0
 10
104.2889048393684
 20
-119.7553202478389
 30
0.0
 10
104.2889048393684
 20
-119.7001810811861
 30
0.0
  0
SPLINE
  5
87
330
1F
100
AcDbEntity
  8
_U+30EC_U+30A4_U+30E4_U+30FC 1
 62
     7
420
 16777215
370
     9
100
AcDbSpline
210
0.0
220
0.0
230
1.0
 70
    11
 71
     3
 72
    17
 73
    13
 74
     0
 42
0.0000000001
 43
0.0000000001
 12
1.0
 22
0.0
 32
0.0
 13
1.0
 23
0.0
 33
0.0
 40
0.0
 40
0.0
 40
0.0
 40
0.0
 40
1.0
 40
1.0
 40
1.0
 40
2.0
 40
2.0
 40
2.0
 40
3.0
 40
3.0
 40
3.0
 40
4.0
 40
4.0
 40
4.0
 40
4.0
 10
108.4719319548727
 20
-124.7000652466026
 30
0.0
 10
108.4719319548727
 20
-124.6449260799499
 30
0.0
 10
108.4271291782379
 20
-124.600158579961
 30
0.0
 10
108.3720252907548
 20
-124.600158579961
 30
0.0
 10
108.31688886181
 20
-124.600158579961
 30
0.0
 10
108.272118626637
 20
-124.6449260799499
 30
0.0
 10
108.272118626637
 20
-124.7000652466026
 30
0.0
 10
108.272118626637
 20
-124.7555219132556
 30
0.0
 10
108.31688886181
 20
-124.8002894132445
 30
0.0
 10
108.3720252907548
 20
-124.8002894132445
 30
0.0
 10
108.4271291782379
 20
-124.8002894132445
 30
0.0
 10
108.4719319548727
 20
-124.7555219132556
 30
0.0
 10
108.4719319548727
 20
-124.7000652466026
 30
0.0
  0
SPLINE
  5
88
330
1F
100
AcDbEntity
  8
_U+30EC_U+30A4_U+30E4_U+30FC 1
 62
     7
420
 16777215
370
     9
100
AcDbSpline
210
0.0
220
0.0
230
1.0
 70
    11
 71
     3
 72
    17
 73
    13
 74
     0
 42
0.0000000001
 43
0.0000000001
 12
1.0
 22
0.0
 32
0.0
 13
1.0
 23
0.0
 33
0.0
 40
0.0
 40
0.0
 40
0.0
 40
0.0
 40
1.0
 40
1.0
 40
1.0
 40
2.0
 40
2.0
 40
2.0
 40
3.0
 40
3.0
 40
3.0
 40
4.0
 40
4.0
 40
4.0
 40
4.0
 10
73.18448896624147
 20
-140.1995332982832
 30
0.0
 10
73.18448896624147
 20
-140.1444294094083
 30
0.0
 10
73.13972146738358
 20
-140.0996266316416
 30
0.0
 10
73.08458230212364
 20
-140.0996266316416
 30
0.0
 10
73.02947841464056
 20
-140.0996266316416
 30
0.0
 10
72.9846756380058
 20
-140.1444294094083
 30
0.0
 10
72.9846756380058
 20
-140.1995332982832
 30
0.0
 10
72.9846756380058
 20
-140.2546724649363
 30
0.0
 10
73.02947841464056
 20
-140.2994399649248
 30
0.0
 10
73.08458230212364
 20
-140.2994399649248
 30
0.0
 10
73.13972146738358
 20
-140.2994399649248
 30
0.0
 10
73.18448896624147
 20
-140.2546724649363
 30
0.0
 10
73.18448896624147
 20
-140.1995332982832
 30
0.0
  0
SPLINE
  5
89
330
1F
100
AcDbEntity
  8
_U+30EC_U+30A4_U+30E4_U+30FC 1
 62
     7
420
 16777215
370
     9
100
AcDbSpline
210
0.0
220
0.0
230
1.0
 70
    11
 71
     3
 72
    17
 73
    13
 74
     0
 42
0.0000000001
 43
0.0000000001
 12
1.0
 22
0.0
 32
0.0
 13
1.0
 23
0.0
 33
0.0
 40
0.0
 40
0.0
 40
0.0
 40
0.0
 40
1.0
 40
1.0
 40
1.0
 40
2.0
 40
2.0
 40
2.0
 40
3.0
 40
3.0
 40
3.0
 40
4.0
 40
4.0
 40
4.0
 40
4.0
 10
73.25754924215532
 20
-119.7001810811861
 30
0.0
 10
73.25754924215532
 20
-119.6450771923109
 30
0.0
 10
73.21274646552057
 20
-119.6002744145445
 30
0.0
 10
73.1576444261551
 20
-119.6002744145445
 30
0.0
 10
73.10250341277754
 20
-119.6002744145445
 30
0.0
 10
73.05773591391966
 20
-119.6450771923109
 30
0.0
 10
73.05773591391966
 20
-119.7001810811861
 30
0.0
 10
73.05773591391966
 20
-119.7553202478389
 30
0.0
 10
73.10250341277754
 20
-119.8000877478277
 30
0.0
 10
73.1576444261551
 20
-119.8000877478277
 30
0.0
 10
73.21274646552057
 20
-119.8000877478277
 30
0.0
 10
73.25754924215532
 20
-119.7553202478389
 30
0.0
 10
73.25754924215532
 20
-119.7001810811861
 30
0.0
  0
POLYLINE
  5
8A
330
1F
100
AcDbEntity
  8
_U+30EC_U+30A4_U+30E4_U+30FC 1
 62
     7
420
 16777215
370
     9
100
AcDb2dPolyline
 66
     1
 10
0.0
 20
0.0
 30
0.0
  0
VERTEX
  5
8B
330
8A
100
AcDbEntity
  8
_U+30EC_U+30A4_U+30E4_U+30FC 1
 62
     7
420
 16777215
370
     9
100
AcDbVertex
100
AcDb2dVertex
 10
108.3720252907548
 20
-123.7002930246304
 30
0.0
  0
VERTEX
  5
8C
330
8A
100
AcDbEntity
  8
_U+30EC_U+30A4_U+30E4_U+30FC 1
 62
     7
420
 16777215
370
     9
100
AcDbVertex
100
AcDb2dVertex
 10
108.3720252907548
 20
-119.929980525573
 30
0.0
  0
SEQEND
  5
8D
330
8A
100
AcDbEntity
  8
_U+30EC_U+30A4_U+30E4_U+30FC 1
 62
     7
420
 16777215
370
     9
  0
POLYLINE
  5
8E
330
1F
100
AcDbEntity
  8
_U+30EC_U+30A4_U+30E4_U+30FC 1
 62
     7
420
 16777215
370
     9
100
AcDb2dPolyline
 66
     1
 10
0.0
 20
0.0
 30
0.0
  0
VERTEX
  5
8F
330
8E
100
AcDbEntity
  8
_U+30EC_U+30A4_U+30E4_U+30FC 1
 62
     7
420
 16777215
370
     9
100
AcDbVertex
100
AcDb2dVertex
 10
108.3720252907548
 20
-123.7002930246304
 30
0.0
  0
VERTEX
  5
90
330
8E
100
AcDbEntity
  8
_U+30EC_U+30A4_U+30E4_U+30FC 1
 62
     7
420
 16777215
370
     9
100
AcDbVertex
100
AcDb2dVertex
 10
108.3720252907548
 20
-124.7000652466026
 30
0.0
  0
SEQEND
  5
91
330
8E
100
AcDbEntity
  8
_U+30EC_U+30A4_U+30E4_U+30FC 1
 62
     7
420
 16777215
370
     9
  0
POLYLINE
  5
92
330
1F
100
AcDbEntity
  8
_U+30EC_U+30A4_U+30E4_U+30FC 1
 62
     7
420
 16777215
370
     9
100
AcDb2dPolyline
 66
     1
 10
0.0
 20
0.0
 30
0.0
  0
VERTEX
  5
93
330
92
100
AcDbEntity
  8
_U+30EC_U+30A4_U+30E4_U+30FC 1
 62
     7
420
 16777215
370
     9
100
AcDbVertex
100
AcDb2dVertex
 10
106.9119839391147
 20
-123.7002930246304
 30
0.0
  0
VERTEX
  5
94
330
92
100
AcDbEntity
  8
_U+30EC_U+30A4_U+30E4_U+30FC 1
 62
     7
420
 16777215
370
     9
100
AcDbVertex
100
AcDb2dVertex
 10
109.3724677652314
 20
-123.7002930246304
 30
0.0
  0
SEQEND
  5
95
330
92
100
AcDbEntity
  8
_U+30EC_U+30A4_U+30E4_U+30FC 1
 62
     7
420
 16777215
370
     9
  0
POLYLINE
  5
96
330
1F
100
AcDbEntity
  8
_U+30EC_U+30A4_U+30E4_U+30FC 1
 62
     7
420
 16777215
370
     9
100
AcDb2dPolyline
 66
     1
 10
0.0
 20
0.0
 30
0.0
  0
VERTEX
  5
97
330
96
100
AcDbEntity
  8
_U+30EC_U+30A4_U+30E4_U+30FC 1
 62
     7
420
 16777215
370
     9
100
AcDbVertex
100
AcDb2dVertex
 10
106.9119839391147
 20
-124.7000652466026
 30
0.0
  0
VERTEX
  5
98
330
96
100
AcDbEntity
  8
_U+30EC_U+30A4_U+30E4_U+30FC 1
 62
     7
420
 16777215
370
     9
100
AcDbVertex
100
AcDb2dVertex
 10
109.3724677652314
 20
-124.7000652466026
 30
0.0
  0
SEQEND
  5
99
330
96
100
AcDbEntity
  8
_U+30EC_U+30A4_U+30E4_U+30FC 1
 62
     7
420
 16777215
370
     9
  0
INSERT
  5
9B
330
1F
100
AcDbEntity
  8
_U+30EC_U+30A4_U+30E4_U+30FC 1
100
AcDbBlockReference
  2
block 2
 10
0.0
 20
0.0
 30
0.0
  0
POLYLINE
  5
A0
330
1F
100
AcDbEntity
  8
_U+30EC_U+30A4_U+30E4_U+30FC 1
 62
     7
420
 16777215
370
     9
100
AcDb2dPolyline
 66
     1
 10
0.0
 20
0.0
 30
0.0
  0
VERTEX
  5
A1
330
A0
100
AcDbEntity
  8
_U+30EC_U+30A4_U+30E4_U+30FC 1
 62
     7
420
 16777215
370
     9
100
AcDbVertex
100
AcDb2dVertex
 10
79.16036798045076
 20
-140.1995332982832
 30
0.0
  0
VERTEX
  5
A2
330
A0
100
AcDbEntity
  8
_U+30EC_U+30A4_U+30E4_U+30FC 1
 62
     7
420
 16777215
370
     9
100
AcDbVertex
100
AcDb2dVertex
 10
89.16010078089188
 20
-140.1995332982832
 30
0.0
  0
SEQEND
  5
A3
330
A0
100
AcDbEntity
  8
_U+30EC_U+30A4_U+30E4_U+30FC 1
 62
     7
420
 16777215
370
     9
  0
POLYLINE
  5
A4
330
1F
100
AcDbEntity
  8
_U+30EC_U+30A4_U+30E4_U+30FC 1
 62
     7
420
 16777215
370
     9
100
AcDb2dPolyline
 66
     1
 10
0.0
 20
0.0
 30
0.0
  0
VERTEX
  5
A5
330
A4
100
AcDbEntity
  8
_U+30EC_U+30A4_U+30E4_U+30FC 1
 62
     7
420
 16777215
370
     9
100
AcDbVertex
100
AcDb2dVertex
 10
89.16010078089188
 20
-138.7391744097599
 30
0.0
  0
VERTEX
  5
A6
330
A4
100
AcDbEntity
  8
_U+30EC_U+30A4_U+30E4_U+30FC 1
 62
     7
420
 16777215
370
     9
100
AcDbVertex
100
AcDb2dVertex
 10
89.16010078089188
 20
-141.2000110758113
 30
0.0
  0
SEQEND
  5
A7
330
A4
100
AcDbEntity
  8
_U+30EC_U+30A4_U+30E4_U+30FC 1
 62
     7
420
 16777215
370
     9
  0
INSERT
  5
A9
330
1F
100
AcDbEntity
  8
_U+30EC_U+30A4_U+30E4_U+30FC 1
100
AcDbBlockReference
  2
block 3
 10
0.0
 20
0.0
 30
0.0
  0
POLYLINE
  5
B1
330
1F
100
AcDbEntity
  8
_U+30EC_U+30A4_U+30E4_U+30FC 1
 62
     7
420
 16777215
370
     9
100
AcDb2dPolyline
 66
     1
 10
0.0
 20
0.0
 30
0.0
  0
VERTEX
  5
B2
330
B1
100
AcDbEntity
  8
_U+30EC_U+30A4_U+30E4_U+30FC 1
 62
     7
420
 16777215
370
     9
100
AcDbVertex
100
AcDb2dVertex
 10
108.3720252907548
 20
-136.199774132617
 30
0.0
  0
VERTEX
  5
B3
330
B1
100
AcDbEntity
  8
_U+30EC_U+30A4_U+30E4_U+30FC 1
 62
     7
420
 16777215
370
     9
100
AcDbVertex
100
AcDb2dVertex
 10
108.3720252907548
 20
-133.2001399666997
 30
0.0
  0
SEQEND
  5
B4
330
B1
100
AcDbEntity
  8
_U+30EC_U+30A4_U+30E4_U+30FC 1
 62
     7
420
 16777215
370
     9
  0
POLYLINE
  5
B5
330
1F
100
AcDbEntity
  8
_U+30EC_U+30A4_U+30E4_U+30FC 1
 62
     7
420
 16777215
370
     9
100
AcDb2dPolyline
 66
     1
 10
0.0
 20
0.0
 30
0.0
  0
VERTEX
  5
B6
330
B5
100
AcDbEntity
  8
_U+30EC_U+30A4_U+30E4_U+30FC 1
 62
     7
420
 16777215
370
     9
100
AcDbVertex
100
AcDb2dVertex
 10
91.60404164376597
 20
-136.199774132617
 30
0.0
  0
VERTEX
  5
B7
330
B5
100
AcDbEntity
  8
_U+30EC_U+30A4_U+30E4_U+30FC 1
 62
     7
420
 16777215
370
     9
100
AcDbVertex
100
AcDb2dVertex
 10
109.3724677652314
 20
-136.199774132617
 30
0.0
  0
SEQEND
  5
B8
330
B5
100
AcDbEntity
  8
_U+30EC_U+30A4_U+30E4_U+30FC 1
 62
     7
420
 16777215
370
     9
  0
INSERT
  5
BA
330
1F
100
AcDbEntity
  8
_U+30EC_U+30A4_U+30E4_U+30FC 1
100
AcDbBlockReference
  2
block 4
 10
0.0
 20
0.0
 30
0.0
  0
POLYLINE
  5
BF
330
1F
100
AcDbEntity
  8
_U+30EC_U+30A4_U+30E4_U+30FC 1
 62
     7
420
 16777215
370
     9
100
AcDb2dPolyline
 66
     1
 10
0.0
 20
0.0
 30
0.0
  0
VERTEX
  5
C0
330
BF
100
AcDbEntity
  8
_U+30EC_U+30A4_U+30E4_U+30FC 1
 62
     7
420
 16777215
370
     9
100
AcDbVertex
100
AcDb2dVertex
 10
108.3720252907548
 20
-133.2001399666997
 30
0.0
  0
VERTEX
  5
C1
330
BF
100
AcDbEntity
  8
_U+30EC_U+30A4_U+30E4_U+30FC 1
 62
     7
420
 16777215
370
     9
100
AcDbVertex
100
AcDb2dVertex
 10
108.3720252907548
 20
-124.7000652466026
 30
0.0
  0
SEQEND
  5
C2
330
BF
100
AcDbEntity
  8
_U+30EC_U+30A4_U+30E4_U+30FC 1
 62
     7
420
 16777215
370
     9
  0
POLYLINE
  5
C3
330
1F
100
AcDbEntity
  8
_U+30EC_U+30A4_U+30E4_U+30FC 1
 62
     7
420
 16777215
370
     9
100
AcDb2dPolyline
 66
     1
 10
0.0
 20
0.0
 30
0.0
  0
VERTEX
  5
C4
330
C3
100
AcDbEntity
  8
_U+30EC_U+30A4_U+30E4_U+30FC 1
 62
     7
420
 16777215
370
     9
100
AcDbVertex
100
AcDb2dVertex
 10
91.60404164376597
 20
-133.2001399666997
 30
0.0
  0
VERTEX
  5
C5
330
C3
100
AcDbEntity
  8
_U+30EC_U+30A4_U+30E4_U+30FC 1
 62
     7
420
 16777215
370
     9
100
AcDbVertex
100
AcDb2dVertex
 10
109.3724677652314
 20
-133.2001399666997
 30
0.0
  0
SEQEND
  5
C6
330
C3
100
AcDbEntity
  8
_U+30EC_U+30A4_U+30E4_U+30FC 1
 62
     7
420
 16777215
370
     9
  0
INSERT
  5
C8
330
1F
100
AcDbEntity
  8
_U+30EC_U+30A4_U+30E4_U+30FC 1
100
AcDbBlockReference
  2
block 5
 10
0.0
 20
0.0
 30
0.0
  0
POLYLINE
  5
D9
330
1F
100
AcDbEntity
  8
_U+30EC_U+30A4_U+30E4_U+30FC 1
 62
     7
420
 16777215
370
     9
100
AcDb2dPolyline
 66
     1
 10
0.0
 20
0.0
 30
0.0
  0
VERTEX
  5
DA
330
D9
100
AcDbEntity
  8
_U+30EC_U+30A4_U+30E4_U+30FC 1
 62
     7
420
 16777215
370
     9
100
AcDbVertex
100
AcDb2dVertex
 10
73.18932202167373
 20
-119.7001810811861
 30
0.0
  0
VERTEX
  5
DB
330
D9
100
AcDbEntity
  8
_U+30EC_U+30A4_U+30E4_U+30FC 1
 62
     7
420
 16777215
370
     9
100
AcDbVertex
100
AcDb2dVertex
 10
104.1889981752505
 20
-119.7001810811861
 30
0.0
  0
SEQEND
  5
DC
330
D9
100
AcDbEntity
  8
_U+30EC_U+30A4_U+30E4_U+30FC 1
 62
     7
420
 16777215
370
     9
  0
POLYLINE
  5
DD
330
1F
100
AcDbEntity
  8
_U+30EC_U+30A4_U+30E4_U+30FC 1
 62
     7
420
 16777215
370
     9
100
AcDb2dPolyline
 66
     1
 10
0.0
 20
0.0
 30
0.0
  0
VERTEX
  5
DE
330
DD
100
AcDbEntity
  8
_U+30EC_U+30A4_U+30E4_U+30FC 1
 62
     7
420
 16777215
370
     9
100
AcDbVertex
100
AcDb2dVertex
 10
73.1576444261551
 20
-121.1602224697098
 30
0.0
  0
VERTEX
  5
DF
330
DD
100
AcDbEntity
  8
_U+30EC_U+30A4_U+30E4_U+30FC 1
 62
     7
420
 16777215
370
     9
100
AcDbVertex
100
AcDb2dVertex
 10
73.1576444261551
 20
-118.700091359214
 30
0.0
  0
SEQEND
  5
E0
330
DD
100
AcDbEntity
  8
_U+30EC_U+30A4_U+30E4_U+30FC 1
 62
     7
420
 16777215
370
     9
  0
POLYLINE
  5
E1
330
1F
100
AcDbEntity
  8
_U+30EC_U+30A4_U+30E4_U+30FC 1
 62
     7
420
 16777215
370
     9
100
AcDb2dPolyline
 66
     1
 10
0.0
 20
0.0
 30
0.0
  0
VERTEX
  5
E2
330
E1
100
AcDbEntity
  8
_U+30EC_U+30A4_U+30E4_U+30FC 1
 62
     7
420
 16777215
370
     9
100
AcDbVertex
100
AcDb2dVertex
 10
104.1889981752505
 20
-121.1602224697098
 30
0.0
  0
VERTEX
  5
E3
330
E1
100
AcDbEntity
  8
_U+30EC_U+30A4_U+30E4_U+30FC 1
 62
     7
420
 16777215
370
     9
100
AcDbVertex
100
AcDb2dVertex
 10
104.1889981752505
 20
-118.700091359214
 30
0.0
  0
SEQEND
  5
E4
330
E1
100
AcDbEntity
  8
_U+30EC_U+30A4_U+30E4_U+30FC 1
 62
     7
420
 16777215
370
     9
  0
INSERT
  5
E6
330
1F
100
AcDbEntity
  8
_U+30EC_U+30A4_U+30E4_U+30FC 1
100
AcDbBlockReference
  2
block 6
 10
0.0
 20
0.0
 30
0.0
  0
POLYLINE
  5
ED
330
1F
100
AcDbEntity
  8
_U+30EC_U+30A4_U+30E4_U+30FC 1
 62
     7
420
 16777215
370
     9
100
AcDb2dPolyline
 66
     1
 10
0.0
 20
0.0
 30
0.0
  0
VERTEX
  5
EE
330
ED
100
AcDbEntity
  8
_U+30EC_U+30A4_U+30E4_U+30FC 1
 62
     7
420
 16777215
370
     9
100
AcDbVertex
100
AcDb2dVertex
 10
73.16039424463396
 20
-140.1995332982832
 30
0.0
  0
VERTEX
  5
EF
330
ED
100
AcDbEntity
  8
_U+30EC_U+30A4_U+30E4_U+30FC 1
 62
     7
420
 16777215
370
     9
100
AcDbVertex
100
AcDb2dVertex
 10
79.16036798045076
 20
-140.1995332982832
 30
0.0
  0
SEQEND
  5
F0
330
ED
100
AcDbEntity
  8
_U+30EC_U+30A4_U+30E4_U+30FC 1
 62
     7
420
 16777215
370
     9
  0
POLYLINE
  5
F1
330
1F
100
AcDbEntity
  8
_U+30EC_U+30A4_U+30E4_U+30FC 1
 62
     7
420
 16777215
370
     9
100
AcDb2dPolyline
 66
     1
 10
0.0
 20
0.0
 30
0.0
  0
VERTEX
  5
F2
330
F1
100
AcDbEntity
  8
_U+30EC_U+30A4_U+30E4_U+30FC 1
 62
     7
420
 16777215
370
     9
100
AcDbVertex
100
AcDb2dVertex
 10
73.08458230212364
 20
-127.2401358015233
 30
0.0
  0
VERTEX
  5
F3
330
F1
100
AcDbEntity
  8
_U+30EC_U+30A4_U+30E4_U+30FC 1
 62
     7
420
 16777215
370
     9
100
AcDbVertex
100
AcDb2dVertex
 10
73.08458230212364
 20
-141.2000110758113
 30
0.0
  0
SEQEND
  5
F4
330
F1
100
AcDbEntity
  8
_U+30EC_U+30A4_U+30E4_U+30FC 1
 62
     7
420
 16777215
370
     9
  0
POLYLINE
  5
F5
330
1F
100
AcDbEntity
  8
_U+30EC_U+30A4_U+30E4_U+30FC 1
 62
     7
420
 16777215
370
     9
100
AcDb2dPolyline
 66
     1
 10
0.0
 20
0.0
 30
0.0
  0
VERTEX
  5
F6
330
F5
100
AcDbEntity
  8
_U+30EC_U+30A4_U+30E4_U+30FC 1
 62
     7
420
 16777215
370
     9
100
AcDbVertex
100
AcDb2dVertex
 10
79.16036798045076
 20
-138.7391744097599
 30
0.0
  0
VERTEX
  5
F7
330
F5
100
AcDbEntity
  8
_U+30EC_U+30A4_U+30E4_U+30FC 1
 62
     7
420
 16777215
370
     9
100
AcDbVertex
100
AcDb2dVertex
 10
79.16036798045076
 20
-141.2000110758113
 30
0.0
  0
SEQEND
  5
F8
330
F5
100
AcDbEntity
  8
_U+30EC_U+30A4_U+30E4_U+30FC 1
 62
     7
420
 16777215
370
     9
  0
INSERT
  5
FA
330
1F
100
AcDbEntity
  8
_U+30EC_U+30A4_U+30E4_U+30FC 1
100
AcDbBlockReference
  2
block 7
 10
0.0
 20
0.0
 30
0.0
  0
ENDSEC
  0
SECTION
  2
OBJECTS
  0
DICTIONARY
  5
C
330
0
100
AcDbDictionary
281
     1
  3
ACAD_GROUP
350
D
  3
ACAD_LAYOUT
350
1A
  3
ACAD_MATERIAL
350
3B
  3
ACAD_MLEADERSTYLE
350
101
  3
ACAD_MLINESTYLE
350
17
  3
ACAD_PLOTSETTINGS
350
19
  3
ACAD_PLOTSTYLENAME
350
E
  3
ACAD_TABLESTYLE
350
100
  3
ACAD_VISUALSTYLE
350
2A
  0
SUN
  5
3F
330
29
100
AcDbSun
 90
        1
290
     0
 63
     7
421
 16777215
 40
1.0
291
     1
 91
  2455826
 92
 54000000
292
     0
 70
     2
 71
   256
280
     1
  0
DICTIONARY
  5
D
102
{ACAD_REACTORS
330
C
102
}
330
C
100
AcDbDictionary
281
     1
  0
DICTIONARY
  5
1A
102
{ACAD_REACTORS
330
C
102
}
330
C
100
AcDbDictionary
281
     1
  3
Layout1
350
1E
  3
Layout2
350
26
  3
Model
350
22
  0
DICTIONARY
  5
3B
102
{ACAD_REACTORS
330
C
102
}
330
C
100
AcDbDictionary
281
     1
  3
ByBlock
350
3D
  3
ByLayer
350
3C
  3
Global
350
3E
  0
DICTIONARY
  5
101
102
{ACAD_REACTORS
330
C
102
}
330
C
100
AcDbDictionary
281
     1
  0
DICTIONARY
  5
17
102
{ACAD_REACTORS
330
C
102
}
330
C
100
AcDbDictionary
281
     1
  3
Standard
350
18
  0
DICTIONARY
  5
19
102
{ACAD_REACTORS
330
C
102
}
330
C
100
AcDbDictionary
281
     1
  0
ACDBDICTIONARYWDFLT
  5
E
102
{ACAD_REACTORS
330
C
102
}
330
C
100
AcDbDictionary
281
     1
  3
Normal
350
F
100
AcDbDictionaryWithDefault
340
F
  0
DICTIONARY
  5
100
102
{ACAD_REACTORS
330
C
102
}
330
C
100
AcDbDictionary
281
     1
  0
DICTIONARY
  5
2A
102
{ACAD_REACTORS
330
C
102
}
330
C
100
AcDbDictionary
281
     1
  3
2dWireframe
350
2F
  3
3D Hidden
350
31
  3
3dWireframe
350
30
  3
Basic
350
32
  3
Brighten
350
36
  3
ColorChange
350
3A
  3
Conceptual
350
34
  3
Dim
350
35
  3
Facepattern
350
39
  3
Flat
350
2B
  3
FlatWithEdges
350
2C
  3
Gouraud
350
2D
  3
GouraudWithEdges
350
2E
  3
Linepattern
350
38
  3
Realistic
350
33
  3
Thicken
350
37
  0
LAYOUT
  5
1E
102
{ACAD_REACTORS
330
1A
102
}
330
1A
100
AcDbPlotSettings
  1

  2
none_device
  4

  6

 40
0.0
 41
0.0
 42
0.0
 43
0.0
 44
0.0
 45
0.0
 46
0.0
 47
0.0
 48
0.0
 49
0.0
140
0.0
141
0.0
142
1.0
143
1.0
 70
   688
 72
     0
 73
     0
 74
     5
  7

 75
    16
 76
     0
 77
     2
 78
   300
147
1.0
148
0.0
149
0.0
100
AcDbLayout
  1
Layout1
 70
     1
 71
     1
 10
0.0
 20
0.0
 11
12.0
 21
9.0
 12
0.0
 22
0.0
 32
0.0
 14
1.000000000000000E+20
 24
1.000000000000000E+20
 34
1.000000000000000E+20
 15
-1.000000000000000E+20
 25
-1.000000000000000E+20
 35
-1.000000000000000E+20
146
0.0
 13
0.0
 23
0.0
 33
0.0
 16
1.0
 26
0.0
 36
0.0
 17
0.0
 27
1.0
 37
0.0
 76
     0
330
1B
  0
LAYOUT
  5
26
102
{ACAD_REACTORS
330
1A
102
}
330
1A
100
AcDbPlotSettings
  1

  2
none_device
  4

  6

 40
0.0
 41
0.0
 42
0.0
 43
0.0
 44
0.0
 45
0.0
 46
0.0
 47
0.0
 48
0.0
 49
0.0
140
0.0
141
0.0
142
1.0
143
1.0
 70
   688
 72
     0
 73
     0
 74
     5
  7

 75
    16
 76
     0
 77
     2
 78
   300
147
1.0
148
0.0
149
0.0
100
AcDbLayout
  1
Layout2
 70
     1
 71
     2
 10
0.0
 20
0.0
 11
0.0
 21
0.0
 12
0.0
 22
0.0
 32
0.0
 14
0.0
 24
0.0
 34
0.0
 15
0.0
 25
0.0
 35
0.0
146
0.0
 13
0.0
 23
0.0
 33
0.0
 16
1.0
 26
0.0
 36
0.0
 17
0.0
 27
1.0
 37
0.0
 76
     0
330
23
  0
LAYOUT
  5
22
102
{ACAD_REACTORS
330
1A
102
}
330
1A
100
AcDbPlotSettings
  1

  2
none_device
  4

  6

 40
0.0
 41
0.0
 42
0.0
 43
0.0
 44
0.0
 45
0.0
 46
0.0
 47
0.0
 48
0.0
 49
0.0
140
0.0
141
0.0
142
1.0
143
1.0
 70
  1712
 72
     0
 73
     0
 74
     0
  7

 75
     0
 76
     0
 77
     2
 78
   300
147
1.0
148
0.0
149
0.0
100
AcDbLayout
  1
Model
 70
     1
 71
     0
 10
0.0
 20
0.0
 11
12.0
 21
9.0
 12
0.0
 22
0.0
 32
0.0
 14
1.000000000000000E+20
 24
1.000000000000000E+20
 34
1.000000000000000E+20
 15
-1.000000000000000E+20
 25
-1.000000000000000E+20
 35
-1.000000000000000E+20
146
0.0
 13
0.0
 23
0.0
 33
0.0
 16
1.0
 26
0.0
 36
0.0
 17
0.0
 27
1.0
 37
0.0
 76
     0
330
1F
331
29
  0
MATERIAL
  5
3D
102
{ACAD_REACTORS
330
3B
102
}
330
3B
100
AcDbMaterial
  1
ByBlock
 72
     1
 94
      127
  0
MATERIAL
  5
3C
102
{ACAD_REACTORS
330
3B
102
}
330
3B
100
AcDbMaterial
  1
ByLayer
 72
     1
 94
      127
  0
MATERIAL
  5
3E
102
{ACAD_REACTORS
330
3B
102
}
330
3B
100
AcDbMaterial
  1
Global
 72
     1
 94
      127
  0
MLINESTYLE
  5
18
102
{ACAD_REACTORS
330
17
102
}
330
17
100
AcDbMlineStyle
  2
Standard
 70
     0
  3

 62
   256
 51
90.0
 52
90.0
 71
     2
 49
0.5
 62
   256
  6
BYLAYER
 49
-0.5
 62
   256
  6
BYLAYER
  0
ACDBPLACEHOLDER
  5
F
102
{ACAD_REACTORS
330
E
102
}
330
E
  0
VISUALSTYLE
  5
2F
102
{ACAD_REACTORS
330
2A
102
}
330
2A
100
AcDbVisualStyle
  2
2dWireframe
 70
     4
177
     2
291
     0
 71
     0
176
     1
 72
     2
176
     1
 73
     0
176
     1
 90
        0
176
     1
 40
-0.6
176
     1
 41
-30.0
176
     1
 62
     5
 63
     7
421
 16777215
176
     1
 74
     1
176
     1
 91
        4
176
     1
 64
     7
176
     1
 65
   257
176
     1
 75
     1
176
     1
175
     1
176
     1
 42
1.0
176
     1
 92
        0
176
     1
 66
   257
176
     1
 43
1.0
176
     1
 76
     1
176
     1
 77
     6
176
     1
 78
     2
176
     1
 67
     7
176
     1
 79
     5
176
     1
170
     0
176
     1
171
     0
176
     1
290
     0
176
     1
 93
        1
176
     1
 44
0.0
176
     1
173
     0
176
     1
  0
VISUALSTYLE
  5
31
102
{ACAD_REACTORS
330
2A
102
}
330
2A
100
AcDbVisualStyle
  2
3D Hidden
 70
     6
177
     2
291
     0
 71
     1
176
     1
 72
     2
176
     1
 73
     2
176
     1
 90
        0
176
     1
 40
-0.6
176
     1
 41
-30.0
176
     1
 62
     5
 63
     7
421
 16777215
176
     1
 74
     2
176
     1
 91
        2
176
     1
 64
     7
176
     1
 65
   257
176
     1
 75
     2
176
     1
175
     1
176
     1
 42
40.0
176
     1
 92
        0
176
     1
 66
   257
176
     1
 43
1.0
176
     1
 76
     1
176
     1
 77
     6
176
     1
 78
     2
176
     1
 67
     7
176
     1
 79
     3
176
     1
170
     0
176
     1
171
     0
176
     1
290
     0
176
     1
 93
        1
176
     1
 44
0.0
176
     1
173
     0
176
     1
  0
VISUALSTYLE
  5
30
102
{ACAD_REACTORS
330
2A
102
}
330
2A
100
AcDbVisualStyle
  2
3dWireframe
 70
     5
177
     2
291
     0
 71
     0
176
     1
 72
     2
176
     1
 73
     0
176
     1
 90
        0
176
     1
 40
-0.6
176
     1
 41
-30.0
176
     1
 62
     5
 63
     7
421
 16777215
176
     1
 74
     1
176
     1
 91
        4
176
     1
 64
     7
176
     1
 65
   257
176
     1
 75
     1
176
     1
175
     1
176
     1
 42
1.0
176
     1
 92
        0
176
     1
 66
   257
176
     1
 43
1.0
176
     1
 76
     1
176
     1
 77
     6
176
     1
 78
     2
176
     1
 67
     7
176
     1
 79
     5
176
     1
170
     0
176
     1
171
     0
176
     1
290
     0
176
     1
 93
        1
176
     1
 44
0.0
176
     1
173
     0
176
     1
  0
VISUALSTYLE
  5
32
102
{ACAD_REACTORS
330
2A
102
}
330
2A
100
AcDbVisualStyle
  2
Basic
 70
     7
177
     2
291
     1
 71
     1
176
     1
 72
     0
176
     1
 73
     1
176
     1
 90
        0
176
     1
 40
-0.6
176
     1
 41
-30.0
176
     1
 62
     5
 63
     7
421
 16777215
176
     1
 74
     0
176
     1
 91
        4
176
     1
 64
     7
176
     1
 65
   257
176
     1
 75
     1
176
     1
175
     1
176
     1
 42
1.0
176
     1
 92
        8
176
     1
 66
     7
176
     1
 43
1.0
176
     1
 76
     1
176
     1
 77
     6
176
     1
 78
     2
176
     1
 67
     7
176
     1
 79
     5
176
     1
170
     0
176
     1
171
     0
176
     1
290
     0
176
     1
 93
        1
176
     1
 44
0.0
176
     1
173
     0
176
     1
  0
VISUALSTYLE
  5
36
102
{ACAD_REACTORS
330
2A
102
}
330
2A
100
AcDbVisualStyle
  2
Brighten
 70
    12
177
     2
291
     1
 71
     2
176
     1
 72
     2
176
     1
 73
     0
176
     1
 90
        0
176
     1
 40
-0.6
176
     1
 41
-30.0
176
     1
 62
     5
 63
     7
421
 16777215
176
     1
 74
     1
176
     1
 91
        4
176
     1
 64
     7
176
     1
 65
   257
176
     1
 75
     1
176
     1
175
     1
176
     1
 42
1.0
176
     1
 92
        8
176
     1
 66
     7
176
     1
 43
1.0
176
     1
 76
     1
176
     1
 77
     6
176
     1
 78
     2
176
     1
 67
     7
176
     1
 79
     5
176
     1
170
     0
176
     1
171
     0
176
     1
290
     0
176
     1
 93
        1
176
     1
 44
50.0
176
     1
173
     0
176
     1
  0
VISUALSTYLE
  5
3A
102
{ACAD_REACTORS
330
2A
102
}
330
2A
100
AcDbVisualStyle
  2
ColorChange
 70
    16
177
     2
291
     1
 71
     2
176
     1
 72
     2
176
     1
 73
     3
176
     1
 90
        0
176
     1
 40
-0.6
176
     1
 41
-30.0
176
     1
 62
     5
 63
     8
421
  8421504
176
     1
 74
     1
176
     1
 91
        4
176
     1
 64
     7
176
     1
 65
   257
176
     1
 75
     1
176
     1
175
     1
176
     1
 42
1.0
176
     1
 92
        8
176
     1
 66
     8
424
  8421504
176
     1
 43
1.0
176
     1
 76
     1
176
     1
 77
     6
176
     1
 78
     2
176
     1
 67
     7
176
     1
 79
     5
176
     1
170
     0
176
     1
171
     0
176
     1
290
     0
176
     1
 93
        1
176
     1
 44
0.0
176
     1
173
     0
176
     1
  0
VISUALSTYLE
  5
34
102
{ACAD_REACTORS
330
2A
102
}
330
2A
100
AcDbVisualStyle
  2
Conceptual
 70
     9
177
     2
291
     0
 71
     3
176
     1
 72
     2
176
     1
 73
     0
176
     1
 90
        0
176
     1
 40
-0.6
176
     1
 41
-30.0
176
     1
 62
     5
 63
     7
421
 16777215
176
     1
 74
     2
176
     1
 91
        2
176
     1
 64
     7
176
     1
 65
   257
176
     1
 75
     1
176
     1
175
     1
176
     1
 42
40.0
176
     1
 92
        8
176
     1
 66
     7
176
     1
 43
1.0
176
     1
 76
     1
176
     1
 77
     6
176
     1
 78
     2
176
     1
 67
     7
176
     1
 79
     3
176
     1
170
     0
176
     1
171
     0
176
     1
290
     0
176
     1
 93
        1
176
     1
 44
0.0
176
     1
173
     0
176
     1
  0
VISUALSTYLE
  5
35
102
{ACAD_REACTORS
330
2A
102
}
330
2A
100
AcDbVisualStyle
  2
Dim
 70
    11
177
     2
291
     1
 71
     2
176
     1
 72
     2
176
     1
 73
     0
176
     1
 90
        0
176
     1
 40
-0.6
176
     1
 41
-30.0
176
     1
 62
     5
 63
     7
421
 16777215
176
     1
 74
     1
176
     1
 91
        4
176
     1
 64
     7
176
     1
 65
   257
176
     1
 75
     1
176
     1
175
     1
176
     1
 42
1.0
176
     1
 92
        8
176
     1
 66
     7
176
     1
 43
1.0
176
     1
 76
     1
176
     1
 77
     6
176
     1
 78
     2
176
     1
 67
     7
176
     1
 79
     5
176
     1
170
     0
176
     1
171
     0
176
     1
290
     0
176
     1
 93
        1
176
     1
 44
-50.0
176
     1
173
     0
176
     1
  0
VISUALSTYLE
  5
39
102
{ACAD_REACTORS
330
2A
102
}
330
2A
100
AcDbVisualStyle
  2
Facepattern
 70
    15
177
     2
291
     1
 71
     2
176
     1
 72
     2
176
     1
 73
     0
176
     1
 90
        0
176
     1
 40
-0.6
176
     1
 41
-30.0
176
     1
 62
     5
 63
     7
421
 16777215
176
     1
 74
     1
176
     1
 91
        4
176
     1
 64
     7
176
     1
 65
   257
176
     1
 75
     1
176
     1
175
     1
176
     1
 42
1.0
176
     1
 92
        8
176
     1
 66
     7
176
     1
 43
1.0
176
     1
 76
     1
176
     1
 77
     6
176
     1
 78
     2
176
     1
 67
     7
176
     1
 79
     5
176
     1
170
     0
176
     1
171
     0
176
     1
290
     0
176
     1
 93
        1
176
     1
 44
0.0
176
     1
173
     0
176
     1
  0
VISUALSTYLE
  5
2B
102
{ACAD_REACTORS
330
2A
102
}
330
2A
100
AcDbVisualStyle
  2
Flat
 70
     0
177
     2
291
     1
 71
     2
176
     1
 72
     1
176
     1
 73
     1
176
     1
 90
        2
176
     1
 40
-0.6
176
     1
 41
30.0
176
     1
 62
     5
 63
     7
421
 16777215
176
     1
 74
     0
176
     1
 91
        4
176
     1
 64
     7
176
     1
 65
   257
176
     1
 75
     1
176
     1
175
     1
176
     1
 42
1.0
176
     1
 92
        8
176
     1
 66
     7
176
     1
 43
1.0
176
     1
 76
     1
176
     1
 77
     6
176
     1
 78
     2
176
     1
 67
     7
176
     1
 79
     5
176
     1
170
     0
176
     1
171
     0
176
     1
290
     0
176
     1
 93
       13
176
     1
 44
0.0
176
     1
173
     0
176
     1
  0
VISUALSTYLE
  5
2C
102
{ACAD_REACTORS
330
2A
102
}
330
2A
100
AcDbVisualStyle
  2
FlatWithEdges
 70
     1
177
     2
291
     1
 71
     2
176
     1
 72
     1
176
     1
 73
     1
176
     1
 90
        2
176
     1
 40
-0.6
176
     1
 41
30.0
176
     1
 62
     5
 63
     7
421
 16777215
176
     1
 74
     1
176
     1
 91
        4
176
     1
 64
     7
176
     1
 65
   257
176
     1
 75
     1
176
     1
175
     1
176
     1
 42
1.0
176
     1
 92
        0
176
     1
 66
   257
176
     1
 43
1.0
176
     1
 76
     1
176
     1
 77
     6
176
     1
 78
     2
176
     1
 67
     7
176
     1
 79
     5
176
     1
170
     0
176
     1
171
     0
176
     1
290
     0
176
     1
 93
       13
176
     1
 44
0.0
176
     1
173
     0
176
     1
  0
VISUALSTYLE
  5
2D
102
{ACAD_REACTORS
330
2A
102
}
330
2A
100
AcDbVisualStyle
  2
Gouraud
 70
     2
177
     2
291
     1
 71
     2
176
     1
 72
     2
176
     1
 73
     1
176
     1
 90
        2
176
     1
 40
-0.6
176
     1
 41
30.0
176
     1
 62
     5
 63
     7
421
 16777215
176
     1
 74
     0
176
     1
 91
        4
176
     1
 64
     7
176
     1
 65
   257
176
     1
 75
     1
176
     1
175
     1
176
     1
 42
1.0
176
     1
 92
        0
176
     1
 66
     7
176
     1
 43
1.0
176
     1
 76
     1
176
     1
 77
     6
176
     1
 78
     2
176
     1
 67
     7
176
     1
 79
     5
176
     1
170
     0
176
     1
171
     0
176
     1
290
     0
176
     1
 93
       13
176
     1
 44
0.0
176
     1
173
     0
176
     1
  0
VISUALSTYLE
  5
2E
102
{ACAD_REACTORS
330
2A
102
}
330
2A
100
AcDbVisualStyle
  2
GouraudWithEdges
 70
     3
177
     2
291
     1
 71
     2
176
     1
 72
     2
176
     1
 73
     1
176
     1
 90
        2
176
     1
 40
-0.6
176
     1
 41
30.0
176
     1
 62
     5
 63
     7
421
 16777215
176
     1
 74
     1
176
     1
 91
        4
176
     1
 64
     7
176
     1
 65
   257
176
     1
 75
     1
176
     1
175
     1
176
     1
 42
1.0
176
     1
 92
        0
176
     1
 66
   257
176
     1
 43
1.0
176
     1
 76
     1
176
     1
 77
     6
176
     1
 78
     2
176
     1
 67
     7
176
     1
 79
     5
176
     1
170
     0
176
     1
171
     0
176
     1
290
     0
176
     1
 93
       13
176
     1
 44
0.0
176
     1
173
     0
176
     1
  0
VISUALSTYLE
  5
38
102
{ACAD_REACTORS
330
2A
102
}
330
2A
100
AcDbVisualStyle
  2
Linepattern
 70
    14
177
     2
291
     1
 71
     2
176
     1
 72
     2
176
     1
 73
     0
176
     1
 90
        0
176
     1
 40
-0.6
176
     1
 41
-30.0
176
     1
 62
     5
 63
     7
421
 16777215
176
     1
 74
     1
176
     1
 91
        4
176
     1
 64
     7
176
     1
 65
   257
176
     1
 75
     7
176
     1
175
     7
176
     1
 42
1.0
176
     1
 92
        8
176
     1
 66
     7
176
     1
 43
1.0
176
     1
 76
     1
176
     1
 77
     6
176
     1
 78
     2
176
     1
 67
     7
176
     1
 79
     5
176
     1
170
     0
176
     1
171
     0
176
     1
290
     0
176
     1
 93
        1
176
     1
 44
0.0
176
     1
173
     0
176
     1
  0
VISUALSTYLE
  5
33
102
{ACAD_REACTORS
330
2A
102
}
330
2A
100
AcDbVisualStyle
  2
Realistic
 70
     8
177
     2
291
     0
 71
     2
176
     1
 72
     2
176
     1
 73
     0
176
     1
 90
        0
176
     1
 40
-0.6
176
     1
 41
-30.0
176
     1
 62
     5
 63
     7
421
 16777215
176
     1
 74
     1
176
     1
 91
        0
176
     1
 64
     7
176
     1
 65
   257
176
     1
 75
     1
176
     1
175
     1
176
     1
 42
1.0
176
     1
 92
        8
176
     1
 66
     8
424
  7895160
176
     1
 43
1.0
176
     1
 76
     1
176
     1
 77
     6
176
     1
 78
     2
176
     1
 67
     7
176
     1
 79
     5
176
     1
170
     0
176
     1
171
     0
176
     1
290
     0
176
     1
 93
       13
176
     1
 44
0.0
176
     1
173
     0
176
     1
  0
VISUALSTYLE
  5
37
102
{ACAD_REACTORS
330
2A
102
}
330
2A
100
AcDbVisualStyle
  2
Thicken
 70
    13
177
     2
291
     1
 71
     2
176
     1
 72
     2
176
     1
 73
     0
176
     1
 90
        0
176
     1
 40
-0.6
176
     1
 41
-30.0
176
     1
 62
     5
 63
     7
421
 16777215
176
     1
 74
     1
176
     1
 91
        4
176
     1
 64
     7
176
     1
 65
   257
176
     1
 75
     1
176
     1
175
     1
176
     1
 42
1.0
176
     1
 92
       12
176
     1
 66
     7
176
     1
 43
1.0
176
     1
 76
     1
176
     1
 77
     6
176
     1
 78
     2
176
     1
 67
     7
176
     1
 79
     5
176
     1
170
     0
176
     1
171
     0
176
     1
290
     0
176
     1
 93
        1
176
     1
 44
0.0
176
     1
173
     0
176
     1
  0
ENDSEC
  0
EOF
