  0
SECTION
  2
HEADER
  9
$ACADVER
  1
AC1024
  9
$ACADMAINTVER
 70
     6
  9
$DWGCODEPAGE
  3
UNDEFINED
  9
$INSBASE
 10
0.0
 20
0.0
 30
0.0
  9
$EXTMIN
 10
1.000000000000000E+20
 20
1.000000000000000E+20
 30
1.000000000000000E+20
  9
$EXTMAX
 10
-1.000000000000000E+20
 20
-1.000000000000000E+20
 30
-1.000000000000000E+20
  9
$LIMMIN
 10
0.0
 20
0.0
  9
$LIMMAX
 10
12.0
 20
9.0
  9
$ORTHOMODE
 70
     0
  9
$REGENMODE
 70
     1
  9
$FILLMODE
 70
     1
  9
$QTEXTMODE
 70
     0
  9
$MIRRTEXT
 70
     1
  9
$LTSCALE
 40
1.0
  9
$ATTMODE
 70
     1
  9
$TEXTSIZE
 40
0.2
  9
$TRACEWID
 40
0.05
  9
$TEXTSTYLE
  7
Standard
  9
$CLAYER
  8
0
  9
$CELTYPE
  6
ByLayer
  9
$CECOLOR
 62
   256
  9
$CELTSCALE
 40
1.0
  9
$DISPSILH
 70
     0
  9
$DIMSCALE
 40
1.0
  9
$DIMASZ
 40
0.18
  9
$DIMEXO
 40
0.0625
  9
$DIMDLI
 40
0.38
  9
$DIMRND
 40
0.0
  9
$DIMDLE
 40
0.0
  9
$DIMEXE
 40
0.18
  9
$DIMTP
 40
0.0
  9
$DIMTM
 40
0.0
  9
$DIMTXT
 40
0.18
  9
$DIMCEN
 40
0.09
  9
$DIMTSZ
 40
0.0
  9
$DIMTOL
 70
     0
  9
$DIMLIM
 70
     0
  9
$DIMTIH
 70
     1
  9
$DIMTOH
 70
     1
  9
$DIMSE1
 70
     0
  9
$DIMSE2
 70
     0
  9
$DIMTAD
 70
     0
  9
$DIMZIN
 70
     0
  9
$DIMBLK
  1

  9
$DIMASO
 70
     1
  9
$DIMSHO
 70
     1
  9
$DIMPOST
  1

  9
$DIMAPOST
  1

  9
$DIMALT
 70
     0
  9
$DIMALTD
 70
     2
  9
$DIMALTF
 40
25.4
  9
$DIMLFAC
 40
1.0
  9
$DIMTOFL
 70
     0
  9
$DIMTVP
 40
0.0
  9
$DIMTIX
 70
     0
  9
$DIMSOXD
 70
     0
  9
$DIMSAH
 70
     0
  9
$DIMBLK1
  1

  9
$DIMBLK2
  1

  9
$DIMSTYLE
  2
Standard
  9
$DIMCLRD
 70
     0
  9
$DIMCLRE
 70
     0
  9
$DIMCLRT
 70
     0
  9
$DIMTFAC
 40
1.0
  9
$DIMGAP
 40
0.09
  9
$DIMJUST
 70
     0
  9
$DIMSD1
 70
     0
  9
$DIMSD2
 70
     0
  9
$DIMTOLJ
 70
     1
  9
$DIMTZIN
 70
     0
  9
$DIMALTZ
 70
     0
  9
$DIMALTTZ
 70
     0
  9
$DIMUPT
 70
     0
  9
$DIMDEC
 70
     4
  9
$DIMTDEC
 70
     4
  9
$DIMALTU
 70
     2
  9
$DIMALTTD
 70
     2
  9
$DIMTXSTY
  7
Standard
  9
$DIMAUNIT
 70
     0
  9
$DIMADEC
 70
     0
  9
$DIMALTRND
 40
0.0
  9
$DIMAZIN
 70
     0
  9
$DIMDSEP
 70
    46
  9
$DIMATFIT
 70
     3
  9
$DIMFRAC
 70
     0
  9
$DIMLDRBLK
  1

  9
$DIMLUNIT
 70
     2
  9
$DIMLWD
 70
    -2
  9
$DIMLWE
 70
    -2
  9
$DIMTMOVE
 70
     0
  9
$DIMFXL
 40
1.0
  9
$DIMFXLON
 70
     0
  9
$DIMJOGANG
 40
0.7853981633974483
  9
$DIMTFILL
 70
     0
  9
$DIMTFILLCLR
 70
     0
  9
$DIMARCSYM
 70
     0
  9
$DIMLTYPE
  6

  9
$DIMLTEX1
  6

  9
$DIMLTEX2
  6

  9
$DIMTXTDIRECTION
 70
     0
  9
$LUNITS
 70
     2
  9
$LUPREC
 70
     4
  9
$SKETCHINC
 40
0.1
  9
$FILLETRAD
 40
0.5
  9
$AUNITS
 70
     0
  9
$AUPREC
 70
     0
  9
$MENU
  1
.
  9
$ELEVATION
 40
0.0
  9
$PELEVATION
 40
0.0
  9
$THICKNESS
 40
0.0
  9
$LIMCHECK
 70
     0
  9
$CHAMFERA
 40
0.5
  9
$CHAMFERB
 40
0.5
  9
$CHAMFERC
 40
1.0
  9
$CHAMFERD
 40
0.0
  9
$SKPOLY
 70
     0
  9
$TDCREATE
 40
2457917.613148148
  9
$TDUCREATE
 40
2457917.238148148
  9
$TDUPDATE
 40
2457917.613148148
  9
$TDUUPDATE
 40
2457917.238148148
  9
$TDINDWG
 40
0.0000000116
  9
$TDUSRTIMER
 40
0.0000000116
  9
$USRTIMER
 70
     1
  9
$ANGBASE
 50
0.0
  9
$ANGDIR
 70
     0
  9
$PDMODE
 70
     0
  9
$PDSIZE
 40
0.0
  9
$PLINEWID
 40
0.0
  9
$SPLFRAME
 70
     0
  9
$SPLINETYPE
 70
     6
  9
$SPLINESEGS
 70
     8
  9
$HANDSEED
  5
E7
  9
$SURFTAB1
 70
     6
  9
$SURFTAB2
 70
     6
  9
$SURFTYPE
 70
     6
  9
$SURFU
 70
     6
  9
$SURFV
 70
     6
  9
$UCSBASE
  2

  9
$UCSNAME
  2

  9
$UCSORG
 10
0.0
 20
0.0
 30
0.0
  9
$UCSXDIR
 10
1.0
 20
0.0
 30
0.0
  9
$UCSYDIR
 10
0.0
 20
1.0
 30
0.0
  9
$UCSORTHOREF
  2

  9
$UCSORTHOVIEW
 70
     0
  9
$UCSORGTOP
 10
0.0
 20
0.0
 30
0.0
  9
$UCSORGBOTTOM
 10
0.0
 20
0.0
 30
0.0
  9
$UCSORGLEFT
 10
0.0
 20
0.0
 30
0.0
  9
$UCSORGRIGHT
 10
0.0
 20
0.0
 30
0.0
  9
$UCSORGFRONT
 10
0.0
 20
0.0
 30
0.0
  9
$UCSORGBACK
 10
0.0
 20
0.0
 30
0.0
  9
$PUCSBASE
  2

  9
$PUCSNAME
  2

  9
$PUCSORG
 10
0.0
 20
0.0
 30
0.0
  9
$PUCSXDIR
 10
1.0
 20
0.0
 30
0.0
  9
$PUCSYDIR
 10
0.0
 20
1.0
 30
0.0
  9
$PUCSORTHOREF
  2

  9
$PUCSORTHOVIEW
 70
     0
  9
$PUCSORGTOP
 10
0.0
 20
0.0
 30
0.0
  9
$PUCSORGBOTTOM
 10
0.0
 20
0.0
 30
0.0
  9
$PUCSORGLEFT
 10
0.0
 20
0.0
 30
0.0
  9
$PUCSORGRIGHT
 10
0.0
 20
0.0
 30
0.0
  9
$PUCSORGFRONT
 10
0.0
 20
0.0
 30
0.0
  9
$PUCSORGBACK
 10
0.0
 20
0.0
 30
0.0
  9
$USERI1
 70
     0
  9
$USERI2
 70
     0
  9
$USERI3
 70
     0
  9
$USERI4
 70
     0
  9
$USERI5
 70
     0
  9
$USERR1
 40
0.0
  9
$USERR2
 40
0.0
  9
$USERR3
 40
0.0
  9
$USERR4
 40
0.0
  9
$USERR5
 40
0.0
  9
$WORLDVIEW
 70
     1
  9
$SHADEDGE
 70
     3
  9
$SHADEDIF
 70
    70
  9
$TILEMODE
 70
     1
  9
$MAXACTVP
 70
    64
  9
$PINSBASE
 10
0.0
 20
0.0
 30
0.0
  9
$PLIMCHECK
 70
     0
  9
$PEXTMIN
 10
1.000000000000000E+20
 20
1.000000000000000E+20
 30
1.000000000000000E+20
  9
$PEXTMAX
 10
-1.000000000000000E+20
 20
-1.000000000000000E+20
 30
-1.000000000000000E+20
  9
$PLIMMIN
 10
0.0
 20
0.0
  9
$PLIMMAX
 10
12.0
 20
9.0
  9
$UNITMODE
 70
     0
  9
$VISRETAIN
 70
     1
  9
$PLINEGEN
 70
     0
  9
$PSLTSCALE
 70
     1
  9
$TREEDEPTH
 70
  3020
  9
$CMLSTYLE
  2
Standard
  9
$CMLJUST
 70
     0
  9
$CMLSCALE
 40
1.0
  9
$PROXYGRAPHICS
 70
     1
  9
$MEASUREMENT
 70
     0
  9
$CELWEIGHT
370
    -1
  9
$ENDCAPS
280
     0
  9
$JOINSTYLE
280
     0
  9
$LWDISPLAY
290
     1
  9
$INSUNITS
 70
     1
  9
$HYPERLINKBASE
  1

  9
$STYLESHEET
  1

  9
$XEDIT
290
     1
  9
$CEPSNTYPE
380
     0
  9
$PSTYLEMODE
290
     1
  9
$FINGERPRINTGUID
  2
{F1EEDE22-4985-448B-F35F-5AA829CC1048}
  9
$VERSIONGUID
  2
{FAEB1C32-E019-11D5-929B-00C0DF256EC4}
  9
$EXTNAMES
290
     1
  9
$PSVPSCALE
 40
0.0
  9
$OLESTARTUP
290
     0
  9
$SORTENTS
280
   127
  9
$INDEXCTL
280
     0
  9
$HIDETEXT
280
     1
  9
$XCLIPFRAME
280
     2
  9
$HALOGAP
280
     0
  9
$OBSCOLOR
 70
   257
  9
$OBSLTYPE
280
     0
  9
$INTERSECTIONDISPLAY
280
     0
  9
$INTERSECTIONCOLOR
 70
   257
  9
$DIMASSOC
280
     2
  9
$PROJECTNAME
  1

  9
$CAMERADISPLAY
290
     0
  9
$LENSLENGTH
 40
50.0
  9
$CAMERAHEIGHT
 40
0.0
  9
$STEPSPERSEC
 40
2.0
  9
$STEPSIZE
 40
6.0
  9
$3DDWFPREC
 40
2.0
  9
$PSOLWIDTH
 40
0.25
  9
$PSOLHEIGHT
 40
4.0
  9
$LOFTANG1
 40
1.570796326794897
  9
$LOFTANG2
 40
1.570796326794897
  9
$LOFTMAG1
 40
0.0
  9
$LOFTMAG2
 40
0.0
  9
$LOFTPARAM
 70
     7
  9
$LOFTNORMALS
280
     1
  9
$LATITUDE
 40
37.795
  9
$LONGITUDE
 40
-122.394
  9
$NORTHDIRECTION
 40
0.0
  9
$TIMEZONE
 70
 -8000
  9
$LIGHTGLYPHDISPLAY
280
     1
  9
$TILEMODELIGHTSYNCH
280
     1
  9
$CMATERIAL
347
3C
  9
$SOLIDHIST
280
     1
  9
$SHOWHIST
280
     1
  9
$DWFFRAME
280
     2
  9
$DGNFRAME
280
     2
  9
$REALWORLDSCALE
290
     1
  9
$INTERFERECOLOR
 62
   256
  9
$CSHADOW
280
     0
  9
$SHADOWPLANELOCATION
 40
0.0
  0
ENDSEC
  0
SECTION
  2
CLASSES
  0
CLASS
  1
ACDBDICTIONARYWDFLT
  2
AcDbDictionaryWithDefault
  3
ObjectDBX Classes
 90
        0
 91
        4
280
     0
281
     0
  0
CLASS
  1
VISUALSTYLE
  2
AcDbVisualStyle
  3
ObjectDBX Classes
 90
     4095
 91
        4
280
     0
281
     0
  0
CLASS
  1
MATERIAL
  2
AcDbMaterial
  3
ObjectDBX Classes
 90
     1153
 91
        4
280
     0
281
     0
  0
CLASS
  1
SUN
  2
AcDbSun
  3
SCENEOE
 90
     1024
 91
        4
280
     0
281
     0
  0
ENDSEC
  0
SECTION
  2
TABLES
  0
TABLE
  2
VPORT
  5
8
330
0
100
AcDbSymbolTable
 70
     1
  0
VPORT
  5
29
330
8
100
AcDbSymbolTableRecord
100
AcDbViewportTableRecord
  2
*Active
 70
     0
 10
0.0
 20
0.0
 11
1.0
 21
1.0
 12
0.0
 22
0.0
 13
0.0
 23
0.0
 14
0.5
 24
0.5
 15
0.5
 25
0.5
 16
0.0
 26
0.0
 36
1.0
 17
91.00082462281999
 27
-128.4993055234307
 37
0.0
 40
256.9986110468615
 41
0.7081814508812795
 42
50.0
 43
0.0
 44
0.0
 50
0.0
 51
0.0
 71
     0
 72
   100
 73
     1
 74
     3
 75
     0
 76
     0
 77
     0
 78
     0
281
     0
 65
     1
110
0.0
120
0.0
130
0.0
111
1.0
121
0.0
131
0.0
112
0.0
122
1.0
132
0.0
 79
     0
146
0.0
 60
     3
 61
     5
292
     1
282
     1
141
0.0
142
0.0
 63
   250
361
3F
  0
ENDTAB
  0
TABLE
  2
LTYPE
  5
5
330
0
100
AcDbSymbolTable
 70
     1
  0
LTYPE
  5
14
330
5
100
AcDbSymbolTableRecord
100
AcDbLinetypeTableRecord
  2
ByBlock
 70
     0
  3

 72
    65
 73
     0
 40
0.0
  0
LTYPE
  5
15
330
5
100
AcDbSymbolTableRecord
100
AcDbLinetypeTableRecord
  2
ByLayer
 70
     0
  3

 72
    65
 73
     0
 40
0.0
  0
LTYPE
  5
16
330
5
100
AcDbSymbolTableRecord
100
AcDbLinetypeTableRecord
  2
Continuous
 70
     0
  3
Solid line
 72
    65
 73
     0
 40
0.0
  0
ENDTAB
  0
TABLE
  2
LAYER
  5
2
330
0
100
AcDbSymbolTable
 70
     2
  0
LAYER
  5
10
330
2
100
AcDbSymbolTableRecord
100
AcDbLayerTableRecord
  2
0
 70
     0
 62
     7
  6
Continuous
370
    -3
390
F
347
3E
  0
LAYER
  5
40
330
2
100
AcDbSymbolTableRecord
100
AcDbLayerTableRecord
  2
_U+30EC_U+30A4_U+30E4_U+30FC 1
 70
     0
 62
     7
  6
Continuous
370
    -3
390
F
347
3E
  0
ENDTAB
  0
TABLE
  2
STYLE
  5
3
330
0
100
AcDbSymbolTable
 70
     1
  0
STYLE
  5
11
330
3
100
AcDbSymbolTableRecord
100
AcDbTextStyleTableRecord
  2
Standard
 70
     0
 40
0.0
 41
1.0
 50
0.0
 71
     0
 42
0.2
  3
txt
  4

  0
ENDTAB
  0
TABLE
  2
VIEW
  5
6
330
0
100
AcDbSymbolTable
 70
     0
  0
ENDTAB
  0
TABLE
  2
UCS
  5
7
330
0
100
AcDbSymbolTable
 70
     0
  0
ENDTAB
  0
TABLE
  2
APPID
  5
9
330
0
100
AcDbSymbolTable
 70
     1
  0
APPID
  5
12
330
9
100
AcDbSymbolTableRecord
100
AcDbRegAppTableRecord
  2
ACAD
 70
     0
  0
ENDTAB
  0
TABLE
  2
DIMSTYLE
  5
A
330
0
100
AcDbSymbolTable
 70
     1
100
AcDbDimStyleTable
  0
DIMSTYLE
105
27
330
A
100
AcDbSymbolTableRecord
100
AcDbDimStyleTableRecord
  2
Standard
 70
     0
178
     0
340
11
  0
ENDTAB
  0
TABLE
  2
BLOCK_RECORD
  5
1
330
0
100
AcDbSymbolTable
 70
     6
  0
BLOCK_RECORD
  5
1F
330
1
100
AcDbSymbolTableRecord
100
AcDbBlockTableRecord
  2
*Model_Space
340
22
 70
     0
280
     1
281
     0
  0
BLOCK_RECORD
  5
1B
330
1
100
AcDbSymbolTableRecord
100
AcDbBlockTableRecord
  2
*Paper_Space
340
1E
 70
     0
280
     1
281
     0
  0
BLOCK_RECORD
  5
23
330
1
100
AcDbSymbolTableRecord
100
AcDbBlockTableRecord
  2
*Paper_Space0
340
26
 70
     0
280
     1
281
     0
  0
BLOCK_RECORD
  5
8F
330
1
100
AcDbSymbolTableRecord
100
AcDbBlockTableRecord
  2
block 2
340
0
102
{BLKREFS
331
90
102
}
 70
     0
280
     1
281
     0
  0
BLOCK_RECORD
  5
A1
330
1
100
AcDbSymbolTableRecord
100
AcDbBlockTableRecord
  2
block 3
340
0
102
{BLKREFS
331
A2
102
}
 70
     0
280
     1
281
     0
  0
BLOCK_RECORD
  5
B3
330
1
100
AcDbSymbolTableRecord
100
AcDbBlockTableRecord
  2
block 4
340
0
102
{BLKREFS
331
B4
102
}
 70
     0
280
     1
281
     0
  0
BLOCK_RECORD
  5
C4
330
1
100
AcDbSymbolTableRecord
100
AcDbBlockTableRecord
  2
block 5
340
0
102
{BLKREFS
331
C5
102
}
 70
     0
280
     1
281
     0
  0
BLOCK_RECORD
  5
D4
330
1
100
AcDbSymbolTableRecord
100
AcDbBlockTableRecord
  2
block 6
340
0
102
{BLKREFS
331
D5
102
}
 70
     0
280
     1
281
     0
  0
ENDTAB
  0
ENDSEC
  0
SECTION
  2
BLOCKS
  0
BLOCK
  5
20
330
1F
100
AcDbEntity
  8
0
100
AcDbBlockBegin
  2
*Model_Space
 70
     0
 10
0.0
 20
0.0
 30
0.0
  3
*Model_Space
  1

  0
ENDBLK
  5
21
330
1F
100
AcDbEntity
  8
0
100
AcDbBlockEnd
  0
BLOCK
  5
1C
330
1B
100
AcDbEntity
 67
     1
  8
0
100
AcDbBlockBegin
  2
*Paper_Space
 70
     0
 10
0.0
 20
0.0
 30
0.0
  3
*Paper_Space
  1

  0
ENDBLK
  5
1D
330
1B
100
AcDbEntity
 67
     1
  8
0
100
AcDbBlockEnd
  0
BLOCK
  5
24
330
23
100
AcDbEntity
  8
0
100
AcDbBlockBegin
  2
*Paper_Space0
 70
     0
 10
0.0
 20
0.0
 30
0.0
  3
*Paper_Space0
  1

  0
ENDBLK
  5
25
330
23
100
AcDbEntity
  8
0
100
AcDbBlockEnd
  0
BLOCK
  5
91
330
8F
100
AcDbEntity
  8
0
100
AcDbBlockBegin
  2
block 2
 70
     0
 10
0.0
 20
0.0
 30
0.0
  3
block 2
  1

  0
SPLINE
  5
93
330
8F
100
AcDbEntity
  8
_U+30EC_U+30A4_U+30E4_U+30FC 1
370
     0
100
AcDbSpline
210
0.0
220
0.0
230
1.0
 70
    11
 71
     3
 72
    26
 73
    22
 74
     0
 42
0.0000000001
 43
0.0000000001
 12
1.0
 22
0.0
 32
0.0
 13
1.0
 23
0.0
 33
0.0
 40
0.0
 40
0.0
 40
0.0
 40
0.0
 40
1.0
 40
1.0
 40
1.0
 40
2.0
 40
2.0
 40
2.0
 40
3.0
 40
3.0
 40
3.0
 40
4.0
 40
4.0
 40
4.0
 40
5.0
 40
5.0
 40
5.0
 40
6.0
 40
6.0
 40
6.0
 40
7.0
 40
7.0
 40
7.0
 40
7.0
 10
75.15441350117668
 20
-121.366924340318
 30
0.0
 10
75.15441350117668
 20
-121.366924340318
 30
0.0
 10
74.05026039815411
 20
-121.366924340318
 30
0.0
 10
74.05026039815411
 20
-121.366924340318
 30
0.0
 10
74.05026039815411
 20
-121.366924340318
 30
0.0
 10
74.05026039815411
 20
-121.6969644878049
 30
0.0
 10
74.05026039815411
 20
-121.6969644878049
 30
0.0
 10
74.05026039815411
 20
-121.6969644878049
 30
0.0
 10
73.90212129228836
 20
-121.6969644878049
 30
0.0
 10
73.90212129228836
 20
-121.6969644878049
 30
0.0
 10
73.88730738170179
 20
-121.3648572830269
 30
0.0
 10
73.72435436524947
 20
-121.318348493976
 30
0.0
 10
73.60997719513918
 20
-121.2887206728028
 30
0.0
 10
73.60997719513918
 20
-121.2887206728028
 30
0.0
 10
73.60997719513918
 20
-121.1426486242282
 30
0.0
 10
73.60997719513918
 20
-121.1426486242282
 30
0.0
 10
73.60997719513918
 20
-121.1426486242282
 30
0.0
 10
75.15441350117668
 20
-121.1426486242282
 30
0.0
 10
75.15441350117668
 20
-121.1426486242282
 30
0.0
 10
75.15441350117668
 20
-121.1426486242282
 30
0.0
 10
75.15441350117668
 20
-121.366924340318
 30
0.0
 10
75.15441350117668
 20
-121.366924340318
 30
0.0
  0
HATCH
  5
94
330
8F
100
AcDbEntity
  8
_U+30EC_U+30A4_U+30E4_U+30FC 1
 62
   179
420
  2234388
100
AcDbHatch
 10
0.0
 20
0.0
 30
0.0
210
0.0
220
0.0
230
1.0
  2
SOLID
 70
     1
 71
     0
 91
        1
 92
        1
 93
        1
 72
     4
 94
        3
 73
     0
 74
     1
 95
       26
 96
       22
 40
0.0
 40
0.0
 40
0.0
 40
0.0
 40
1.0
 40
1.0
 40
1.0
 40
2.0
 40
2.0
 40
2.0
 40
3.0
 40
3.0
 40
3.0
 40
4.0
 40
4.0
 40
4.0
 40
5.0
 40
5.0
 40
5.0
 40
6.0
 40
6.0
 40
6.0
 40
7.0
 40
7.0
 40
7.0
 40
7.0
 10
75.15441350117668
 20
-121.366924340318
 10
75.15441350117668
 20
-121.366924340318
 10
74.05026039815411
 20
-121.366924340318
 10
74.05026039815411
 20
-121.366924340318
 10
74.05026039815411
 20
-121.366924340318
 10
74.05026039815411
 20
-121.6969644878049
 10
74.05026039815411
 20
-121.6969644878049
 10
74.05026039815411
 20
-121.6969644878049
 10
73.90212129228836
 20
-121.6969644878049
 10
73.90212129228836
 20
-121.6969644878049
 10
73.88730738170179
 20
-121.3648572830269
 10
73.72435436524947
 20
-121.318348493976
 10
73.60997719513918
 20
-121.2887206728028
 10
73.60997719513918
 20
-121.2887206728028
 10
73.60997719513918
 20
-121.1426486242282
 10
73.60997719513918
 20
-121.1426486242282
 10
73.60997719513918
 20
-121.1426486242282
 10
75.15441350117668
 20
-121.1426486242282
 10
75.15441350117668
 20
-121.1426486242282
 10
75.15441350117668
 20
-121.1426486242282
 10
75.15441350117668
 20
-121.366924340318
 10
75.15441350117668
 20
-121.366924340318
 97
        0
 97
        0
 75
     2
 76
     1
 98
        0
  0
ENDBLK
  5
92
330
8F
100
AcDbEntity
  8
0
100
AcDbBlockEnd
  0
BLOCK
  5
A3
330
A1
100
AcDbEntity
  8
0
100
AcDbBlockBegin
  2
block 3
 70
     0
 10
0.0
 20
0.0
 30
0.0
  3
block 3
  1

  0
SPLINE
  5
A5
330
A1
100
AcDbEntity
  8
_U+30EC_U+30A4_U+30E4_U+30FC 1
370
     0
100
AcDbSpline
210
0.0
220
0.0
230
1.0
 70
    11
 71
     3
 72
    62
 73
    58
 74
     0
 42
0.0000000001
 43
0.0000000001
 12
1.0
 22
0.0
 32
0.0
 13
1.0
 23
0.0
 33
0.0
 40
0.0
 40
0.0
 40
0.0
 40
0.0
 40
1.0
 40
1.0
 40
1.0
 40
2.0
 40
2.0
 40
2.0
 40
3.0
 40
3.0
 40
3.0
 40
4.0
 40
4.0
 40
4.0
 40
5.0
 40
5.0
 40
5.0
 40
6.0
 40
6.0
 40
6.0
 40
7.0
 40
7.0
 40
7.0
 40
8.0
 40
8.0
 40
8.0
 40
9.0
 40
9.0
 40
9.0
 40
10.0
 40
10.0
 40
10.0
 40
11.0
 40
11.0
 40
11.0
 40
12.0
 40
12.0
 40
12.0
 40
13.0
 40
13.0
 40
13.0
 40
14.0
 40
14.0
 40
14.0
 40
15.0
 40
15.0
 40
15.0
 40
16.0
 40
16.0
 40
16.0
 40
17.0
 40
17.0
 40
17.0
 40
18.0
 40
18.0
 40
18.0
 40
19.0
 40
19.0
 40
19.0
 40
19.0
 10
108.204937038921
 20
-131.73666175092
 30
0.0
 10
108.204937038921
 20
-131.8320908958614
 30
0.0
 10
108.183921956461
 20
-132.0498209305292
 30
0.0
 10
107.9978868002575
 20
-132.1748778966438
 30
0.0
 10
107.8855766874383
 20
-132.2489474495767
 30
0.0
 10
107.7863579374631
 20
-132.2530815641589
 30
0.0
 10
107.701608588526
 20
-132.2572156787413
 30
0.0
 10
107.701608588526
 20
-132.2572156787413
 30
0.0
 10
107.701608588526
 20
-132.0370740772338
 30
0.0
 10
107.701608588526
 20
-132.0370740772338
 30
0.0
 10
107.7756781414589
 20
-132.0350070199426
 30
0.0
 10
108.0102891440044
 20
-132.0246717334869
 30
0.0
 10
108.0102891440044
 20
-131.7411403750508
 30
0.0
 10
108.0102891440044
 20
-131.6036810651894
 30
0.0
 10
107.9406982152023
 20
-131.4510633351928
 30
0.0
 10
107.7122883845303
 20
-131.4510633351928
 30
0.0
 10
107.5958441571288
 20
-131.4510633351928
 30
0.0
 10
107.5472683107868
 20
-131.4893038950791
 30
0.0
 10
107.5155734323225
 20
-131.5209987735434
 30
0.0
 10
107.4415038793896
 20
-131.5950683264763
 30
0.0
 10
107.4287570260942
 20
-131.7115125538777
 30
0.0
 10
107.4287570260942
 20
-131.7662895720931
 30
0.0
 10
107.4287570260942
 20
-131.7855821068106
 30
0.0
 10
107.4308240833854
 20
-131.8214110998572
 30
0.0
 10
107.4349581979677
 20
-131.8489718637392
 30
0.0
 10
107.4349581979677
 20
-131.8489718637392
 30
0.0
 10
107.240310303051
 20
-131.8489718637392
 30
0.0
 10
107.240310303051
 20
-131.8489718637392
 30
0.0
 10
107.246855984473
 20
-131.8107313038529
 30
0.0
 10
107.2489230417642
 20
-131.7687011389328
 30
0.0
 10
107.2489230417642
 20
-131.7621554575109
 30
0.0
 10
107.2489230417642
 20
-131.6966986432911
 30
0.0
 10
107.2275634497556
 20
-131.4979166337922
 30
0.0
 10
106.9908853899189
 20
-131.4979166337922
 30
0.0
 10
106.8131184628801
 20
-131.4979166337922
 30
0.0
 10
106.7579969351161
 20
-131.6288302622317
 30
0.0
 10
106.7579969351161
 20
-131.7390733177597
 30
0.0
 10
106.7579969351161
 20
-132.0033121414783
 30
0.0
 10
106.9908853899189
 20
-132.0119248801915
 30
0.0
 10
107.0625433760121
 20
-132.0160589947738
 30
0.0
 10
107.0625433760121
 20
-132.0160589947738
 30
0.0
 10
107.0625433760121
 20
-132.2193196284035
 30
0.0
 10
107.0625433760121
 20
-132.2193196284035
 30
0.0
 10
106.9378309194461
 20
-132.2107068896904
 30
0.0
 10
106.5612819829083
 20
-132.1831461258084
 30
0.0
 10
106.5612819829083
 20
-131.7263264644643
 30
0.0
 10
106.5612819829083
 20
-131.5020507483745
 30
0.0
 10
106.688406006314
 20
-131.260894064407
 30
0.0
 10
106.984339708497
 20
-131.260894064407
 30
0.0
 10
107.170719374249
 20
-131.260894064407
 30
0.0
 10
107.2530571563465
 20
-131.3559786997999
 30
0.0
 10
107.3143798559839
 20
-131.4555419593236
 30
0.0
 10
107.3419406198659
 20
-131.3942192596862
 30
0.0
 10
107.4222113446722
 20
-131.212318218065
 30
0.0
 10
107.6995415312348
 20
-131.212318218065
 30
0.0
 10
108.0378499078864
 20
-131.212318218065
 30
0.0
 10
108.204937038921
 20
-131.4596760739059
 30
0.0
 10
108.204937038921
 20
-131.73666175092
 30
0.0
  0
HATCH
  5
A6
330
A1
100
AcDbEntity
  8
_U+30EC_U+30A4_U+30E4_U+30FC 1
 62
   179
420
  2234388
100
AcDbHatch
 10
0.0
 20
0.0
 30
0.0
210
0.0
220
0.0
230
1.0
  2
SOLID
 70
     1
 71
     0
 91
        1
 92
        1
 93
        1
 72
     4
 94
        3
 73
     0
 74
     1
 95
       62
 96
       58
 40
0.0
 40
0.0
 40
0.0
 40
0.0
 40
1.0
 40
1.0
 40
1.0
 40
2.0
 40
2.0
 40
2.0
 40
3.0
 40
3.0
 40
3.0
 40
4.0
 40
4.0
 40
4.0
 40
5.0
 40
5.0
 40
5.0
 40
6.0
 40
6.0
 40
6.0
 40
7.0
 40
7.0
 40
7.0
 40
8.0
 40
8.0
 40
8.0
 40
9.0
 40
9.0
 40
9.0
 40
10.0
 40
10.0
 40
10.0
 40
11.0
 40
11.0
 40
11.0
 40
12.0
 40
12.0
 40
12.0
 40
13.0
 40
13.0
 40
13.0
 40
14.0
 40
14.0
 40
14.0
 40
15.0
 40
15.0
 40
15.0
 40
16.0
 40
16.0
 40
16.0
 40
17.0
 40
17.0
 40
17.0
 40
18.0
 40
18.0
 40
18.0
 40
19.0
 40
19.0
 40
19.0
 40
19.0
 10
108.204937038921
 20
-131.73666175092
 10
108.204937038921
 20
-131.8320908958614
 10
108.183921956461
 20
-132.0498209305292
 10
107.9978868002575
 20
-132.1748778966438
 10
107.8855766874383
 20
-132.2489474495767
 10
107.7863579374631
 20
-132.2530815641589
 10
107.701608588526
 20
-132.2572156787413
 10
107.701608588526
 20
-132.2572156787413
 10
107.701608588526
 20
-132.0370740772338
 10
107.701608588526
 20
-132.0370740772338
 10
107.7756781414589
 20
-132.0350070199426
 10
108.0102891440044
 20
-132.0246717334869
 10
108.0102891440044
 20
-131.7411403750508
 10
108.0102891440044
 20
-131.6036810651894
 10
107.9406982152023
 20
-131.4510633351928
 10
107.7122883845303
 20
-131.4510633351928
 10
107.5958441571288
 20
-131.4510633351928
 10
107.5472683107868
 20
-131.4893038950791
 10
107.5155734323225
 20
-131.5209987735434
 10
107.4415038793896
 20
-131.5950683264763
 10
107.4287570260942
 20
-131.7115125538777
 10
107.4287570260942
 20
-131.7662895720931
 10
107.4287570260942
 20
-131.7855821068106
 10
107.4308240833854
 20
-131.8214110998572
 10
107.4349581979677
 20
-131.8489718637392
 10
107.4349581979677
 20
-131.8489718637392
 10
107.240310303051
 20
-131.8489718637392
 10
107.240310303051
 20
-131.8489718637392
 10
107.246855984473
 20
-131.8107313038529
 10
107.2489230417642
 20
-131.7687011389328
 10
107.2489230417642
 20
-131.7621554575109
 10
107.2489230417642
 20
-131.6966986432911
 10
107.2275634497556
 20
-131.4979166337922
 10
106.9908853899189
 20
-131.4979166337922
 10
106.8131184628801
 20
-131.4979166337922
 10
106.7579969351161
 20
-131.6288302622317
 10
106.7579969351161
 20
-131.7390733177597
 10
106.7579969351161
 20
-132.0033121414783
 10
106.9908853899189
 20
-132.0119248801915
 10
107.0625433760121
 20
-132.0160589947738
 10
107.0625433760121
 20
-132.0160589947738
 10
107.0625433760121
 20
-132.2193196284035
 10
107.0625433760121
 20
-132.2193196284035
 10
106.9378309194461
 20
-132.2107068896904
 10
106.5612819829083
 20
-132.1831461258084
 10
106.5612819829083
 20
-131.7263264644643
 10
106.5612819829083
 20
-131.5020507483745
 10
106.688406006314
 20
-131.260894064407
 10
106.984339708497
 20
-131.260894064407
 10
107.170719374249
 20
-131.260894064407
 10
107.2530571563465
 20
-131.3559786997999
 10
107.3143798559839
 20
-131.4555419593236
 10
107.3419406198659
 20
-131.3942192596862
 10
107.4222113446722
 20
-131.212318218065
 10
107.6995415312348
 20
-131.212318218065
 10
108.0378499078864
 20
-131.212318218065
 10
108.204937038921
 20
-131.4596760739059
 10
108.204937038921
 20
-131.73666175092
 97
        0
 97
        0
 75
     2
 76
     1
 98
        0
  0
ENDBLK
  5
A4
330
A1
100
AcDbEntity
  8
0
100
AcDbBlockEnd
  0
BLOCK
  5
B5
330
B3
100
AcDbEntity
  8
0
100
AcDbBlockBegin
  2
block 4
 70
     0
 10
0.0
 20
0.0
 30
0.0
  3
block 4
  1

  0
SPLINE
  5
B7
330
B3
100
AcDbEntity
  8
_U+30EC_U+30A4_U+30E4_U+30FC 1
370
     0
100
AcDbSpline
210
0.0
220
0.0
230
1.0
 70
    11
 71
     3
 72
    26
 73
    22
 74
     0
 42
0.0000000001
 43
0.0000000001
 12
1.0
 22
0.0
 32
0.0
 13
1.0
 23
0.0
 33
0.0
 40
0.0
 40
0.0
 40
0.0
 40
0.0
 40
1.0
 40
1.0
 40
1.0
 40
2.0
 40
2.0
 40
2.0
 40
3.0
 40
3.0
 40
3.0
 40
4.0
 40
4.0
 40
4.0
 40
5.0
 40
5.0
 40
5.0
 40
6.0
 40
6.0
 40
6.0
 40
7.0
 40
7.0
 40
7.0
 40
7.0
 10
99.16293942833427
 20
-136.5821885509239
 30
0.0
 10
99.16293942833427
 20
-136.5821885509239
 30
0.0
 10
99.16293942833427
 20
-135.4780354479013
 30
0.0
 10
99.16293942833427
 20
-135.4780354479013
 30
0.0
 10
99.16293942833427
 20
-135.4780354479013
 30
0.0
 10
98.83289928084733
 20
-135.4780354479013
 30
0.0
 10
98.83289928084733
 20
-135.4780354479013
 30
0.0
 10
98.83289928084733
 20
-135.4780354479013
 30
0.0
 10
98.83289928084733
 20
-135.3298963420356
 30
0.0
 10
98.83289928084733
 20
-135.3298963420356
 30
0.0
 10
99.16500648562543
 20
-135.315082431449
 30
0.0
 10
99.21151527467629
 20
-135.1521294149967
 30
0.0
 10
99.24114309584944
 20
-135.0377522448864
 30
0.0
 10
99.24114309584944
 20
-135.0377522448864
 30
0.0
 10
99.38721514442403
 20
-135.0377522448864
 30
0.0
 10
99.38721514442403
 20
-135.0377522448864
 30
0.0
 10
99.38721514442403
 20
-135.0377522448864
 30
0.0
 10
99.38721514442403
 20
-136.5821885509239
 30
0.0
 10
99.38721514442403
 20
-136.5821885509239
 30
0.0
 10
99.38721514442403
 20
-136.5821885509239
 30
0.0
 10
99.16293942833427
 20
-136.5821885509239
 30
0.0
 10
99.16293942833427
 20
-136.5821885509239
 30
0.0
  0
HATCH
  5
B8
330
B3
100
AcDbEntity
  8
_U+30EC_U+30A4_U+30E4_U+30FC 1
 62
   179
420
  2234388
100
AcDbHatch
 10
0.0
 20
0.0
 30
0.0
210
0.0
220
0.0
230
1.0
  2
SOLID
 70
     1
 71
     0
 91
        1
 92
        1
 93
        1
 72
     4
 94
        3
 73
     0
 74
     1
 95
       26
 96
       22
 40
0.0
 40
0.0
 40
0.0
 40
0.0
 40
1.0
 40
1.0
 40
1.0
 40
2.0
 40
2.0
 40
2.0
 40
3.0
 40
3.0
 40
3.0
 40
4.0
 40
4.0
 40
4.0
 40
5.0
 40
5.0
 40
5.0
 40
6.0
 40
6.0
 40
6.0
 40
7.0
 40
7.0
 40
7.0
 40
7.0
 10
99.16293942833427
 20
-136.5821885509239
 10
99.16293942833427
 20
-136.5821885509239
 10
99.16293942833427
 20
-135.4780354479013
 10
99.16293942833427
 20
-135.4780354479013
 10
99.16293942833427
 20
-135.4780354479013
 10
98.83289928084733
 20
-135.4780354479013
 10
98.83289928084733
 20
-135.4780354479013
 10
98.83289928084733
 20
-135.4780354479013
 10
98.83289928084733
 20
-135.3298963420356
 10
98.83289928084733
 20
-135.3298963420356
 10
99.16500648562543
 20
-135.315082431449
 10
99.21151527467629
 20
-135.1521294149967
 10
99.24114309584944
 20
-135.0377522448864
 10
99.24114309584944
 20
-135.0377522448864
 10
99.38721514442403
 20
-135.0377522448864
 10
99.38721514442403
 20
-135.0377522448864
 10
99.38721514442403
 20
-135.0377522448864
 10
99.38721514442403
 20
-136.5821885509239
 10
99.38721514442403
 20
-136.5821885509239
 10
99.38721514442403
 20
-136.5821885509239
 10
99.16293942833427
 20
-136.5821885509239
 10
99.16293942833427
 20
-136.5821885509239
 97
        0
 97
        0
 75
     2
 76
     1
 98
        0
  0
SPLINE
  5
B9
330
B3
100
AcDbEntity
  8
_U+30EC_U+30A4_U+30E4_U+30FC 1
370
     0
100
AcDbSpline
210
0.0
220
0.0
230
1.0
 70
    11
 71
     3
 72
    29
 73
    25
 74
     0
 42
0.0000000001
 43
0.0000000001
 12
1.0
 22
0.0
 32
0.0
 13
1.0
 23
0.0
 33
0.0
 40
0.0
 40
0.0
 40
0.0
 40
0.0
 40
1.0
 40
1.0
 40
1.0
 40
2.0
 40
2.0
 40
2.0
 40
3.0
 40
3.0
 40
3.0
 40
4.0
 40
4.0
 40
4.0
 40
5.0
 40
5.0
 40
5.0
 40
6.0
 40
6.0
 40
6.0
 40
7.0
 40
7.0
 40
7.0
 40
8.0
 40
8.0
 40
8.0
 40
8.0
 10
100.786268420984
 20
-136.404421623885
 30
0.0
 10
100.6780924227471
 20
-136.6138834293882
 30
0.0
 10
100.5048041198391
 20
-136.6328314545571
 30
0.0
 10
100.3883598924376
 20
-136.6328314545571
 30
0.0
 10
100.2274739332765
 20
-136.6328314545571
 30
0.0
 10
100.0858805088327
 20
-136.5863226655062
 30
0.0
 10
99.99079587343981
 20
-136.404421623885
 30
0.0
 10
99.88709849933379
 20
-136.2097737289684
 30
0.0
 10
99.8681504741649
 20
-135.9730956691317
 30
0.0
 10
99.8681504741649
 20
-135.8101426526794
 30
0.0
 10
99.8681504741649
 20
-135.666137661396
 30
0.0
 10
99.88503144204263
 20
-135.4143011814242
 30
0.0
 10
99.99079587343981
 20
-135.2155191719253
 30
0.0
 10
100.0986273621281
 20
-135.0126030478441
 30
0.0
 10
100.2595133212893
 20
-134.9891763985444
 30
0.0
 10
100.3883598924376
 20
-134.9891763985444
 30
0.0
 10
100.5471787943077
 20
-134.9891763985444
 30
0.0
 10
100.6908392760426
 20
-135.0336181303041
 30
0.0
 10
100.786268420984
 20
-135.2155191719253
 30
0.0
 10
100.8854871709592
 20
-135.4081000095508
 30
0.0
 10
100.9089138202589
 20
-135.6365098402228
 30
0.0
 10
100.9089138202589
 20
-135.8101426526794
 30
0.0
 10
100.9089138202589
 20
-135.9813638982963
 30
0.0
 10
100.8875542282503
 20
-136.2118407862596
 30
0.0
 10
100.786268420984
 20
-136.404421623885
 30
0.0
  0
SPLINE
  5
BA
330
B3
100
AcDbEntity
  8
_U+30EC_U+30A4_U+30E4_U+30FC 1
370
     0
100
AcDbSpline
210
0.0
220
0.0
230
1.0
 70
    11
 71
     3
 72
    17
 73
    13
 74
     0
 42
0.0000000001
 43
0.0000000001
 12
1.0
 22
0.0
 32
0.0
 13
1.0
 23
0.0
 33
0.0
 40
0.0
 40
0.0
 40
0.0
 40
0.0
 40
1.0
 40
1.0
 40
1.0
 40
2.0
 40
2.0
 40
2.0
 40
3.0
 40
3.0
 40
3.0
 40
4.0
 40
4.0
 40
4.0
 40
4.0
 10
100.3883598924376
 20
-135.1817572361699
 30
0.0
 10
100.1389349793055
 20
-135.1817572361699
 30
0.0
 10
100.0920816807061
 20
-135.4652885946059
 30
0.0
 10
100.0920816807061
 20
-135.8101426526794
 30
0.0
 10
100.0920816807061
 20
-136.1295030041621
 30
0.0
 10
100.1282551833013
 20
-136.4381835596405
 30
0.0
 10
100.3883598924376
 20
-136.4381835596405
 30
0.0
 10
100.6360622578271
 20
-136.4381835596405
 30
0.0
 10
100.6846381041691
 20
-136.1570637680441
 30
0.0
 10
100.6846381041691
 20
-135.8101426526794
 30
0.0
 10
100.6846381041691
 20
-135.4904377916482
 30
0.0
 10
100.6463975442828
 20
-135.1817572361699
 30
0.0
 10
100.3883598924376
 20
-135.1817572361699
 30
0.0
  0
HATCH
  5
BB
330
B3
100
AcDbEntity
  8
_U+30EC_U+30A4_U+30E4_U+30FC 1
 62
   179
420
  2234388
100
AcDbHatch
 10
0.0
 20
0.0
 30
0.0
210
0.0
220
0.0
230
1.0
  2
SOLID
 70
     1
 71
     0
 91
        2
 92
        1
 93
        1
 72
     4
 94
        3
 73
     0
 74
     1
 95
       29
 96
       25
 40
0.0
 40
0.0
 40
0.0
 40
0.0
 40
1.0
 40
1.0
 40
1.0
 40
2.0
 40
2.0
 40
2.0
 40
3.0
 40
3.0
 40
3.0
 40
4.0
 40
4.0
 40
4.0
 40
5.0
 40
5.0
 40
5.0
 40
6.0
 40
6.0
 40
6.0
 40
7.0
 40
7.0
 40
7.0
 40
8.0
 40
8.0
 40
8.0
 40
8.0
 10
100.786268420984
 20
-136.404421623885
 10
100.6780924227471
 20
-136.6138834293882
 10
100.5048041198391
 20
-136.6328314545571
 10
100.3883598924376
 20
-136.6328314545571
 10
100.2274739332765
 20
-136.6328314545571
 10
100.0858805088327
 20
-136.5863226655062
 10
99.99079587343981
 20
-136.404421623885
 10
99.88709849933379
 20
-136.2097737289684
 10
99.8681504741649
 20
-135.9730956691317
 10
99.8681504741649
 20
-135.8101426526794
 10
99.8681504741649
 20
-135.666137661396
 10
99.88503144204263
 20
-135.4143011814242
 10
99.99079587343981
 20
-135.2155191719253
 10
100.0986273621281
 20
-135.0126030478441
 10
100.2595133212893
 20
-134.9891763985444
 10
100.3883598924376
 20
-134.9891763985444
 10
100.5471787943077
 20
-134.9891763985444
 10
100.6908392760426
 20
-135.0336181303041
 10
100.786268420984
 20
-135.2155191719253
 10
100.8854871709592
 20
-135.4081000095508
 10
100.9089138202589
 20
-135.6365098402228
 10
100.9089138202589
 20
-135.8101426526794
 10
100.9089138202589
 20
-135.9813638982963
 10
100.8875542282503
 20
-136.2118407862596
 10
100.786268420984
 20
-136.404421623885
 97
        0
 97
        0
 92
        1
 93
        1
 72
     4
 94
        3
 73
     0
 74
     1
 95
       17
 96
       13
 40
0.0
 40
0.0
 40
0.0
 40
0.0
 40
1.0
 40
1.0
 40
1.0
 40
2.0
 40
2.0
 40
2.0
 40
3.0
 40
3.0
 40
3.0
 40
4.0
 40
4.0
 40
4.0
 40
4.0
 10
100.3883598924376
 20
-135.1817572361699
 10
100.1389349793055
 20
-135.1817572361699
 10
100.0920816807061
 20
-135.4652885946059
 10
100.0920816807061
 20
-135.8101426526794
 10
100.0920816807061
 20
-136.1295030041621
 10
100.1282551833013
 20
-136.4381835596405
 10
100.3883598924376
 20
-136.4381835596405
 10
100.6360622578271
 20
-136.4381835596405
 10
100.6846381041691
 20
-136.1570637680441
 10
100.6846381041691
 20
-135.8101426526794
 10
100.6846381041691
 20
-135.4904377916482
 10
100.6463975442828
 20
-135.1817572361699
 10
100.3883598924376
 20
-135.1817572361699
 97
        0
 97
        0
 75
     2
 76
     1
 98
        0
  0
ENDBLK
  5
B6
330
B3
100
AcDbEntity
  8
0
100
AcDbBlockEnd
  0
BLOCK
  5
C6
330
C4
100
AcDbEntity
  8
0
100
AcDbBlockBegin
  2
block 5
 70
     0
 10
0.0
 20
0.0
 30
0.0
  3
block 5
  1

  0
SPLINE
  5
C8
330
C4
100
AcDbEntity
  8
_U+30EC_U+30A4_U+30E4_U+30FC 1
370
     0
100
AcDbSpline
210
0.0
220
0.0
230
1.0
 70
    11
 71
     3
 72
    26
 73
    22
 74
     0
 42
0.0000000001
 43
0.0000000001
 12
1.0
 22
0.0
 32
0.0
 13
1.0
 23
0.0
 33
0.0
 40
0.0
 40
0.0
 40
0.0
 40
0.0
 40
1.0
 40
1.0
 40
1.0
 40
2.0
 40
2.0
 40
2.0
 40
3.0
 40
3.0
 40
3.0
 40
4.0
 40
4.0
 40
4.0
 40
5.0
 40
5.0
 40
5.0
 40
6.0
 40
6.0
 40
6.0
 40
7.0
 40
7.0
 40
7.0
 40
7.0
 10
86.66292722442802
 20
-136.5821885509239
 30
0.0
 10
86.66292722442802
 20
-136.5821885509239
 30
0.0
 10
86.66292722442802
 20
-135.4780354479013
 30
0.0
 10
86.66292722442802
 20
-135.4780354479013
 30
0.0
 10
86.66292722442802
 20
-135.4780354479013
 30
0.0
 10
86.33288707694109
 20
-135.4780354479013
 30
0.0
 10
86.33288707694109
 20
-135.4780354479013
 30
0.0
 10
86.33288707694109
 20
-135.4780354479013
 30
0.0
 10
86.33288707694109
 20
-135.3298963420356
 30
0.0
 10
86.33288707694109
 20
-135.3298963420356
 30
0.0
 10
86.66499428171917
 20
-135.315082431449
 30
0.0
 10
86.71150307077005
 20
-135.1521294149967
 30
0.0
 10
86.7411308919432
 20
-135.0377522448864
 30
0.0
 10
86.7411308919432
 20
-135.0377522448864
 30
0.0
 10
86.88720294051778
 20
-135.0377522448864
 30
0.0
 10
86.88720294051778
 20
-135.0377522448864
 30
0.0
 10
86.88720294051778
 20
-135.0377522448864
 30
0.0
 10
86.88720294051778
 20
-136.5821885509239
 30
0.0
 10
86.88720294051778
 20
-136.5821885509239
 30
0.0
 10
86.88720294051778
 20
-136.5821885509239
 30
0.0
 10
86.66292722442802
 20
-136.5821885509239
 30
0.0
 10
86.66292722442802
 20
-136.5821885509239
 30
0.0
  0
HATCH
  5
C9
330
C4
100
AcDbEntity
  8
_U+30EC_U+30A4_U+30E4_U+30FC 1
 62
   179
420
  2234388
100
AcDbHatch
 10
0.0
 20
0.0
 30
0.0
210
0.0
220
0.0
230
1.0
  2
SOLID
 70
     1
 71
     0
 91
        1
 92
        1
 93
        1
 72
     4
 94
        3
 73
     0
 74
     1
 95
       26
 96
       22
 40
0.0
 40
0.0
 40
0.0
 40
0.0
 40
1.0
 40
1.0
 40
1.0
 40
2.0
 40
2.0
 40
2.0
 40
3.0
 40
3.0
 40
3.0
 40
4.0
 40
4.0
 40
4.0
 40
5.0
 40
5.0
 40
5.0
 40
6.0
 40
6.0
 40
6.0
 40
7.0
 40
7.0
 40
7.0
 40
7.0
 10
86.66292722442802
 20
-136.5821885509239
 10
86.66292722442802
 20
-136.5821885509239
 10
86.66292722442802
 20
-135.4780354479013
 10
86.66292722442802
 20
-135.4780354479013
 10
86.66292722442802
 20
-135.4780354479013
 10
86.33288707694109
 20
-135.4780354479013
 10
86.33288707694109
 20
-135.4780354479013
 10
86.33288707694109
 20
-135.4780354479013
 10
86.33288707694109
 20
-135.3298963420356
 10
86.33288707694109
 20
-135.3298963420356
 10
86.66499428171917
 20
-135.315082431449
 10
86.71150307077005
 20
-135.1521294149967
 10
86.7411308919432
 20
-135.0377522448864
 10
86.7411308919432
 20
-135.0377522448864
 10
86.88720294051778
 20
-135.0377522448864
 10
86.88720294051778
 20
-135.0377522448864
 10
86.88720294051778
 20
-135.0377522448864
 10
86.88720294051778
 20
-136.5821885509239
 10
86.88720294051778
 20
-136.5821885509239
 10
86.88720294051778
 20
-136.5821885509239
 10
86.66292722442802
 20
-136.5821885509239
 10
86.66292722442802
 20
-136.5821885509239
 97
        0
 97
        0
 75
     2
 76
     1
 98
        0
  0
SPLINE
  5
CA
330
C4
100
AcDbEntity
  8
_U+30EC_U+30A4_U+30E4_U+30FC 1
370
     0
100
AcDbSpline
210
0.0
220
0.0
230
1.0
 70
    11
 71
     3
 72
    53
 73
    49
 74
     0
 42
0.0000000001
 43
0.0000000001
 12
1.0
 22
0.0
 32
0.0
 13
1.0
 23
0.0
 33
0.0
 40
0.0
 40
0.0
 40
0.0
 40
0.0
 40
1.0
 40
1.0
 40
1.0
 40
2.0
 40
2.0
 40
2.0
 40
3.0
 40
3.0
 40
3.0
 40
4.0
 40
4.0
 40
4.0
 40
5.0
 40
5.0
 40
5.0
 40
6.0
 40
6.0
 40
6.0
 40
7.0
 40
7.0
 40
7.0
 40
8.0
 40
8.0
 40
8.0
 40
9.0
 40
9.0
 40
9.0
 40
10.0
 40
10.0
 40
10.0
 40
11.0
 40
11.0
 40
11.0
 40
12.0
 40
12.0
 40
12.0
 40
13.0
 40
13.0
 40
13.0
 40
14.0
 40
14.0
 40
14.0
 40
15.0
 40
15.0
 40
15.0
 40
16.0
 40
16.0
 40
16.0
 40
16.0
 10
87.86939966336251
 20
-136.6328314545571
 30
0.0
 10
87.79102374107308
 20
-136.6328314545571
 30
0.0
 10
87.68956567903247
 20
-136.6159504866793
 30
0.0
 10
87.5879353622176
 20
-136.5525607297508
 30
0.0
 10
87.41447480453527
 20
-136.4426621837713
 30
0.0
 10
87.393287467301
 20
-136.3114040457833
 30
0.0
 10
87.37433944213211
 20
-136.203572557095
 30
0.0
 10
87.37433944213211
 20
-136.203572557095
 30
0.0
 10
87.59637584615646
 20
-136.203572557095
 30
0.0
 10
87.59637584615646
 20
-136.203572557095
 30
0.0
 10
87.65149737392046
 20
-136.4023545665939
 30
0.0
 10
87.77844914255192
 20
-136.431982387767
 30
0.0
 10
87.87146672065367
 20
-136.431982387767
 30
0.0
 10
88.01116534258054
 20
-136.431982387767
 30
0.0
 10
88.16343856302859
 20
-136.3324191282433
 30
0.0
 10
88.16343856302859
 20
-136.0998751829889
 30
0.0
 10
88.16343856302859
 20
-135.8439045884349
 30
0.0
 10
87.98360457869855
 20
-135.7739691500843
 30
0.0
 10
87.8630262367148
 20
-135.7739691500843
 30
0.0
 10
87.83133135825051
 20
-135.7739691500843
 30
0.0
 10
87.68956567903247
 20
-135.7739691500843
 30
0.0
 10
87.60068221551303
 20
-135.9031602307812
 30
0.0
 10
87.60068221551303
 20
-135.9031602307812
 30
0.0
 10
87.42515460053954
 20
-135.8842122056123
 30
0.0
 10
87.42515460053954
 20
-135.8842122056123
 30
0.0
 10
87.42515460053954
 20
-135.8842122056123
 30
0.0
 10
87.54573294252329
 20
-135.0377522448864
 30
0.0
 10
87.54573294252329
 20
-135.0377522448864
 30
0.0
 10
87.54573294252329
 20
-135.0377522448864
 30
0.0
 10
88.3241522674155
 20
-135.0377522448864
 30
0.0
 10
88.3241522674155
 20
-135.0377522448864
 30
0.0
 10
88.3241522674155
 20
-135.0377522448864
 30
0.0
 10
88.3241522674155
 20
-135.232400139803
 30
0.0
 10
88.3241522674155
 20
-135.232400139803
 30
0.0
 10
88.3241522674155
 20
-135.232400139803
 30
0.0
 10
87.70851370420135
 20
-135.232400139803
 30
0.0
 10
87.70851370420135
 20
-135.232400139803
 30
0.0
 10
87.70851370420135
 20
-135.232400139803
 30
0.0
 10
87.6430568899816
 20
-135.6554578653917
 30
0.0
 10
87.6430568899816
 20
-135.6554578653917
 30
0.0
 10
87.70437958961905
 20
-135.6216959296362
 30
0.0
 10
87.78688962649078
 20
-135.5813883124588
 30
0.0
 10
87.90522865640911
 20
-135.5813883124588
 30
0.0
 10
88.15913219367202
 20
-135.5813883124588
 30
0.0
 10
88.39615476305721
 20
-135.7677679782109
 30
0.0
 10
88.39615476305721
 20
-136.08092715782
 30
0.0
 10
88.39615476305721
 20
-136.3982204520116
 30
0.0
 10
88.17187904696745
 20
-136.6328314545571
 30
0.0
 10
87.86939966336251
 20
-136.6328314545571
 30
0.0
  0
HATCH
  5
CB
330
C4
100
AcDbEntity
  8
_U+30EC_U+30A4_U+30E4_U+30FC 1
 62
   179
420
  2234388
100
AcDbHatch
 10
0.0
 20
0.0
 30
0.0
210
0.0
220
0.0
230
1.0
  2
SOLID
 70
     1
 71
     0
 91
        1
 92
        1
 93
        1
 72
     4
 94
        3
 73
     0
 74
     1
 95
       53
 96
       49
 40
0.0
 40
0.0
 40
0.0
 40
0.0
 40
1.0
 40
1.0
 40
1.0
 40
2.0
 40
2.0
 40
2.0
 40
3.0
 40
3.0
 40
3.0
 40
4.0
 40
4.0
 40
4.0
 40
5.0
 40
5.0
 40
5.0
 40
6.0
 40
6.0
 40
6.0
 40
7.0
 40
7.0
 40
7.0
 40
8.0
 40
8.0
 40
8.0
 40
9.0
 40
9.0
 40
9.0
 40
10.0
 40
10.0
 40
10.0
 40
11.0
 40
11.0
 40
11.0
 40
12.0
 40
12.0
 40
12.0
 40
13.0
 40
13.0
 40
13.0
 40
14.0
 40
14.0
 40
14.0
 40
15.0
 40
15.0
 40
15.0
 40
16.0
 40
16.0
 40
16.0
 40
16.0
 10
87.86939966336251
 20
-136.6328314545571
 10
87.79102374107308
 20
-136.6328314545571
 10
87.68956567903247
 20
-136.6159504866793
 10
87.5879353622176
 20
-136.5525607297508
 10
87.41447480453527
 20
-136.4426621837713
 10
87.393287467301
 20
-136.3114040457833
 10
87.37433944213211
 20
-136.203572557095
 10
87.37433944213211
 20
-136.203572557095
 10
87.59637584615646
 20
-136.203572557095
 10
87.59637584615646
 20
-136.203572557095
 10
87.65149737392046
 20
-136.4023545665939
 10
87.77844914255192
 20
-136.431982387767
 10
87.87146672065367
 20
-136.431982387767
 10
88.01116534258054
 20
-136.431982387767
 10
88.16343856302859
 20
-136.3324191282433
 10
88.16343856302859
 20
-136.0998751829889
 10
88.16343856302859
 20
-135.8439045884349
 10
87.98360457869855
 20
-135.7739691500843
 10
87.8630262367148
 20
-135.7739691500843
 10
87.83133135825051
 20
-135.7739691500843
 10
87.68956567903247
 20
-135.7739691500843
 10
87.60068221551303
 20
-135.9031602307812
 10
87.60068221551303
 20
-135.9031602307812
 10
87.42515460053954
 20
-135.8842122056123
 10
87.42515460053954
 20
-135.8842122056123
 10
87.42515460053954
 20
-135.8842122056123
 10
87.54573294252329
 20
-135.0377522448864
 10
87.54573294252329
 20
-135.0377522448864
 10
87.54573294252329
 20
-135.0377522448864
 10
88.3241522674155
 20
-135.0377522448864
 10
88.3241522674155
 20
-135.0377522448864
 10
88.3241522674155
 20
-135.0377522448864
 10
88.3241522674155
 20
-135.232400139803
 10
88.3241522674155
 20
-135.232400139803
 10
88.3241522674155
 20
-135.232400139803
 10
87.70851370420135
 20
-135.232400139803
 10
87.70851370420135
 20
-135.232400139803
 10
87.70851370420135
 20
-135.232400139803
 10
87.6430568899816
 20
-135.6554578653917
 10
87.6430568899816
 20
-135.6554578653917
 10
87.70437958961905
 20
-135.6216959296362
 10
87.78688962649078
 20
-135.5813883124588
 10
87.90522865640911
 20
-135.5813883124588
 10
88.15913219367202
 20
-135.5813883124588
 10
88.39615476305721
 20
-135.7677679782109
 10
88.39615476305721
 20
-136.08092715782
 10
88.39615476305721
 20
-136.3982204520116
 10
88.17187904696745
 20
-136.6328314545571
 10
87.86939966336251
 20
-136.6328314545571
 97
        0
 97
        0
 75
     2
 76
     1
 98
        0
  0
ENDBLK
  5
C7
330
C4
100
AcDbEntity
  8
0
100
AcDbBlockEnd
  0
BLOCK
  5
D6
330
D4
100
AcDbEntity
  8
0
100
AcDbBlockBegin
  2
block 6
 70
     0
 10
0.0
 20
0.0
 30
0.0
  3
block 6
  1

  0
SPLINE
  5
D8
330
D4
100
AcDbEntity
  8
_U+30EC_U+30A4_U+30E4_U+30FC 1
370
     0
100
AcDbSpline
210
0.0
220
0.0
230
1.0
 70
    11
 71
     3
 72
    32
 73
    28
 74
     0
 42
0.0000000001
 43
0.0000000001
 12
1.0
 22
0.0
 32
0.0
 13
1.0
 23
0.0
 33
0.0
 40
0.0
 40
0.0
 40
0.0
 40
0.0
 40
1.0
 40
1.0
 40
1.0
 40
2.0
 40
2.0
 40
2.0
 40
3.0
 40
3.0
 40
3.0
 40
4.0
 40
4.0
 40
4.0
 40
5.0
 40
5.0
 40
5.0
 40
6.0
 40
6.0
 40
6.0
 40
7.0
 40
7.0
 40
7.0
 40
8.0
 40
8.0
 40
8.0
 40
9.0
 40
9.0
 40
9.0
 40
9.0
 10
108.204937038921
 20
-126.3829833668418
 30
0.0
 10
108.204937038921
 20
-126.5562716697498
 30
0.0
 10
108.1353461101189
 20
-126.8019069778481
 30
0.0
 10
107.8032389053409
 20
-126.8398030281859
 30
0.0
 10
107.8032389053409
 20
-126.8398030281859
 30
0.0
 10
107.8032389053409
 20
-126.6262071081004
 30
0.0
 10
107.8032389053409
 20
-126.6262071081004
 30
0.0
 10
107.8624945476872
 20
-126.6155273120961
 30
0.0
 10
108.0102891440044
 20
-126.5838324336318
 30
0.0
 10
108.0102891440044
 20
-126.3809163095506
 30
0.0
 10
108.0102891440044
 20
-126.0887722124014
 30
0.0
 10
107.680593506066
 20
-126.0508761620637
 30
0.0
 10
107.4752658151451
 20
-126.0381293087682
 30
0.0
 10
107.5555365399514
 20
-126.1290798295788
 30
0.0
 10
107.6127251250065
 20
-126.1966037010897
 30
0.0
 10
107.6127251250065
 20
-126.3785047427109
 30
0.0
 10
107.6127251250065
 20
-126.558338727041
 30
0.0
 10
107.5069606936094
 20
-126.8608181106459
 30
0.0
 10
107.1007839358984
 20
-126.8608181106459
 30
0.0
 10
106.7814235844158
 20
-126.8608181106459
 30
0.0
 10
106.5612819829083
 20
-126.662036101147
 30
0.0
 10
106.5612819829083
 20
-126.3447428069555
 30
0.0
 10
106.5612819829083
 20
-125.8307345605562
 30
0.0
 10
107.115597846485
 20
-125.8200547645519
 30
0.0
 10
107.3291937665705
 20
-125.8200547645519
 30
0.0
 10
107.5596706545337
 20
-125.8200547645519
 30
0.0
 10
108.204937038921
 20
-125.8393472992693
 30
0.0
 10
108.204937038921
 20
-126.3829833668418
 30
0.0
  0
SPLINE
  5
D9
330
D4
100
AcDbEntity
  8
_U+30EC_U+30A4_U+30E4_U+30FC 1
370
     0
100
AcDbSpline
210
0.0
220
0.0
230
1.0
 70
    11
 71
     3
 72
    17
 73
    13
 74
     0
 42
0.0000000001
 43
0.0000000001
 12
1.0
 22
0.0
 32
0.0
 13
1.0
 23
0.0
 33
0.0
 40
0.0
 40
0.0
 40
0.0
 40
0.0
 40
1.0
 40
1.0
 40
1.0
 40
2.0
 40
2.0
 40
2.0
 40
3.0
 40
3.0
 40
3.0
 40
4.0
 40
4.0
 40
4.0
 40
4.0
 10
106.7538628205338
 20
-126.3426757496643
 30
0.0
 10
106.7538628205338
 20
-126.4611870343569
 30
0.0
 10
106.8110514055889
 20
-126.6368869041047
 30
0.0
 10
107.0966498213161
 20
-126.6368869041047
 30
0.0
 10
107.322992594697
 20
-126.6368869041047
 30
0.0
 10
107.4180772300899
 20
-126.4970160274035
 30
0.0
 10
107.4180772300899
 20
-126.3616237748332
 30
0.0
 10
107.4180772300899
 20
-126.0994520084057
 30
0.0
 10
107.2086154245867
 20
-126.0612114485194
 30
0.0
 10
107.0921711971853
 20
-126.0612114485194
 30
0.0
 10
106.9168158369861
 20
-126.0612114485194
 30
0.0
 10
106.7538628205338
 20
-126.1566405934608
 30
0.0
 10
106.7538628205338
 20
-126.3426757496643
 30
0.0
  0
HATCH
  5
DA
330
D4
100
AcDbEntity
  8
_U+30EC_U+30A4_U+30E4_U+30FC 1
 62
   179
420
  2234388
100
AcDbHatch
 10
0.0
 20
0.0
 30
0.0
210
0.0
220
0.0
230
1.0
  2
SOLID
 70
     1
 71
     0
 91
        2
 92
        1
 93
        1
 72
     4
 94
        3
 73
     0
 74
     1
 95
       32
 96
       28
 40
0.0
 40
0.0
 40
0.0
 40
0.0
 40
1.0
 40
1.0
 40
1.0
 40
2.0
 40
2.0
 40
2.0
 40
3.0
 40
3.0
 40
3.0
 40
4.0
 40
4.0
 40
4.0
 40
5.0
 40
5.0
 40
5.0
 40
6.0
 40
6.0
 40
6.0
 40
7.0
 40
7.0
 40
7.0
 40
8.0
 40
8.0
 40
8.0
 40
9.0
 40
9.0
 40
9.0
 40
9.0
 10
108.204937038921
 20
-126.3829833668418
 10
108.204937038921
 20
-126.5562716697498
 10
108.1353461101189
 20
-126.8019069778481
 10
107.8032389053409
 20
-126.8398030281859
 10
107.8032389053409
 20
-126.8398030281859
 10
107.8032389053409
 20
-126.6262071081004
 10
107.8032389053409
 20
-126.6262071081004
 10
107.8624945476872
 20
-126.6155273120961
 10
108.0102891440044
 20
-126.5838324336318
 10
108.0102891440044
 20
-126.3809163095506
 10
108.0102891440044
 20
-126.0887722124014
 10
107.680593506066
 20
-126.0508761620637
 10
107.4752658151451
 20
-126.0381293087682
 10
107.5555365399514
 20
-126.1290798295788
 10
107.6127251250065
 20
-126.1966037010897
 10
107.6127251250065
 20
-126.3785047427109
 10
107.6127251250065
 20
-126.558338727041
 10
107.5069606936094
 20
-126.8608181106459
 10
107.1007839358984
 20
-126.8608181106459
 10
106.7814235844158
 20
-126.8608181106459
 10
106.5612819829083
 20
-126.662036101147
 10
106.5612819829083
 20
-126.3447428069555
 10
106.5612819829083
 20
-125.8307345605562
 10
107.115597846485
 20
-125.8200547645519
 10
107.3291937665705
 20
-125.8200547645519
 10
107.5596706545337
 20
-125.8200547645519
 10
108.204937038921
 20
-125.8393472992693
 10
108.204937038921
 20
-126.3829833668418
 97
        0
 97
        0
 92
        1
 93
        1
 72
     4
 94
        3
 73
     0
 74
     1
 95
       17
 96
       13
 40
0.0
 40
0.0
 40
0.0
 40
0.0
 40
1.0
 40
1.0
 40
1.0
 40
2.0
 40
2.0
 40
2.0
 40
3.0
 40
3.0
 40
3.0
 40
4.0
 40
4.0
 40
4.0
 40
4.0
 10
106.7538628205338
 20
-126.3426757496643
 10
106.7538628205338
 20
-126.4611870343569
 10
106.8110514055889
 20
-126.6368869041047
 10
107.0966498213161
 20
-126.6368869041047
 10
107.322992594697
 20
-126.6368869041047
 10
107.4180772300899
 20
-126.4970160274035
 10
107.4180772300899
 20
-126.3616237748332
 10
107.4180772300899
 20
-126.0994520084057
 10
107.2086154245867
 20
-126.0612114485194
 10
107.0921711971853
 20
-126.0612114485194
 10
106.9168158369861
 20
-126.0612114485194
 10
106.7538628205338
 20
-126.1566405934608
 10
106.7538628205338
 20
-126.3426757496643
 97
        0
 97
        0
 75
     2
 76
     1
 98
        0
  0
POLYLINE
  5
DB
330
D4
100
AcDbEntity
  8
_U+30EC_U+30A4_U+30E4_U+30FC 1
370
     0
100
AcDb2dPolyline
 66
     1
 10
0.0
 20
0.0
 30
0.0
  0
VERTEX
  5
DC
330
DB
100
AcDbEntity
  8
_U+30EC_U+30A4_U+30E4_U+30FC 1
370
     0
100
AcDbVertex
100
AcDb2dVertex
 10
108.1542941352878
 20
-125.6037027680783
 30
0.0
  0
VERTEX
  5
DD
330
DB
100
AcDbEntity
  8
_U+30EC_U+30A4_U+30E4_U+30FC 1
370
     0
100
AcDbVertex
100
AcDb2dVertex
 10
107.9024576553161
 20
-125.6037027680783
 30
0.0
  0
VERTEX
  5
DE
330
DB
100
AcDbEntity
  8
_U+30EC_U+30A4_U+30E4_U+30FC 1
370
     0
100
AcDbVertex
100
AcDb2dVertex
 10
107.9024576553161
 20
-125.3518662881065
 30
0.0
  0
VERTEX
  5
DF
330
DB
100
AcDbEntity
  8
_U+30EC_U+30A4_U+30E4_U+30FC 1
370
     0
100
AcDbVertex
100
AcDb2dVertex
 10
108.1542941352878
 20
-125.3518662881065
 30
0.0
  0
VERTEX
  5
E0
330
DB
100
AcDbEntity
  8
_U+30EC_U+30A4_U+30E4_U+30FC 1
370
     0
100
AcDbVertex
100
AcDb2dVertex
 10
108.1542941352878
 20
-125.6037027680783
 30
0.0
  0
SEQEND
  5
E1
330
DB
100
AcDbEntity
  8
_U+30EC_U+30A4_U+30E4_U+30FC 1
370
     0
  0
HATCH
  5
E2
330
D4
100
AcDbEntity
  8
_U+30EC_U+30A4_U+30E4_U+30FC 1
 62
   179
420
  2234388
100
AcDbHatch
 10
0.0
 20
0.0
 30
0.0
210
0.0
220
0.0
230
1.0
  2
SOLID
 70
     1
 71
     0
 91
        1
 92
        1
 93
        4
 72
     1
 10
108.1542941352878
 20
-125.6037027680783
 11
107.9024576553161
 21
-125.6037027680783
 72
     1
 10
107.9024576553161
 20
-125.6037027680783
 11
107.9024576553161
 21
-125.3518662881065
 72
     1
 10
107.9024576553161
 20
-125.3518662881065
 11
108.1542941352878
 21
-125.3518662881065
 72
     1
 10
108.1542941352878
 20
-125.3518662881065
 11
108.1542941352878
 21
-125.6037027680783
 97
        0
 75
     2
 76
     1
 98
        0
  0
SPLINE
  5
E3
330
D4
100
AcDbEntity
  8
_U+30EC_U+30A4_U+30E4_U+30FC 1
370
     0
100
AcDbSpline
210
0.0
220
0.0
230
1.0
 70
    11
 71
     3
 72
    53
 73
    49
 74
     0
 42
0.0000000001
 43
0.0000000001
 12
1.0
 22
0.0
 32
0.0
 13
1.0
 23
0.0
 33
0.0
 40
0.0
 40
0.0
 40
0.0
 40
0.0
 40
1.0
 40
1.0
 40
1.0
 40
2.0
 40
2.0
 40
2.0
 40
3.0
 40
3.0
 40
3.0
 40
4.0
 40
4.0
 40
4.0
 40
5.0
 40
5.0
 40
5.0
 40
6.0
 40
6.0
 40
6.0
 40
7.0
 40
7.0
 40
7.0
 40
8.0
 40
8.0
 40
8.0
 40
9.0
 40
9.0
 40
9.0
 40
10.0
 40
10.0
 40
10.0
 40
11.0
 40
11.0
 40
11.0
 40
12.0
 40
12.0
 40
12.0
 40
13.0
 40
13.0
 40
13.0
 40
14.0
 40
14.0
 40
14.0
 40
15.0
 40
15.0
 40
15.0
 40
16.0
 40
16.0
 40
16.0
 40
16.0
 10
108.204937038921
 20
-124.6345974080775
 30
0.0
 10
108.204937038921
 20
-124.7128010755926
 30
0.0
 10
108.1880560710433
 20
-124.8144313924075
 30
0.0
 10
108.1246663141147
 20
-124.9160617092224
 30
0.0
 10
108.0147677681352
 20
-125.0893500121305
 30
0.0
 10
107.8835096301472
 20
-125.110709604139
 30
0.0
 10
107.7756781414589
 20
-125.1296576293079
 30
0.0
 10
107.7756781414589
 20
-125.1296576293079
 30
0.0
 10
107.7756781414589
 20
-124.9074489705093
 30
0.0
 10
107.7756781414589
 20
-124.9074489705093
 30
0.0
 10
107.9744601509578
 20
-124.8526719522938
 30
0.0
 10
108.0040879721309
 20
-124.7255479288881
 30
0.0
 10
108.0040879721309
 20
-124.6325303507863
 30
0.0
 10
108.0040879721309
 20
-124.4930039836337
 30
0.0
 10
107.9045247126072
 20
-124.3407307631857
 30
0.0
 10
107.6719807673528
 20
-124.3407307631857
 30
0.0
 10
107.4160101727988
 20
-124.3407307631857
 30
0.0
 10
107.3460747344482
 20
-124.5205647475157
 30
0.0
 10
107.3460747344482
 20
-124.6411430894994
 30
0.0
 10
107.3460747344482
 20
-124.6728379679637
 30
0.0
 10
107.3460747344482
 20
-124.8144313924075
 30
0.0
 10
107.4752658151451
 20
-124.903314855927
 30
0.0
 10
107.4752658151451
 20
-124.903314855927
 30
0.0
 10
107.4563177899762
 20
-125.0790147256747
 30
0.0
 10
107.4563177899762
 20
-125.0790147256747
 30
0.0
 10
107.4563177899762
 20
-125.0790147256747
 30
0.0
 10
106.6098578292503
 20
-124.958436383691
 30
0.0
 10
106.6098578292503
 20
-124.958436383691
 30
0.0
 10
106.6098578292503
 20
-124.958436383691
 30
0.0
 10
106.6098578292503
 20
-124.1798448040245
 30
0.0
 10
106.6098578292503
 20
-124.1798448040245
 30
0.0
 10
106.6098578292503
 20
-124.1798448040245
 30
0.0
 10
106.8045057241669
 20
-124.1798448040245
 30
0.0
 10
106.8045057241669
 20
-124.1798448040245
 30
0.0
 10
106.8045057241669
 20
-124.1798448040245
 30
0.0
 10
106.8045057241669
 20
-124.7954833672386
 30
0.0
 10
106.8045057241669
 20
-124.7954833672386
 30
0.0
 10
106.8045057241669
 20
-124.7954833672386
 30
0.0
 10
107.2275634497556
 20
-124.8609401814584
 30
0.0
 10
107.2275634497556
 20
-124.8609401814584
 30
0.0
 10
107.1938015140002
 20
-124.7996174818209
 30
0.0
 10
107.1534938968227
 20
-124.7172796997235
 30
0.0
 10
107.1534938968227
 20
-124.5987684150309
 30
0.0
 10
107.1534938968227
 20
-124.344864877768
 30
0.0
 10
107.3398735625748
 20
-124.1078423083828
 30
0.0
 10
107.653032742184
 20
-124.1078423083828
 30
0.0
 10
107.9703260363755
 20
-124.1078423083828
 30
0.0
 10
108.204937038921
 20
-124.3321180244725
 30
0.0
 10
108.204937038921
 20
-124.6345974080775
 30
0.0
  0
HATCH
  5
E4
330
D4
100
AcDbEntity
  8
_U+30EC_U+30A4_U+30E4_U+30FC 1
 62
   179
420
  2234388
100
AcDbHatch
 10
0.0
 20
0.0
 30
0.0
210
0.0
220
0.0
230
1.0
  2
SOLID
 70
     1
 71
     0
 91
        1
 92
        1
 93
        1
 72
     4
 94
        3
 73
     0
 74
     1
 95
       53
 96
       49
 40
0.0
 40
0.0
 40
0.0
 40
0.0
 40
1.0
 40
1.0
 40
1.0
 40
2.0
 40
2.0
 40
2.0
 40
3.0
 40
3.0
 40
3.0
 40
4.0
 40
4.0
 40
4.0
 40
5.0
 40
5.0
 40
5.0
 40
6.0
 40
6.0
 40
6.0
 40
7.0
 40
7.0
 40
7.0
 40
8.0
 40
8.0
 40
8.0
 40
9.0
 40
9.0
 40
9.0
 40
10.0
 40
10.0
 40
10.0
 40
11.0
 40
11.0
 40
11.0
 40
12.0
 40
12.0
 40
12.0
 40
13.0
 40
13.0
 40
13.0
 40
14.0
 40
14.0
 40
14.0
 40
15.0
 40
15.0
 40
15.0
 40
16.0
 40
16.0
 40
16.0
 40
16.0
 10
108.204937038921
 20
-124.6345974080775
 10
108.204937038921
 20
-124.7128010755926
 10
108.1880560710433
 20
-124.8144313924075
 10
108.1246663141147
 20
-124.9160617092224
 10
108.0147677681352
 20
-125.0893500121305
 10
107.8835096301472
 20
-125.110709604139
 10
107.7756781414589
 20
-125.1296576293079
 10
107.7756781414589
 20
-125.1296576293079
 10
107.7756781414589
 20
-124.9074489705093
 10
107.7756781414589
 20
-124.9074489705093
 10
107.9744601509578
 20
-124.8526719522938
 10
108.0040879721309
 20
-124.7255479288881
 10
108.0040879721309
 20
-124.6325303507863
 10
108.0040879721309
 20
-124.4930039836337
 10
107.9045247126072
 20
-124.3407307631857
 10
107.6719807673528
 20
-124.3407307631857
 10
107.4160101727988
 20
-124.3407307631857
 10
107.3460747344482
 20
-124.5205647475157
 10
107.3460747344482
 20
-124.6411430894994
 10
107.3460747344482
 20
-124.6728379679637
 10
107.3460747344482
 20
-124.8144313924075
 10
107.4752658151451
 20
-124.903314855927
 10
107.4752658151451
 20
-124.903314855927
 10
107.4563177899762
 20
-125.0790147256747
 10
107.4563177899762
 20
-125.0790147256747
 10
107.4563177899762
 20
-125.0790147256747
 10
106.6098578292503
 20
-124.958436383691
 10
106.6098578292503
 20
-124.958436383691
 10
106.6098578292503
 20
-124.958436383691
 10
106.6098578292503
 20
-124.1798448040245
 10
106.6098578292503
 20
-124.1798448040245
 10
106.6098578292503
 20
-124.1798448040245
 10
106.8045057241669
 20
-124.1798448040245
 10
106.8045057241669
 20
-124.1798448040245
 10
106.8045057241669
 20
-124.1798448040245
 10
106.8045057241669
 20
-124.7954833672386
 10
106.8045057241669
 20
-124.7954833672386
 10
106.8045057241669
 20
-124.7954833672386
 10
107.2275634497556
 20
-124.8609401814584
 10
107.2275634497556
 20
-124.8609401814584
 10
107.1938015140002
 20
-124.7996174818209
 10
107.1534938968227
 20
-124.7172796997235
 10
107.1534938968227
 20
-124.5987684150309
 10
107.1534938968227
 20
-124.344864877768
 10
107.3398735625748
 20
-124.1078423083828
 10
107.653032742184
 20
-124.1078423083828
 10
107.9703260363755
 20
-124.1078423083828
 10
108.204937038921
 20
-124.3321180244725
 10
108.204937038921
 20
-124.6345974080775
 97
        0
 97
        0
 75
     2
 76
     1
 98
        0
  0
ENDBLK
  5
D7
330
D4
100
AcDbEntity
  8
0
100
AcDbBlockEnd
  0
ENDSEC
  0
SECTION
  2
ENTITIES
  0
POLYLINE
  5
41
330
1F
100
AcDbEntity
  8
_U+30EC_U+30A4_U+30E4_U+30FC 1
370
     0
100
AcDb2dPolyline
 66
     1
 10
0.0
 20
0.0
 30
0.0
  0
VERTEX
  5
42
330
41
100
AcDbEntity
  8
_U+30EC_U+30A4_U+30E4_U+30FC 1
370
     0
100
AcDbVertex
100
AcDb2dVertex
 10
103.8007309629338
 20
-132.2276021891654
 30
0.0
  0
VERTEX
  5
43
330
41
100
AcDbEntity
  8
_U+30EC_U+30A4_U+30E4_U+30FC 1
370
     0
100
AcDbVertex
100
AcDb2dVertex
 10
95.80050727814766
 20
-132.2276021891654
 30
0.0
  0
VERTEX
  5
44
330
41
100
AcDbEntity
  8
_U+30EC_U+30A4_U+30E4_U+30FC 1
370
     0
100
AcDbVertex
100
AcDb2dVertex
 10
95.80050727814766
 20
-120.7276816364847
 30
0.0
  0
VERTEX
  5
45
330
41
100
AcDbEntity
  8
_U+30EC_U+30A4_U+30E4_U+30FC 1
370
     0
100
AcDbVertex
100
AcDb2dVertex
 10
79.79995407524467
 20
-120.7276816364847
 30
0.0
  0
VERTEX
  5
46
330
41
100
AcDbEntity
  8
_U+30EC_U+30A4_U+30E4_U+30FC 1
370
     0
100
AcDbVertex
100
AcDb2dVertex
 10
79.79995407524467
 20
-121.7278066362346
 30
0.0
  0
VERTEX
  5
47
330
41
100
AcDbEntity
  8
_U+30EC_U+30A4_U+30E4_U+30FC 1
370
     0
100
AcDbVertex
100
AcDb2dVertex
 10
94.80077035920863
 20
-121.7278066362346
 30
0.0
  0
VERTEX
  5
48
330
41
100
AcDbEntity
  8
_U+30EC_U+30A4_U+30E4_U+30FC 1
370
     0
100
AcDbVertex
100
AcDb2dVertex
 10
94.80077035920863
 20
-133.2273391333597
 30
0.0
  0
VERTEX
  5
49
330
41
100
AcDbEntity
  8
_U+30EC_U+30A4_U+30E4_U+30FC 1
370
     0
100
AcDbVertex
100
AcDb2dVertex
 10
104.8005031596498
 20
-133.2273391333597
 30
0.0
  0
VERTEX
  5
4A
330
41
100
AcDbEntity
  8
_U+30EC_U+30A4_U+30E4_U+30FC 1
370
     0
100
AcDbVertex
100
AcDb2dVertex
 10
104.8005031596498
 20
-130.2273521896654
 30
0.0
  0
VERTEX
  5
4B
330
41
100
AcDbEntity
  8
_U+30EC_U+30A4_U+30E4_U+30FC 1
370
     0
100
AcDbVertex
100
AcDb2dVertex
 10
103.8007309629338
 20
-130.2273521896654
 30
0.0
  0
VERTEX
  5
4C
330
41
100
AcDbEntity
  8
_U+30EC_U+30A4_U+30E4_U+30FC 1
370
     0
100
AcDbVertex
100
AcDb2dVertex
 10
103.8007309629338
 20
-132.2276021891654
 30
0.0
  0
SEQEND
  5
4E
330
41
100
AcDbEntity
  8
_U+30EC_U+30A4_U+30E4_U+30FC 1
370
     0
  0
HATCH
  5
4D
330
1F
100
AcDbEntity
  8
_U+30EC_U+30A4_U+30E4_U+30FC 1
 62
   253
420
 11711154
100
AcDbHatch
 10
0.0
 20
0.0
 30
0.0
210
0.0
220
0.0
230
1.0
  2
SOLID
 70
     1
 71
     0
 91
        1
 92
        1
 93
       10
 72
     1
 10
103.8007309629338
 20
-132.2276021891654
 11
95.80050727814766
 21
-132.2276021891654
 72
     1
 10
95.80050727814766
 20
-132.2276021891654
 11
95.80050727814766
 21
-120.7276816364847
 72
     1
 10
95.80050727814766
 20
-120.7276816364847
 11
79.79995407524467
 21
-120.7276816364847
 72
     1
 10
79.79995407524467
 20
-120.7276816364847
 11
79.79995407524467
 21
-121.7278066362346
 72
     1
 10
79.79995407524467
 20
-121.7278066362346
 11
94.80077035920863
 21
-121.7278066362346
 72
     1
 10
94.80077035920863
 20
-121.7278066362346
 11
94.80077035920863
 21
-133.2273391333597
 72
     1
 10
94.80077035920863
 20
-133.2273391333597
 11
104.8005031596498
 21
-133.2273391333597
 72
     1
 10
104.8005031596498
 20
-133.2273391333597
 11
104.8005031596498
 21
-130.2273521896654
 72
     1
 10
104.8005031596498
 20
-130.2273521896654
 11
103.8007309629338
 21
-130.2273521896654
 72
     1
 10
103.8007309629338
 20
-130.2273521896654
 11
103.8007309629338
 21
-132.2276021891654
 97
        0
 75
     2
 76
     1
 98
        0
  0
POLYLINE
  5
4F
330
1F
100
AcDbEntity
  8
_U+30EC_U+30A4_U+30E4_U+30FC 1
 62
   179
420
  2234388
370
    25
100
AcDb2dPolyline
 66
     1
 10
0.0
 20
0.0
 30
0.0
  0
VERTEX
  5
50
330
4F
100
AcDbEntity
  8
_U+30EC_U+30A4_U+30E4_U+30FC 1
 62
   179
420
  2234388
370
    25
100
AcDbVertex
100
AcDb2dVertex
 10
79.80030685301345
 20
-121.7278066362346
 30
0.0
  0
VERTEX
  5
51
330
4F
100
AcDbEntity
  8
_U+30EC_U+30A4_U+30E4_U+30FC 1
 62
   179
420
  2234388
370
    25
100
AcDbVertex
100
AcDb2dVertex
 10
79.80030685301345
 20
-120.7276816364847
 30
0.0
  0
SEQEND
  5
52
330
4F
100
AcDbEntity
  8
_U+30EC_U+30A4_U+30E4_U+30FC 1
 62
   179
420
  2234388
370
    25
  0
POLYLINE
  5
53
330
1F
100
AcDbEntity
  8
_U+30EC_U+30A4_U+30E4_U+30FC 1
 62
   179
420
  2234388
370
    25
100
AcDb2dPolyline
 66
     1
 10
0.0
 20
0.0
 30
0.0
  0
VERTEX
  5
54
330
53
100
AcDbEntity
  8
_U+30EC_U+30A4_U+30E4_U+30FC 1
 62
   179
420
  2234388
370
    25
100
AcDbVertex
100
AcDb2dVertex
 10
104.8005031596498
 20
-133.2273391333597
 30
0.0
  0
VERTEX
  5
55
330
53
100
AcDbEntity
  8
_U+30EC_U+30A4_U+30E4_U+30FC 1
 62
   179
420
  2234388
370
    25
100
AcDbVertex
100
AcDb2dVertex
 10
104.8005031596498
 20
-130.2273521896654
 30
0.0
  0
SEQEND
  5
56
330
53
100
AcDbEntity
  8
_U+30EC_U+30A4_U+30E4_U+30FC 1
 62
   179
420
  2234388
370
    25
  0
POLYLINE
  5
57
330
1F
100
AcDbEntity
  8
_U+30EC_U+30A4_U+30E4_U+30FC 1
 62
   179
420
  2234388
370
    25
100
AcDb2dPolyline
 66
     1
 10
0.0
 20
0.0
 30
0.0
  0
VERTEX
  5
58
330
57
100
AcDbEntity
  8
_U+30EC_U+30A4_U+30E4_U+30FC 1
 62
   179
420
  2234388
370
    25
100
AcDbVertex
100
AcDb2dVertex
 10
79.80030685301345
 20
-120.7276816364847
 30
0.0
  0
VERTEX
  5
59
330
57
100
AcDbEntity
  8
_U+30EC_U+30A4_U+30E4_U+30FC 1
 62
   179
420
  2234388
370
    25
100
AcDbVertex
100
AcDb2dVertex
 10
95.80050727814766
 20
-120.7276816364847
 30
0.0
  0
SEQEND
  5
5A
330
57
100
AcDbEntity
  8
_U+30EC_U+30A4_U+30E4_U+30FC 1
 62
   179
420
  2234388
370
    25
  0
POLYLINE
  5
5B
330
1F
100
AcDbEntity
  8
_U+30EC_U+30A4_U+30E4_U+30FC 1
 62
   179
420
  2234388
370
    25
100
AcDb2dPolyline
 66
     1
 10
0.0
 20
0.0
 30
0.0
  0
VERTEX
  5
5C
330
5B
100
AcDbEntity
  8
_U+30EC_U+30A4_U+30E4_U+30FC 1
 62
   179
420
  2234388
370
    25
100
AcDbVertex
100
AcDb2dVertex
 10
103.8007309629338
 20
-130.2273521896654
 30
0.0
  0
VERTEX
  5
5D
330
5B
100
AcDbEntity
  8
_U+30EC_U+30A4_U+30E4_U+30FC 1
 62
   179
420
  2234388
370
    25
100
AcDbVertex
100
AcDb2dVertex
 10
104.8005031596498
 20
-130.2273521896654
 30
0.0
  0
SEQEND
  5
5E
330
5B
100
AcDbEntity
  8
_U+30EC_U+30A4_U+30E4_U+30FC 1
 62
   179
420
  2234388
370
    25
  0
POLYLINE
  5
5F
330
1F
100
AcDbEntity
  8
_U+30EC_U+30A4_U+30E4_U+30FC 1
 62
   179
420
  2234388
370
    25
100
AcDb2dPolyline
 66
     1
 10
0.0
 20
0.0
 30
0.0
  0
VERTEX
  5
60
330
5F
100
AcDbEntity
  8
_U+30EC_U+30A4_U+30E4_U+30FC 1
 62
   179
420
  2234388
370
    25
100
AcDbVertex
100
AcDb2dVertex
 10
94.80077035920863
 20
-133.2273391333597
 30
0.0
  0
VERTEX
  5
61
330
5F
100
AcDbEntity
  8
_U+30EC_U+30A4_U+30E4_U+30FC 1
 62
   179
420
  2234388
370
    25
100
AcDbVertex
100
AcDb2dVertex
 10
104.8005031596498
 20
-133.2273391333597
 30
0.0
  0
SEQEND
  5
62
330
5F
100
AcDbEntity
  8
_U+30EC_U+30A4_U+30E4_U+30FC 1
 62
   179
420
  2234388
370
    25
  0
POLYLINE
  5
63
330
1F
100
AcDbEntity
  8
_U+30EC_U+30A4_U+30E4_U+30FC 1
 62
   179
420
  2234388
370
    25
100
AcDb2dPolyline
 66
     1
 10
0.0
 20
0.0
 30
0.0
  0
VERTEX
  5
64
330
63
100
AcDbEntity
  8
_U+30EC_U+30A4_U+30E4_U+30FC 1
 62
   179
420
  2234388
370
    25
100
AcDbVertex
100
AcDb2dVertex
 10
79.80030685301345
 20
-121.7278066362346
 30
0.0
  0
VERTEX
  5
65
330
63
100
AcDbEntity
  8
_U+30EC_U+30A4_U+30E4_U+30FC 1
 62
   179
420
  2234388
370
    25
100
AcDbVertex
100
AcDb2dVertex
 10
94.80077035920863
 20
-121.7278066362346
 30
0.0
  0
SEQEND
  5
66
330
63
100
AcDbEntity
  8
_U+30EC_U+30A4_U+30E4_U+30FC 1
 62
   179
420
  2234388
370
    25
  0
POLYLINE
  5
67
330
1F
100
AcDbEntity
  8
_U+30EC_U+30A4_U+30E4_U+30FC 1
 62
   179
420
  2234388
370
    25
100
AcDb2dPolyline
 66
     1
 10
0.0
 20
0.0
 30
0.0
  0
VERTEX
  5
68
330
67
100
AcDbEntity
  8
_U+30EC_U+30A4_U+30E4_U+30FC 1
 62
   179
420
  2234388
370
    25
100
AcDbVertex
100
AcDb2dVertex
 10
94.80077035920863
 20
-133.2273391333597
 30
0.0
  0
VERTEX
  5
69
330
67
100
AcDbEntity
  8
_U+30EC_U+30A4_U+30E4_U+30FC 1
 62
   179
420
  2234388
370
    25
100
AcDbVertex
100
AcDb2dVertex
 10
94.80077035920863
 20
-121.7278066362346
 30
0.0
  0
SEQEND
  5
6A
330
67
100
AcDbEntity
  8
_U+30EC_U+30A4_U+30E4_U+30FC 1
 62
   179
420
  2234388
370
    25
  0
POLYLINE
  5
6B
330
1F
100
AcDbEntity
  8
_U+30EC_U+30A4_U+30E4_U+30FC 1
 62
   179
420
  2234388
370
    25
100
AcDb2dPolyline
 66
     1
 10
0.0
 20
0.0
 30
0.0
  0
VERTEX
  5
6C
330
6B
100
AcDbEntity
  8
_U+30EC_U+30A4_U+30E4_U+30FC 1
 62
   179
420
  2234388
370
    25
100
AcDbVertex
100
AcDb2dVertex
 10
95.80050727814766
 20
-132.2276021891654
 30
0.0
  0
VERTEX
  5
6D
330
6B
100
AcDbEntity
  8
_U+30EC_U+30A4_U+30E4_U+30FC 1
 62
   179
420
  2234388
370
    25
100
AcDbVertex
100
AcDb2dVertex
 10
95.80050727814766
 20
-120.7276816364847
 30
0.0
  0
SEQEND
  5
6E
330
6B
100
AcDbEntity
  8
_U+30EC_U+30A4_U+30E4_U+30FC 1
 62
   179
420
  2234388
370
    25
  0
POLYLINE
  5
6F
330
1F
100
AcDbEntity
  8
_U+30EC_U+30A4_U+30E4_U+30FC 1
 62
   179
420
  2234388
370
    25
100
AcDb2dPolyline
 66
     1
 10
0.0
 20
0.0
 30
0.0
  0
VERTEX
  5
70
330
6F
100
AcDbEntity
  8
_U+30EC_U+30A4_U+30E4_U+30FC 1
 62
   179
420
  2234388
370
    25
100
AcDbVertex
100
AcDb2dVertex
 10
95.80050727814766
 20
-132.2276021891654
 30
0.0
  0
VERTEX
  5
71
330
6F
100
AcDbEntity
  8
_U+30EC_U+30A4_U+30E4_U+30FC 1
 62
   179
420
  2234388
370
    25
100
AcDbVertex
100
AcDb2dVertex
 10
103.8007309629338
 20
-132.2276021891654
 30
0.0
  0
SEQEND
  5
72
330
6F
100
AcDbEntity
  8
_U+30EC_U+30A4_U+30E4_U+30FC 1
 62
   179
420
  2234388
370
    25
  0
POLYLINE
  5
73
330
1F
100
AcDbEntity
  8
_U+30EC_U+30A4_U+30E4_U+30FC 1
 62
   179
420
  2234388
370
    25
100
AcDb2dPolyline
 66
     1
 10
0.0
 20
0.0
 30
0.0
  0
VERTEX
  5
74
330
73
100
AcDbEntity
  8
_U+30EC_U+30A4_U+30E4_U+30FC 1
 62
   179
420
  2234388
370
    25
100
AcDbVertex
100
AcDb2dVertex
 10
103.8007309629338
 20
-132.2276021891654
 30
0.0
  0
VERTEX
  5
75
330
73
100
AcDbEntity
  8
_U+30EC_U+30A4_U+30E4_U+30FC 1
 62
   179
420
  2234388
370
    25
100
AcDbVertex
100
AcDb2dVertex
 10
103.8007309629338
 20
-130.2273521896654
 30
0.0
  0
SEQEND
  5
76
330
73
100
AcDbEntity
  8
_U+30EC_U+30A4_U+30E4_U+30FC 1
 62
   179
420
  2234388
370
    25
  0
SPLINE
  5
77
330
1F
100
AcDbEntity
  8
_U+30EC_U+30A4_U+30E4_U+30FC 1
 62
   179
420
  2234388
370
     9
100
AcDbSpline
210
0.0
220
0.0
230
1.0
 70
    11
 71
     3
 72
    17
 73
    13
 74
     0
 42
0.0000000001
 43
0.0000000001
 12
1.0
 22
0.0
 32
0.0
 13
1.0
 23
0.0
 33
0.0
 40
0.0
 40
0.0
 40
0.0
 40
0.0
 40
1.0
 40
1.0
 40
1.0
 40
2.0
 40
2.0
 40
2.0
 40
3.0
 40
3.0
 40
3.0
 40
4.0
 40
4.0
 40
4.0
 40
4.0
 10
108.9008391661526
 20
-120.7276816364847
 30
0.0
 10
108.9008391661526
 20
-120.672224969832
 30
0.0
 10
108.8560716672947
 20
-120.6274221920653
 30
0.0
 10
108.8002622242741
 20
-120.6274221920653
 30
0.0
 10
108.7451230590141
 20
-120.6274221920653
 30
0.0
 10
108.7003583061584
 20
-120.672224969832
 30
0.0
 10
108.7003583061584
 20
-120.7276816364847
 30
0.0
 10
108.7003583061584
 20
-120.7828208031377
 30
0.0
 10
108.7451230590141
 20
-120.8275883031263
 30
0.0
 10
108.8002622242741
 20
-120.8275883031263
 30
0.0
 10
108.8560716672947
 20
-120.8275883031263
 30
0.0
 10
108.9008391661526
 20
-120.7828208031377
 30
0.0
 10
108.9008391661526
 20
-120.7276816364847
 30
0.0
  0
SPLINE
  5
78
330
1F
100
AcDbEntity
  8
_U+30EC_U+30A4_U+30E4_U+30FC 1
 62
   179
420
  2234388
370
     9
100
AcDbSpline
210
0.0
220
0.0
230
1.0
 70
    11
 71
     3
 72
    17
 73
    13
 74
     0
 42
0.0000000001
 43
0.0000000001
 12
1.0
 22
0.0
 32
0.0
 13
1.0
 23
0.0
 33
0.0
 40
0.0
 40
0.0
 40
0.0
 40
0.0
 40
1.0
 40
1.0
 40
1.0
 40
2.0
 40
2.0
 40
2.0
 40
3.0
 40
3.0
 40
3.0
 40
4.0
 40
4.0
 40
4.0
 40
4.0
 10
108.9008391661526
 20
-130.2273521896654
 30
0.0
 10
108.9008391661526
 20
-130.1722483007905
 30
0.0
 10
108.8560716672947
 20
-130.1274455230238
 30
0.0
 10
108.8002622242741
 20
-130.1274455230238
 30
0.0
 10
108.7451230590141
 20
-130.1274455230238
 30
0.0
 10
108.7003583061584
 20
-130.1722483007905
 30
0.0
 10
108.7003583061584
 20
-130.2273521896654
 30
0.0
 10
108.7003583061584
 20
-130.2824913563185
 30
0.0
 10
108.7451230590141
 20
-130.3272588563071
 30
0.0
 10
108.8002622242741
 20
-130.3272588563071
 30
0.0
 10
108.8560716672947
 20
-130.3272588563071
 30
0.0
 10
108.9008391661526
 20
-130.2824913563185
 30
0.0
 10
108.9008391661526
 20
-130.2273521896654
 30
0.0
  0
SPLINE
  5
79
330
1F
100
AcDbEntity
  8
_U+30EC_U+30A4_U+30E4_U+30FC 1
 62
   179
420
  2234388
370
     9
100
AcDbSpline
210
0.0
220
0.0
230
1.0
 70
    11
 71
     3
 72
    17
 73
    13
 74
     0
 42
0.0000000001
 43
0.0000000001
 12
1.0
 22
0.0
 32
0.0
 13
1.0
 23
0.0
 33
0.0
 40
0.0
 40
0.0
 40
0.0
 40
0.0
 40
1.0
 40
1.0
 40
1.0
 40
2.0
 40
2.0
 40
2.0
 40
3.0
 40
3.0
 40
3.0
 40
4.0
 40
4.0
 40
4.0
 40
4.0
 10
108.9008391661526
 20
-133.2273391333597
 30
0.0
 10
108.9008391661526
 20
-133.1722352444848
 30
0.0
 10
108.8560716672947
 20
-133.1274324667181
 30
0.0
 10
108.8002622242741
 20
-133.1274324667181
 30
0.0
 10
108.7451230590141
 20
-133.1274324667181
 30
0.0
 10
108.7003583061584
 20
-133.1722352444848
 30
0.0
 10
108.7003583061584
 20
-133.2273391333597
 30
0.0
 10
108.7003583061584
 20
-133.2824783000128
 30
0.0
 10
108.7451230590141
 20
-133.3272458000014
 30
0.0
 10
108.8002622242741
 20
-133.3272458000014
 30
0.0
 10
108.8560716672947
 20
-133.3272458000014
 30
0.0
 10
108.9008391661526
 20
-133.2824783000128
 30
0.0
 10
108.9008391661526
 20
-133.2273391333597
 30
0.0
  0
SPLINE
  5
7A
330
1F
100
AcDbEntity
  8
_U+30EC_U+30A4_U+30E4_U+30FC 1
 62
   179
420
  2234388
370
     9
100
AcDbSpline
210
0.0
220
0.0
230
1.0
 70
    11
 71
     3
 72
    17
 73
    13
 74
     0
 42
0.0000000001
 43
0.0000000001
 12
1.0
 22
0.0
 32
0.0
 13
1.0
 23
0.0
 33
0.0
 40
0.0
 40
0.0
 40
0.0
 40
0.0
 40
1.0
 40
1.0
 40
1.0
 40
2.0
 40
2.0
 40
2.0
 40
3.0
 40
3.0
 40
3.0
 40
4.0
 40
4.0
 40
4.0
 40
4.0
 10
104.9004098237676
 20
-137.2278038545822
 30
0.0
 10
104.9004098237676
 20
-137.1719944101517
 30
0.0
 10
104.8556070471328
 20
-137.127191632385
 30
0.0
 10
104.8005031596498
 20
-137.127191632385
 30
0.0
 10
104.7453666404801
 20
-137.127191632385
 30
0.0
 10
104.7005964955319
 20
-137.1719944101517
 30
0.0
 10
104.7005964955319
 20
-137.2278038545822
 30
0.0
 10
104.7005964955319
 20
-137.2829077434571
 30
0.0
 10
104.7453666404801
 20
-137.3277105212238
 30
0.0
 10
104.8005031596498
 20
-137.3277105212238
 30
0.0
 10
104.8556070471328
 20
-137.3277105212238
 30
0.0
 10
104.9004098237676
 20
-137.2829077434571
 30
0.0
 10
104.9004098237676
 20
-137.2278038545822
 30
0.0
  0
SPLINE
  5
7B
330
1F
100
AcDbEntity
  8
_U+30EC_U+30A4_U+30E4_U+30FC 1
 62
   179
420
  2234388
370
     9
100
AcDbSpline
210
0.0
220
0.0
230
1.0
 70
    11
 71
     3
 72
    17
 73
    13
 74
     0
 42
0.0000000001
 43
0.0000000001
 12
1.0
 22
0.0
 32
0.0
 13
1.0
 23
0.0
 33
0.0
 40
0.0
 40
0.0
 40
0.0
 40
0.0
 40
1.0
 40
1.0
 40
1.0
 40
2.0
 40
2.0
 40
2.0
 40
3.0
 40
3.0
 40
3.0
 40
4.0
 40
4.0
 40
4.0
 40
4.0
 10
94.90067702332647
 20
-137.2278038545822
 30
0.0
 10
94.90067702332647
 20
-137.1719944101517
 30
0.0
 10
94.8558742466917
 20
-137.127191632385
 30
0.0
 10
94.80077035920863
 20
-137.127191632385
 30
0.0
 10
94.744960916188
 20
-137.127191632385
 30
0.0
 10
94.7008636950908
 20
-137.1719944101517
 30
0.0
 10
94.7008636950908
 20
-137.2278038545822
 30
0.0
 10
94.7008636950908
 20
-137.2829077434571
 30
0.0
 10
94.744960916188
 20
-137.3277105212238
 30
0.0
 10
94.80077035920863
 20
-137.3277105212238
 30
0.0
 10
94.8558742466917
 20
-137.3277105212238
 30
0.0
 10
94.90067702332647
 20
-137.2829077434571
 30
0.0
 10
94.90067702332647
 20
-137.2278038545822
 30
0.0
  0
SPLINE
  5
7C
330
1F
100
AcDbEntity
  8
_U+30EC_U+30A4_U+30E4_U+30FC 1
 62
   179
420
  2234388
370
     9
100
AcDbSpline
210
0.0
220
0.0
230
1.0
 70
    11
 71
     3
 72
    17
 73
    13
 74
     0
 42
0.0000000001
 43
0.0000000001
 12
1.0
 22
0.0
 32
0.0
 13
1.0
 23
0.0
 33
0.0
 40
0.0
 40
0.0
 40
0.0
 40
0.0
 40
1.0
 40
1.0
 40
1.0
 40
2.0
 40
2.0
 40
2.0
 40
3.0
 40
3.0
 40
3.0
 40
4.0
 40
4.0
 40
4.0
 40
4.0
 10
79.90053101712319
 20
-137.2278038545822
 30
0.0
 10
79.90053101712319
 20
-137.1719944101517
 30
0.0
 10
79.8557635182653
 20
-137.127191632385
 30
0.0
 10
79.80030685301345
 20
-137.127191632385
 30
0.0
 10
79.74516768775351
 20
-137.127191632385
 30
0.0
 10
79.70040018889561
 20
-137.1719944101517
 30
0.0
 10
79.70040018889561
 20
-137.2278038545822
 30
0.0
 10
79.70040018889561
 20
-137.2829077434571
 30
0.0
 10
79.74516768775351
 20
-137.3277105212238
 30
0.0
 10
79.80030685301345
 20
-137.3277105212238
 30
0.0
 10
79.8557635182653
 20
-137.3277105212238
 30
0.0
 10
79.90053101712319
 20
-137.2829077434571
 30
0.0
 10
79.90053101712319
 20
-137.2278038545822
 30
0.0
  0
SPLINE
  5
7D
330
1F
100
AcDbEntity
  8
_U+30EC_U+30A4_U+30E4_U+30FC 1
 62
   179
420
  2234388
370
     9
100
AcDbSpline
210
0.0
220
0.0
230
1.0
 70
    11
 71
     3
 72
    17
 73
    13
 74
     0
 42
0.0000000001
 43
0.0000000001
 12
1.0
 22
0.0
 32
0.0
 13
1.0
 23
0.0
 33
0.0
 40
0.0
 40
0.0
 40
0.0
 40
0.0
 40
1.0
 40
1.0
 40
1.0
 40
2.0
 40
2.0
 40
2.0
 40
3.0
 40
3.0
 40
3.0
 40
4.0
 40
4.0
 40
4.0
 40
4.0
 10
75.90027806362258
 20
-121.7278066362346
 30
0.0
 10
75.90027806362258
 20
-121.6726674695819
 30
0.0
 10
75.85547528698783
 20
-121.627899969593
 30
0.0
 10
75.80037139950475
 20
-121.627899969593
 30
0.0
 10
75.74505584536041
 20
-121.627899969593
 30
0.0
 10
75.70028834650253
 20
-121.6726674695819
 30
0.0
 10
75.70028834650253
 20
-121.7278066362346
 30
0.0
 10
75.70028834650253
 20
-121.7829105251099
 30
0.0
 10
75.74505584536041
 20
-121.8277133028763
 30
0.0
 10
75.80037139950475
 20
-121.8277133028763
 30
0.0
 10
75.85547528698783
 20
-121.8277133028763
 30
0.0
 10
75.90027806362258
 20
-121.7829105251099
 30
0.0
 10
75.90027806362258
 20
-121.7278066362346
 30
0.0
  0
SPLINE
  5
7E
330
1F
100
AcDbEntity
  8
_U+30EC_U+30A4_U+30E4_U+30FC 1
 62
   179
420
  2234388
370
     9
100
AcDbSpline
210
0.0
220
0.0
230
1.0
 70
    11
 71
     3
 72
    17
 73
    13
 74
     0
 42
0.0000000001
 43
0.0000000001
 12
1.0
 22
0.0
 32
0.0
 13
1.0
 23
0.0
 33
0.0
 40
0.0
 40
0.0
 40
0.0
 40
0.0
 40
1.0
 40
1.0
 40
1.0
 40
2.0
 40
2.0
 40
2.0
 40
3.0
 40
3.0
 40
3.0
 40
4.0
 40
4.0
 40
4.0
 40
4.0
 10
75.90027806362258
 20
-120.7276816364847
 30
0.0
 10
75.90027806362258
 20
-120.672224969832
 30
0.0
 10
75.85547528698783
 20
-120.6274221920653
 30
0.0
 10
75.80037139950475
 20
-120.6274221920653
 30
0.0
 10
75.74505584536041
 20
-120.6274221920653
 30
0.0
 10
75.70028834650253
 20
-120.672224969832
 30
0.0
 10
75.70028834650253
 20
-120.7276816364847
 30
0.0
 10
75.70028834650253
 20
-120.7828208031377
 30
0.0
 10
75.74505584536041
 20
-120.8275883031263
 30
0.0
 10
75.80037139950475
 20
-120.8275883031263
 30
0.0
 10
75.85547528698783
 20
-120.8275883031263
 30
0.0
 10
75.90027806362258
 20
-120.7828208031377
 30
0.0
 10
75.90027806362258
 20
-120.7276816364847
 30
0.0
  0
POLYLINE
  5
7F
330
1F
100
AcDbEntity
  8
_U+30EC_U+30A4_U+30E4_U+30FC 1
 62
   179
420
  2234388
370
     9
100
AcDb2dPolyline
 66
     1
 10
0.0
 20
0.0
 30
0.0
  0
VERTEX
  5
80
330
7F
100
AcDbEntity
  8
_U+30EC_U+30A4_U+30E4_U+30FC 1
 62
   179
420
  2234388
370
     9
100
AcDbVertex
100
AcDb2dVertex
 10
75.80037139950475
 20
-121.7278066362346
 30
0.0
  0
VERTEX
  5
81
330
7F
100
AcDbEntity
  8
_U+30EC_U+30A4_U+30E4_U+30FC 1
 62
   179
420
  2234388
370
     9
100
AcDbVertex
100
AcDb2dVertex
 10
75.80037139950475
 20
-125.4981191352921
 30
0.0
  0
SEQEND
  5
82
330
7F
100
AcDbEntity
  8
_U+30EC_U+30A4_U+30E4_U+30FC 1
 62
   179
420
  2234388
370
     9
  0
POLYLINE
  5
83
330
1F
100
AcDbEntity
  8
_U+30EC_U+30A4_U+30E4_U+30FC 1
 62
   179
420
  2234388
370
     9
100
AcDb2dPolyline
 66
     1
 10
0.0
 20
0.0
 30
0.0
  0
VERTEX
  5
84
330
83
100
AcDbEntity
  8
_U+30EC_U+30A4_U+30E4_U+30FC 1
 62
   179
420
  2234388
370
     9
100
AcDbVertex
100
AcDb2dVertex
 10
75.80037139950475
 20
-119.7275919145125
 30
0.0
  0
VERTEX
  5
85
330
83
100
AcDbEntity
  8
_U+30EC_U+30A4_U+30E4_U+30FC 1
 62
   179
420
  2234388
370
     9
100
AcDbVertex
100
AcDb2dVertex
 10
75.80037139950475
 20
-121.7278066362346
 30
0.0
  0
SEQEND
  5
86
330
83
100
AcDbEntity
  8
_U+30EC_U+30A4_U+30E4_U+30FC 1
 62
   179
420
  2234388
370
     9
  0
POLYLINE
  5
87
330
1F
100
AcDbEntity
  8
_U+30EC_U+30A4_U+30E4_U+30FC 1
 62
   179
420
  2234388
370
     9
100
AcDb2dPolyline
 66
     1
 10
0.0
 20
0.0
 30
0.0
  0
VERTEX
  5
88
330
87
100
AcDbEntity
  8
_U+30EC_U+30A4_U+30E4_U+30FC 1
 62
   179
420
  2234388
370
     9
100
AcDbVertex
100
AcDb2dVertex
 10
77.26041275114488
 20
-120.7276816364847
 30
0.0
  0
VERTEX
  5
89
330
87
100
AcDbEntity
  8
_U+30EC_U+30A4_U+30E4_U+30FC 1
 62
   179
420
  2234388
370
     9
100
AcDbVertex
100
AcDb2dVertex
 10
74.80024642502006
 20
-120.7276816364847
 30
0.0
  0
SEQEND
  5
8A
330
87
100
AcDbEntity
  8
_U+30EC_U+30A4_U+30E4_U+30FC 1
 62
   179
420
  2234388
370
     9
  0
POLYLINE
  5
8B
330
1F
100
AcDbEntity
  8
_U+30EC_U+30A4_U+30E4_U+30FC 1
 62
   179
420
  2234388
370
     9
100
AcDb2dPolyline
 66
     1
 10
0.0
 20
0.0
 30
0.0
  0
VERTEX
  5
8C
330
8B
100
AcDbEntity
  8
_U+30EC_U+30A4_U+30E4_U+30FC 1
 62
   179
420
  2234388
370
     9
100
AcDbVertex
100
AcDb2dVertex
 10
77.26041275114488
 20
-121.7278066362346
 30
0.0
  0
VERTEX
  5
8D
330
8B
100
AcDbEntity
  8
_U+30EC_U+30A4_U+30E4_U+30FC 1
 62
   179
420
  2234388
370
     9
100
AcDbVertex
100
AcDb2dVertex
 10
74.80024642502006
 20
-121.7278066362346
 30
0.0
  0
SEQEND
  5
8E
330
8B
100
AcDbEntity
  8
_U+30EC_U+30A4_U+30E4_U+30FC 1
 62
   179
420
  2234388
370
     9
  0
INSERT
  5
90
330
1F
100
AcDbEntity
  8
_U+30EC_U+30A4_U+30E4_U+30FC 1
100
AcDbBlockReference
  2
block 2
 10
0.0
 20
0.0
 30
0.0
  0
POLYLINE
  5
95
330
1F
100
AcDbEntity
  8
_U+30EC_U+30A4_U+30E4_U+30FC 1
 62
   179
420
  2234388
370
     9
100
AcDb2dPolyline
 66
     1
 10
0.0
 20
0.0
 30
0.0
  0
VERTEX
  5
96
330
95
100
AcDbEntity
  8
_U+30EC_U+30A4_U+30E4_U+30FC 1
 62
   179
420
  2234388
370
     9
100
AcDbVertex
100
AcDb2dVertex
 10
108.8002622242741
 20
-133.2273391333597
 30
0.0
  0
VERTEX
  5
97
330
95
100
AcDbEntity
  8
_U+30EC_U+30A4_U+30E4_U+30FC 1
 62
   179
420
  2234388
370
     9
100
AcDbVertex
100
AcDb2dVertex
 10
108.8002622242741
 20
-130.2273521896654
 30
0.0
  0
SEQEND
  5
98
330
95
100
AcDbEntity
  8
_U+30EC_U+30A4_U+30E4_U+30FC 1
 62
   179
420
  2234388
370
     9
  0
POLYLINE
  5
99
330
1F
100
AcDbEntity
  8
_U+30EC_U+30A4_U+30E4_U+30FC 1
 62
   179
420
  2234388
370
     9
100
AcDb2dPolyline
 66
     1
 10
0.0
 20
0.0
 30
0.0
  0
VERTEX
  5
9A
330
99
100
AcDbEntity
  8
_U+30EC_U+30A4_U+30E4_U+30FC 1
 62
   179
420
  2234388
370
     9
100
AcDbVertex
100
AcDb2dVertex
 10
107.3402208726339
 20
-133.2273391333597
 30
0.0
  0
VERTEX
  5
9B
330
99
100
AcDbEntity
  8
_U+30EC_U+30A4_U+30E4_U+30FC 1
 62
   179
420
  2234388
370
     9
100
AcDbVertex
100
AcDb2dVertex
 10
109.8010574765194
 20
-133.2273391333597
 30
0.0
  0
SEQEND
  5
9C
330
99
100
AcDbEntity
  8
_U+30EC_U+30A4_U+30E4_U+30FC 1
 62
   179
420
  2234388
370
     9
  0
POLYLINE
  5
9D
330
1F
100
AcDbEntity
  8
_U+30EC_U+30A4_U+30E4_U+30FC 1
 62
   179
420
  2234388
370
     9
100
AcDb2dPolyline
 66
     1
 10
0.0
 20
0.0
 30
0.0
  0
VERTEX
  5
9E
330
9D
100
AcDbEntity
  8
_U+30EC_U+30A4_U+30E4_U+30FC 1
 62
   179
420
  2234388
370
     9
100
AcDbVertex
100
AcDb2dVertex
 10
107.3402208726339
 20
-130.2273521896654
 30
0.0
  0
VERTEX
  5
9F
330
9D
100
AcDbEntity
  8
_U+30EC_U+30A4_U+30E4_U+30FC 1
 62
   179
420
  2234388
370
     9
100
AcDbVertex
100
AcDb2dVertex
 10
109.8010574765194
 20
-130.2273521896654
 30
0.0
  0
SEQEND
  5
A0
330
9D
100
AcDbEntity
  8
_U+30EC_U+30A4_U+30E4_U+30FC 1
 62
   179
420
  2234388
370
     9
  0
INSERT
  5
A2
330
1F
100
AcDbEntity
  8
_U+30EC_U+30A4_U+30E4_U+30FC 1
100
AcDbBlockReference
  2
block 3
 10
0.0
 20
0.0
 30
0.0
  0
POLYLINE
  5
A7
330
1F
100
AcDbEntity
  8
_U+30EC_U+30A4_U+30E4_U+30FC 1
 62
   179
420
  2234388
370
     9
100
AcDb2dPolyline
 66
     1
 10
0.0
 20
0.0
 30
0.0
  0
VERTEX
  5
A8
330
A7
100
AcDbEntity
  8
_U+30EC_U+30A4_U+30E4_U+30FC 1
 62
   179
420
  2234388
370
     9
100
AcDbVertex
100
AcDb2dVertex
 10
94.80077035920863
 20
-137.2278038545822
 30
0.0
  0
VERTEX
  5
A9
330
A7
100
AcDbEntity
  8
_U+30EC_U+30A4_U+30E4_U+30FC 1
 62
   179
420
  2234388
370
     9
100
AcDbVertex
100
AcDb2dVertex
 10
104.8005031596498
 20
-137.2278038545822
 30
0.0
  0
SEQEND
  5
AA
330
A7
100
AcDbEntity
  8
_U+30EC_U+30A4_U+30E4_U+30FC 1
 62
   179
420
  2234388
370
     9
  0
POLYLINE
  5
AB
330
1F
100
AcDbEntity
  8
_U+30EC_U+30A4_U+30E4_U+30FC 1
 62
   179
420
  2234388
370
     9
100
AcDb2dPolyline
 66
     1
 10
0.0
 20
0.0
 30
0.0
  0
VERTEX
  5
AC
330
AB
100
AcDbEntity
  8
_U+30EC_U+30A4_U+30E4_U+30FC 1
 62
   179
420
  2234388
370
     9
100
AcDbVertex
100
AcDb2dVertex
 10
94.80077035920863
 20
-135.7677624660578
 30
0.0
  0
VERTEX
  5
AD
330
AB
100
AcDbEntity
  8
_U+30EC_U+30A4_U+30E4_U+30FC 1
 62
   179
420
  2234388
370
     9
100
AcDbVertex
100
AcDb2dVertex
 10
94.80077035920863
 20
-138.227576076554
 30
0.0
  0
SEQEND
  5
AE
330
AB
100
AcDbEntity
  8
_U+30EC_U+30A4_U+30E4_U+30FC 1
 62
   179
420
  2234388
370
     9
  0
POLYLINE
  5
AF
330
1F
100
AcDbEntity
  8
_U+30EC_U+30A4_U+30E4_U+30FC 1
 62
   179
420
  2234388
370
     9
100
AcDb2dPolyline
 66
     1
 10
0.0
 20
0.0
 30
0.0
  0
VERTEX
  5
B0
330
AF
100
AcDbEntity
  8
_U+30EC_U+30A4_U+30E4_U+30FC 1
 62
   179
420
  2234388
370
     9
100
AcDbVertex
100
AcDb2dVertex
 10
104.8005031596498
 20
-135.7677624660578
 30
0.0
  0
VERTEX
  5
B1
330
AF
100
AcDbEntity
  8
_U+30EC_U+30A4_U+30E4_U+30FC 1
 62
   179
420
  2234388
370
     9
100
AcDbVertex
100
AcDb2dVertex
 10
104.8005031596498
 20
-138.227576076554
 30
0.0
  0
SEQEND
  5
B2
330
AF
100
AcDbEntity
  8
_U+30EC_U+30A4_U+30E4_U+30FC 1
 62
   179
420
  2234388
370
     9
  0
INSERT
  5
B4
330
1F
100
AcDbEntity
  8
_U+30EC_U+30A4_U+30E4_U+30FC 1
100
AcDbBlockReference
  2
block 4
 10
0.0
 20
0.0
 30
0.0
  0
POLYLINE
  5
BC
330
1F
100
AcDbEntity
  8
_U+30EC_U+30A4_U+30E4_U+30FC 1
 62
   179
420
  2234388
370
     9
100
AcDb2dPolyline
 66
     1
 10
0.0
 20
0.0
 30
0.0
  0
VERTEX
  5
BD
330
BC
100
AcDbEntity
  8
_U+30EC_U+30A4_U+30E4_U+30FC 1
 62
   179
420
  2234388
370
     9
100
AcDbVertex
100
AcDb2dVertex
 10
79.80030685301345
 20
-137.2278038545822
 30
0.0
  0
VERTEX
  5
BE
330
BC
100
AcDbEntity
  8
_U+30EC_U+30A4_U+30E4_U+30FC 1
 62
   179
420
  2234388
370
     9
100
AcDbVertex
100
AcDb2dVertex
 10
94.80077035920863
 20
-137.2278038545822
 30
0.0
  0
SEQEND
  5
BF
330
BC
100
AcDbEntity
  8
_U+30EC_U+30A4_U+30E4_U+30FC 1
 62
   179
420
  2234388
370
     9
  0
POLYLINE
  5
C0
330
1F
100
AcDbEntity
  8
_U+30EC_U+30A4_U+30E4_U+30FC 1
 62
   179
420
  2234388
370
     9
100
AcDb2dPolyline
 66
     1
 10
0.0
 20
0.0
 30
0.0
  0
VERTEX
  5
C1
330
C0
100
AcDbEntity
  8
_U+30EC_U+30A4_U+30E4_U+30FC 1
 62
   179
420
  2234388
370
     9
100
AcDbVertex
100
AcDb2dVertex
 10
79.80030685301345
 20
-124.2675244133775
 30
0.0
  0
VERTEX
  5
C2
330
C0
100
AcDbEntity
  8
_U+30EC_U+30A4_U+30E4_U+30FC 1
 62
   179
420
  2234388
370
     9
100
AcDbVertex
100
AcDb2dVertex
 10
79.80030685301345
 20
-138.227576076554
 30
0.0
  0
SEQEND
  5
C3
330
C0
100
AcDbEntity
  8
_U+30EC_U+30A4_U+30E4_U+30FC 1
 62
   179
420
  2234388
370
     9
  0
INSERT
  5
C5
330
1F
100
AcDbEntity
  8
_U+30EC_U+30A4_U+30E4_U+30FC 1
100
AcDbBlockReference
  2
block 5
 10
0.0
 20
0.0
 30
0.0
  0
POLYLINE
  5
CC
330
1F
100
AcDbEntity
  8
_U+30EC_U+30A4_U+30E4_U+30FC 1
 62
   179
420
  2234388
370
     9
100
AcDb2dPolyline
 66
     1
 10
0.0
 20
0.0
 30
0.0
  0
VERTEX
  5
CD
330
CC
100
AcDbEntity
  8
_U+30EC_U+30A4_U+30E4_U+30FC 1
 62
   179
420
  2234388
370
     9
100
AcDbVertex
100
AcDb2dVertex
 10
108.8002622242741
 20
-130.2273521896654
 30
0.0
  0
VERTEX
  5
CE
330
CC
100
AcDbEntity
  8
_U+30EC_U+30A4_U+30E4_U+30FC 1
 62
   179
420
  2234388
370
     9
100
AcDbVertex
100
AcDb2dVertex
 10
108.8002622242741
 20
-120.7276816364847
 30
0.0
  0
SEQEND
  5
CF
330
CC
100
AcDbEntity
  8
_U+30EC_U+30A4_U+30E4_U+30FC 1
 62
   179
420
  2234388
370
     9
  0
POLYLINE
  5
D0
330
1F
100
AcDbEntity
  8
_U+30EC_U+30A4_U+30E4_U+30FC 1
 62
   179
420
  2234388
370
     9
100
AcDb2dPolyline
 66
     1
 10
0.0
 20
0.0
 30
0.0
  0
VERTEX
  5
D1
330
D0
100
AcDbEntity
  8
_U+30EC_U+30A4_U+30E4_U+30FC 1
 62
   179
420
  2234388
370
     9
100
AcDbVertex
100
AcDb2dVertex
 10
98.34026026890872
 20
-120.7276816364847
 30
0.0
  0
VERTEX
  5
D2
330
D0
100
AcDbEntity
  8
_U+30EC_U+30A4_U+30E4_U+30FC 1
 62
   179
420
  2234388
370
     9
100
AcDbVertex
100
AcDb2dVertex
 10
109.8010574765194
 20
-120.7276816364847
 30
0.0
  0
SEQEND
  5
D3
330
D0
100
AcDbEntity
  8
_U+30EC_U+30A4_U+30E4_U+30FC 1
 62
   179
420
  2234388
370
     9
  0
INSERT
  5
D5
330
1F
100
AcDbEntity
  8
_U+30EC_U+30A4_U+30E4_U+30FC 1
100
AcDbBlockReference
  2
block 6
 10
0.0
 20
0.0
 30
0.0
  0
ENDSEC
  0
SECTION
  2
OBJECTS
  0
DICTIONARY
  5
C
330
0
100
AcDbDictionary
281
     1
  3
ACAD_GROUP
350
D
  3
ACAD_LAYOUT
350
1A
  3
ACAD_MATERIAL
350
3B
  3
ACAD_MLEADERSTYLE
350
E6
  3
ACAD_MLINESTYLE
350
17
  3
ACAD_PLOTSETTINGS
350
19
  3
ACAD_PLOTSTYLENAME
350
E
  3
ACAD_TABLESTYLE
350
E5
  3
ACAD_VISUALSTYLE
350
2A
  0
SUN
  5
3F
330
29
100
AcDbSun
 90
        1
290
     0
 63
     7
421
 16777215
 40
1.0
291
     1
 91
  2455826
 92
 54000000
292
     0
 70
     2
 71
   256
280
     1
  0
DICTIONARY
  5
D
102
{ACAD_REACTORS
330
C
102
}
330
C
100
AcDbDictionary
281
     1
  0
DICTIONARY
  5
1A
102
{ACAD_REACTORS
330
C
102
}
330
C
100
AcDbDictionary
281
     1
  3
Layout1
350
1E
  3
Layout2
350
26
  3
Model
350
22
  0
DICTIONARY
  5
3B
102
{ACAD_REACTORS
330
C
102
}
330
C
100
AcDbDictionary
281
     1
  3
ByBlock
350
3D
  3
ByLayer
350
3C
  3
Global
350
3E
  0
DICTIONARY
  5
E6
102
{ACAD_REACTORS
330
C
102
}
330
C
100
AcDbDictionary
281
     1
  0
DICTIONARY
  5
17
102
{ACAD_REACTORS
330
C
102
}
330
C
100
AcDbDictionary
281
     1
  3
Standard
350
18
  0
DICTIONARY
  5
19
102
{ACAD_REACTORS
330
C
102
}
330
C
100
AcDbDictionary
281
     1
  0
ACDBDICTIONARYWDFLT
  5
E
102
{ACAD_REACTORS
330
C
102
}
330
C
100
AcDbDictionary
281
     1
  3
Normal
350
F
100
AcDbDictionaryWithDefault
340
F
  0
DICTIONARY
  5
E5
102
{ACAD_REACTORS
330
C
102
}
330
C
100
AcDbDictionary
281
     1
  0
DICTIONARY
  5
2A
102
{ACAD_REACTORS
330
C
102
}
330
C
100
AcDbDictionary
281
     1
  3
2dWireframe
350
2F
  3
3D Hidden
350
31
  3
3dWireframe
350
30
  3
Basic
350
32
  3
Brighten
350
36
  3
ColorChange
350
3A
  3
Conceptual
350
34
  3
Dim
350
35
  3
Facepattern
350
39
  3
Flat
350
2B
  3
FlatWithEdges
350
2C
  3
Gouraud
350
2D
  3
GouraudWithEdges
350
2E
  3
Linepattern
350
38
  3
Realistic
350
33
  3
Thicken
350
37
  0
LAYOUT
  5
1E
102
{ACAD_REACTORS
330
1A
102
}
330
1A
100
AcDbPlotSettings
  1

  2
none_device
  4

  6

 40
0.0
 41
0.0
 42
0.0
 43
0.0
 44
0.0
 45
0.0
 46
0.0
 47
0.0
 48
0.0
 49
0.0
140
0.0
141
0.0
142
1.0
143
1.0
 70
   688
 72
     0
 73
     0
 74
     5
  7

 75
    16
 76
     0
 77
     2
 78
   300
147
1.0
148
0.0
149
0.0
100
AcDbLayout
  1
Layout1
 70
     1
 71
     1
 10
0.0
 20
0.0
 11
12.0
 21
9.0
 12
0.0
 22
0.0
 32
0.0
 14
1.000000000000000E+20
 24
1.000000000000000E+20
 34
1.000000000000000E+20
 15
-1.000000000000000E+20
 25
-1.000000000000000E+20
 35
-1.000000000000000E+20
146
0.0
 13
0.0
 23
0.0
 33
0.0
 16
1.0
 26
0.0
 36
0.0
 17
0.0
 27
1.0
 37
0.0
 76
     0
330
1B
  0
LAYOUT
  5
26
102
{ACAD_REACTORS
330
1A
102
}
330
1A
100
AcDbPlotSettings
  1

  2
none_device
  4

  6

 40
0.0
 41
0.0
 42
0.0
 43
0.0
 44
0.0
 45
0.0
 46
0.0
 47
0.0
 48
0.0
 49
0.0
140
0.0
141
0.0
142
1.0
143
1.0
 70
   688
 72
     0
 73
     0
 74
     5
  7

 75
    16
 76
     0
 77
     2
 78
   300
147
1.0
148
0.0
149
0.0
100
AcDbLayout
  1
Layout2
 70
     1
 71
     2
 10
0.0
 20
0.0
 11
0.0
 21
0.0
 12
0.0
 22
0.0
 32
0.0
 14
0.0
 24
0.0
 34
0.0
 15
0.0
 25
0.0
 35
0.0
146
0.0
 13
0.0
 23
0.0
 33
0.0
 16
1.0
 26
0.0
 36
0.0
 17
0.0
 27
1.0
 37
0.0
 76
     0
330
23
  0
LAYOUT
  5
22
102
{ACAD_REACTORS
330
1A
102
}
330
1A
100
AcDbPlotSettings
  1

  2
none_device
  4

  6

 40
0.0
 41
0.0
 42
0.0
 43
0.0
 44
0.0
 45
0.0
 46
0.0
 47
0.0
 48
0.0
 49
0.0
140
0.0
141
0.0
142
1.0
143
1.0
 70
  1712
 72
     0
 73
     0
 74
     0
  7

 75
     0
 76
     0
 77
     2
 78
   300
147
1.0
148
0.0
149
0.0
100
AcDbLayout
  1
Model
 70
     1
 71
     0
 10
0.0
 20
0.0
 11
12.0
 21
9.0
 12
0.0
 22
0.0
 32
0.0
 14
1.000000000000000E+20
 24
1.000000000000000E+20
 34
1.000000000000000E+20
 15
-1.000000000000000E+20
 25
-1.000000000000000E+20
 35
-1.000000000000000E+20
146
0.0
 13
0.0
 23
0.0
 33
0.0
 16
1.0
 26
0.0
 36
0.0
 17
0.0
 27
1.0
 37
0.0
 76
     0
330
1F
331
29
  0
MATERIAL
  5
3D
102
{ACAD_REACTORS
330
3B
102
}
330
3B
100
AcDbMaterial
  1
ByBlock
 72
     1
 94
      127
  0
MATERIAL
  5
3C
102
{ACAD_REACTORS
330
3B
102
}
330
3B
100
AcDbMaterial
  1
ByLayer
 72
     1
 94
      127
  0
MATERIAL
  5
3E
102
{ACAD_REACTORS
330
3B
102
}
330
3B
100
AcDbMaterial
  1
Global
 72
     1
 94
      127
  0
MLINESTYLE
  5
18
102
{ACAD_REACTORS
330
17
102
}
330
17
100
AcDbMlineStyle
  2
Standard
 70
     0
  3

 62
   256
 51
90.0
 52
90.0
 71
     2
 49
0.5
 62
   256
  6
BYLAYER
 49
-0.5
 62
   256
  6
BYLAYER
  0
ACDBPLACEHOLDER
  5
F
102
{ACAD_REACTORS
330
E
102
}
330
E
  0
VISUALSTYLE
  5
2F
102
{ACAD_REACTORS
330
2A
102
}
330
2A
100
AcDbVisualStyle
  2
2dWireframe
 70
     4
177
     2
291
     0
 71
     0
176
     1
 72
     2
176
     1
 73
     0
176
     1
 90
        0
176
     1
 40
-0.6
176
     1
 41
-30.0
176
     1
 62
     5
 63
     7
421
 16777215
176
     1
 74
     1
176
     1
 91
        4
176
     1
 64
     7
176
     1
 65
   257
176
     1
 75
     1
176
     1
175
     1
176
     1
 42
1.0
176
     1
 92
        0
176
     1
 66
   257
176
     1
 43
1.0
176
     1
 76
     1
176
     1
 77
     6
176
     1
 78
     2
176
     1
 67
     7
176
     1
 79
     5
176
     1
170
     0
176
     1
171
     0
176
     1
290
     0
176
     1
 93
        1
176
     1
 44
0.0
176
     1
173
     0
176
     1
  0
VISUALSTYLE
  5
31
102
{ACAD_REACTORS
330
2A
102
}
330
2A
100
AcDbVisualStyle
  2
3D Hidden
 70
     6
177
     2
291
     0
 71
     1
176
     1
 72
     2
176
     1
 73
     2
176
     1
 90
        0
176
     1
 40
-0.6
176
     1
 41
-30.0
176
     1
 62
     5
 63
     7
421
 16777215
176
     1
 74
     2
176
     1
 91
        2
176
     1
 64
     7
176
     1
 65
   257
176
     1
 75
     2
176
     1
175
     1
176
     1
 42
40.0
176
     1
 92
        0
176
     1
 66
   257
176
     1
 43
1.0
176
     1
 76
     1
176
     1
 77
     6
176
     1
 78
     2
176
     1
 67
     7
176
     1
 79
     3
176
     1
170
     0
176
     1
171
     0
176
     1
290
     0
176
     1
 93
        1
176
     1
 44
0.0
176
     1
173
     0
176
     1
  0
VISUALSTYLE
  5
30
102
{ACAD_REACTORS
330
2A
102
}
330
2A
100
AcDbVisualStyle
  2
3dWireframe
 70
     5
177
     2
291
     0
 71
     0
176
     1
 72
     2
176
     1
 73
     0
176
     1
 90
        0
176
     1
 40
-0.6
176
     1
 41
-30.0
176
     1
 62
     5
 63
     7
421
 16777215
176
     1
 74
     1
176
     1
 91
        4
176
     1
 64
     7
176
     1
 65
   257
176
     1
 75
     1
176
     1
175
     1
176
     1
 42
1.0
176
     1
 92
        0
176
     1
 66
   257
176
     1
 43
1.0
176
     1
 76
     1
176
     1
 77
     6
176
     1
 78
     2
176
     1
 67
     7
176
     1
 79
     5
176
     1
170
     0
176
     1
171
     0
176
     1
290
     0
176
     1
 93
        1
176
     1
 44
0.0
176
     1
173
     0
176
     1
  0
VISUALSTYLE
  5
32
102
{ACAD_REACTORS
330
2A
102
}
330
2A
100
AcDbVisualStyle
  2
Basic
 70
     7
177
     2
291
     1
 71
     1
176
     1
 72
     0
176
     1
 73
     1
176
     1
 90
        0
176
     1
 40
-0.6
176
     1
 41
-30.0
176
     1
 62
     5
 63
     7
421
 16777215
176
     1
 74
     0
176
     1
 91
        4
176
     1
 64
     7
176
     1
 65
   257
176
     1
 75
     1
176
     1
175
     1
176
     1
 42
1.0
176
     1
 92
        8
176
     1
 66
     7
176
     1
 43
1.0
176
     1
 76
     1
176
     1
 77
     6
176
     1
 78
     2
176
     1
 67
     7
176
     1
 79
     5
176
     1
170
     0
176
     1
171
     0
176
     1
290
     0
176
     1
 93
        1
176
     1
 44
0.0
176
     1
173
     0
176
     1
  0
VISUALSTYLE
  5
36
102
{ACAD_REACTORS
330
2A
102
}
330
2A
100
AcDbVisualStyle
  2
Brighten
 70
    12
177
     2
291
     1
 71
     2
176
     1
 72
     2
176
     1
 73
     0
176
     1
 90
        0
176
     1
 40
-0.6
176
     1
 41
-30.0
176
     1
 62
     5
 63
     7
421
 16777215
176
     1
 74
     1
176
     1
 91
        4
176
     1
 64
     7
176
     1
 65
   257
176
     1
 75
     1
176
     1
175
     1
176
     1
 42
1.0
176
     1
 92
        8
176
     1
 66
     7
176
     1
 43
1.0
176
     1
 76
     1
176
     1
 77
     6
176
     1
 78
     2
176
     1
 67
     7
176
     1
 79
     5
176
     1
170
     0
176
     1
171
     0
176
     1
290
     0
176
     1
 93
        1
176
     1
 44
50.0
176
     1
173
     0
176
     1
  0
VISUALSTYLE
  5
3A
102
{ACAD_REACTORS
330
2A
102
}
330
2A
100
AcDbVisualStyle
  2
ColorChange
 70
    16
177
     2
291
     1
 71
     2
176
     1
 72
     2
176
     1
 73
     3
176
     1
 90
        0
176
     1
 40
-0.6
176
     1
 41
-30.0
176
     1
 62
     5
 63
     8
421
  8421504
176
     1
 74
     1
176
     1
 91
        4
176
     1
 64
     7
176
     1
 65
   257
176
     1
 75
     1
176
     1
175
     1
176
     1
 42
1.0
176
     1
 92
        8
176
     1
 66
     8
424
  8421504
176
     1
 43
1.0
176
     1
 76
     1
176
     1
 77
     6
176
     1
 78
     2
176
     1
 67
     7
176
     1
 79
     5
176
     1
170
     0
176
     1
171
     0
176
     1
290
     0
176
     1
 93
        1
176
     1
 44
0.0
176
     1
173
     0
176
     1
  0
VISUALSTYLE
  5
34
102
{ACAD_REACTORS
330
2A
102
}
330
2A
100
AcDbVisualStyle
  2
Conceptual
 70
     9
177
     2
291
     0
 71
     3
176
     1
 72
     2
176
     1
 73
     0
176
     1
 90
        0
176
     1
 40
-0.6
176
     1
 41
-30.0
176
     1
 62
     5
 63
     7
421
 16777215
176
     1
 74
     2
176
     1
 91
        2
176
     1
 64
     7
176
     1
 65
   257
176
     1
 75
     1
176
     1
175
     1
176
     1
 42
40.0
176
     1
 92
        8
176
     1
 66
     7
176
     1
 43
1.0
176
     1
 76
     1
176
     1
 77
     6
176
     1
 78
     2
176
     1
 67
     7
176
     1
 79
     3
176
     1
170
     0
176
     1
171
     0
176
     1
290
     0
176
     1
 93
        1
176
     1
 44
0.0
176
     1
173
     0
176
     1
  0
VISUALSTYLE
  5
35
102
{ACAD_REACTORS
330
2A
102
}
330
2A
100
AcDbVisualStyle
  2
Dim
 70
    11
177
     2
291
     1
 71
     2
176
     1
 72
     2
176
     1
 73
     0
176
     1
 90
        0
176
     1
 40
-0.6
176
     1
 41
-30.0
176
     1
 62
     5
 63
     7
421
 16777215
176
     1
 74
     1
176
     1
 91
        4
176
     1
 64
     7
176
     1
 65
   257
176
     1
 75
     1
176
     1
175
     1
176
     1
 42
1.0
176
     1
 92
        8
176
     1
 66
     7
176
     1
 43
1.0
176
     1
 76
     1
176
     1
 77
     6
176
     1
 78
     2
176
     1
 67
     7
176
     1
 79
     5
176
     1
170
     0
176
     1
171
     0
176
     1
290
     0
176
     1
 93
        1
176
     1
 44
-50.0
176
     1
173
     0
176
     1
  0
VISUALSTYLE
  5
39
102
{ACAD_REACTORS
330
2A
102
}
330
2A
100
AcDbVisualStyle
  2
Facepattern
 70
    15
177
     2
291
     1
 71
     2
176
     1
 72
     2
176
     1
 73
     0
176
     1
 90
        0
176
     1
 40
-0.6
176
     1
 41
-30.0
176
     1
 62
     5
 63
     7
421
 16777215
176
     1
 74
     1
176
     1
 91
        4
176
     1
 64
     7
176
     1
 65
   257
176
     1
 75
     1
176
     1
175
     1
176
     1
 42
1.0
176
     1
 92
        8
176
     1
 66
     7
176
     1
 43
1.0
176
     1
 76
     1
176
     1
 77
     6
176
     1
 78
     2
176
     1
 67
     7
176
     1
 79
     5
176
     1
170
     0
176
     1
171
     0
176
     1
290
     0
176
     1
 93
        1
176
     1
 44
0.0
176
     1
173
     0
176
     1
  0
VISUALSTYLE
  5
2B
102
{ACAD_REACTORS
330
2A
102
}
330
2A
100
AcDbVisualStyle
  2
Flat
 70
     0
177
     2
291
     1
 71
     2
176
     1
 72
     1
176
     1
 73
     1
176
     1
 90
        2
176
     1
 40
-0.6
176
     1
 41
30.0
176
     1
 62
     5
 63
     7
421
 16777215
176
     1
 74
     0
176
     1
 91
        4
176
     1
 64
     7
176
     1
 65
   257
176
     1
 75
     1
176
     1
175
     1
176
     1
 42
1.0
176
     1
 92
        8
176
     1
 66
     7
176
     1
 43
1.0
176
     1
 76
     1
176
     1
 77
     6
176
     1
 78
     2
176
     1
 67
     7
176
     1
 79
     5
176
     1
170
     0
176
     1
171
     0
176
     1
290
     0
176
     1
 93
       13
176
     1
 44
0.0
176
     1
173
     0
176
     1
  0
VISUALSTYLE
  5
2C
102
{ACAD_REACTORS
330
2A
102
}
330
2A
100
AcDbVisualStyle
  2
FlatWithEdges
 70
     1
177
     2
291
     1
 71
     2
176
     1
 72
     1
176
     1
 73
     1
176
     1
 90
        2
176
     1
 40
-0.6
176
     1
 41
30.0
176
     1
 62
     5
 63
     7
421
 16777215
176
     1
 74
     1
176
     1
 91
        4
176
     1
 64
     7
176
     1
 65
   257
176
     1
 75
     1
176
     1
175
     1
176
     1
 42
1.0
176
     1
 92
        0
176
     1
 66
   257
176
     1
 43
1.0
176
     1
 76
     1
176
     1
 77
     6
176
     1
 78
     2
176
     1
 67
     7
176
     1
 79
     5
176
     1
170
     0
176
     1
171
     0
176
     1
290
     0
176
     1
 93
       13
176
     1
 44
0.0
176
     1
173
     0
176
     1
  0
VISUALSTYLE
  5
2D
102
{ACAD_REACTORS
330
2A
102
}
330
2A
100
AcDbVisualStyle
  2
Gouraud
 70
     2
177
     2
291
     1
 71
     2
176
     1
 72
     2
176
     1
 73
     1
176
     1
 90
        2
176
     1
 40
-0.6
176
     1
 41
30.0
176
     1
 62
     5
 63
     7
421
 16777215
176
     1
 74
     0
176
     1
 91
        4
176
     1
 64
     7
176
     1
 65
   257
176
     1
 75
     1
176
     1
175
     1
176
     1
 42
1.0
176
     1
 92
        0
176
     1
 66
     7
176
     1
 43
1.0
176
     1
 76
     1
176
     1
 77
     6
176
     1
 78
     2
176
     1
 67
     7
176
     1
 79
     5
176
     1
170
     0
176
     1
171
     0
176
     1
290
     0
176
     1
 93
       13
176
     1
 44
0.0
176
     1
173
     0
176
     1
  0
VISUALSTYLE
  5
2E
102
{ACAD_REACTORS
330
2A
102
}
330
2A
100
AcDbVisualStyle
  2
GouraudWithEdges
 70
     3
177
     2
291
     1
 71
     2
176
     1
 72
     2
176
     1
 73
     1
176
     1
 90
        2
176
     1
 40
-0.6
176
     1
 41
30.0
176
     1
 62
     5
 63
     7
421
 16777215
176
     1
 74
     1
176
     1
 91
        4
176
     1
 64
     7
176
     1
 65
   257
176
     1
 75
     1
176
     1
175
     1
176
     1
 42
1.0
176
     1
 92
        0
176
     1
 66
   257
176
     1
 43
1.0
176
     1
 76
     1
176
     1
 77
     6
176
     1
 78
     2
176
     1
 67
     7
176
     1
 79
     5
176
     1
170
     0
176
     1
171
     0
176
     1
290
     0
176
     1
 93
       13
176
     1
 44
0.0
176
     1
173
     0
176
     1
  0
VISUALSTYLE
  5
38
102
{ACAD_REACTORS
330
2A
102
}
330
2A
100
AcDbVisualStyle
  2
Linepattern
 70
    14
177
     2
291
     1
 71
     2
176
     1
 72
     2
176
     1
 73
     0
176
     1
 90
        0
176
     1
 40
-0.6
176
     1
 41
-30.0
176
     1
 62
     5
 63
     7
421
 16777215
176
     1
 74
     1
176
     1
 91
        4
176
     1
 64
     7
176
     1
 65
   257
176
     1
 75
     7
176
     1
175
     7
176
     1
 42
1.0
176
     1
 92
        8
176
     1
 66
     7
176
     1
 43
1.0
176
     1
 76
     1
176
     1
 77
     6
176
     1
 78
     2
176
     1
 67
     7
176
     1
 79
     5
176
     1
170
     0
176
     1
171
     0
176
     1
290
     0
176
     1
 93
        1
176
     1
 44
0.0
176
     1
173
     0
176
     1
  0
VISUALSTYLE
  5
33
102
{ACAD_REACTORS
330
2A
102
}
330
2A
100
AcDbVisualStyle
  2
Realistic
 70
     8
177
     2
291
     0
 71
     2
176
     1
 72
     2
176
     1
 73
     0
176
     1
 90
        0
176
     1
 40
-0.6
176
     1
 41
-30.0
176
     1
 62
     5
 63
     7
421
 16777215
176
     1
 74
     1
176
     1
 91
        0
176
     1
 64
     7
176
     1
 65
   257
176
     1
 75
     1
176
     1
175
     1
176
     1
 42
1.0
176
     1
 92
        8
176
     1
 66
     8
424
  7895160
176
     1
 43
1.0
176
     1
 76
     1
176
     1
 77
     6
176
     1
 78
     2
176
     1
 67
     7
176
     1
 79
     5
176
     1
170
     0
176
     1
171
     0
176
     1
290
     0
176
     1
 93
       13
176
     1
 44
0.0
176
     1
173
     0
176
     1
  0
VISUALSTYLE
  5
37
102
{ACAD_REACTORS
330
2A
102
}
330
2A
100
AcDbVisualStyle
  2
Thicken
 70
    13
177
     2
291
     1
 71
     2
176
     1
 72
     2
176
     1
 73
     0
176
     1
 90
        0
176
     1
 40
-0.6
176
     1
 41
-30.0
176
     1
 62
     5
 63
     7
421
 16777215
176
     1
 74
     1
176
     1
 91
        4
176
     1
 64
     7
176
     1
 65
   257
176
     1
 75
     1
176
     1
175
     1
176
     1
 42
1.0
176
     1
 92
       12
176
     1
 66
     7
176
     1
 43
1.0
176
     1
 76
     1
176
     1
 77
     6
176
     1
 78
     2
176
     1
 67
     7
176
     1
 79
     5
176
     1
170
     0
176
     1
171
     0
176
     1
290
     0
176
     1
 93
        1
176
     1
 44
0.0
176
     1
173
     0
176
     1
  0
ENDSEC
  0
EOF
