  0
SECTION
  2
HEADER
  9
$ACADVER
  1
AC1024
  9
$ACADMAINTVER
 70
     6
  9
$DWGCODEPAGE
  3
UNDEFINED
  9
$INSBASE
 10
0.0
 20
0.0
 30
0.0
  9
$EXTMIN
 10
1.000000000000000E+20
 20
1.000000000000000E+20
 30
1.000000000000000E+20
  9
$EXTMAX
 10
-1.000000000000000E+20
 20
-1.000000000000000E+20
 30
-1.000000000000000E+20
  9
$LIMMIN
 10
0.0
 20
0.0
  9
$LIMMAX
 10
12.0
 20
9.0
  9
$ORTHOMODE
 70
     0
  9
$REGENMODE
 70
     1
  9
$FILLMODE
 70
     1
  9
$QTEXTMODE
 70
     0
  9
$MIRRTEXT
 70
     1
  9
$LTSCALE
 40
1.0
  9
$ATTMODE
 70
     1
  9
$TEXTSIZE
 40
0.2
  9
$TRACEWID
 40
0.05
  9
$TEXTSTYLE
  7
Standard
  9
$CLAYER
  8
0
  9
$CELTYPE
  6
ByLayer
  9
$CECOLOR
 62
   256
  9
$CELTSCALE
 40
1.0
  9
$DISPSILH
 70
     0
  9
$DIMSCALE
 40
1.0
  9
$DIMASZ
 40
0.18
  9
$DIMEXO
 40
0.0625
  9
$DIMDLI
 40
0.38
  9
$DIMRND
 40
0.0
  9
$DIMDLE
 40
0.0
  9
$DIMEXE
 40
0.18
  9
$DIMTP
 40
0.0
  9
$DIMTM
 40
0.0
  9
$DIMTXT
 40
0.18
  9
$DIMCEN
 40
0.09
  9
$DIMTSZ
 40
0.0
  9
$DIMTOL
 70
     0
  9
$DIMLIM
 70
     0
  9
$DIMTIH
 70
     1
  9
$DIMTOH
 70
     1
  9
$DIMSE1
 70
     0
  9
$DIMSE2
 70
     0
  9
$DIMTAD
 70
     0
  9
$DIMZIN
 70
     0
  9
$DIMBLK
  1

  9
$DIMASO
 70
     1
  9
$DIMSHO
 70
     1
  9
$DIMPOST
  1

  9
$DIMAPOST
  1

  9
$DIMALT
 70
     0
  9
$DIMALTD
 70
     2
  9
$DIMALTF
 40
25.4
  9
$DIMLFAC
 40
1.0
  9
$DIMTOFL
 70
     0
  9
$DIMTVP
 40
0.0
  9
$DIMTIX
 70
     0
  9
$DIMSOXD
 70
     0
  9
$DIMSAH
 70
     0
  9
$DIMBLK1
  1

  9
$DIMBLK2
  1

  9
$DIMSTYLE
  2
Standard
  9
$DIMCLRD
 70
     0
  9
$DIMCLRE
 70
     0
  9
$DIMCLRT
 70
     0
  9
$DIMTFAC
 40
1.0
  9
$DIMGAP
 40
0.09
  9
$DIMJUST
 70
     0
  9
$DIMSD1
 70
     0
  9
$DIMSD2
 70
     0
  9
$DIMTOLJ
 70
     1
  9
$DIMTZIN
 70
     0
  9
$DIMALTZ
 70
     0
  9
$DIMALTTZ
 70
     0
  9
$DIMUPT
 70
     0
  9
$DIMDEC
 70
     4
  9
$DIMTDEC
 70
     4
  9
$DIMALTU
 70
     2
  9
$DIMALTTD
 70
     2
  9
$DIMTXSTY
  7
Standard
  9
$DIMAUNIT
 70
     0
  9
$DIMADEC
 70
     0
  9
$DIMALTRND
 40
0.0
  9
$DIMAZIN
 70
     0
  9
$DIMDSEP
 70
    46
  9
$DIMATFIT
 70
     3
  9
$DIMFRAC
 70
     0
  9
$DIMLDRBLK
  1

  9
$DIMLUNIT
 70
     2
  9
$DIMLWD
 70
    -2
  9
$DIMLWE
 70
    -2
  9
$DIMTMOVE
 70
     0
  9
$DIMFXL
 40
1.0
  9
$DIMFXLON
 70
     0
  9
$DIMJOGANG
 40
0.7853981633974483
  9
$DIMTFILL
 70
     0
  9
$DIMTFILLCLR
 70
     0
  9
$DIMARCSYM
 70
     0
  9
$DIMLTYPE
  6

  9
$DIMLTEX1
  6

  9
$DIMLTEX2
  6

  9
$DIMTXTDIRECTION
 70
     0
  9
$LUNITS
 70
     2
  9
$LUPREC
 70
     4
  9
$SKETCHINC
 40
0.1
  9
$FILLETRAD
 40
0.5
  9
$AUNITS
 70
     0
  9
$AUPREC
 70
     0
  9
$MENU
  1
.
  9
$ELEVATION
 40
0.0
  9
$PELEVATION
 40
0.0
  9
$THICKNESS
 40
0.0
  9
$LIMCHECK
 70
     0
  9
$CHAMFERA
 40
0.5
  9
$CHAMFERB
 40
0.5
  9
$CHAMFERC
 40
1.0
  9
$CHAMFERD
 40
0.0
  9
$SKPOLY
 70
     0
  9
$TDCREATE
 40
2457917.613125
  9
$TDUCREATE
 40
2457917.238125
  9
$TDUPDATE
 40
2457917.613125
  9
$TDUUPDATE
 40
2457917.238125
  9
$TDINDWG
 40
0.0000000116
  9
$TDUSRTIMER
 40
0.0000000116
  9
$USRTIMER
 70
     1
  9
$ANGBASE
 50
0.0
  9
$ANGDIR
 70
     0
  9
$PDMODE
 70
     0
  9
$PDSIZE
 40
0.0
  9
$PLINEWID
 40
0.0
  9
$SPLFRAME
 70
     0
  9
$SPLINETYPE
 70
     6
  9
$SPLINESEGS
 70
     8
  9
$HANDSEED
  5
E7
  9
$SURFTAB1
 70
     6
  9
$SURFTAB2
 70
     6
  9
$SURFTYPE
 70
     6
  9
$SURFU
 70
     6
  9
$SURFV
 70
     6
  9
$UCSBASE
  2

  9
$UCSNAME
  2

  9
$UCSORG
 10
0.0
 20
0.0
 30
0.0
  9
$UCSXDIR
 10
1.0
 20
0.0
 30
0.0
  9
$UCSYDIR
 10
0.0
 20
1.0
 30
0.0
  9
$UCSORTHOREF
  2

  9
$UCSORTHOVIEW
 70
     0
  9
$UCSORGTOP
 10
0.0
 20
0.0
 30
0.0
  9
$UCSORGBOTTOM
 10
0.0
 20
0.0
 30
0.0
  9
$UCSORGLEFT
 10
0.0
 20
0.0
 30
0.0
  9
$UCSORGRIGHT
 10
0.0
 20
0.0
 30
0.0
  9
$UCSORGFRONT
 10
0.0
 20
0.0
 30
0.0
  9
$UCSORGBACK
 10
0.0
 20
0.0
 30
0.0
  9
$PUCSBASE
  2

  9
$PUCSNAME
  2

  9
$PUCSORG
 10
0.0
 20
0.0
 30
0.0
  9
$PUCSXDIR
 10
1.0
 20
0.0
 30
0.0
  9
$PUCSYDIR
 10
0.0
 20
1.0
 30
0.0
  9
$PUCSORTHOREF
  2

  9
$PUCSORTHOVIEW
 70
     0
  9
$PUCSORGTOP
 10
0.0
 20
0.0
 30
0.0
  9
$PUCSORGBOTTOM
 10
0.0
 20
0.0
 30
0.0
  9
$PUCSORGLEFT
 10
0.0
 20
0.0
 30
0.0
  9
$PUCSORGRIGHT
 10
0.0
 20
0.0
 30
0.0
  9
$PUCSORGFRONT
 10
0.0
 20
0.0
 30
0.0
  9
$PUCSORGBACK
 10
0.0
 20
0.0
 30
0.0
  9
$USERI1
 70
     0
  9
$USERI2
 70
     0
  9
$USERI3
 70
     0
  9
$USERI4
 70
     0
  9
$USERI5
 70
     0
  9
$USERR1
 40
0.0
  9
$USERR2
 40
0.0
  9
$USERR3
 40
0.0
  9
$USERR4
 40
0.0
  9
$USERR5
 40
0.0
  9
$WORLDVIEW
 70
     1
  9
$SHADEDGE
 70
     3
  9
$SHADEDIF
 70
    70
  9
$TILEMODE
 70
     1
  9
$MAXACTVP
 70
    64
  9
$PINSBASE
 10
0.0
 20
0.0
 30
0.0
  9
$PLIMCHECK
 70
     0
  9
$PEXTMIN
 10
1.000000000000000E+20
 20
1.000000000000000E+20
 30
1.000000000000000E+20
  9
$PEXTMAX
 10
-1.000000000000000E+20
 20
-1.000000000000000E+20
 30
-1.000000000000000E+20
  9
$PLIMMIN
 10
0.0
 20
0.0
  9
$PLIMMAX
 10
12.0
 20
9.0
  9
$UNITMODE
 70
     0
  9
$VISRETAIN
 70
     1
  9
$PLINEGEN
 70
     0
  9
$PSLTSCALE
 70
     1
  9
$TREEDEPTH
 70
  3020
  9
$CMLSTYLE
  2
Standard
  9
$CMLJUST
 70
     0
  9
$CMLSCALE
 40
1.0
  9
$PROXYGRAPHICS
 70
     1
  9
$MEASUREMENT
 70
     0
  9
$CELWEIGHT
370
    -1
  9
$ENDCAPS
280
     0
  9
$JOINSTYLE
280
     0
  9
$LWDISPLAY
290
     1
  9
$INSUNITS
 70
     1
  9
$HYPERLINKBASE
  1

  9
$STYLESHEET
  1

  9
$XEDIT
290
     1
  9
$CEPSNTYPE
380
     0
  9
$PSTYLEMODE
290
     1
  9
$FINGERPRINTGUID
  2
{CA39FBC9-76F5-EB8F-D069-7DB08B128E7F}
  9
$VERSIONGUID
  2
{FAEB1C32-E019-11D5-929B-00C0DF256EC4}
  9
$EXTNAMES
290
     1
  9
$PSVPSCALE
 40
0.0
  9
$OLESTARTUP
290
     0
  9
$SORTENTS
280
   127
  9
$INDEXCTL
280
     0
  9
$HIDETEXT
280
     1
  9
$XCLIPFRAME
280
     2
  9
$HALOGAP
280
     0
  9
$OBSCOLOR
 70
   257
  9
$OBSLTYPE
280
     0
  9
$INTERSECTIONDISPLAY
280
     0
  9
$INTERSECTIONCOLOR
 70
   257
  9
$DIMASSOC
280
     2
  9
$PROJECTNAME
  1

  9
$CAMERADISPLAY
290
     0
  9
$LENSLENGTH
 40
50.0
  9
$CAMERAHEIGHT
 40
0.0
  9
$STEPSPERSEC
 40
2.0
  9
$STEPSIZE
 40
6.0
  9
$3DDWFPREC
 40
2.0
  9
$PSOLWIDTH
 40
0.25
  9
$PSOLHEIGHT
 40
4.0
  9
$LOFTANG1
 40
1.570796326794897
  9
$LOFTANG2
 40
1.570796326794897
  9
$LOFTMAG1
 40
0.0
  9
$LOFTMAG2
 40
0.0
  9
$LOFTPARAM
 70
     7
  9
$LOFTNORMALS
280
     1
  9
$LATITUDE
 40
37.795
  9
$LONGITUDE
 40
-122.394
  9
$NORTHDIRECTION
 40
0.0
  9
$TIMEZONE
 70
 -8000
  9
$LIGHTGLYPHDISPLAY
280
     1
  9
$TILEMODELIGHTSYNCH
280
     1
  9
$CMATERIAL
347
3C
  9
$SOLIDHIST
280
     1
  9
$SHOWHIST
280
     1
  9
$DWFFRAME
280
     2
  9
$DGNFRAME
280
     2
  9
$REALWORLDSCALE
290
     1
  9
$INTERFERECOLOR
 62
   256
  9
$CSHADOW
280
     0
  9
$SHADOWPLANELOCATION
 40
0.0
  0
ENDSEC
  0
SECTION
  2
CLASSES
  0
CLASS
  1
ACDBDICTIONARYWDFLT
  2
AcDbDictionaryWithDefault
  3
ObjectDBX Classes
 90
        0
 91
        4
280
     0
281
     0
  0
CLASS
  1
VISUALSTYLE
  2
AcDbVisualStyle
  3
ObjectDBX Classes
 90
     4095
 91
        4
280
     0
281
     0
  0
CLASS
  1
MATERIAL
  2
AcDbMaterial
  3
ObjectDBX Classes
 90
     1153
 91
        4
280
     0
281
     0
  0
CLASS
  1
SUN
  2
AcDbSun
  3
SCENEOE
 90
     1024
 91
        4
280
     0
281
     0
  0
ENDSEC
  0
SECTION
  2
TABLES
  0
TABLE
  2
VPORT
  5
8
330
0
100
AcDbSymbolTable
 70
     1
  0
VPORT
  5
29
330
8
100
AcDbSymbolTableRecord
100
AcDbViewportTableRecord
  2
*Active
 70
     0
 10
0.0
 20
0.0
 11
1.0
 21
1.0
 12
0.0
 22
0.0
 13
0.0
 23
0.0
 14
0.5
 24
0.5
 15
0.5
 25
0.5
 16
0.0
 26
0.0
 36
1.0
 17
91.00082462281999
 27
-128.4993055234307
 37
0.0
 40
256.9986110468615
 41
0.7081814508812795
 42
50.0
 43
0.0
 44
0.0
 50
0.0
 51
0.0
 71
     0
 72
   100
 73
     1
 74
     3
 75
     0
 76
     0
 77
     0
 78
     0
281
     0
 65
     1
110
0.0
120
0.0
130
0.0
111
1.0
121
0.0
131
0.0
112
0.0
122
1.0
132
0.0
 79
     0
146
0.0
 60
     3
 61
     5
292
     1
282
     1
141
0.0
142
0.0
 63
   250
361
3F
  0
ENDTAB
  0
TABLE
  2
LTYPE
  5
5
330
0
100
AcDbSymbolTable
 70
     1
  0
LTYPE
  5
14
330
5
100
AcDbSymbolTableRecord
100
AcDbLinetypeTableRecord
  2
ByBlock
 70
     0
  3

 72
    65
 73
     0
 40
0.0
  0
LTYPE
  5
15
330
5
100
AcDbSymbolTableRecord
100
AcDbLinetypeTableRecord
  2
ByLayer
 70
     0
  3

 72
    65
 73
     0
 40
0.0
  0
LTYPE
  5
16
330
5
100
AcDbSymbolTableRecord
100
AcDbLinetypeTableRecord
  2
Continuous
 70
     0
  3
Solid line
 72
    65
 73
     0
 40
0.0
  0
ENDTAB
  0
TABLE
  2
LAYER
  5
2
330
0
100
AcDbSymbolTable
 70
     2
  0
LAYER
  5
10
330
2
100
AcDbSymbolTableRecord
100
AcDbLayerTableRecord
  2
0
 70
     0
 62
     7
  6
Continuous
370
    -3
390
F
347
3E
  0
LAYER
  5
40
330
2
100
AcDbSymbolTableRecord
100
AcDbLayerTableRecord
  2
_U+30EC_U+30A4_U+30E4_U+30FC 1
 70
     0
 62
     7
  6
Continuous
370
    -3
390
F
347
3E
  0
ENDTAB
  0
TABLE
  2
STYLE
  5
3
330
0
100
AcDbSymbolTable
 70
     1
  0
STYLE
  5
11
330
3
100
AcDbSymbolTableRecord
100
AcDbTextStyleTableRecord
  2
Standard
 70
     0
 40
0.0
 41
1.0
 50
0.0
 71
     0
 42
0.2
  3
txt
  4

  0
ENDTAB
  0
TABLE
  2
VIEW
  5
6
330
0
100
AcDbSymbolTable
 70
     0
  0
ENDTAB
  0
TABLE
  2
UCS
  5
7
330
0
100
AcDbSymbolTable
 70
     0
  0
ENDTAB
  0
TABLE
  2
APPID
  5
9
330
0
100
AcDbSymbolTable
 70
     1
  0
APPID
  5
12
330
9
100
AcDbSymbolTableRecord
100
AcDbRegAppTableRecord
  2
ACAD
 70
     0
  0
ENDTAB
  0
TABLE
  2
DIMSTYLE
  5
A
330
0
100
AcDbSymbolTable
 70
     1
100
AcDbDimStyleTable
  0
DIMSTYLE
105
27
330
A
100
AcDbSymbolTableRecord
100
AcDbDimStyleTableRecord
  2
Standard
 70
     0
178
     0
340
11
  0
ENDTAB
  0
TABLE
  2
BLOCK_RECORD
  5
1
330
0
100
AcDbSymbolTable
 70
     6
  0
BLOCK_RECORD
  5
1F
330
1
100
AcDbSymbolTableRecord
100
AcDbBlockTableRecord
  2
*Model_Space
340
22
 70
     0
280
     1
281
     0
  0
BLOCK_RECORD
  5
1B
330
1
100
AcDbSymbolTableRecord
100
AcDbBlockTableRecord
  2
*Paper_Space
340
1E
 70
     0
280
     1
281
     0
  0
BLOCK_RECORD
  5
23
330
1
100
AcDbSymbolTableRecord
100
AcDbBlockTableRecord
  2
*Paper_Space0
340
26
 70
     0
280
     1
281
     0
  0
BLOCK_RECORD
  5
8F
330
1
100
AcDbSymbolTableRecord
100
AcDbBlockTableRecord
  2
block 2
340
0
102
{BLKREFS
331
90
102
}
 70
     0
280
     1
281
     0
  0
BLOCK_RECORD
  5
A1
330
1
100
AcDbSymbolTableRecord
100
AcDbBlockTableRecord
  2
block 3
340
0
102
{BLKREFS
331
A2
102
}
 70
     0
280
     1
281
     0
  0
BLOCK_RECORD
  5
AF
330
1
100
AcDbSymbolTableRecord
100
AcDbBlockTableRecord
  2
block 4
340
0
102
{BLKREFS
331
B0
102
}
 70
     0
280
     1
281
     0
  0
BLOCK_RECORD
  5
CC
330
1
100
AcDbSymbolTableRecord
100
AcDbBlockTableRecord
  2
block 5
340
0
102
{BLKREFS
331
CD
102
}
 70
     0
280
     1
281
     0
  0
BLOCK_RECORD
  5
DD
330
1
100
AcDbSymbolTableRecord
100
AcDbBlockTableRecord
  2
block 6
340
0
102
{BLKREFS
331
DE
102
}
 70
     0
280
     1
281
     0
  0
ENDTAB
  0
ENDSEC
  0
SECTION
  2
BLOCKS
  0
BLOCK
  5
20
330
1F
100
AcDbEntity
  8
0
100
AcDbBlockBegin
  2
*Model_Space
 70
     0
 10
0.0
 20
0.0
 30
0.0
  3
*Model_Space
  1

  0
ENDBLK
  5
21
330
1F
100
AcDbEntity
  8
0
100
AcDbBlockEnd
  0
BLOCK
  5
1C
330
1B
100
AcDbEntity
 67
     1
  8
0
100
AcDbBlockBegin
  2
*Paper_Space
 70
     0
 10
0.0
 20
0.0
 30
0.0
  3
*Paper_Space
  1

  0
ENDBLK
  5
1D
330
1B
100
AcDbEntity
 67
     1
  8
0
100
AcDbBlockEnd
  0
BLOCK
  5
24
330
23
100
AcDbEntity
  8
0
100
AcDbBlockBegin
  2
*Paper_Space0
 70
     0
 10
0.0
 20
0.0
 30
0.0
  3
*Paper_Space0
  1

  0
ENDBLK
  5
25
330
23
100
AcDbEntity
  8
0
100
AcDbBlockEnd
  0
BLOCK
  5
91
330
8F
100
AcDbEntity
  8
0
100
AcDbBlockBegin
  2
block 2
 70
     0
 10
0.0
 20
0.0
 30
0.0
  3
block 2
  1

  0
SPLINE
  5
93
330
8F
100
AcDbEntity
  8
_U+30EC_U+30A4_U+30E4_U+30FC 1
370
     0
100
AcDbSpline
210
0.0
220
0.0
230
1.0
 70
    11
 71
     3
 72
    26
 73
    22
 74
     0
 42
0.0000000001
 43
0.0000000001
 12
1.0
 22
0.0
 32
0.0
 13
1.0
 23
0.0
 33
0.0
 40
0.0
 40
0.0
 40
0.0
 40
0.0
 40
1.0
 40
1.0
 40
1.0
 40
2.0
 40
2.0
 40
2.0
 40
3.0
 40
3.0
 40
3.0
 40
4.0
 40
4.0
 40
4.0
 40
5.0
 40
5.0
 40
5.0
 40
6.0
 40
6.0
 40
6.0
 40
7.0
 40
7.0
 40
7.0
 40
7.0
 10
75.12960881368288
 20
-122.8379801125197
 30
0.0
 10
75.12960881368288
 20
-122.8379801125197
 30
0.0
 10
74.02545571066031
 20
-122.8379801125197
 30
0.0
 10
74.02545571066031
 20
-122.8379801125197
 30
0.0
 10
74.02545571066031
 20
-122.8379801125197
 30
0.0
 10
74.02545571066031
 20
-123.1680202600066
 30
0.0
 10
74.02545571066031
 20
-123.1680202600066
 30
0.0
 10
74.02545571066031
 20
-123.1680202600066
 30
0.0
 10
73.87731660479456
 20
-123.1680202600066
 30
0.0
 10
73.87731660479456
 20
-123.1680202600066
 30
0.0
 10
73.86250269420799
 20
-122.8359130552285
 30
0.0
 10
73.69954967775567
 20
-122.7894042661777
 30
0.0
 10
73.58517250764538
 20
-122.7597764450045
 30
0.0
 10
73.58517250764538
 20
-122.7597764450045
 30
0.0
 10
73.58517250764538
 20
-122.6137043964299
 30
0.0
 10
73.58517250764538
 20
-122.6137043964299
 30
0.0
 10
73.58517250764538
 20
-122.6137043964299
 30
0.0
 10
75.12960881368288
 20
-122.6137043964299
 30
0.0
 10
75.12960881368288
 20
-122.6137043964299
 30
0.0
 10
75.12960881368288
 20
-122.6137043964299
 30
0.0
 10
75.12960881368288
 20
-122.8379801125197
 30
0.0
 10
75.12960881368288
 20
-122.8379801125197
 30
0.0
  0
HATCH
  5
94
330
8F
100
AcDbEntity
  8
_U+30EC_U+30A4_U+30E4_U+30FC 1
 62
   179
420
  2234388
100
AcDbHatch
 10
0.0
 20
0.0
 30
0.0
210
0.0
220
0.0
230
1.0
  2
SOLID
 70
     1
 71
     0
 91
        1
 92
        1
 93
        1
 72
     4
 94
        3
 73
     0
 74
     1
 95
       26
 96
       22
 40
0.0
 40
0.0
 40
0.0
 40
0.0
 40
1.0
 40
1.0
 40
1.0
 40
2.0
 40
2.0
 40
2.0
 40
3.0
 40
3.0
 40
3.0
 40
4.0
 40
4.0
 40
4.0
 40
5.0
 40
5.0
 40
5.0
 40
6.0
 40
6.0
 40
6.0
 40
7.0
 40
7.0
 40
7.0
 40
7.0
 10
75.12960881368288
 20
-122.8379801125197
 10
75.12960881368288
 20
-122.8379801125197
 10
74.02545571066031
 20
-122.8379801125197
 10
74.02545571066031
 20
-122.8379801125197
 10
74.02545571066031
 20
-122.8379801125197
 10
74.02545571066031
 20
-123.1680202600066
 10
74.02545571066031
 20
-123.1680202600066
 10
74.02545571066031
 20
-123.1680202600066
 10
73.87731660479456
 20
-123.1680202600066
 10
73.87731660479456
 20
-123.1680202600066
 10
73.86250269420799
 20
-122.8359130552285
 10
73.69954967775567
 20
-122.7894042661777
 10
73.58517250764538
 20
-122.7597764450045
 10
73.58517250764538
 20
-122.7597764450045
 10
73.58517250764538
 20
-122.6137043964299
 10
73.58517250764538
 20
-122.6137043964299
 10
73.58517250764538
 20
-122.6137043964299
 10
75.12960881368288
 20
-122.6137043964299
 10
75.12960881368288
 20
-122.6137043964299
 10
75.12960881368288
 20
-122.6137043964299
 10
75.12960881368288
 20
-122.8379801125197
 10
75.12960881368288
 20
-122.8379801125197
 97
        0
 97
        0
 75
     2
 76
     1
 98
        0
  0
ENDBLK
  5
92
330
8F
100
AcDbEntity
  8
0
100
AcDbBlockEnd
  0
BLOCK
  5
A3
330
A1
100
AcDbEntity
  8
0
100
AcDbBlockBegin
  2
block 3
 70
     0
 10
0.0
 20
0.0
 30
0.0
  3
block 3
  1

  0
SPLINE
  5
A5
330
A1
100
AcDbEntity
  8
_U+30EC_U+30A4_U+30E4_U+30FC 1
370
     0
100
AcDbSpline
210
0.0
220
0.0
230
1.0
 70
    11
 71
     3
 72
    62
 73
    58
 74
     0
 42
0.0000000001
 43
0.0000000001
 12
1.0
 22
0.0
 32
0.0
 13
1.0
 23
0.0
 33
0.0
 40
0.0
 40
0.0
 40
0.0
 40
0.0
 40
1.0
 40
1.0
 40
1.0
 40
2.0
 40
2.0
 40
2.0
 40
3.0
 40
3.0
 40
3.0
 40
4.0
 40
4.0
 40
4.0
 40
5.0
 40
5.0
 40
5.0
 40
6.0
 40
6.0
 40
6.0
 40
7.0
 40
7.0
 40
7.0
 40
8.0
 40
8.0
 40
8.0
 40
9.0
 40
9.0
 40
9.0
 40
10.0
 40
10.0
 40
10.0
 40
11.0
 40
11.0
 40
11.0
 40
12.0
 40
12.0
 40
12.0
 40
13.0
 40
13.0
 40
13.0
 40
14.0
 40
14.0
 40
14.0
 40
15.0
 40
15.0
 40
15.0
 40
16.0
 40
16.0
 40
16.0
 40
17.0
 40
17.0
 40
17.0
 40
18.0
 40
18.0
 40
18.0
 40
19.0
 40
19.0
 40
19.0
 40
19.0
 10
108.1801323514272
 20
-130.3255506401617
 30
0.0
 10
108.1801323514272
 20
-130.4209797851031
 30
0.0
 10
108.1591172689672
 20
-130.6387098197709
 30
0.0
 10
107.9730821127637
 20
-130.7637667858855
 30
0.0
 10
107.8607719999445
 20
-130.8378363388183
 30
0.0
 10
107.7615532499693
 20
-130.8419704534006
 30
0.0
 10
107.6768039010322
 20
-130.8461045679829
 30
0.0
 10
107.6768039010322
 20
-130.8461045679829
 30
0.0
 10
107.6768039010322
 20
-130.6259629664755
 30
0.0
 10
107.6768039010322
 20
-130.6259629664755
 30
0.0
 10
107.7508734539651
 20
-130.6238959091843
 30
0.0
 10
107.9854844565106
 20
-130.6135606227286
 30
0.0
 10
107.9854844565106
 20
-130.3300292642925
 30
0.0
 10
107.9854844565106
 20
-130.192569954431
 30
0.0
 10
107.9158935277085
 20
-130.0399522244345
 30
0.0
 10
107.6874836970365
 20
-130.0399522244345
 30
0.0
 10
107.571039469635
 20
-130.0399522244345
 30
0.0
 10
107.522463623293
 20
-130.0781927843207
 30
0.0
 10
107.4907687448287
 20
-130.109887662785
 30
0.0
 10
107.4166991918958
 20
-130.1839572157179
 30
0.0
 10
107.4039523386004
 20
-130.3004014431193
 30
0.0
 10
107.4039523386004
 20
-130.3551784613348
 30
0.0
 10
107.4039523386004
 20
-130.3744709960522
 30
0.0
 10
107.4060193958916
 20
-130.4102999890988
 30
0.0
 10
107.4101535104739
 20
-130.4378607529808
 30
0.0
 10
107.4101535104739
 20
-130.4378607529808
 30
0.0
 10
107.2155056155572
 20
-130.4378607529808
 30
0.0
 10
107.2155056155572
 20
-130.4378607529808
 30
0.0
 10
107.2220512969792
 20
-130.3996201930945
 30
0.0
 10
107.2241183542704
 20
-130.3575900281745
 30
0.0
 10
107.2241183542704
 20
-130.3510443467525
 30
0.0
 10
107.2241183542704
 20
-130.2855875325328
 30
0.0
 10
107.2027587622618
 20
-130.0868055230339
 30
0.0
 10
106.9660807024251
 20
-130.0868055230339
 30
0.0
 10
106.7883137753863
 20
-130.0868055230339
 30
0.0
 10
106.7331922476223
 20
-130.2177191514733
 30
0.0
 10
106.7331922476223
 20
-130.3279622070013
 30
0.0
 10
106.7331922476223
 20
-130.59220103072
 30
0.0
 10
106.9660807024251
 20
-130.6008137694331
 30
0.0
 10
107.0377386885183
 20
-130.6049478840154
 30
0.0
 10
107.0377386885183
 20
-130.6049478840154
 30
0.0
 10
107.0377386885183
 20
-130.8082085176452
 30
0.0
 10
107.0377386885183
 20
-130.8082085176452
 30
0.0
 10
106.9130262319523
 20
-130.7995957789321
 30
0.0
 10
106.5364772954145
 20
-130.7720350150501
 30
0.0
 10
106.5364772954145
 20
-130.3152153537059
 30
0.0
 10
106.5364772954145
 20
-130.0909396376162
 30
0.0
 10
106.6636013188202
 20
-129.8497829536487
 30
0.0
 10
106.9595350210032
 20
-129.8497829536487
 30
0.0
 10
107.1459146867552
 20
-129.8497829536487
 30
0.0
 10
107.2282524688527
 20
-129.9448675890416
 30
0.0
 10
107.2895751684901
 20
-130.0444308485653
 30
0.0
 10
107.3171359323721
 20
-129.9831081489278
 30
0.0
 10
107.3974066571784
 20
-129.8012071073067
 30
0.0
 10
107.674736843741
 20
-129.8012071073067
 30
0.0
 10
108.0130452203926
 20
-129.8012071073067
 30
0.0
 10
108.1801323514272
 20
-130.0485649631476
 30
0.0
 10
108.1801323514272
 20
-130.3255506401617
 30
0.0
  0
HATCH
  5
A6
330
A1
100
AcDbEntity
  8
_U+30EC_U+30A4_U+30E4_U+30FC 1
 62
   179
420
  2234388
100
AcDbHatch
 10
0.0
 20
0.0
 30
0.0
210
0.0
220
0.0
230
1.0
  2
SOLID
 70
     1
 71
     0
 91
        1
 92
        1
 93
        1
 72
     4
 94
        3
 73
     0
 74
     1
 95
       62
 96
       58
 40
0.0
 40
0.0
 40
0.0
 40
0.0
 40
1.0
 40
1.0
 40
1.0
 40
2.0
 40
2.0
 40
2.0
 40
3.0
 40
3.0
 40
3.0
 40
4.0
 40
4.0
 40
4.0
 40
5.0
 40
5.0
 40
5.0
 40
6.0
 40
6.0
 40
6.0
 40
7.0
 40
7.0
 40
7.0
 40
8.0
 40
8.0
 40
8.0
 40
9.0
 40
9.0
 40
9.0
 40
10.0
 40
10.0
 40
10.0
 40
11.0
 40
11.0
 40
11.0
 40
12.0
 40
12.0
 40
12.0
 40
13.0
 40
13.0
 40
13.0
 40
14.0
 40
14.0
 40
14.0
 40
15.0
 40
15.0
 40
15.0
 40
16.0
 40
16.0
 40
16.0
 40
17.0
 40
17.0
 40
17.0
 40
18.0
 40
18.0
 40
18.0
 40
19.0
 40
19.0
 40
19.0
 40
19.0
 10
108.1801323514272
 20
-130.3255506401617
 10
108.1801323514272
 20
-130.4209797851031
 10
108.1591172689672
 20
-130.6387098197709
 10
107.9730821127637
 20
-130.7637667858855
 10
107.8607719999445
 20
-130.8378363388183
 10
107.7615532499693
 20
-130.8419704534006
 10
107.6768039010322
 20
-130.8461045679829
 10
107.6768039010322
 20
-130.8461045679829
 10
107.6768039010322
 20
-130.6259629664755
 10
107.6768039010322
 20
-130.6259629664755
 10
107.7508734539651
 20
-130.6238959091843
 10
107.9854844565106
 20
-130.6135606227286
 10
107.9854844565106
 20
-130.3300292642925
 10
107.9854844565106
 20
-130.192569954431
 10
107.9158935277085
 20
-130.0399522244345
 10
107.6874836970365
 20
-130.0399522244345
 10
107.571039469635
 20
-130.0399522244345
 10
107.522463623293
 20
-130.0781927843207
 10
107.4907687448287
 20
-130.109887662785
 10
107.4166991918958
 20
-130.1839572157179
 10
107.4039523386004
 20
-130.3004014431193
 10
107.4039523386004
 20
-130.3551784613348
 10
107.4039523386004
 20
-130.3744709960522
 10
107.4060193958916
 20
-130.4102999890988
 10
107.4101535104739
 20
-130.4378607529808
 10
107.4101535104739
 20
-130.4378607529808
 10
107.2155056155572
 20
-130.4378607529808
 10
107.2155056155572
 20
-130.4378607529808
 10
107.2220512969792
 20
-130.3996201930945
 10
107.2241183542704
 20
-130.3575900281745
 10
107.2241183542704
 20
-130.3510443467525
 10
107.2241183542704
 20
-130.2855875325328
 10
107.2027587622618
 20
-130.0868055230339
 10
106.9660807024251
 20
-130.0868055230339
 10
106.7883137753863
 20
-130.0868055230339
 10
106.7331922476223
 20
-130.2177191514733
 10
106.7331922476223
 20
-130.3279622070013
 10
106.7331922476223
 20
-130.59220103072
 10
106.9660807024251
 20
-130.6008137694331
 10
107.0377386885183
 20
-130.6049478840154
 10
107.0377386885183
 20
-130.6049478840154
 10
107.0377386885183
 20
-130.8082085176452
 10
107.0377386885183
 20
-130.8082085176452
 10
106.9130262319523
 20
-130.7995957789321
 10
106.5364772954145
 20
-130.7720350150501
 10
106.5364772954145
 20
-130.3152153537059
 10
106.5364772954145
 20
-130.0909396376162
 10
106.6636013188202
 20
-129.8497829536487
 10
106.9595350210032
 20
-129.8497829536487
 10
107.1459146867552
 20
-129.8497829536487
 10
107.2282524688527
 20
-129.9448675890416
 10
107.2895751684901
 20
-130.0444308485653
 10
107.3171359323721
 20
-129.9831081489278
 10
107.3974066571784
 20
-129.8012071073067
 10
107.674736843741
 20
-129.8012071073067
 10
108.0130452203926
 20
-129.8012071073067
 10
108.1801323514272
 20
-130.0485649631476
 10
108.1801323514272
 20
-130.3255506401617
 97
        0
 97
        0
 75
     2
 76
     1
 98
        0
  0
ENDBLK
  5
A4
330
A1
100
AcDbEntity
  8
0
100
AcDbBlockEnd
  0
BLOCK
  5
B1
330
AF
100
AcDbEntity
  8
0
100
AcDbBlockBegin
  2
block 4
 70
     0
 10
0.0
 20
0.0
 30
0.0
  3
block 4
  1

  0
SPLINE
  5
B3
330
AF
100
AcDbEntity
  8
_U+30EC_U+30A4_U+30E4_U+30FC 1
370
     0
100
AcDbSpline
210
0.0
220
0.0
230
1.0
 70
    11
 71
     3
 72
    32
 73
    28
 74
     0
 42
0.0000000001
 43
0.0000000001
 12
1.0
 22
0.0
 32
0.0
 13
1.0
 23
0.0
 33
0.0
 40
0.0
 40
0.0
 40
0.0
 40
0.0
 40
1.0
 40
1.0
 40
1.0
 40
2.0
 40
2.0
 40
2.0
 40
3.0
 40
3.0
 40
3.0
 40
4.0
 40
4.0
 40
4.0
 40
5.0
 40
5.0
 40
5.0
 40
6.0
 40
6.0
 40
6.0
 40
7.0
 40
7.0
 40
7.0
 40
8.0
 40
8.0
 40
8.0
 40
9.0
 40
9.0
 40
9.0
 40
9.0
 10
108.1801323514272
 20
-126.4253580413103
 30
0.0
 10
108.1801323514272
 20
-126.9414333450008
 30
0.0
 10
107.626160997399
 20
-126.9497015741654
 30
0.0
 10
107.412220567765
 20
-126.9497015741654
 30
0.0
 10
107.1817436798018
 20
-126.9497015741654
 30
0.0
 10
106.5344102381233
 20
-126.9307535489965
 30
0.0
 10
106.5344102381233
 20
-126.3871174814241
 30
0.0
 10
106.5344102381233
 20
-126.213829178516
 30
0.0
 10
106.6043456764739
 20
-125.9681938704177
 30
0.0
 10
106.936452881252
 20
-125.9302978200799
 30
0.0
 10
106.936452881252
 20
-125.9302978200799
 30
0.0
 10
106.936452881252
 20
-126.1438937401654
 30
0.0
 10
106.936452881252
 20
-126.1438937401654
 30
0.0
 10
106.8792642961969
 20
-126.1545735361697
 30
0.0
 10
106.7311251903311
 20
-126.186268414634
 30
0.0
 10
106.7311251903311
 20
-126.3891845387152
 30
0.0
 10
106.7311251903311
 20
-126.6813286358644
 30
0.0
 10
107.0590982805269
 20
-126.7212917434933
 30
0.0
 10
107.2640814618993
 20
-126.7340385967887
 30
0.0
 10
107.1858777943841
 20
-126.641021018687
 30
0.0
 10
107.1266221520378
 20
-126.5731526376275
 30
0.0
 10
107.1266221520378
 20
-126.3912515960064
 30
0.0
 10
107.1266221520378
 20
-126.2114176116763
 30
0.0
 10
107.2347981502746
 20
-125.9089382280714
 30
0.0
 10
107.6409749079856
 20
-125.9089382280714
 30
0.0
 10
107.9603352594683
 20
-125.9089382280714
 30
0.0
 10
108.1801323514272
 20
-126.1080647471188
 30
0.0
 10
108.1801323514272
 20
-126.4253580413103
 30
0.0
  0
SPLINE
  5
B4
330
AF
100
AcDbEntity
  8
_U+30EC_U+30A4_U+30E4_U+30FC 1
370
     0
100
AcDbSpline
210
0.0
220
0.0
230
1.0
 70
    11
 71
     3
 72
    17
 73
    13
 74
     0
 42
0.0000000001
 43
0.0000000001
 12
1.0
 22
0.0
 32
0.0
 13
1.0
 23
0.0
 33
0.0
 40
0.0
 40
0.0
 40
0.0
 40
0.0
 40
1.0
 40
1.0
 40
1.0
 40
2.0
 40
2.0
 40
2.0
 40
3.0
 40
3.0
 40
3.0
 40
4.0
 40
4.0
 40
4.0
 40
4.0
 10
107.3212700469544
 20
-126.4081325638841
 30
0.0
 10
107.3212700469544
 20
-126.6706488398601
 30
0.0
 10
107.5327989097487
 20
-126.7085448901979
 30
0.0
 10
107.6492431371502
 20
-126.7085448901979
 30
0.0
 10
107.8249430068979
 20
-126.7085448901979
 30
0.0
 10
107.9878960233503
 20
-126.613460254805
 30
0.0
 10
107.9878960233503
 20
-126.4294921558926
 30
0.0
 10
107.9878960233503
 20
-126.3089138139089
 30
0.0
 10
107.928640381004
 20
-126.1332139441611
 30
0.0
 10
107.6430419652768
 20
-126.1332139441611
 30
0.0
 10
107.418766249187
 20
-126.1332139441611
 30
0.0
 10
107.3212700469544
 20
-126.2730848208623
 30
0.0
 10
107.3212700469544
 20
-126.4081325638841
 30
0.0
  0
HATCH
  5
B5
330
AF
100
AcDbEntity
  8
_U+30EC_U+30A4_U+30E4_U+30FC 1
 62
   179
420
  2234388
100
AcDbHatch
 10
0.0
 20
0.0
 30
0.0
210
0.0
220
0.0
230
1.0
  2
SOLID
 70
     1
 71
     0
 91
        2
 92
        1
 93
        1
 72
     4
 94
        3
 73
     0
 74
     1
 95
       32
 96
       28
 40
0.0
 40
0.0
 40
0.0
 40
0.0
 40
1.0
 40
1.0
 40
1.0
 40
2.0
 40
2.0
 40
2.0
 40
3.0
 40
3.0
 40
3.0
 40
4.0
 40
4.0
 40
4.0
 40
5.0
 40
5.0
 40
5.0
 40
6.0
 40
6.0
 40
6.0
 40
7.0
 40
7.0
 40
7.0
 40
8.0
 40
8.0
 40
8.0
 40
9.0
 40
9.0
 40
9.0
 40
9.0
 10
108.1801323514272
 20
-126.4253580413103
 10
108.1801323514272
 20
-126.9414333450008
 10
107.626160997399
 20
-126.9497015741654
 10
107.412220567765
 20
-126.9497015741654
 10
107.1817436798018
 20
-126.9497015741654
 10
106.5344102381233
 20
-126.9307535489965
 10
106.5344102381233
 20
-126.3871174814241
 10
106.5344102381233
 20
-126.213829178516
 10
106.6043456764739
 20
-125.9681938704177
 10
106.936452881252
 20
-125.9302978200799
 10
106.936452881252
 20
-125.9302978200799
 10
106.936452881252
 20
-126.1438937401654
 10
106.936452881252
 20
-126.1438937401654
 10
106.8792642961969
 20
-126.1545735361697
 10
106.7311251903311
 20
-126.186268414634
 10
106.7311251903311
 20
-126.3891845387152
 10
106.7311251903311
 20
-126.6813286358644
 10
107.0590982805269
 20
-126.7212917434933
 10
107.2640814618993
 20
-126.7340385967887
 10
107.1858777943841
 20
-126.641021018687
 10
107.1266221520378
 20
-126.5731526376275
 10
107.1266221520378
 20
-126.3912515960064
 10
107.1266221520378
 20
-126.2114176116763
 10
107.2347981502746
 20
-125.9089382280714
 10
107.6409749079856
 20
-125.9089382280714
 10
107.9603352594683
 20
-125.9089382280714
 10
108.1801323514272
 20
-126.1080647471188
 10
108.1801323514272
 20
-126.4253580413103
 97
        0
 97
        0
 92
        1
 93
        1
 72
     4
 94
        3
 73
     0
 74
     1
 95
       17
 96
       13
 40
0.0
 40
0.0
 40
0.0
 40
0.0
 40
1.0
 40
1.0
 40
1.0
 40
2.0
 40
2.0
 40
2.0
 40
3.0
 40
3.0
 40
3.0
 40
4.0
 40
4.0
 40
4.0
 40
4.0
 10
107.3212700469544
 20
-126.4081325638841
 10
107.3212700469544
 20
-126.6706488398601
 10
107.5327989097487
 20
-126.7085448901979
 10
107.6492431371502
 20
-126.7085448901979
 10
107.8249430068979
 20
-126.7085448901979
 10
107.9878960233503
 20
-126.613460254805
 10
107.9878960233503
 20
-126.4294921558926
 10
107.9878960233503
 20
-126.3089138139089
 10
107.928640381004
 20
-126.1332139441611
 10
107.6430419652768
 20
-126.1332139441611
 10
107.418766249187
 20
-126.1332139441611
 10
107.3212700469544
 20
-126.2730848208623
 10
107.3212700469544
 20
-126.4081325638841
 97
        0
 97
        0
 75
     2
 76
     1
 98
        0
  0
POLYLINE
  5
B6
330
AF
100
AcDbEntity
  8
_U+30EC_U+30A4_U+30E4_U+30FC 1
370
     0
100
AcDb2dPolyline
 66
     1
 10
0.0
 20
0.0
 30
0.0
  0
VERTEX
  5
B7
330
B6
100
AcDbEntity
  8
_U+30EC_U+30A4_U+30E4_U+30FC 1
370
     0
100
AcDbVertex
100
AcDb2dVertex
 10
108.129489447794
 20
-125.6925862315977
 30
0.0
  0
VERTEX
  5
B8
330
B6
100
AcDbEntity
  8
_U+30EC_U+30A4_U+30E4_U+30FC 1
370
     0
100
AcDbVertex
100
AcDb2dVertex
 10
107.8776529678223
 20
-125.6925862315977
 30
0.0
  0
VERTEX
  5
B9
330
B6
100
AcDbEntity
  8
_U+30EC_U+30A4_U+30E4_U+30FC 1
370
     0
100
AcDbVertex
100
AcDb2dVertex
 10
107.8776529678223
 20
-125.4407497516259
 30
0.0
  0
VERTEX
  5
BA
330
B6
100
AcDbEntity
  8
_U+30EC_U+30A4_U+30E4_U+30FC 1
370
     0
100
AcDbVertex
100
AcDb2dVertex
 10
108.129489447794
 20
-125.4407497516259
 30
0.0
  0
VERTEX
  5
BB
330
B6
100
AcDbEntity
  8
_U+30EC_U+30A4_U+30E4_U+30FC 1
370
     0
100
AcDbVertex
100
AcDb2dVertex
 10
108.129489447794
 20
-125.6925862315977
 30
0.0
  0
SEQEND
  5
BC
330
B6
100
AcDbEntity
  8
_U+30EC_U+30A4_U+30E4_U+30FC 1
370
     0
  0
HATCH
  5
BD
330
AF
100
AcDbEntity
  8
_U+30EC_U+30A4_U+30E4_U+30FC 1
 62
   179
420
  2234388
100
AcDbHatch
 10
0.0
 20
0.0
 30
0.0
210
0.0
220
0.0
230
1.0
  2
SOLID
 70
     1
 71
     0
 91
        1
 92
        1
 93
        4
 72
     1
 10
108.129489447794
 20
-125.6925862315977
 11
107.8776529678223
 21
-125.6925862315977
 72
     1
 10
107.8776529678223
 20
-125.6925862315977
 11
107.8776529678223
 21
-125.4407497516259
 72
     1
 10
107.8776529678223
 20
-125.4407497516259
 11
108.129489447794
 21
-125.4407497516259
 72
     1
 10
108.129489447794
 20
-125.4407497516259
 11
108.129489447794
 21
-125.6925862315977
 97
        0
 75
     2
 76
     1
 98
        0
  0
SPLINE
  5
BE
330
AF
100
AcDbEntity
  8
_U+30EC_U+30A4_U+30E4_U+30FC 1
370
     0
100
AcDbSpline
210
0.0
220
0.0
230
1.0
 70
    11
 71
     3
 72
    53
 73
    49
 74
     0
 42
0.0000000001
 43
0.0000000001
 12
1.0
 22
0.0
 32
0.0
 13
1.0
 23
0.0
 33
0.0
 40
0.0
 40
0.0
 40
0.0
 40
0.0
 40
1.0
 40
1.0
 40
1.0
 40
2.0
 40
2.0
 40
2.0
 40
3.0
 40
3.0
 40
3.0
 40
4.0
 40
4.0
 40
4.0
 40
5.0
 40
5.0
 40
5.0
 40
6.0
 40
6.0
 40
6.0
 40
7.0
 40
7.0
 40
7.0
 40
8.0
 40
8.0
 40
8.0
 40
9.0
 40
9.0
 40
9.0
 40
10.0
 40
10.0
 40
10.0
 40
11.0
 40
11.0
 40
11.0
 40
12.0
 40
12.0
 40
12.0
 40
13.0
 40
13.0
 40
13.0
 40
14.0
 40
14.0
 40
14.0
 40
15.0
 40
15.0
 40
15.0
 40
16.0
 40
16.0
 40
16.0
 40
16.0
 10
108.1801323514272
 20
-124.7234808715969
 30
0.0
 10
108.1801323514272
 20
-124.8016845391121
 30
0.0
 10
108.1632513835495
 20
-124.903314855927
 30
0.0
 10
108.0998616266209
 20
-125.0049451727418
 30
0.0
 10
107.9899630806414
 20
-125.1782334756499
 30
0.0
 10
107.8587049426534
 20
-125.1995930676584
 30
0.0
 10
107.7508734539651
 20
-125.2185410928273
 30
0.0
 10
107.7508734539651
 20
-125.2185410928273
 30
0.0
 10
107.7508734539651
 20
-124.9963324340287
 30
0.0
 10
107.7508734539651
 20
-124.9963324340287
 30
0.0
 10
107.949655463464
 20
-124.9415554158132
 30
0.0
 10
107.9792832846371
 20
-124.8144313924075
 30
0.0
 10
107.9792832846371
 20
-124.7214138143058
 30
0.0
 10
107.9792832846371
 20
-124.5818874471532
 30
0.0
 10
107.8797200251134
 20
-124.4296142267051
 30
0.0
 10
107.6471760798591
 20
-124.4296142267051
 30
0.0
 10
107.391205485305
 20
-124.4296142267051
 30
0.0
 10
107.3212700469544
 20
-124.6094482110351
 30
0.0
 10
107.3212700469544
 20
-124.7300265530189
 30
0.0
 10
107.3212700469544
 20
-124.7617214314832
 30
0.0
 10
107.3212700469544
 20
-124.903314855927
 30
0.0
 10
107.4504611276513
 20
-124.9921983194464
 30
0.0
 10
107.4504611276513
 20
-124.9921983194464
 30
0.0
 10
107.4315131024824
 20
-125.1678981891941
 30
0.0
 10
107.4315131024824
 20
-125.1678981891941
 30
0.0
 10
107.4315131024824
 20
-125.1678981891941
 30
0.0
 10
106.5850531417565
 20
-125.0473198472104
 30
0.0
 10
106.5850531417565
 20
-125.0473198472104
 30
0.0
 10
106.5850531417565
 20
-125.0473198472104
 30
0.0
 10
106.5850531417565
 20
-124.2687282675439
 30
0.0
 10
106.5850531417565
 20
-124.2687282675439
 30
0.0
 10
106.5850531417565
 20
-124.2687282675439
 30
0.0
 10
106.7797010366731
 20
-124.2687282675439
 30
0.0
 10
106.7797010366731
 20
-124.2687282675439
 30
0.0
 10
106.7797010366731
 20
-124.2687282675439
 30
0.0
 10
106.7797010366731
 20
-124.8843668307581
 30
0.0
 10
106.7797010366731
 20
-124.8843668307581
 30
0.0
 10
106.7797010366731
 20
-124.8843668307581
 30
0.0
 10
107.2027587622618
 20
-124.9498236449778
 30
0.0
 10
107.2027587622618
 20
-124.9498236449778
 30
0.0
 10
107.1689968265064
 20
-124.8885009453404
 30
0.0
 10
107.1286892093289
 20
-124.8061631632429
 30
0.0
 10
107.1286892093289
 20
-124.6876518785503
 30
0.0
 10
107.1286892093289
 20
-124.4337483412874
 30
0.0
 10
107.315068875081
 20
-124.1967257719022
 30
0.0
 10
107.6282280546902
 20
-124.1967257719022
 30
0.0
 10
107.9455213488817
 20
-124.1967257719022
 30
0.0
 10
108.1801323514272
 20
-124.421001487992
 30
0.0
 10
108.1801323514272
 20
-124.7234808715969
 30
0.0
  0
HATCH
  5
BF
330
AF
100
AcDbEntity
  8
_U+30EC_U+30A4_U+30E4_U+30FC 1
 62
   179
420
  2234388
100
AcDbHatch
 10
0.0
 20
0.0
 30
0.0
210
0.0
220
0.0
230
1.0
  2
SOLID
 70
     1
 71
     0
 91
        1
 92
        1
 93
        1
 72
     4
 94
        3
 73
     0
 74
     1
 95
       53
 96
       49
 40
0.0
 40
0.0
 40
0.0
 40
0.0
 40
1.0
 40
1.0
 40
1.0
 40
2.0
 40
2.0
 40
2.0
 40
3.0
 40
3.0
 40
3.0
 40
4.0
 40
4.0
 40
4.0
 40
5.0
 40
5.0
 40
5.0
 40
6.0
 40
6.0
 40
6.0
 40
7.0
 40
7.0
 40
7.0
 40
8.0
 40
8.0
 40
8.0
 40
9.0
 40
9.0
 40
9.0
 40
10.0
 40
10.0
 40
10.0
 40
11.0
 40
11.0
 40
11.0
 40
12.0
 40
12.0
 40
12.0
 40
13.0
 40
13.0
 40
13.0
 40
14.0
 40
14.0
 40
14.0
 40
15.0
 40
15.0
 40
15.0
 40
16.0
 40
16.0
 40
16.0
 40
16.0
 10
108.1801323514272
 20
-124.7234808715969
 10
108.1801323514272
 20
-124.8016845391121
 10
108.1632513835495
 20
-124.903314855927
 10
108.0998616266209
 20
-125.0049451727418
 10
107.9899630806414
 20
-125.1782334756499
 10
107.8587049426534
 20
-125.1995930676584
 10
107.7508734539651
 20
-125.2185410928273
 10
107.7508734539651
 20
-125.2185410928273
 10
107.7508734539651
 20
-124.9963324340287
 10
107.7508734539651
 20
-124.9963324340287
 10
107.949655463464
 20
-124.9415554158132
 10
107.9792832846371
 20
-124.8144313924075
 10
107.9792832846371
 20
-124.7214138143058
 10
107.9792832846371
 20
-124.5818874471532
 10
107.8797200251134
 20
-124.4296142267051
 10
107.6471760798591
 20
-124.4296142267051
 10
107.391205485305
 20
-124.4296142267051
 10
107.3212700469544
 20
-124.6094482110351
 10
107.3212700469544
 20
-124.7300265530189
 10
107.3212700469544
 20
-124.7617214314832
 10
107.3212700469544
 20
-124.903314855927
 10
107.4504611276513
 20
-124.9921983194464
 10
107.4504611276513
 20
-124.9921983194464
 10
107.4315131024824
 20
-125.1678981891941
 10
107.4315131024824
 20
-125.1678981891941
 10
107.4315131024824
 20
-125.1678981891941
 10
106.5850531417565
 20
-125.0473198472104
 10
106.5850531417565
 20
-125.0473198472104
 10
106.5850531417565
 20
-125.0473198472104
 10
106.5850531417565
 20
-124.2687282675439
 10
106.5850531417565
 20
-124.2687282675439
 10
106.5850531417565
 20
-124.2687282675439
 10
106.7797010366731
 20
-124.2687282675439
 10
106.7797010366731
 20
-124.2687282675439
 10
106.7797010366731
 20
-124.2687282675439
 10
106.7797010366731
 20
-124.8843668307581
 10
106.7797010366731
 20
-124.8843668307581
 10
106.7797010366731
 20
-124.8843668307581
 10
107.2027587622618
 20
-124.9498236449778
 10
107.2027587622618
 20
-124.9498236449778
 10
107.1689968265064
 20
-124.8885009453404
 10
107.1286892093289
 20
-124.8061631632429
 10
107.1286892093289
 20
-124.6876518785503
 10
107.1286892093289
 20
-124.4337483412874
 10
107.315068875081
 20
-124.1967257719022
 10
107.6282280546902
 20
-124.1967257719022
 10
107.9455213488817
 20
-124.1967257719022
 10
108.1801323514272
 20
-124.421001487992
 10
108.1801323514272
 20
-124.7234808715969
 97
        0
 97
        0
 75
     2
 76
     1
 98
        0
  0
ENDBLK
  5
B2
330
AF
100
AcDbEntity
  8
0
100
AcDbBlockEnd
  0
BLOCK
  5
CE
330
CC
100
AcDbEntity
  8
0
100
AcDbBlockBegin
  2
block 5
 70
     0
 10
0.0
 20
0.0
 30
0.0
  3
block 5
  1

  0
SPLINE
  5
D0
330
CC
100
AcDbEntity
  8
_U+30EC_U+30A4_U+30E4_U+30FC 1
370
     0
100
AcDbSpline
210
0.0
220
0.0
230
1.0
 70
    11
 71
     3
 72
    26
 73
    22
 74
     0
 42
0.0000000001
 43
0.0000000001
 12
1.0
 22
0.0
 32
0.0
 13
1.0
 23
0.0
 33
0.0
 40
0.0
 40
0.0
 40
0.0
 40
0.0
 40
1.0
 40
1.0
 40
1.0
 40
2.0
 40
2.0
 40
2.0
 40
3.0
 40
3.0
 40
3.0
 40
4.0
 40
4.0
 40
4.0
 40
5.0
 40
5.0
 40
5.0
 40
6.0
 40
6.0
 40
6.0
 40
7.0
 40
7.0
 40
7.0
 40
7.0
 10
99.13813474084047
 20
-135.1710774401656
 30
0.0
 10
99.13813474084047
 20
-135.1710774401656
 30
0.0
 10
99.13813474084047
 20
-134.066924337143
 30
0.0
 10
99.13813474084047
 20
-134.066924337143
 30
0.0
 10
99.13813474084047
 20
-134.066924337143
 30
0.0
 10
98.80809459335353
 20
-134.066924337143
 30
0.0
 10
98.80809459335353
 20
-134.066924337143
 30
0.0
 10
98.80809459335353
 20
-134.066924337143
 30
0.0
 10
98.80809459335353
 20
-133.9187852312772
 30
0.0
 10
98.80809459335353
 20
-133.9187852312772
 30
0.0
 10
99.14020179813163
 20
-133.9039713206907
 30
0.0
 10
99.18671058718249
 20
-133.7410183042384
 30
0.0
 10
99.21633840835564
 20
-133.6266411341281
 30
0.0
 10
99.21633840835564
 20
-133.6266411341281
 30
0.0
 10
99.36241045693023
 20
-133.6266411341281
 30
0.0
 10
99.36241045693023
 20
-133.6266411341281
 30
0.0
 10
99.36241045693023
 20
-133.6266411341281
 30
0.0
 10
99.36241045693023
 20
-135.1710774401656
 30
0.0
 10
99.36241045693023
 20
-135.1710774401656
 30
0.0
 10
99.36241045693023
 20
-135.1710774401656
 30
0.0
 10
99.13813474084047
 20
-135.1710774401656
 30
0.0
 10
99.13813474084047
 20
-135.1710774401656
 30
0.0
  0
HATCH
  5
D1
330
CC
100
AcDbEntity
  8
_U+30EC_U+30A4_U+30E4_U+30FC 1
 62
   179
420
  2234388
100
AcDbHatch
 10
0.0
 20
0.0
 30
0.0
210
0.0
220
0.0
230
1.0
  2
SOLID
 70
     1
 71
     0
 91
        1
 92
        1
 93
        1
 72
     4
 94
        3
 73
     0
 74
     1
 95
       26
 96
       22
 40
0.0
 40
0.0
 40
0.0
 40
0.0
 40
1.0
 40
1.0
 40
1.0
 40
2.0
 40
2.0
 40
2.0
 40
3.0
 40
3.0
 40
3.0
 40
4.0
 40
4.0
 40
4.0
 40
5.0
 40
5.0
 40
5.0
 40
6.0
 40
6.0
 40
6.0
 40
7.0
 40
7.0
 40
7.0
 40
7.0
 10
99.13813474084047
 20
-135.1710774401656
 10
99.13813474084047
 20
-135.1710774401656
 10
99.13813474084047
 20
-134.066924337143
 10
99.13813474084047
 20
-134.066924337143
 10
99.13813474084047
 20
-134.066924337143
 10
98.80809459335353
 20
-134.066924337143
 10
98.80809459335353
 20
-134.066924337143
 10
98.80809459335353
 20
-134.066924337143
 10
98.80809459335353
 20
-133.9187852312772
 10
98.80809459335353
 20
-133.9187852312772
 10
99.14020179813163
 20
-133.9039713206907
 10
99.18671058718249
 20
-133.7410183042384
 10
99.21633840835564
 20
-133.6266411341281
 10
99.21633840835564
 20
-133.6266411341281
 10
99.36241045693023
 20
-133.6266411341281
 10
99.36241045693023
 20
-133.6266411341281
 10
99.36241045693023
 20
-133.6266411341281
 10
99.36241045693023
 20
-135.1710774401656
 10
99.36241045693023
 20
-135.1710774401656
 10
99.36241045693023
 20
-135.1710774401656
 10
99.13813474084047
 20
-135.1710774401656
 10
99.13813474084047
 20
-135.1710774401656
 97
        0
 97
        0
 75
     2
 76
     1
 98
        0
  0
SPLINE
  5
D2
330
CC
100
AcDbEntity
  8
_U+30EC_U+30A4_U+30E4_U+30FC 1
370
     0
100
AcDbSpline
210
0.0
220
0.0
230
1.0
 70
    11
 71
     3
 72
    29
 73
    25
 74
     0
 42
0.0000000001
 43
0.0000000001
 12
1.0
 22
0.0
 32
0.0
 13
1.0
 23
0.0
 33
0.0
 40
0.0
 40
0.0
 40
0.0
 40
0.0
 40
1.0
 40
1.0
 40
1.0
 40
2.0
 40
2.0
 40
2.0
 40
3.0
 40
3.0
 40
3.0
 40
4.0
 40
4.0
 40
4.0
 40
5.0
 40
5.0
 40
5.0
 40
6.0
 40
6.0
 40
6.0
 40
7.0
 40
7.0
 40
7.0
 40
8.0
 40
8.0
 40
8.0
 40
8.0
 10
100.7614637334902
 20
-134.9933105131267
 30
0.0
 10
100.6532877352533
 20
-135.2027723186299
 30
0.0
 10
100.4799994323453
 20
-135.2217203437988
 30
0.0
 10
100.3635552049438
 20
-135.2217203437988
 30
0.0
 10
100.2026692457827
 20
-135.2217203437988
 30
0.0
 10
100.0610758213389
 20
-135.1752115547479
 30
0.0
 10
99.96599118594601
 20
-134.9933105131267
 30
0.0
 10
99.86229381183999
 20
-134.7986626182101
 30
0.0
 10
99.84334578667111
 20
-134.5619845583734
 30
0.0
 10
99.84334578667111
 20
-134.3990315419211
 30
0.0
 10
99.84334578667111
 20
-134.2550265506376
 30
0.0
 10
99.86022675454883
 20
-134.0031900706659
 30
0.0
 10
99.96599118594601
 20
-133.804408061167
 30
0.0
 10
100.0738226746343
 20
-133.6014919370857
 30
0.0
 10
100.2347086337955
 20
-133.578065287786
 30
0.0
 10
100.3635552049438
 20
-133.578065287786
 30
0.0
 10
100.5223741068139
 20
-133.578065287786
 30
0.0
 10
100.6660345885488
 20
-133.6225070195458
 30
0.0
 10
100.7614637334902
 20
-133.804408061167
 30
0.0
 10
100.8606824834654
 20
-133.9969888987924
 30
0.0
 10
100.8841091327651
 20
-134.2253987294645
 30
0.0
 10
100.8841091327651
 20
-134.3990315419211
 30
0.0
 10
100.8841091327651
 20
-134.570252787538
 30
0.0
 10
100.8627495407565
 20
-134.8007296755012
 30
0.0
 10
100.7614637334902
 20
-134.9933105131267
 30
0.0
  0
SPLINE
  5
D3
330
CC
100
AcDbEntity
  8
_U+30EC_U+30A4_U+30E4_U+30FC 1
370
     0
100
AcDbSpline
210
0.0
220
0.0
230
1.0
 70
    11
 71
     3
 72
    17
 73
    13
 74
     0
 42
0.0000000001
 43
0.0000000001
 12
1.0
 22
0.0
 32
0.0
 13
1.0
 23
0.0
 33
0.0
 40
0.0
 40
0.0
 40
0.0
 40
0.0
 40
1.0
 40
1.0
 40
1.0
 40
2.0
 40
2.0
 40
2.0
 40
3.0
 40
3.0
 40
3.0
 40
4.0
 40
4.0
 40
4.0
 40
4.0
 10
100.3635552049438
 20
-133.7706461254115
 30
0.0
 10
100.1141302918117
 20
-133.7706461254115
 30
0.0
 10
100.0672769932123
 20
-134.0541774838476
 30
0.0
 10
100.0672769932123
 20
-134.3990315419211
 30
0.0
 10
100.0672769932123
 20
-134.7183918934037
 30
0.0
 10
100.1034504958075
 20
-135.0270724488821
 30
0.0
 10
100.3635552049438
 20
-135.0270724488821
 30
0.0
 10
100.6112575703333
 20
-135.0270724488821
 30
0.0
 10
100.6598334166753
 20
-134.7459526572857
 30
0.0
 10
100.6598334166753
 20
-134.3990315419211
 30
0.0
 10
100.6598334166753
 20
-134.0793266808899
 30
0.0
 10
100.6215928567891
 20
-133.7706461254115
 30
0.0
 10
100.3635552049438
 20
-133.7706461254115
 30
0.0
  0
HATCH
  5
D4
330
CC
100
AcDbEntity
  8
_U+30EC_U+30A4_U+30E4_U+30FC 1
 62
   179
420
  2234388
100
AcDbHatch
 10
0.0
 20
0.0
 30
0.0
210
0.0
220
0.0
230
1.0
  2
SOLID
 70
     1
 71
     0
 91
        2
 92
        1
 93
        1
 72
     4
 94
        3
 73
     0
 74
     1
 95
       29
 96
       25
 40
0.0
 40
0.0
 40
0.0
 40
0.0
 40
1.0
 40
1.0
 40
1.0
 40
2.0
 40
2.0
 40
2.0
 40
3.0
 40
3.0
 40
3.0
 40
4.0
 40
4.0
 40
4.0
 40
5.0
 40
5.0
 40
5.0
 40
6.0
 40
6.0
 40
6.0
 40
7.0
 40
7.0
 40
7.0
 40
8.0
 40
8.0
 40
8.0
 40
8.0
 10
100.7614637334902
 20
-134.9933105131267
 10
100.6532877352533
 20
-135.2027723186299
 10
100.4799994323453
 20
-135.2217203437988
 10
100.3635552049438
 20
-135.2217203437988
 10
100.2026692457827
 20
-135.2217203437988
 10
100.0610758213389
 20
-135.1752115547479
 10
99.96599118594601
 20
-134.9933105131267
 10
99.86229381183999
 20
-134.7986626182101
 10
99.84334578667111
 20
-134.5619845583734
 10
99.84334578667111
 20
-134.3990315419211
 10
99.84334578667111
 20
-134.2550265506376
 10
99.86022675454883
 20
-134.0031900706659
 10
99.96599118594601
 20
-133.804408061167
 10
100.0738226746343
 20
-133.6014919370857
 10
100.2347086337955
 20
-133.578065287786
 10
100.3635552049438
 20
-133.578065287786
 10
100.5223741068139
 20
-133.578065287786
 10
100.6660345885488
 20
-133.6225070195458
 10
100.7614637334902
 20
-133.804408061167
 10
100.8606824834654
 20
-133.9969888987924
 10
100.8841091327651
 20
-134.2253987294645
 10
100.8841091327651
 20
-134.3990315419211
 10
100.8841091327651
 20
-134.570252787538
 10
100.8627495407565
 20
-134.8007296755012
 10
100.7614637334902
 20
-134.9933105131267
 97
        0
 97
        0
 92
        1
 93
        1
 72
     4
 94
        3
 73
     0
 74
     1
 95
       17
 96
       13
 40
0.0
 40
0.0
 40
0.0
 40
0.0
 40
1.0
 40
1.0
 40
1.0
 40
2.0
 40
2.0
 40
2.0
 40
3.0
 40
3.0
 40
3.0
 40
4.0
 40
4.0
 40
4.0
 40
4.0
 10
100.3635552049438
 20
-133.7706461254115
 10
100.1141302918117
 20
-133.7706461254115
 10
100.0672769932123
 20
-134.0541774838476
 10
100.0672769932123
 20
-134.3990315419211
 10
100.0672769932123
 20
-134.7183918934037
 10
100.1034504958075
 20
-135.0270724488821
 10
100.3635552049438
 20
-135.0270724488821
 10
100.6112575703333
 20
-135.0270724488821
 10
100.6598334166753
 20
-134.7459526572857
 10
100.6598334166753
 20
-134.3990315419211
 10
100.6598334166753
 20
-134.0793266808899
 10
100.6215928567891
 20
-133.7706461254115
 10
100.3635552049438
 20
-133.7706461254115
 97
        0
 97
        0
 75
     2
 76
     1
 98
        0
  0
ENDBLK
  5
CF
330
CC
100
AcDbEntity
  8
0
100
AcDbBlockEnd
  0
BLOCK
  5
DF
330
DD
100
AcDbEntity
  8
0
100
AcDbBlockBegin
  2
block 6
 70
     0
 10
0.0
 20
0.0
 30
0.0
  3
block 6
  1

  0
SPLINE
  5
E1
330
DD
100
AcDbEntity
  8
_U+30EC_U+30A4_U+30E4_U+30FC 1
370
     0
100
AcDbSpline
210
0.0
220
0.0
230
1.0
 70
    11
 71
     3
 72
    26
 73
    22
 74
     0
 42
0.0000000001
 43
0.0000000001
 12
1.0
 22
0.0
 32
0.0
 13
1.0
 23
0.0
 33
0.0
 40
0.0
 40
0.0
 40
0.0
 40
0.0
 40
1.0
 40
1.0
 40
1.0
 40
2.0
 40
2.0
 40
2.0
 40
3.0
 40
3.0
 40
3.0
 40
4.0
 40
4.0
 40
4.0
 40
5.0
 40
5.0
 40
5.0
 40
6.0
 40
6.0
 40
6.0
 40
7.0
 40
7.0
 40
7.0
 40
7.0
 10
86.63795028215996
 20
-135.1710774401656
 30
0.0
 10
86.63795028215996
 20
-135.1710774401656
 30
0.0
 10
86.63795028215996
 20
-134.066924337143
 30
0.0
 10
86.63795028215996
 20
-134.066924337143
 30
0.0
 10
86.63795028215996
 20
-134.066924337143
 30
0.0
 10
86.30791013467302
 20
-134.066924337143
 30
0.0
 10
86.30791013467302
 20
-134.066924337143
 30
0.0
 10
86.30791013467302
 20
-134.066924337143
 30
0.0
 10
86.30791013467302
 20
-133.9187852312772
 30
0.0
 10
86.30791013467302
 20
-133.9187852312772
 30
0.0
 10
86.6400173394511
 20
-133.9039713206907
 30
0.0
 10
86.68652612850198
 20
-133.7410183042384
 30
0.0
 10
86.71615394967513
 20
-133.6266411341281
 30
0.0
 10
86.71615394967513
 20
-133.6266411341281
 30
0.0
 10
86.86222599824973
 20
-133.6266411341281
 30
0.0
 10
86.86222599824973
 20
-133.6266411341281
 30
0.0
 10
86.86222599824973
 20
-133.6266411341281
 30
0.0
 10
86.86222599824973
 20
-135.1710774401656
 30
0.0
 10
86.86222599824973
 20
-135.1710774401656
 30
0.0
 10
86.86222599824973
 20
-135.1710774401656
 30
0.0
 10
86.63795028215996
 20
-135.1710774401656
 30
0.0
 10
86.63795028215996
 20
-135.1710774401656
 30
0.0
  0
HATCH
  5
E2
330
DD
100
AcDbEntity
  8
_U+30EC_U+30A4_U+30E4_U+30FC 1
 62
   179
420
  2234388
100
AcDbHatch
 10
0.0
 20
0.0
 30
0.0
210
0.0
220
0.0
230
1.0
  2
SOLID
 70
     1
 71
     0
 91
        1
 92
        1
 93
        1
 72
     4
 94
        3
 73
     0
 74
     1
 95
       26
 96
       22
 40
0.0
 40
0.0
 40
0.0
 40
0.0
 40
1.0
 40
1.0
 40
1.0
 40
2.0
 40
2.0
 40
2.0
 40
3.0
 40
3.0
 40
3.0
 40
4.0
 40
4.0
 40
4.0
 40
5.0
 40
5.0
 40
5.0
 40
6.0
 40
6.0
 40
6.0
 40
7.0
 40
7.0
 40
7.0
 40
7.0
 10
86.63795028215996
 20
-135.1710774401656
 10
86.63795028215996
 20
-135.1710774401656
 10
86.63795028215996
 20
-134.066924337143
 10
86.63795028215996
 20
-134.066924337143
 10
86.63795028215996
 20
-134.066924337143
 10
86.30791013467302
 20
-134.066924337143
 10
86.30791013467302
 20
-134.066924337143
 10
86.30791013467302
 20
-134.066924337143
 10
86.30791013467302
 20
-133.9187852312772
 10
86.30791013467302
 20
-133.9187852312772
 10
86.6400173394511
 20
-133.9039713206907
 10
86.68652612850198
 20
-133.7410183042384
 10
86.71615394967513
 20
-133.6266411341281
 10
86.71615394967513
 20
-133.6266411341281
 10
86.86222599824973
 20
-133.6266411341281
 10
86.86222599824973
 20
-133.6266411341281
 10
86.86222599824973
 20
-133.6266411341281
 10
86.86222599824973
 20
-135.1710774401656
 10
86.86222599824973
 20
-135.1710774401656
 10
86.86222599824973
 20
-135.1710774401656
 10
86.63795028215996
 20
-135.1710774401656
 10
86.63795028215996
 20
-135.1710774401656
 97
        0
 97
        0
 75
     2
 76
     1
 98
        0
  0
SPLINE
  5
E3
330
DD
100
AcDbEntity
  8
_U+30EC_U+30A4_U+30E4_U+30FC 1
370
     0
100
AcDbSpline
210
0.0
220
0.0
230
1.0
 70
    11
 71
     3
 72
    53
 73
    49
 74
     0
 42
0.0000000001
 43
0.0000000001
 12
1.0
 22
0.0
 32
0.0
 13
1.0
 23
0.0
 33
0.0
 40
0.0
 40
0.0
 40
0.0
 40
0.0
 40
1.0
 40
1.0
 40
1.0
 40
2.0
 40
2.0
 40
2.0
 40
3.0
 40
3.0
 40
3.0
 40
4.0
 40
4.0
 40
4.0
 40
5.0
 40
5.0
 40
5.0
 40
6.0
 40
6.0
 40
6.0
 40
7.0
 40
7.0
 40
7.0
 40
8.0
 40
8.0
 40
8.0
 40
9.0
 40
9.0
 40
9.0
 40
10.0
 40
10.0
 40
10.0
 40
11.0
 40
11.0
 40
11.0
 40
12.0
 40
12.0
 40
12.0
 40
13.0
 40
13.0
 40
13.0
 40
14.0
 40
14.0
 40
14.0
 40
15.0
 40
15.0
 40
15.0
 40
16.0
 40
16.0
 40
16.0
 40
16.0
 10
87.84442272109446
 20
-135.2217203437988
 30
0.0
 10
87.76604679880502
 20
-135.2217203437988
 30
0.0
 10
87.66458873676441
 20
-135.204839375921
 30
0.0
 10
87.56295841994954
 20
-135.1414496189924
 30
0.0
 10
87.38949786226722
 20
-135.031551073013
 30
0.0
 10
87.36831052503292
 20
-134.9002929350249
 30
0.0
 10
87.34936249986406
 20
-134.7924614463366
 30
0.0
 10
87.34936249986406
 20
-134.7924614463366
 30
0.0
 10
87.57139890388841
 20
-134.7924614463366
 30
0.0
 10
87.57139890388841
 20
-134.7924614463366
 30
0.0
 10
87.6265204316524
 20
-134.9912434558355
 30
0.0
 10
87.75347220028385
 20
-135.0208712770087
 30
0.0
 10
87.8464897783856
 20
-135.0208712770087
 30
0.0
 10
87.98618840031249
 20
-135.0208712770087
 30
0.0
 10
88.13846162076052
 20
-134.921308017485
 30
0.0
 10
88.13846162076052
 20
-134.6887640722306
 30
0.0
 10
88.13846162076052
 20
-134.4327934776765
 30
0.0
 10
87.95862763643049
 20
-134.362858039326
 30
0.0
 10
87.83804929444675
 20
-134.362858039326
 30
0.0
 10
87.80635441598244
 20
-134.362858039326
 30
0.0
 10
87.66458873676441
 20
-134.362858039326
 30
0.0
 10
87.57570527324496
 20
-134.4920491200228
 30
0.0
 10
87.57570527324496
 20
-134.4920491200228
 30
0.0
 10
87.40017765827149
 20
-134.4731010948539
 30
0.0
 10
87.40017765827149
 20
-134.4731010948539
 30
0.0
 10
87.40017765827149
 20
-134.4731010948539
 30
0.0
 10
87.52075600025523
 20
-133.6266411341281
 30
0.0
 10
87.52075600025523
 20
-133.6266411341281
 30
0.0
 10
87.52075600025523
 20
-133.6266411341281
 30
0.0
 10
88.29917532514743
 20
-133.6266411341281
 30
0.0
 10
88.29917532514743
 20
-133.6266411341281
 30
0.0
 10
88.29917532514743
 20
-133.6266411341281
 30
0.0
 10
88.29917532514743
 20
-133.8212890290447
 30
0.0
 10
88.29917532514743
 20
-133.8212890290447
 30
0.0
 10
88.29917532514743
 20
-133.8212890290447
 30
0.0
 10
87.68353676193328
 20
-133.8212890290447
 30
0.0
 10
87.68353676193328
 20
-133.8212890290447
 30
0.0
 10
87.68353676193328
 20
-133.8212890290447
 30
0.0
 10
87.61807994771354
 20
-134.2443467546334
 30
0.0
 10
87.61807994771354
 20
-134.2443467546334
 30
0.0
 10
87.67940264735098
 20
-134.2105848188779
 30
0.0
 10
87.76191268422272
 20
-134.1702772017005
 30
0.0
 10
87.88025171414105
 20
-134.1702772017005
 30
0.0
 10
88.13415525140397
 20
-134.1702772017005
 30
0.0
 10
88.37117782078916
 20
-134.3566568674525
 30
0.0
 10
88.37117782078916
 20
-134.6698160470617
 30
0.0
 10
88.37117782078916
 20
-134.9871093412532
 30
0.0
 10
88.1469021046994
 20
-135.2217203437988
 30
0.0
 10
87.84442272109446
 20
-135.2217203437988
 30
0.0
  0
HATCH
  5
E4
330
DD
100
AcDbEntity
  8
_U+30EC_U+30A4_U+30E4_U+30FC 1
 62
   179
420
  2234388
100
AcDbHatch
 10
0.0
 20
0.0
 30
0.0
210
0.0
220
0.0
230
1.0
  2
SOLID
 70
     1
 71
     0
 91
        1
 92
        1
 93
        1
 72
     4
 94
        3
 73
     0
 74
     1
 95
       53
 96
       49
 40
0.0
 40
0.0
 40
0.0
 40
0.0
 40
1.0
 40
1.0
 40
1.0
 40
2.0
 40
2.0
 40
2.0
 40
3.0
 40
3.0
 40
3.0
 40
4.0
 40
4.0
 40
4.0
 40
5.0
 40
5.0
 40
5.0
 40
6.0
 40
6.0
 40
6.0
 40
7.0
 40
7.0
 40
7.0
 40
8.0
 40
8.0
 40
8.0
 40
9.0
 40
9.0
 40
9.0
 40
10.0
 40
10.0
 40
10.0
 40
11.0
 40
11.0
 40
11.0
 40
12.0
 40
12.0
 40
12.0
 40
13.0
 40
13.0
 40
13.0
 40
14.0
 40
14.0
 40
14.0
 40
15.0
 40
15.0
 40
15.0
 40
16.0
 40
16.0
 40
16.0
 40
16.0
 10
87.84442272109446
 20
-135.2217203437988
 10
87.76604679880502
 20
-135.2217203437988
 10
87.66458873676441
 20
-135.204839375921
 10
87.56295841994954
 20
-135.1414496189924
 10
87.38949786226722
 20
-135.031551073013
 10
87.36831052503292
 20
-134.9002929350249
 10
87.34936249986406
 20
-134.7924614463366
 10
87.34936249986406
 20
-134.7924614463366
 10
87.57139890388841
 20
-134.7924614463366
 10
87.57139890388841
 20
-134.7924614463366
 10
87.6265204316524
 20
-134.9912434558355
 10
87.75347220028385
 20
-135.0208712770087
 10
87.8464897783856
 20
-135.0208712770087
 10
87.98618840031249
 20
-135.0208712770087
 10
88.13846162076052
 20
-134.921308017485
 10
88.13846162076052
 20
-134.6887640722306
 10
88.13846162076052
 20
-134.4327934776765
 10
87.95862763643049
 20
-134.362858039326
 10
87.83804929444675
 20
-134.362858039326
 10
87.80635441598244
 20
-134.362858039326
 10
87.66458873676441
 20
-134.362858039326
 10
87.57570527324496
 20
-134.4920491200228
 10
87.57570527324496
 20
-134.4920491200228
 10
87.40017765827149
 20
-134.4731010948539
 10
87.40017765827149
 20
-134.4731010948539
 10
87.40017765827149
 20
-134.4731010948539
 10
87.52075600025523
 20
-133.6266411341281
 10
87.52075600025523
 20
-133.6266411341281
 10
87.52075600025523
 20
-133.6266411341281
 10
88.29917532514743
 20
-133.6266411341281
 10
88.29917532514743
 20
-133.6266411341281
 10
88.29917532514743
 20
-133.6266411341281
 10
88.29917532514743
 20
-133.8212890290447
 10
88.29917532514743
 20
-133.8212890290447
 10
88.29917532514743
 20
-133.8212890290447
 10
87.68353676193328
 20
-133.8212890290447
 10
87.68353676193328
 20
-133.8212890290447
 10
87.68353676193328
 20
-133.8212890290447
 10
87.61807994771354
 20
-134.2443467546334
 10
87.61807994771354
 20
-134.2443467546334
 10
87.67940264735098
 20
-134.2105848188779
 10
87.76191268422272
 20
-134.1702772017005
 10
87.88025171414105
 20
-134.1702772017005
 10
88.13415525140397
 20
-134.1702772017005
 10
88.37117782078916
 20
-134.3566568674525
 10
88.37117782078916
 20
-134.6698160470617
 10
88.37117782078916
 20
-134.9871093412532
 10
88.1469021046994
 20
-135.2217203437988
 10
87.84442272109446
 20
-135.2217203437988
 97
        0
 97
        0
 75
     2
 76
     1
 98
        0
  0
ENDBLK
  5
E0
330
DD
100
AcDbEntity
  8
0
100
AcDbBlockEnd
  0
ENDSEC
  0
SECTION
  2
ENTITIES
  0
POLYLINE
  5
41
330
1F
100
AcDbEntity
  8
_U+30EC_U+30A4_U+30E4_U+30FC 1
370
     0
100
AcDb2dPolyline
 66
     1
 10
0.0
 20
0.0
 30
0.0
  0
VERTEX
  5
42
330
41
100
AcDbEntity
  8
_U+30EC_U+30A4_U+30E4_U+30FC 1
370
     0
100
AcDbVertex
100
AcDb2dVertex
 10
103.8427467951953
 20
-130.816491078407
 30
0.0
  0
VERTEX
  5
43
330
41
100
AcDbEntity
  8
_U+30EC_U+30A4_U+30E4_U+30FC 1
370
     0
100
AcDbVertex
100
AcDb2dVertex
 10
95.84255838818596
 20
-130.816491078407
 30
0.0
  0
VERTEX
  5
44
330
41
100
AcDbEntity
  8
_U+30EC_U+30A4_U+30E4_U+30FC 1
370
     0
100
AcDbVertex
100
AcDb2dVertex
 10
95.84255838818596
 20
-122.316557469421
 30
0.0
  0
VERTEX
  5
45
330
41
100
AcDbEntity
  8
_U+30EC_U+30A4_U+30E4_U+30FC 1
370
     0
100
AcDbVertex
100
AcDb2dVertex
 10
79.84249907415926
 20
-122.316557469421
 30
0.0
  0
VERTEX
  5
46
330
41
100
AcDbEntity
  8
_U+30EC_U+30A4_U+30E4_U+30FC 1
370
     0
100
AcDbVertex
100
AcDb2dVertex
 10
79.84249907415926
 20
-123.316682469171
 30
0.0
  0
VERTEX
  5
47
330
41
100
AcDbEntity
  8
_U+30EC_U+30A4_U+30E4_U+30FC 1
370
     0
100
AcDbVertex
100
AcDb2dVertex
 10
94.84278619147005
 20
-123.316682469171
 30
0.0
  0
VERTEX
  5
48
330
41
100
AcDbEntity
  8
_U+30EC_U+30A4_U+30E4_U+30FC 1
370
     0
100
AcDbVertex
100
AcDb2dVertex
 10
94.84278619147005
 20
-131.8162280226014
 30
0.0
  0
VERTEX
  5
49
330
41
100
AcDbEntity
  8
_U+30EC_U+30A4_U+30E4_U+30FC 1
370
     0
100
AcDbVertex
100
AcDb2dVertex
 10
104.8425189919112
 20
-131.8162280226014
 30
0.0
  0
VERTEX
  5
4A
330
41
100
AcDbEntity
  8
_U+30EC_U+30A4_U+30E4_U+30FC 1
370
     0
100
AcDbVertex
100
AcDb2dVertex
 10
104.8425189919112
 20
-128.8162410789071
 30
0.0
  0
VERTEX
  5
4B
330
41
100
AcDbEntity
  8
_U+30EC_U+30A4_U+30E4_U+30FC 1
370
     0
100
AcDbVertex
100
AcDb2dVertex
 10
103.8427467951953
 20
-128.8162410789071
 30
0.0
  0
VERTEX
  5
4C
330
41
100
AcDbEntity
  8
_U+30EC_U+30A4_U+30E4_U+30FC 1
370
     0
100
AcDbVertex
100
AcDb2dVertex
 10
103.8427467951953
 20
-130.816491078407
 30
0.0
  0
SEQEND
  5
4E
330
41
100
AcDbEntity
  8
_U+30EC_U+30A4_U+30E4_U+30FC 1
370
     0
  0
HATCH
  5
4D
330
1F
100
AcDbEntity
  8
_U+30EC_U+30A4_U+30E4_U+30FC 1
 62
   253
420
 11711154
100
AcDbHatch
 10
0.0
 20
0.0
 30
0.0
210
0.0
220
0.0
230
1.0
  2
SOLID
 70
     1
 71
     0
 91
        1
 92
        1
 93
       10
 72
     1
 10
103.8427467951953
 20
-130.816491078407
 11
95.84255838818596
 21
-130.816491078407
 72
     1
 10
95.84255838818596
 20
-130.816491078407
 11
95.84255838818596
 21
-122.316557469421
 72
     1
 10
95.84255838818596
 20
-122.316557469421
 11
79.84249907415926
 21
-122.316557469421
 72
     1
 10
79.84249907415926
 20
-122.316557469421
 11
79.84249907415926
 21
-123.316682469171
 72
     1
 10
79.84249907415926
 20
-123.316682469171
 11
94.84278619147005
 21
-123.316682469171
 72
     1
 10
94.84278619147005
 20
-123.316682469171
 11
94.84278619147005
 21
-131.8162280226014
 72
     1
 10
94.84278619147005
 20
-131.8162280226014
 11
104.8425189919112
 21
-131.8162280226014
 72
     1
 10
104.8425189919112
 20
-131.8162280226014
 11
104.8425189919112
 21
-128.8162410789071
 72
     1
 10
104.8425189919112
 20
-128.8162410789071
 11
103.8427467951953
 21
-128.8162410789071
 72
     1
 10
103.8427467951953
 20
-128.8162410789071
 11
103.8427467951953
 21
-130.816491078407
 97
        0
 75
     2
 76
     1
 98
        0
  0
POLYLINE
  5
4F
330
1F
100
AcDbEntity
  8
_U+30EC_U+30A4_U+30E4_U+30FC 1
 62
   179
420
  2234388
370
    25
100
AcDb2dPolyline
 66
     1
 10
0.0
 20
0.0
 30
0.0
  0
VERTEX
  5
50
330
4F
100
AcDbEntity
  8
_U+30EC_U+30A4_U+30E4_U+30FC 1
 62
   179
420
  2234388
370
    25
100
AcDbVertex
100
AcDb2dVertex
 10
79.775330186984
 20
-123.316682469171
 30
0.0
  0
VERTEX
  5
51
330
4F
100
AcDbEntity
  8
_U+30EC_U+30A4_U+30E4_U+30FC 1
 62
   179
420
  2234388
370
    25
100
AcDbVertex
100
AcDb2dVertex
 10
79.775330186984
 20
-122.316557469421
 30
0.0
  0
SEQEND
  5
52
330
4F
100
AcDbEntity
  8
_U+30EC_U+30A4_U+30E4_U+30FC 1
 62
   179
420
  2234388
370
    25
  0
POLYLINE
  5
53
330
1F
100
AcDbEntity
  8
_U+30EC_U+30A4_U+30E4_U+30FC 1
 62
   179
420
  2234388
370
    25
100
AcDb2dPolyline
 66
     1
 10
0.0
 20
0.0
 30
0.0
  0
VERTEX
  5
54
330
53
100
AcDbEntity
  8
_U+30EC_U+30A4_U+30E4_U+30FC 1
 62
   179
420
  2234388
370
    25
100
AcDbVertex
100
AcDb2dVertex
 10
104.7757055293618
 20
-131.8162280226014
 30
0.0
  0
VERTEX
  5
55
330
53
100
AcDbEntity
  8
_U+30EC_U+30A4_U+30E4_U+30FC 1
 62
   179
420
  2234388
370
    25
100
AcDbVertex
100
AcDb2dVertex
 10
104.7757055293618
 20
-128.8162410789071
 30
0.0
  0
SEQEND
  5
56
330
53
100
AcDbEntity
  8
_U+30EC_U+30A4_U+30E4_U+30FC 1
 62
   179
420
  2234388
370
    25
  0
POLYLINE
  5
57
330
1F
100
AcDbEntity
  8
_U+30EC_U+30A4_U+30E4_U+30FC 1
 62
   179
420
  2234388
370
    25
100
AcDb2dPolyline
 66
     1
 10
0.0
 20
0.0
 30
0.0
  0
VERTEX
  5
58
330
57
100
AcDbEntity
  8
_U+30EC_U+30A4_U+30E4_U+30FC 1
 62
   179
420
  2234388
370
    25
100
AcDbVertex
100
AcDb2dVertex
 10
79.775330186984
 20
-122.316557469421
 30
0.0
  0
VERTEX
  5
59
330
57
100
AcDbEntity
  8
_U+30EC_U+30A4_U+30E4_U+30FC 1
 62
   179
420
  2234388
370
    25
100
AcDbVertex
100
AcDb2dVertex
 10
95.77503672324191
 20
-122.316557469421
 30
0.0
  0
SEQEND
  5
5A
330
57
100
AcDbEntity
  8
_U+30EC_U+30A4_U+30E4_U+30FC 1
 62
   179
420
  2234388
370
    25
  0
POLYLINE
  5
5B
330
1F
100
AcDbEntity
  8
_U+30EC_U+30A4_U+30E4_U+30FC 1
 62
   179
420
  2234388
370
    25
100
AcDb2dPolyline
 66
     1
 10
0.0
 20
0.0
 30
0.0
  0
VERTEX
  5
5C
330
5B
100
AcDbEntity
  8
_U+30EC_U+30A4_U+30E4_U+30FC 1
 62
   179
420
  2234388
370
    25
100
AcDbVertex
100
AcDb2dVertex
 10
103.7752277518337
 20
-128.8162410789071
 30
0.0
  0
VERTEX
  5
5D
330
5B
100
AcDbEntity
  8
_U+30EC_U+30A4_U+30E4_U+30FC 1
 62
   179
420
  2234388
370
    25
100
AcDbVertex
100
AcDb2dVertex
 10
104.7757055293618
 20
-128.8162410789071
 30
0.0
  0
SEQEND
  5
5E
330
5B
100
AcDbEntity
  8
_U+30EC_U+30A4_U+30E4_U+30FC 1
 62
   179
420
  2234388
370
    25
  0
POLYLINE
  5
5F
330
1F
100
AcDbEntity
  8
_U+30EC_U+30A4_U+30E4_U+30FC 1
 62
   179
420
  2234388
370
    25
100
AcDb2dPolyline
 66
     1
 10
0.0
 20
0.0
 30
0.0
  0
VERTEX
  5
60
330
5F
100
AcDbEntity
  8
_U+30EC_U+30A4_U+30E4_U+30FC 1
 62
   179
420
  2234388
370
    25
100
AcDbVertex
100
AcDb2dVertex
 10
94.775264526526
 20
-131.8162280226014
 30
0.0
  0
VERTEX
  5
61
330
5F
100
AcDbEntity
  8
_U+30EC_U+30A4_U+30E4_U+30FC 1
 62
   179
420
  2234388
370
    25
100
AcDbVertex
100
AcDb2dVertex
 10
104.7757055293618
 20
-131.8162280226014
 30
0.0
  0
SEQEND
  5
62
330
5F
100
AcDbEntity
  8
_U+30EC_U+30A4_U+30E4_U+30FC 1
 62
   179
420
  2234388
370
    25
  0
POLYLINE
  5
63
330
1F
100
AcDbEntity
  8
_U+30EC_U+30A4_U+30E4_U+30FC 1
 62
   179
420
  2234388
370
    25
100
AcDb2dPolyline
 66
     1
 10
0.0
 20
0.0
 30
0.0
  0
VERTEX
  5
64
330
63
100
AcDbEntity
  8
_U+30EC_U+30A4_U+30E4_U+30FC 1
 62
   179
420
  2234388
370
    25
100
AcDbVertex
100
AcDb2dVertex
 10
79.775330186984
 20
-123.316682469171
 30
0.0
  0
VERTEX
  5
65
330
63
100
AcDbEntity
  8
_U+30EC_U+30A4_U+30E4_U+30FC 1
 62
   179
420
  2234388
370
    25
100
AcDbVertex
100
AcDb2dVertex
 10
94.775264526526
 20
-123.316682469171
 30
0.0
  0
SEQEND
  5
66
330
63
100
AcDbEntity
  8
_U+30EC_U+30A4_U+30E4_U+30FC 1
 62
   179
420
  2234388
370
    25
  0
POLYLINE
  5
67
330
1F
100
AcDbEntity
  8
_U+30EC_U+30A4_U+30E4_U+30FC 1
 62
   179
420
  2234388
370
    25
100
AcDb2dPolyline
 66
     1
 10
0.0
 20
0.0
 30
0.0
  0
VERTEX
  5
68
330
67
100
AcDbEntity
  8
_U+30EC_U+30A4_U+30E4_U+30FC 1
 62
   179
420
  2234388
370
    25
100
AcDbVertex
100
AcDb2dVertex
 10
94.775264526526
 20
-131.8162280226014
 30
0.0
  0
VERTEX
  5
69
330
67
100
AcDbEntity
  8
_U+30EC_U+30A4_U+30E4_U+30FC 1
 62
   179
420
  2234388
370
    25
100
AcDbVertex
100
AcDb2dVertex
 10
94.775264526526
 20
-123.316682469171
 30
0.0
  0
SEQEND
  5
6A
330
67
100
AcDbEntity
  8
_U+30EC_U+30A4_U+30E4_U+30FC 1
 62
   179
420
  2234388
370
    25
  0
POLYLINE
  5
6B
330
1F
100
AcDbEntity
  8
_U+30EC_U+30A4_U+30E4_U+30FC 1
 62
   179
420
  2234388
370
    25
100
AcDb2dPolyline
 66
     1
 10
0.0
 20
0.0
 30
0.0
  0
VERTEX
  5
6C
330
6B
100
AcDbEntity
  8
_U+30EC_U+30A4_U+30E4_U+30FC 1
 62
   179
420
  2234388
370
    25
100
AcDbVertex
100
AcDb2dVertex
 10
95.77503672324191
 20
-130.816491078407
 30
0.0
  0
VERTEX
  5
6D
330
6B
100
AcDbEntity
  8
_U+30EC_U+30A4_U+30E4_U+30FC 1
 62
   179
420
  2234388
370
    25
100
AcDbVertex
100
AcDb2dVertex
 10
95.77503672324191
 20
-122.316557469421
 30
0.0
  0
SEQEND
  5
6E
330
6B
100
AcDbEntity
  8
_U+30EC_U+30A4_U+30E4_U+30FC 1
 62
   179
420
  2234388
370
    25
  0
POLYLINE
  5
6F
330
1F
100
AcDbEntity
  8
_U+30EC_U+30A4_U+30E4_U+30FC 1
 62
   179
420
  2234388
370
    25
100
AcDb2dPolyline
 66
     1
 10
0.0
 20
0.0
 30
0.0
  0
VERTEX
  5
70
330
6F
100
AcDbEntity
  8
_U+30EC_U+30A4_U+30E4_U+30FC 1
 62
   179
420
  2234388
370
    25
100
AcDbVertex
100
AcDb2dVertex
 10
95.77503672324191
 20
-130.816491078407
 30
0.0
  0
VERTEX
  5
71
330
6F
100
AcDbEntity
  8
_U+30EC_U+30A4_U+30E4_U+30FC 1
 62
   179
420
  2234388
370
    25
100
AcDbVertex
100
AcDb2dVertex
 10
103.7752277518337
 20
-130.816491078407
 30
0.0
  0
SEQEND
  5
72
330
6F
100
AcDbEntity
  8
_U+30EC_U+30A4_U+30E4_U+30FC 1
 62
   179
420
  2234388
370
    25
  0
POLYLINE
  5
73
330
1F
100
AcDbEntity
  8
_U+30EC_U+30A4_U+30E4_U+30FC 1
 62
   179
420
  2234388
370
    25
100
AcDb2dPolyline
 66
     1
 10
0.0
 20
0.0
 30
0.0
  0
VERTEX
  5
74
330
73
100
AcDbEntity
  8
_U+30EC_U+30A4_U+30E4_U+30FC 1
 62
   179
420
  2234388
370
    25
100
AcDbVertex
100
AcDb2dVertex
 10
103.7752277518337
 20
-130.816491078407
 30
0.0
  0
VERTEX
  5
75
330
73
100
AcDbEntity
  8
_U+30EC_U+30A4_U+30E4_U+30FC 1
 62
   179
420
  2234388
370
    25
100
AcDbVertex
100
AcDb2dVertex
 10
103.7752277518337
 20
-128.8162410789071
 30
0.0
  0
SEQEND
  5
76
330
73
100
AcDbEntity
  8
_U+30EC_U+30A4_U+30E4_U+30FC 1
 62
   179
420
  2234388
370
    25
  0
SPLINE
  5
77
330
1F
100
AcDbEntity
  8
_U+30EC_U+30A4_U+30E4_U+30FC 1
 62
   179
420
  2234388
370
     9
100
AcDbSpline
210
0.0
220
0.0
230
1.0
 70
    11
 71
     3
 72
    17
 73
    13
 74
     0
 42
0.0000000001
 43
0.0000000001
 12
1.0
 22
0.0
 32
0.0
 13
1.0
 23
0.0
 33
0.0
 40
0.0
 40
0.0
 40
0.0
 40
0.0
 40
1.0
 40
1.0
 40
1.0
 40
2.0
 40
2.0
 40
2.0
 40
3.0
 40
3.0
 40
3.0
 40
4.0
 40
4.0
 40
4.0
 40
4.0
 10
108.8753360838921
 20
-122.316557469421
 30
0.0
 10
108.8753360838921
 20
-122.261100802768
 30
0.0
 10
108.8305658346121
 20
-122.2162980250016
 30
0.0
 10
108.7754266693521
 20
-122.2162980250016
 30
0.0
 10
108.720322781869
 20
-122.2162980250016
 30
0.0
 10
108.6755200052343
 20
-122.261100802768
 30
0.0
 10
108.6755200052343
 20
-122.316557469421
 30
0.0
 10
108.6755200052343
 20
-122.3720141360737
 30
0.0
 10
108.720322781869
 20
-122.4164641360626
 30
0.0
 10
108.7754266693521
 20
-122.4164641360626
 30
0.0
 10
108.8305658346121
 20
-122.4164641360626
 30
0.0
 10
108.8753360838921
 20
-122.3720141360737
 30
0.0
 10
108.8753360838921
 20
-122.316557469421
 30
0.0
  0
SPLINE
  5
78
330
1F
100
AcDbEntity
  8
_U+30EC_U+30A4_U+30E4_U+30FC 1
 62
   179
420
  2234388
370
     9
100
AcDbSpline
210
0.0
220
0.0
230
1.0
 70
    11
 71
     3
 72
    17
 73
    13
 74
     0
 42
0.0000000001
 43
0.0000000001
 12
1.0
 22
0.0
 32
0.0
 13
1.0
 23
0.0
 33
0.0
 40
0.0
 40
0.0
 40
0.0
 40
0.0
 40
1.0
 40
1.0
 40
1.0
 40
2.0
 40
2.0
 40
2.0
 40
3.0
 40
3.0
 40
3.0
 40
4.0
 40
4.0
 40
4.0
 40
4.0
 10
108.8753360838921
 20
-128.8162410789071
 30
0.0
 10
108.8753360838921
 20
-128.7613135789207
 30
0.0
 10
108.8305658346121
 20
-128.7165108011543
 30
0.0
 10
108.7754266693521
 20
-128.7165108011543
 30
0.0
 10
108.720322781869
 20
-128.7165108011543
 30
0.0
 10
108.6755200052343
 20
-128.7613135789207
 30
0.0
 10
108.6755200052343
 20
-128.8162410789071
 30
0.0
 10
108.6755200052343
 20
-128.8713802455601
 30
0.0
 10
108.720322781869
 20
-128.9161477455487
 30
0.0
 10
108.7754266693521
 20
-128.9161477455487
 30
0.0
 10
108.8305658346121
 20
-128.9161477455487
 30
0.0
 10
108.8753360838921
 20
-128.8713802455601
 30
0.0
 10
108.8753360838921
 20
-128.8162410789071
 30
0.0
  0
SPLINE
  5
79
330
1F
100
AcDbEntity
  8
_U+30EC_U+30A4_U+30E4_U+30FC 1
 62
   179
420
  2234388
370
     9
100
AcDbSpline
210
0.0
220
0.0
230
1.0
 70
    11
 71
     3
 72
    17
 73
    13
 74
     0
 42
0.0000000001
 43
0.0000000001
 12
1.0
 22
0.0
 32
0.0
 13
1.0
 23
0.0
 33
0.0
 40
0.0
 40
0.0
 40
0.0
 40
0.0
 40
1.0
 40
1.0
 40
1.0
 40
2.0
 40
2.0
 40
2.0
 40
3.0
 40
3.0
 40
3.0
 40
4.0
 40
4.0
 40
4.0
 40
4.0
 10
108.8753360838921
 20
-131.8162280226014
 30
0.0
 10
108.8753360838921
 20
-131.7611241337265
 30
0.0
 10
108.8305658346121
 20
-131.7163213559598
 30
0.0
 10
108.7754266693521
 20
-131.7163213559598
 30
0.0
 10
108.720322781869
 20
-131.7163213559598
 30
0.0
 10
108.6755200052343
 20
-131.7611241337265
 30
0.0
 10
108.6755200052343
 20
-131.8162280226014
 30
0.0
 10
108.6755200052343
 20
-131.8713671892545
 30
0.0
 10
108.720322781869
 20
-131.9161346892431
 30
0.0
 10
108.7754266693521
 20
-131.9161346892431
 30
0.0
 10
108.8305658346121
 20
-131.9161346892431
 30
0.0
 10
108.8753360838921
 20
-131.8713671892545
 30
0.0
 10
108.8753360838921
 20
-131.8162280226014
 30
0.0
  0
SPLINE
  5
7A
330
1F
100
AcDbEntity
  8
_U+30EC_U+30A4_U+30E4_U+30FC 1
 62
   179
420
  2234388
370
     9
100
AcDbSpline
210
0.0
220
0.0
230
1.0
 70
    11
 71
     3
 72
    17
 73
    13
 74
     0
 42
0.0000000001
 43
0.0000000001
 12
1.0
 22
0.0
 32
0.0
 13
1.0
 23
0.0
 33
0.0
 40
0.0
 40
0.0
 40
0.0
 40
0.0
 40
1.0
 40
1.0
 40
1.0
 40
2.0
 40
2.0
 40
2.0
 40
3.0
 40
3.0
 40
3.0
 40
4.0
 40
4.0
 40
4.0
 40
4.0
 10
104.8756095466225
 20
-135.8166927438238
 30
0.0
 10
104.8756095466225
 20
-135.7608832993934
 30
0.0
 10
104.8308067699878
 20
-135.7160805216267
 30
0.0
 10
104.7757055293618
 20
-135.7160805216267
 30
0.0
 10
104.7198934394841
 20
-135.7160805216267
 30
0.0
 10
104.6750906628493
 20
-135.7608832993934
 30
0.0
 10
104.6750906628493
 20
-135.8166927438238
 30
0.0
 10
104.6750906628493
 20
-135.8717966326987
 30
0.0
 10
104.7198934394841
 20
-135.9165994104655
 30
0.0
 10
104.7757055293618
 20
-135.9165994104655
 30
0.0
 10
104.8308067699878
 20
-135.9165994104655
 30
0.0
 10
104.8756095466225
 20
-135.8717966326987
 30
0.0
 10
104.8756095466225
 20
-135.8166927438238
 30
0.0
  0
SPLINE
  5
7B
330
1F
100
AcDbEntity
  8
_U+30EC_U+30A4_U+30E4_U+30FC 1
 62
   179
420
  2234388
370
     9
100
AcDbSpline
210
0.0
220
0.0
230
1.0
 70
    11
 71
     3
 72
    17
 73
    13
 74
     0
 42
0.0000000001
 43
0.0000000001
 12
1.0
 22
0.0
 32
0.0
 13
1.0
 23
0.0
 33
0.0
 40
0.0
 40
0.0
 40
0.0
 40
0.0
 40
1.0
 40
1.0
 40
1.0
 40
2.0
 40
2.0
 40
2.0
 40
3.0
 40
3.0
 40
3.0
 40
4.0
 40
4.0
 40
4.0
 40
4.0
 10
94.87517119064384
 20
-135.8166927438238
 30
0.0
 10
94.87517119064384
 20
-135.7608832993934
 30
0.0
 10
94.83036841400907
 20
-135.7160805216267
 30
0.0
 10
94.775264526526
 20
-135.7160805216267
 30
0.0
 10
94.7201277540976
 20
-135.7160805216267
 30
0.0
 10
94.67535786240818
 20
-135.7608832993934
 30
0.0
 10
94.67535786240818
 20
-135.8166927438238
 30
0.0
 10
94.67535786240818
 20
-135.8717966326987
 30
0.0
 10
94.7201277540976
 20
-135.9165994104655
 30
0.0
 10
94.775264526526
 20
-135.9165994104655
 30
0.0
 10
94.83036841400907
 20
-135.9165994104655
 30
0.0
 10
94.87517119064384
 20
-135.8717966326987
 30
0.0
 10
94.87517119064384
 20
-135.8166927438238
 30
0.0
  0
SPLINE
  5
7C
330
1F
100
AcDbEntity
  8
_U+30EC_U+30A4_U+30E4_U+30FC 1
 62
   179
420
  2234388
370
     9
100
AcDbSpline
210
0.0
220
0.0
230
1.0
 70
    11
 71
     3
 72
    17
 73
    13
 74
     0
 42
0.0000000001
 43
0.0000000001
 12
1.0
 22
0.0
 32
0.0
 13
1.0
 23
0.0
 33
0.0
 40
0.0
 40
0.0
 40
0.0
 40
0.0
 40
1.0
 40
1.0
 40
1.0
 40
2.0
 40
2.0
 40
2.0
 40
3.0
 40
3.0
 40
3.0
 40
4.0
 40
4.0
 40
4.0
 40
4.0
 10
79.87541323998622
 20
-135.8166927438238
 30
0.0
 10
79.87541323998622
 20
-135.7608832993934
 30
0.0
 10
79.83061046335145
 20
-135.7160805216267
 30
0.0
 10
79.775330186984
 20
-135.7160805216267
 30
0.0
 10
79.72019102172405
 20
-135.7160805216267
 30
0.0
 10
79.67542352286615
 20
-135.7608832993934
 30
0.0
 10
79.67542352286615
 20
-135.8166927438238
 30
0.0
 10
79.67542352286615
 20
-135.8717966326987
 30
0.0
 10
79.72019102172405
 20
-135.9165994104655
 30
0.0
 10
79.775330186984
 20
-135.9165994104655
 30
0.0
 10
79.83061046335145
 20
-135.9165994104655
 30
0.0
 10
79.87541323998622
 20
-135.8717966326987
 30
0.0
 10
79.87541323998622
 20
-135.8166927438238
 30
0.0
  0
SPLINE
  5
7D
330
1F
100
AcDbEntity
  8
_U+30EC_U+30A4_U+30E4_U+30FC 1
 62
   179
420
  2234388
370
     9
100
AcDbSpline
210
0.0
220
0.0
230
1.0
 70
    11
 71
     3
 72
    17
 73
    13
 74
     0
 42
0.0000000001
 43
0.0000000001
 12
1.0
 22
0.0
 32
0.0
 13
1.0
 23
0.0
 33
0.0
 40
0.0
 40
0.0
 40
0.0
 40
0.0
 40
1.0
 40
1.0
 40
1.0
 40
2.0
 40
2.0
 40
2.0
 40
3.0
 40
3.0
 40
3.0
 40
4.0
 40
4.0
 40
4.0
 40
4.0
 10
75.87530139759312
 20
-123.316682469171
 30
0.0
 10
75.87530139759312
 20
-123.2615433025179
 30
0.0
 10
75.83049862095837
 20
-123.216775802529
 30
0.0
 10
75.7753947334753
 20
-123.216775802529
 30
0.0
 10
75.72007917933095
 20
-123.216775802529
 30
0.0
 10
75.67531168047307
 20
-123.2615433025179
 30
0.0
 10
75.67531168047307
 20
-123.316682469171
 30
0.0
 10
75.67531168047307
 20
-123.3717863580459
 30
0.0
 10
75.72007917933095
 20
-123.4165891358126
 30
0.0
 10
75.7753947334753
 20
-123.4165891358126
 30
0.0
 10
75.83049862095837
 20
-123.4165891358126
 30
0.0
 10
75.87530139759312
 20
-123.3717863580459
 30
0.0
 10
75.87530139759312
 20
-123.316682469171
 30
0.0
  0
SPLINE
  5
7E
330
1F
100
AcDbEntity
  8
_U+30EC_U+30A4_U+30E4_U+30FC 1
 62
   179
420
  2234388
370
     9
100
AcDbSpline
210
0.0
220
0.0
230
1.0
 70
    11
 71
     3
 72
    17
 73
    13
 74
     0
 42
0.0000000001
 43
0.0000000001
 12
1.0
 22
0.0
 32
0.0
 13
1.0
 23
0.0
 33
0.0
 40
0.0
 40
0.0
 40
0.0
 40
0.0
 40
1.0
 40
1.0
 40
1.0
 40
2.0
 40
2.0
 40
2.0
 40
3.0
 40
3.0
 40
3.0
 40
4.0
 40
4.0
 40
4.0
 40
4.0
 10
75.87530139759312
 20
-122.316557469421
 30
0.0
 10
75.87530139759312
 20
-122.261100802768
 30
0.0
 10
75.83049862095837
 20
-122.2162980250016
 30
0.0
 10
75.7753947334753
 20
-122.2162980250016
 30
0.0
 10
75.72007917933095
 20
-122.2162980250016
 30
0.0
 10
75.67531168047307
 20
-122.261100802768
 30
0.0
 10
75.67531168047307
 20
-122.316557469421
 30
0.0
 10
75.67531168047307
 20
-122.3720141360737
 30
0.0
 10
75.72007917933095
 20
-122.4164641360626
 30
0.0
 10
75.7753947334753
 20
-122.4164641360626
 30
0.0
 10
75.83049862095837
 20
-122.4164641360626
 30
0.0
 10
75.87530139759312
 20
-122.3720141360737
 30
0.0
 10
75.87530139759312
 20
-122.316557469421
 30
0.0
  0
POLYLINE
  5
7F
330
1F
100
AcDbEntity
  8
_U+30EC_U+30A4_U+30E4_U+30FC 1
 62
   179
420
  2234388
370
     9
100
AcDb2dPolyline
 66
     1
 10
0.0
 20
0.0
 30
0.0
  0
VERTEX
  5
80
330
7F
100
AcDbEntity
  8
_U+30EC_U+30A4_U+30E4_U+30FC 1
 62
   179
420
  2234388
370
     9
100
AcDbVertex
100
AcDb2dVertex
 10
75.7753947334753
 20
-123.316682469171
 30
0.0
  0
VERTEX
  5
81
330
7F
100
AcDbEntity
  8
_U+30EC_U+30A4_U+30E4_U+30FC 1
 62
   179
420
  2234388
370
     9
100
AcDbVertex
100
AcDb2dVertex
 10
75.7753947334753
 20
-127.0869949682284
 30
0.0
  0
SEQEND
  5
82
330
7F
100
AcDbEntity
  8
_U+30EC_U+30A4_U+30E4_U+30FC 1
 62
   179
420
  2234388
370
     9
  0
POLYLINE
  5
83
330
1F
100
AcDbEntity
  8
_U+30EC_U+30A4_U+30E4_U+30FC 1
 62
   179
420
  2234388
370
     9
100
AcDb2dPolyline
 66
     1
 10
0.0
 20
0.0
 30
0.0
  0
VERTEX
  5
84
330
83
100
AcDbEntity
  8
_U+30EC_U+30A4_U+30E4_U+30FC 1
 62
   179
420
  2234388
370
     9
100
AcDbVertex
100
AcDb2dVertex
 10
75.7753947334753
 20
-121.3164677474485
 30
0.0
  0
VERTEX
  5
85
330
83
100
AcDbEntity
  8
_U+30EC_U+30A4_U+30E4_U+30FC 1
 62
   179
420
  2234388
370
     9
100
AcDbVertex
100
AcDb2dVertex
 10
75.7753947334753
 20
-123.316682469171
 30
0.0
  0
SEQEND
  5
86
330
83
100
AcDbEntity
  8
_U+30EC_U+30A4_U+30E4_U+30FC 1
 62
   179
420
  2234388
370
     9
  0
POLYLINE
  5
87
330
1F
100
AcDbEntity
  8
_U+30EC_U+30A4_U+30E4_U+30FC 1
 62
   179
420
  2234388
370
     9
100
AcDb2dPolyline
 66
     1
 10
0.0
 20
0.0
 30
0.0
  0
VERTEX
  5
88
330
87
100
AcDbEntity
  8
_U+30EC_U+30A4_U+30E4_U+30FC 1
 62
   179
420
  2234388
370
     9
100
AcDbVertex
100
AcDb2dVertex
 10
77.23543608511542
 20
-122.316557469421
 30
0.0
  0
VERTEX
  5
89
330
87
100
AcDbEntity
  8
_U+30EC_U+30A4_U+30E4_U+30FC 1
 62
   179
420
  2234388
370
     9
100
AcDbVertex
100
AcDb2dVertex
 10
74.7752697589906
 20
-122.316557469421
 30
0.0
  0
SEQEND
  5
8A
330
87
100
AcDbEntity
  8
_U+30EC_U+30A4_U+30E4_U+30FC 1
 62
   179
420
  2234388
370
     9
  0
POLYLINE
  5
8B
330
1F
100
AcDbEntity
  8
_U+30EC_U+30A4_U+30E4_U+30FC 1
 62
   179
420
  2234388
370
     9
100
AcDb2dPolyline
 66
     1
 10
0.0
 20
0.0
 30
0.0
  0
VERTEX
  5
8C
330
8B
100
AcDbEntity
  8
_U+30EC_U+30A4_U+30E4_U+30FC 1
 62
   179
420
  2234388
370
     9
100
AcDbVertex
100
AcDb2dVertex
 10
77.23543608511542
 20
-123.316682469171
 30
0.0
  0
VERTEX
  5
8D
330
8B
100
AcDbEntity
  8
_U+30EC_U+30A4_U+30E4_U+30FC 1
 62
   179
420
  2234388
370
     9
100
AcDbVertex
100
AcDb2dVertex
 10
74.7752697589906
 20
-123.316682469171
 30
0.0
  0
SEQEND
  5
8E
330
8B
100
AcDbEntity
  8
_U+30EC_U+30A4_U+30E4_U+30FC 1
 62
   179
420
  2234388
370
     9
  0
INSERT
  5
90
330
1F
100
AcDbEntity
  8
_U+30EC_U+30A4_U+30E4_U+30FC 1
100
AcDbBlockReference
  2
block 2
 10
0.0
 20
0.0
 30
0.0
  0
POLYLINE
  5
95
330
1F
100
AcDbEntity
  8
_U+30EC_U+30A4_U+30E4_U+30FC 1
 62
   179
420
  2234388
370
     9
100
AcDb2dPolyline
 66
     1
 10
0.0
 20
0.0
 30
0.0
  0
VERTEX
  5
96
330
95
100
AcDbEntity
  8
_U+30EC_U+30A4_U+30E4_U+30FC 1
 62
   179
420
  2234388
370
     9
100
AcDbVertex
100
AcDb2dVertex
 10
108.7754266693521
 20
-131.8162280226014
 30
0.0
  0
VERTEX
  5
97
330
95
100
AcDbEntity
  8
_U+30EC_U+30A4_U+30E4_U+30FC 1
 62
   179
420
  2234388
370
     9
100
AcDbVertex
100
AcDb2dVertex
 10
108.7754266693521
 20
-128.8162410789071
 30
0.0
  0
SEQEND
  5
98
330
95
100
AcDbEntity
  8
_U+30EC_U+30A4_U+30E4_U+30FC 1
 62
   179
420
  2234388
370
     9
  0
POLYLINE
  5
99
330
1F
100
AcDbEntity
  8
_U+30EC_U+30A4_U+30E4_U+30FC 1
 62
   179
420
  2234388
370
     9
100
AcDb2dPolyline
 66
     1
 10
0.0
 20
0.0
 30
0.0
  0
VERTEX
  5
9A
330
99
100
AcDbEntity
  8
_U+30EC_U+30A4_U+30E4_U+30FC 1
 62
   179
420
  2234388
370
     9
100
AcDbVertex
100
AcDb2dVertex
 10
107.3154205954889
 20
-131.8162280226014
 30
0.0
  0
VERTEX
  5
9B
330
99
100
AcDbEntity
  8
_U+30EC_U+30A4_U+30E4_U+30FC 1
 62
   179
420
  2234388
370
     9
100
AcDbVertex
100
AcDb2dVertex
 10
109.775198866068
 20
-131.8162280226014
 30
0.0
  0
SEQEND
  5
9C
330
99
100
AcDbEntity
  8
_U+30EC_U+30A4_U+30E4_U+30FC 1
 62
   179
420
  2234388
370
     9
  0
POLYLINE
  5
9D
330
1F
100
AcDbEntity
  8
_U+30EC_U+30A4_U+30E4_U+30FC 1
 62
   179
420
  2234388
370
     9
100
AcDb2dPolyline
 66
     1
 10
0.0
 20
0.0
 30
0.0
  0
VERTEX
  5
9E
330
9D
100
AcDbEntity
  8
_U+30EC_U+30A4_U+30E4_U+30FC 1
 62
   179
420
  2234388
370
     9
100
AcDbVertex
100
AcDb2dVertex
 10
107.3154205954889
 20
-128.8162410789071
 30
0.0
  0
VERTEX
  5
9F
330
9D
100
AcDbEntity
  8
_U+30EC_U+30A4_U+30E4_U+30FC 1
 62
   179
420
  2234388
370
     9
100
AcDbVertex
100
AcDb2dVertex
 10
109.775198866068
 20
-128.8162410789071
 30
0.0
  0
SEQEND
  5
A0
330
9D
100
AcDbEntity
  8
_U+30EC_U+30A4_U+30E4_U+30FC 1
 62
   179
420
  2234388
370
     9
  0
INSERT
  5
A2
330
1F
100
AcDbEntity
  8
_U+30EC_U+30A4_U+30E4_U+30FC 1
100
AcDbBlockReference
  2
block 3
 10
0.0
 20
0.0
 30
0.0
  0
POLYLINE
  5
A7
330
1F
100
AcDbEntity
  8
_U+30EC_U+30A4_U+30E4_U+30FC 1
 62
   179
420
  2234388
370
     9
100
AcDb2dPolyline
 66
     1
 10
0.0
 20
0.0
 30
0.0
  0
VERTEX
  5
A8
330
A7
100
AcDbEntity
  8
_U+30EC_U+30A4_U+30E4_U+30FC 1
 62
   179
420
  2234388
370
     9
100
AcDbVertex
100
AcDb2dVertex
 10
108.7754266693521
 20
-128.8162410789071
 30
0.0
  0
VERTEX
  5
A9
330
A7
100
AcDbEntity
  8
_U+30EC_U+30A4_U+30E4_U+30FC 1
 62
   179
420
  2234388
370
     9
100
AcDbVertex
100
AcDb2dVertex
 10
108.7754266693521
 20
-122.316557469421
 30
0.0
  0
SEQEND
  5
AA
330
A7
100
AcDbEntity
  8
_U+30EC_U+30A4_U+30E4_U+30FC 1
 62
   179
420
  2234388
370
     9
  0
POLYLINE
  5
AB
330
1F
100
AcDbEntity
  8
_U+30EC_U+30A4_U+30E4_U+30FC 1
 62
   179
420
  2234388
370
     9
100
AcDb2dPolyline
 66
     1
 10
0.0
 20
0.0
 30
0.0
  0
VERTEX
  5
AC
330
AB
100
AcDbEntity
  8
_U+30EC_U+30A4_U+30E4_U+30FC 1
 62
   179
420
  2234388
370
     9
100
AcDbVertex
100
AcDb2dVertex
 10
98.31545999176365
 20
-122.316557469421
 30
0.0
  0
VERTEX
  5
AD
330
AB
100
AcDbEntity
  8
_U+30EC_U+30A4_U+30E4_U+30FC 1
 62
   179
420
  2234388
370
     9
100
AcDbVertex
100
AcDb2dVertex
 10
109.775198866068
 20
-122.316557469421
 30
0.0
  0
SEQEND
  5
AE
330
AB
100
AcDbEntity
  8
_U+30EC_U+30A4_U+30E4_U+30FC 1
 62
   179
420
  2234388
370
     9
  0
INSERT
  5
B0
330
1F
100
AcDbEntity
  8
_U+30EC_U+30A4_U+30E4_U+30FC 1
100
AcDbBlockReference
  2
block 4
 10
0.0
 20
0.0
 30
0.0
  0
POLYLINE
  5
C0
330
1F
100
AcDbEntity
  8
_U+30EC_U+30A4_U+30E4_U+30FC 1
 62
   179
420
  2234388
370
     9
100
AcDb2dPolyline
 66
     1
 10
0.0
 20
0.0
 30
0.0
  0
VERTEX
  5
C1
330
C0
100
AcDbEntity
  8
_U+30EC_U+30A4_U+30E4_U+30FC 1
 62
   179
420
  2234388
370
     9
100
AcDbVertex
100
AcDb2dVertex
 10
94.775264526526
 20
-135.8166927438238
 30
0.0
  0
VERTEX
  5
C2
330
C0
100
AcDbEntity
  8
_U+30EC_U+30A4_U+30E4_U+30FC 1
 62
   179
420
  2234388
370
     9
100
AcDbVertex
100
AcDb2dVertex
 10
104.7757055293618
 20
-135.8166927438238
 30
0.0
  0
SEQEND
  5
C3
330
C0
100
AcDbEntity
  8
_U+30EC_U+30A4_U+30E4_U+30FC 1
 62
   179
420
  2234388
370
     9
  0
POLYLINE
  5
C4
330
1F
100
AcDbEntity
  8
_U+30EC_U+30A4_U+30E4_U+30FC 1
 62
   179
420
  2234388
370
     9
100
AcDb2dPolyline
 66
     1
 10
0.0
 20
0.0
 30
0.0
  0
VERTEX
  5
C5
330
C4
100
AcDbEntity
  8
_U+30EC_U+30A4_U+30E4_U+30FC 1
 62
   179
420
  2234388
370
     9
100
AcDbVertex
100
AcDb2dVertex
 10
94.775264526526
 20
-134.3566513552995
 30
0.0
  0
VERTEX
  5
C6
330
C4
100
AcDbEntity
  8
_U+30EC_U+30A4_U+30E4_U+30FC 1
 62
   179
420
  2234388
370
     9
100
AcDbVertex
100
AcDb2dVertex
 10
94.775264526526
 20
-136.8164649657957
 30
0.0
  0
SEQEND
  5
C7
330
C4
100
AcDbEntity
  8
_U+30EC_U+30A4_U+30E4_U+30FC 1
 62
   179
420
  2234388
370
     9
  0
POLYLINE
  5
C8
330
1F
100
AcDbEntity
  8
_U+30EC_U+30A4_U+30E4_U+30FC 1
 62
   179
420
  2234388
370
     9
100
AcDb2dPolyline
 66
     1
 10
0.0
 20
0.0
 30
0.0
  0
VERTEX
  5
C9
330
C8
100
AcDbEntity
  8
_U+30EC_U+30A4_U+30E4_U+30FC 1
 62
   179
420
  2234388
370
     9
100
AcDbVertex
100
AcDb2dVertex
 10
104.7757055293618
 20
-134.3566513552995
 30
0.0
  0
VERTEX
  5
CA
330
C8
100
AcDbEntity
  8
_U+30EC_U+30A4_U+30E4_U+30FC 1
 62
   179
420
  2234388
370
     9
100
AcDbVertex
100
AcDb2dVertex
 10
104.7757055293618
 20
-136.8164649657957
 30
0.0
  0
SEQEND
  5
CB
330
C8
100
AcDbEntity
  8
_U+30EC_U+30A4_U+30E4_U+30FC 1
 62
   179
420
  2234388
370
     9
  0
INSERT
  5
CD
330
1F
100
AcDbEntity
  8
_U+30EC_U+30A4_U+30E4_U+30FC 1
100
AcDbBlockReference
  2
block 5
 10
0.0
 20
0.0
 30
0.0
  0
POLYLINE
  5
D5
330
1F
100
AcDbEntity
  8
_U+30EC_U+30A4_U+30E4_U+30FC 1
 62
   179
420
  2234388
370
     9
100
AcDb2dPolyline
 66
     1
 10
0.0
 20
0.0
 30
0.0
  0
VERTEX
  5
D6
330
D5
100
AcDbEntity
  8
_U+30EC_U+30A4_U+30E4_U+30FC 1
 62
   179
420
  2234388
370
     9
100
AcDbVertex
100
AcDb2dVertex
 10
94.775264526526
 20
-135.8166927438238
 30
0.0
  0
VERTEX
  5
D7
330
D5
100
AcDbEntity
  8
_U+30EC_U+30A4_U+30E4_U+30FC 1
 62
   179
420
  2234388
370
     9
100
AcDbVertex
100
AcDb2dVertex
 10
79.775330186984
 20
-135.8166927438238
 30
0.0
  0
SEQEND
  5
D8
330
D5
100
AcDbEntity
  8
_U+30EC_U+30A4_U+30E4_U+30FC 1
 62
   179
420
  2234388
370
     9
  0
POLYLINE
  5
D9
330
1F
100
AcDbEntity
  8
_U+30EC_U+30A4_U+30E4_U+30FC 1
 62
   179
420
  2234388
370
     9
100
AcDb2dPolyline
 66
     1
 10
0.0
 20
0.0
 30
0.0
  0
VERTEX
  5
DA
330
D9
100
AcDbEntity
  8
_U+30EC_U+30A4_U+30E4_U+30FC 1
 62
   179
420
  2234388
370
     9
100
AcDbVertex
100
AcDb2dVertex
 10
79.775330186984
 20
-125.8564002463138
 30
0.0
  0
VERTEX
  5
DB
330
D9
100
AcDbEntity
  8
_U+30EC_U+30A4_U+30E4_U+30FC 1
 62
   179
420
  2234388
370
     9
100
AcDbVertex
100
AcDb2dVertex
 10
79.775330186984
 20
-136.8164649657957
 30
0.0
  0
SEQEND
  5
DC
330
D9
100
AcDbEntity
  8
_U+30EC_U+30A4_U+30E4_U+30FC 1
 62
   179
420
  2234388
370
     9
  0
INSERT
  5
DE
330
1F
100
AcDbEntity
  8
_U+30EC_U+30A4_U+30E4_U+30FC 1
100
AcDbBlockReference
  2
block 6
 10
0.0
 20
0.0
 30
0.0
  0
ENDSEC
  0
SECTION
  2
OBJECTS
  0
DICTIONARY
  5
C
330
0
100
AcDbDictionary
281
     1
  3
ACAD_GROUP
350
D
  3
ACAD_LAYOUT
350
1A
  3
ACAD_MATERIAL
350
3B
  3
ACAD_MLEADERSTYLE
350
E6
  3
ACAD_MLINESTYLE
350
17
  3
ACAD_PLOTSETTINGS
350
19
  3
ACAD_PLOTSTYLENAME
350
E
  3
ACAD_TABLESTYLE
350
E5
  3
ACAD_VISUALSTYLE
350
2A
  0
SUN
  5
3F
330
29
100
AcDbSun
 90
        1
290
     0
 63
     7
421
 16777215
 40
1.0
291
     1
 91
  2455826
 92
 54000000
292
     0
 70
     2
 71
   256
280
     1
  0
DICTIONARY
  5
D
102
{ACAD_REACTORS
330
C
102
}
330
C
100
AcDbDictionary
281
     1
  0
DICTIONARY
  5
1A
102
{ACAD_REACTORS
330
C
102
}
330
C
100
AcDbDictionary
281
     1
  3
Layout1
350
1E
  3
Layout2
350
26
  3
Model
350
22
  0
DICTIONARY
  5
3B
102
{ACAD_REACTORS
330
C
102
}
330
C
100
AcDbDictionary
281
     1
  3
ByBlock
350
3D
  3
ByLayer
350
3C
  3
Global
350
3E
  0
DICTIONARY
  5
E6
102
{ACAD_REACTORS
330
C
102
}
330
C
100
AcDbDictionary
281
     1
  0
DICTIONARY
  5
17
102
{ACAD_REACTORS
330
C
102
}
330
C
100
AcDbDictionary
281
     1
  3
Standard
350
18
  0
DICTIONARY
  5
19
102
{ACAD_REACTORS
330
C
102
}
330
C
100
AcDbDictionary
281
     1
  0
ACDBDICTIONARYWDFLT
  5
E
102
{ACAD_REACTORS
330
C
102
}
330
C
100
AcDbDictionary
281
     1
  3
Normal
350
F
100
AcDbDictionaryWithDefault
340
F
  0
DICTIONARY
  5
E5
102
{ACAD_REACTORS
330
C
102
}
330
C
100
AcDbDictionary
281
     1
  0
DICTIONARY
  5
2A
102
{ACAD_REACTORS
330
C
102
}
330
C
100
AcDbDictionary
281
     1
  3
2dWireframe
350
2F
  3
3D Hidden
350
31
  3
3dWireframe
350
30
  3
Basic
350
32
  3
Brighten
350
36
  3
ColorChange
350
3A
  3
Conceptual
350
34
  3
Dim
350
35
  3
Facepattern
350
39
  3
Flat
350
2B
  3
FlatWithEdges
350
2C
  3
Gouraud
350
2D
  3
GouraudWithEdges
350
2E
  3
Linepattern
350
38
  3
Realistic
350
33
  3
Thicken
350
37
  0
LAYOUT
  5
1E
102
{ACAD_REACTORS
330
1A
102
}
330
1A
100
AcDbPlotSettings
  1

  2
none_device
  4

  6

 40
0.0
 41
0.0
 42
0.0
 43
0.0
 44
0.0
 45
0.0
 46
0.0
 47
0.0
 48
0.0
 49
0.0
140
0.0
141
0.0
142
1.0
143
1.0
 70
   688
 72
     0
 73
     0
 74
     5
  7

 75
    16
 76
     0
 77
     2
 78
   300
147
1.0
148
0.0
149
0.0
100
AcDbLayout
  1
Layout1
 70
     1
 71
     1
 10
0.0
 20
0.0
 11
12.0
 21
9.0
 12
0.0
 22
0.0
 32
0.0
 14
1.000000000000000E+20
 24
1.000000000000000E+20
 34
1.000000000000000E+20
 15
-1.000000000000000E+20
 25
-1.000000000000000E+20
 35
-1.000000000000000E+20
146
0.0
 13
0.0
 23
0.0
 33
0.0
 16
1.0
 26
0.0
 36
0.0
 17
0.0
 27
1.0
 37
0.0
 76
     0
330
1B
  0
LAYOUT
  5
26
102
{ACAD_REACTORS
330
1A
102
}
330
1A
100
AcDbPlotSettings
  1

  2
none_device
  4

  6

 40
0.0
 41
0.0
 42
0.0
 43
0.0
 44
0.0
 45
0.0
 46
0.0
 47
0.0
 48
0.0
 49
0.0
140
0.0
141
0.0
142
1.0
143
1.0
 70
   688
 72
     0
 73
     0
 74
     5
  7

 75
    16
 76
     0
 77
     2
 78
   300
147
1.0
148
0.0
149
0.0
100
AcDbLayout
  1
Layout2
 70
     1
 71
     2
 10
0.0
 20
0.0
 11
0.0
 21
0.0
 12
0.0
 22
0.0
 32
0.0
 14
0.0
 24
0.0
 34
0.0
 15
0.0
 25
0.0
 35
0.0
146
0.0
 13
0.0
 23
0.0
 33
0.0
 16
1.0
 26
0.0
 36
0.0
 17
0.0
 27
1.0
 37
0.0
 76
     0
330
23
  0
LAYOUT
  5
22
102
{ACAD_REACTORS
330
1A
102
}
330
1A
100
AcDbPlotSettings
  1

  2
none_device
  4

  6

 40
0.0
 41
0.0
 42
0.0
 43
0.0
 44
0.0
 45
0.0
 46
0.0
 47
0.0
 48
0.0
 49
0.0
140
0.0
141
0.0
142
1.0
143
1.0
 70
  1712
 72
     0
 73
     0
 74
     0
  7

 75
     0
 76
     0
 77
     2
 78
   300
147
1.0
148
0.0
149
0.0
100
AcDbLayout
  1
Model
 70
     1
 71
     0
 10
0.0
 20
0.0
 11
12.0
 21
9.0
 12
0.0
 22
0.0
 32
0.0
 14
1.000000000000000E+20
 24
1.000000000000000E+20
 34
1.000000000000000E+20
 15
-1.000000000000000E+20
 25
-1.000000000000000E+20
 35
-1.000000000000000E+20
146
0.0
 13
0.0
 23
0.0
 33
0.0
 16
1.0
 26
0.0
 36
0.0
 17
0.0
 27
1.0
 37
0.0
 76
     0
330
1F
331
29
  0
MATERIAL
  5
3D
102
{ACAD_REACTORS
330
3B
102
}
330
3B
100
AcDbMaterial
  1
ByBlock
 72
     1
 94
      127
  0
MATERIAL
  5
3C
102
{ACAD_REACTORS
330
3B
102
}
330
3B
100
AcDbMaterial
  1
ByLayer
 72
     1
 94
      127
  0
MATERIAL
  5
3E
102
{ACAD_REACTORS
330
3B
102
}
330
3B
100
AcDbMaterial
  1
Global
 72
     1
 94
      127
  0
MLINESTYLE
  5
18
102
{ACAD_REACTORS
330
17
102
}
330
17
100
AcDbMlineStyle
  2
Standard
 70
     0
  3

 62
   256
 51
90.0
 52
90.0
 71
     2
 49
0.5
 62
   256
  6
BYLAYER
 49
-0.5
 62
   256
  6
BYLAYER
  0
ACDBPLACEHOLDER
  5
F
102
{ACAD_REACTORS
330
E
102
}
330
E
  0
VISUALSTYLE
  5
2F
102
{ACAD_REACTORS
330
2A
102
}
330
2A
100
AcDbVisualStyle
  2
2dWireframe
 70
     4
177
     2
291
     0
 71
     0
176
     1
 72
     2
176
     1
 73
     0
176
     1
 90
        0
176
     1
 40
-0.6
176
     1
 41
-30.0
176
     1
 62
     5
 63
     7
421
 16777215
176
     1
 74
     1
176
     1
 91
        4
176
     1
 64
     7
176
     1
 65
   257
176
     1
 75
     1
176
     1
175
     1
176
     1
 42
1.0
176
     1
 92
        0
176
     1
 66
   257
176
     1
 43
1.0
176
     1
 76
     1
176
     1
 77
     6
176
     1
 78
     2
176
     1
 67
     7
176
     1
 79
     5
176
     1
170
     0
176
     1
171
     0
176
     1
290
     0
176
     1
 93
        1
176
     1
 44
0.0
176
     1
173
     0
176
     1
  0
VISUALSTYLE
  5
31
102
{ACAD_REACTORS
330
2A
102
}
330
2A
100
AcDbVisualStyle
  2
3D Hidden
 70
     6
177
     2
291
     0
 71
     1
176
     1
 72
     2
176
     1
 73
     2
176
     1
 90
        0
176
     1
 40
-0.6
176
     1
 41
-30.0
176
     1
 62
     5
 63
     7
421
 16777215
176
     1
 74
     2
176
     1
 91
        2
176
     1
 64
     7
176
     1
 65
   257
176
     1
 75
     2
176
     1
175
     1
176
     1
 42
40.0
176
     1
 92
        0
176
     1
 66
   257
176
     1
 43
1.0
176
     1
 76
     1
176
     1
 77
     6
176
     1
 78
     2
176
     1
 67
     7
176
     1
 79
     3
176
     1
170
     0
176
     1
171
     0
176
     1
290
     0
176
     1
 93
        1
176
     1
 44
0.0
176
     1
173
     0
176
     1
  0
VISUALSTYLE
  5
30
102
{ACAD_REACTORS
330
2A
102
}
330
2A
100
AcDbVisualStyle
  2
3dWireframe
 70
     5
177
     2
291
     0
 71
     0
176
     1
 72
     2
176
     1
 73
     0
176
     1
 90
        0
176
     1
 40
-0.6
176
     1
 41
-30.0
176
     1
 62
     5
 63
     7
421
 16777215
176
     1
 74
     1
176
     1
 91
        4
176
     1
 64
     7
176
     1
 65
   257
176
     1
 75
     1
176
     1
175
     1
176
     1
 42
1.0
176
     1
 92
        0
176
     1
 66
   257
176
     1
 43
1.0
176
     1
 76
     1
176
     1
 77
     6
176
     1
 78
     2
176
     1
 67
     7
176
     1
 79
     5
176
     1
170
     0
176
     1
171
     0
176
     1
290
     0
176
     1
 93
        1
176
     1
 44
0.0
176
     1
173
     0
176
     1
  0
VISUALSTYLE
  5
32
102
{ACAD_REACTORS
330
2A
102
}
330
2A
100
AcDbVisualStyle
  2
Basic
 70
     7
177
     2
291
     1
 71
     1
176
     1
 72
     0
176
     1
 73
     1
176
     1
 90
        0
176
     1
 40
-0.6
176
     1
 41
-30.0
176
     1
 62
     5
 63
     7
421
 16777215
176
     1
 74
     0
176
     1
 91
        4
176
     1
 64
     7
176
     1
 65
   257
176
     1
 75
     1
176
     1
175
     1
176
     1
 42
1.0
176
     1
 92
        8
176
     1
 66
     7
176
     1
 43
1.0
176
     1
 76
     1
176
     1
 77
     6
176
     1
 78
     2
176
     1
 67
     7
176
     1
 79
     5
176
     1
170
     0
176
     1
171
     0
176
     1
290
     0
176
     1
 93
        1
176
     1
 44
0.0
176
     1
173
     0
176
     1
  0
VISUALSTYLE
  5
36
102
{ACAD_REACTORS
330
2A
102
}
330
2A
100
AcDbVisualStyle
  2
Brighten
 70
    12
177
     2
291
     1
 71
     2
176
     1
 72
     2
176
     1
 73
     0
176
     1
 90
        0
176
     1
 40
-0.6
176
     1
 41
-30.0
176
     1
 62
     5
 63
     7
421
 16777215
176
     1
 74
     1
176
     1
 91
        4
176
     1
 64
     7
176
     1
 65
   257
176
     1
 75
     1
176
     1
175
     1
176
     1
 42
1.0
176
     1
 92
        8
176
     1
 66
     7
176
     1
 43
1.0
176
     1
 76
     1
176
     1
 77
     6
176
     1
 78
     2
176
     1
 67
     7
176
     1
 79
     5
176
     1
170
     0
176
     1
171
     0
176
     1
290
     0
176
     1
 93
        1
176
     1
 44
50.0
176
     1
173
     0
176
     1
  0
VISUALSTYLE
  5
3A
102
{ACAD_REACTORS
330
2A
102
}
330
2A
100
AcDbVisualStyle
  2
ColorChange
 70
    16
177
     2
291
     1
 71
     2
176
     1
 72
     2
176
     1
 73
     3
176
     1
 90
        0
176
     1
 40
-0.6
176
     1
 41
-30.0
176
     1
 62
     5
 63
     8
421
  8421504
176
     1
 74
     1
176
     1
 91
        4
176
     1
 64
     7
176
     1
 65
   257
176
     1
 75
     1
176
     1
175
     1
176
     1
 42
1.0
176
     1
 92
        8
176
     1
 66
     8
424
  8421504
176
     1
 43
1.0
176
     1
 76
     1
176
     1
 77
     6
176
     1
 78
     2
176
     1
 67
     7
176
     1
 79
     5
176
     1
170
     0
176
     1
171
     0
176
     1
290
     0
176
     1
 93
        1
176
     1
 44
0.0
176
     1
173
     0
176
     1
  0
VISUALSTYLE
  5
34
102
{ACAD_REACTORS
330
2A
102
}
330
2A
100
AcDbVisualStyle
  2
Conceptual
 70
     9
177
     2
291
     0
 71
     3
176
     1
 72
     2
176
     1
 73
     0
176
     1
 90
        0
176
     1
 40
-0.6
176
     1
 41
-30.0
176
     1
 62
     5
 63
     7
421
 16777215
176
     1
 74
     2
176
     1
 91
        2
176
     1
 64
     7
176
     1
 65
   257
176
     1
 75
     1
176
     1
175
     1
176
     1
 42
40.0
176
     1
 92
        8
176
     1
 66
     7
176
     1
 43
1.0
176
     1
 76
     1
176
     1
 77
     6
176
     1
 78
     2
176
     1
 67
     7
176
     1
 79
     3
176
     1
170
     0
176
     1
171
     0
176
     1
290
     0
176
     1
 93
        1
176
     1
 44
0.0
176
     1
173
     0
176
     1
  0
VISUALSTYLE
  5
35
102
{ACAD_REACTORS
330
2A
102
}
330
2A
100
AcDbVisualStyle
  2
Dim
 70
    11
177
     2
291
     1
 71
     2
176
     1
 72
     2
176
     1
 73
     0
176
     1
 90
        0
176
     1
 40
-0.6
176
     1
 41
-30.0
176
     1
 62
     5
 63
     7
421
 16777215
176
     1
 74
     1
176
     1
 91
        4
176
     1
 64
     7
176
     1
 65
   257
176
     1
 75
     1
176
     1
175
     1
176
     1
 42
1.0
176
     1
 92
        8
176
     1
 66
     7
176
     1
 43
1.0
176
     1
 76
     1
176
     1
 77
     6
176
     1
 78
     2
176
     1
 67
     7
176
     1
 79
     5
176
     1
170
     0
176
     1
171
     0
176
     1
290
     0
176
     1
 93
        1
176
     1
 44
-50.0
176
     1
173
     0
176
     1
  0
VISUALSTYLE
  5
39
102
{ACAD_REACTORS
330
2A
102
}
330
2A
100
AcDbVisualStyle
  2
Facepattern
 70
    15
177
     2
291
     1
 71
     2
176
     1
 72
     2
176
     1
 73
     0
176
     1
 90
        0
176
     1
 40
-0.6
176
     1
 41
-30.0
176
     1
 62
     5
 63
     7
421
 16777215
176
     1
 74
     1
176
     1
 91
        4
176
     1
 64
     7
176
     1
 65
   257
176
     1
 75
     1
176
     1
175
     1
176
     1
 42
1.0
176
     1
 92
        8
176
     1
 66
     7
176
     1
 43
1.0
176
     1
 76
     1
176
     1
 77
     6
176
     1
 78
     2
176
     1
 67
     7
176
     1
 79
     5
176
     1
170
     0
176
     1
171
     0
176
     1
290
     0
176
     1
 93
        1
176
     1
 44
0.0
176
     1
173
     0
176
     1
  0
VISUALSTYLE
  5
2B
102
{ACAD_REACTORS
330
2A
102
}
330
2A
100
AcDbVisualStyle
  2
Flat
 70
     0
177
     2
291
     1
 71
     2
176
     1
 72
     1
176
     1
 73
     1
176
     1
 90
        2
176
     1
 40
-0.6
176
     1
 41
30.0
176
     1
 62
     5
 63
     7
421
 16777215
176
     1
 74
     0
176
     1
 91
        4
176
     1
 64
     7
176
     1
 65
   257
176
     1
 75
     1
176
     1
175
     1
176
     1
 42
1.0
176
     1
 92
        8
176
     1
 66
     7
176
     1
 43
1.0
176
     1
 76
     1
176
     1
 77
     6
176
     1
 78
     2
176
     1
 67
     7
176
     1
 79
     5
176
     1
170
     0
176
     1
171
     0
176
     1
290
     0
176
     1
 93
       13
176
     1
 44
0.0
176
     1
173
     0
176
     1
  0
VISUALSTYLE
  5
2C
102
{ACAD_REACTORS
330
2A
102
}
330
2A
100
AcDbVisualStyle
  2
FlatWithEdges
 70
     1
177
     2
291
     1
 71
     2
176
     1
 72
     1
176
     1
 73
     1
176
     1
 90
        2
176
     1
 40
-0.6
176
     1
 41
30.0
176
     1
 62
     5
 63
     7
421
 16777215
176
     1
 74
     1
176
     1
 91
        4
176
     1
 64
     7
176
     1
 65
   257
176
     1
 75
     1
176
     1
175
     1
176
     1
 42
1.0
176
     1
 92
        0
176
     1
 66
   257
176
     1
 43
1.0
176
     1
 76
     1
176
     1
 77
     6
176
     1
 78
     2
176
     1
 67
     7
176
     1
 79
     5
176
     1
170
     0
176
     1
171
     0
176
     1
290
     0
176
     1
 93
       13
176
     1
 44
0.0
176
     1
173
     0
176
     1
  0
VISUALSTYLE
  5
2D
102
{ACAD_REACTORS
330
2A
102
}
330
2A
100
AcDbVisualStyle
  2
Gouraud
 70
     2
177
     2
291
     1
 71
     2
176
     1
 72
     2
176
     1
 73
     1
176
     1
 90
        2
176
     1
 40
-0.6
176
     1
 41
30.0
176
     1
 62
     5
 63
     7
421
 16777215
176
     1
 74
     0
176
     1
 91
        4
176
     1
 64
     7
176
     1
 65
   257
176
     1
 75
     1
176
     1
175
     1
176
     1
 42
1.0
176
     1
 92
        0
176
     1
 66
     7
176
     1
 43
1.0
176
     1
 76
     1
176
     1
 77
     6
176
     1
 78
     2
176
     1
 67
     7
176
     1
 79
     5
176
     1
170
     0
176
     1
171
     0
176
     1
290
     0
176
     1
 93
       13
176
     1
 44
0.0
176
     1
173
     0
176
     1
  0
VISUALSTYLE
  5
2E
102
{ACAD_REACTORS
330
2A
102
}
330
2A
100
AcDbVisualStyle
  2
GouraudWithEdges
 70
     3
177
     2
291
     1
 71
     2
176
     1
 72
     2
176
     1
 73
     1
176
     1
 90
        2
176
     1
 40
-0.6
176
     1
 41
30.0
176
     1
 62
     5
 63
     7
421
 16777215
176
     1
 74
     1
176
     1
 91
        4
176
     1
 64
     7
176
     1
 65
   257
176
     1
 75
     1
176
     1
175
     1
176
     1
 42
1.0
176
     1
 92
        0
176
     1
 66
   257
176
     1
 43
1.0
176
     1
 76
     1
176
     1
 77
     6
176
     1
 78
     2
176
     1
 67
     7
176
     1
 79
     5
176
     1
170
     0
176
     1
171
     0
176
     1
290
     0
176
     1
 93
       13
176
     1
 44
0.0
176
     1
173
     0
176
     1
  0
VISUALSTYLE
  5
38
102
{ACAD_REACTORS
330
2A
102
}
330
2A
100
AcDbVisualStyle
  2
Linepattern
 70
    14
177
     2
291
     1
 71
     2
176
     1
 72
     2
176
     1
 73
     0
176
     1
 90
        0
176
     1
 40
-0.6
176
     1
 41
-30.0
176
     1
 62
     5
 63
     7
421
 16777215
176
     1
 74
     1
176
     1
 91
        4
176
     1
 64
     7
176
     1
 65
   257
176
     1
 75
     7
176
     1
175
     7
176
     1
 42
1.0
176
     1
 92
        8
176
     1
 66
     7
176
     1
 43
1.0
176
     1
 76
     1
176
     1
 77
     6
176
     1
 78
     2
176
     1
 67
     7
176
     1
 79
     5
176
     1
170
     0
176
     1
171
     0
176
     1
290
     0
176
     1
 93
        1
176
     1
 44
0.0
176
     1
173
     0
176
     1
  0
VISUALSTYLE
  5
33
102
{ACAD_REACTORS
330
2A
102
}
330
2A
100
AcDbVisualStyle
  2
Realistic
 70
     8
177
     2
291
     0
 71
     2
176
     1
 72
     2
176
     1
 73
     0
176
     1
 90
        0
176
     1
 40
-0.6
176
     1
 41
-30.0
176
     1
 62
     5
 63
     7
421
 16777215
176
     1
 74
     1
176
     1
 91
        0
176
     1
 64
     7
176
     1
 65
   257
176
     1
 75
     1
176
     1
175
     1
176
     1
 42
1.0
176
     1
 92
        8
176
     1
 66
     8
424
  7895160
176
     1
 43
1.0
176
     1
 76
     1
176
     1
 77
     6
176
     1
 78
     2
176
     1
 67
     7
176
     1
 79
     5
176
     1
170
     0
176
     1
171
     0
176
     1
290
     0
176
     1
 93
       13
176
     1
 44
0.0
176
     1
173
     0
176
     1
  0
VISUALSTYLE
  5
37
102
{ACAD_REACTORS
330
2A
102
}
330
2A
100
AcDbVisualStyle
  2
Thicken
 70
    13
177
     2
291
     1
 71
     2
176
     1
 72
     2
176
     1
 73
     0
176
     1
 90
        0
176
     1
 40
-0.6
176
     1
 41
-30.0
176
     1
 62
     5
 63
     7
421
 16777215
176
     1
 74
     1
176
     1
 91
        4
176
     1
 64
     7
176
     1
 65
   257
176
     1
 75
     1
176
     1
175
     1
176
     1
 42
1.0
176
     1
 92
       12
176
     1
 66
     7
176
     1
 43
1.0
176
     1
 76
     1
176
     1
 77
     6
176
     1
 78
     2
176
     1
 67
     7
176
     1
 79
     5
176
     1
170
     0
176
     1
171
     0
176
     1
290
     0
176
     1
 93
        1
176
     1
 44
0.0
176
     1
173
     0
176
     1
  0
ENDSEC
  0
EOF
