  0
SECTION
  2
HEADER
  9
$ACADVER
  1
AC1024
  9
$ACADMAINTVER
 70
     6
  9
$DWGCODEPAGE
  3
UNDEFINED
  9
$INSBASE
 10
0.0
 20
0.0
 30
0.0
  9
$EXTMIN
 10
1.000000000000000E+20
 20
1.000000000000000E+20
 30
1.000000000000000E+20
  9
$EXTMAX
 10
-1.000000000000000E+20
 20
-1.000000000000000E+20
 30
-1.000000000000000E+20
  9
$LIMMIN
 10
0.0
 20
0.0
  9
$LIMMAX
 10
12.0
 20
9.0
  9
$ORTHOMODE
 70
     0
  9
$REGENMODE
 70
     1
  9
$FILLMODE
 70
     1
  9
$QTEXTMODE
 70
     0
  9
$MIRRTEXT
 70
     1
  9
$LTSCALE
 40
1.0
  9
$ATTMODE
 70
     1
  9
$TEXTSIZE
 40
0.2
  9
$TRACEWID
 40
0.05
  9
$TEXTSTYLE
  7
Standard
  9
$CLAYER
  8
0
  9
$CELTYPE
  6
ByLayer
  9
$CECOLOR
 62
   256
  9
$CELTSCALE
 40
1.0
  9
$DISPSILH
 70
     0
  9
$DIMSCALE
 40
1.0
  9
$DIMASZ
 40
0.18
  9
$DIMEXO
 40
0.0625
  9
$DIMDLI
 40
0.38
  9
$DIMRND
 40
0.0
  9
$DIMDLE
 40
0.0
  9
$DIMEXE
 40
0.18
  9
$DIMTP
 40
0.0
  9
$DIMTM
 40
0.0
  9
$DIMTXT
 40
0.18
  9
$DIMCEN
 40
0.09
  9
$DIMTSZ
 40
0.0
  9
$DIMTOL
 70
     0
  9
$DIMLIM
 70
     0
  9
$DIMTIH
 70
     1
  9
$DIMTOH
 70
     1
  9
$DIMSE1
 70
     0
  9
$DIMSE2
 70
     0
  9
$DIMTAD
 70
     0
  9
$DIMZIN
 70
     0
  9
$DIMBLK
  1

  9
$DIMASO
 70
     1
  9
$DIMSHO
 70
     1
  9
$DIMPOST
  1

  9
$DIMAPOST
  1

  9
$DIMALT
 70
     0
  9
$DIMALTD
 70
     2
  9
$DIMALTF
 40
25.4
  9
$DIMLFAC
 40
1.0
  9
$DIMTOFL
 70
     0
  9
$DIMTVP
 40
0.0
  9
$DIMTIX
 70
     0
  9
$DIMSOXD
 70
     0
  9
$DIMSAH
 70
     0
  9
$DIMBLK1
  1

  9
$DIMBLK2
  1

  9
$DIMSTYLE
  2
Standard
  9
$DIMCLRD
 70
     0
  9
$DIMCLRE
 70
     0
  9
$DIMCLRT
 70
     0
  9
$DIMTFAC
 40
1.0
  9
$DIMGAP
 40
0.09
  9
$DIMJUST
 70
     0
  9
$DIMSD1
 70
     0
  9
$DIMSD2
 70
     0
  9
$DIMTOLJ
 70
     1
  9
$DIMTZIN
 70
     0
  9
$DIMALTZ
 70
     0
  9
$DIMALTTZ
 70
     0
  9
$DIMUPT
 70
     0
  9
$DIMDEC
 70
     4
  9
$DIMTDEC
 70
     4
  9
$DIMALTU
 70
     2
  9
$DIMALTTD
 70
     2
  9
$DIMTXSTY
  7
Standard
  9
$DIMAUNIT
 70
     0
  9
$DIMADEC
 70
     0
  9
$DIMALTRND
 40
0.0
  9
$DIMAZIN
 70
     0
  9
$DIMDSEP
 70
    46
  9
$DIMATFIT
 70
     3
  9
$DIMFRAC
 70
     0
  9
$DIMLDRBLK
  1

  9
$DIMLUNIT
 70
     2
  9
$DIMLWD
 70
    -2
  9
$DIMLWE
 70
    -2
  9
$DIMTMOVE
 70
     0
  9
$DIMFXL
 40
1.0
  9
$DIMFXLON
 70
     0
  9
$DIMJOGANG
 40
0.7853981633974483
  9
$DIMTFILL
 70
     0
  9
$DIMTFILLCLR
 70
     0
  9
$DIMARCSYM
 70
     0
  9
$DIMLTYPE
  6

  9
$DIMLTEX1
  6

  9
$DIMLTEX2
  6

  9
$DIMTXTDIRECTION
 70
     0
  9
$LUNITS
 70
     2
  9
$LUPREC
 70
     4
  9
$SKETCHINC
 40
0.1
  9
$FILLETRAD
 40
0.5
  9
$AUNITS
 70
     0
  9
$AUPREC
 70
     0
  9
$MENU
  1
.
  9
$ELEVATION
 40
0.0
  9
$PELEVATION
 40
0.0
  9
$THICKNESS
 40
0.0
  9
$LIMCHECK
 70
     0
  9
$CHAMFERA
 40
0.5
  9
$CHAMFERB
 40
0.5
  9
$CHAMFERC
 40
1.0
  9
$CHAMFERD
 40
0.0
  9
$SKPOLY
 70
     0
  9
$TDCREATE
 40
2457917.612974537
  9
$TDUCREATE
 40
2457917.237974537
  9
$TDUPDATE
 40
2457917.612974537
  9
$TDUUPDATE
 40
2457917.237974537
  9
$TDINDWG
 40
0.0000000116
  9
$TDUSRTIMER
 40
0.0000000116
  9
$USRTIMER
 70
     1
  9
$ANGBASE
 50
0.0
  9
$ANGDIR
 70
     0
  9
$PDMODE
 70
     0
  9
$PDSIZE
 40
0.0
  9
$PLINEWID
 40
0.0
  9
$SPLFRAME
 70
     0
  9
$SPLINETYPE
 70
     6
  9
$SPLINESEGS
 70
     8
  9
$HANDSEED
  5
10D
  9
$SURFTAB1
 70
     6
  9
$SURFTAB2
 70
     6
  9
$SURFTYPE
 70
     6
  9
$SURFU
 70
     6
  9
$SURFV
 70
     6
  9
$UCSBASE
  2

  9
$UCSNAME
  2

  9
$UCSORG
 10
0.0
 20
0.0
 30
0.0
  9
$UCSXDIR
 10
1.0
 20
0.0
 30
0.0
  9
$UCSYDIR
 10
0.0
 20
1.0
 30
0.0
  9
$UCSORTHOREF
  2

  9
$UCSORTHOVIEW
 70
     0
  9
$UCSORGTOP
 10
0.0
 20
0.0
 30
0.0
  9
$UCSORGBOTTOM
 10
0.0
 20
0.0
 30
0.0
  9
$UCSORGLEFT
 10
0.0
 20
0.0
 30
0.0
  9
$UCSORGRIGHT
 10
0.0
 20
0.0
 30
0.0
  9
$UCSORGFRONT
 10
0.0
 20
0.0
 30
0.0
  9
$UCSORGBACK
 10
0.0
 20
0.0
 30
0.0
  9
$PUCSBASE
  2

  9
$PUCSNAME
  2

  9
$PUCSORG
 10
0.0
 20
0.0
 30
0.0
  9
$PUCSXDIR
 10
1.0
 20
0.0
 30
0.0
  9
$PUCSYDIR
 10
0.0
 20
1.0
 30
0.0
  9
$PUCSORTHOREF
  2

  9
$PUCSORTHOVIEW
 70
     0
  9
$PUCSORGTOP
 10
0.0
 20
0.0
 30
0.0
  9
$PUCSORGBOTTOM
 10
0.0
 20
0.0
 30
0.0
  9
$PUCSORGLEFT
 10
0.0
 20
0.0
 30
0.0
  9
$PUCSORGRIGHT
 10
0.0
 20
0.0
 30
0.0
  9
$PUCSORGFRONT
 10
0.0
 20
0.0
 30
0.0
  9
$PUCSORGBACK
 10
0.0
 20
0.0
 30
0.0
  9
$USERI1
 70
     0
  9
$USERI2
 70
     0
  9
$USERI3
 70
     0
  9
$USERI4
 70
     0
  9
$USERI5
 70
     0
  9
$USERR1
 40
0.0
  9
$USERR2
 40
0.0
  9
$USERR3
 40
0.0
  9
$USERR4
 40
0.0
  9
$USERR5
 40
0.0
  9
$WORLDVIEW
 70
     1
  9
$SHADEDGE
 70
     3
  9
$SHADEDIF
 70
    70
  9
$TILEMODE
 70
     1
  9
$MAXACTVP
 70
    64
  9
$PINSBASE
 10
0.0
 20
0.0
 30
0.0
  9
$PLIMCHECK
 70
     0
  9
$PEXTMIN
 10
1.000000000000000E+20
 20
1.000000000000000E+20
 30
1.000000000000000E+20
  9
$PEXTMAX
 10
-1.000000000000000E+20
 20
-1.000000000000000E+20
 30
-1.000000000000000E+20
  9
$PLIMMIN
 10
0.0
 20
0.0
  9
$PLIMMAX
 10
12.0
 20
9.0
  9
$UNITMODE
 70
     0
  9
$VISRETAIN
 70
     1
  9
$PLINEGEN
 70
     0
  9
$PSLTSCALE
 70
     1
  9
$TREEDEPTH
 70
  3020
  9
$CMLSTYLE
  2
Standard
  9
$CMLJUST
 70
     0
  9
$CMLSCALE
 40
1.0
  9
$PROXYGRAPHICS
 70
     1
  9
$MEASUREMENT
 70
     0
  9
$CELWEIGHT
370
    -1
  9
$ENDCAPS
280
     0
  9
$JOINSTYLE
280
     0
  9
$LWDISPLAY
290
     1
  9
$INSUNITS
 70
     1
  9
$HYPERLINKBASE
  1

  9
$STYLESHEET
  1

  9
$XEDIT
290
     1
  9
$CEPSNTYPE
380
     0
  9
$PSTYLEMODE
290
     1
  9
$FINGERPRINTGUID
  2
{E4FD6226-89C2-ACCB-CA58-6600AA052A18}
  9
$VERSIONGUID
  2
{FAEB1C32-E019-11D5-929B-00C0DF256EC4}
  9
$EXTNAMES
290
     1
  9
$PSVPSCALE
 40
0.0
  9
$OLESTARTUP
290
     0
  9
$SORTENTS
280
   127
  9
$INDEXCTL
280
     0
  9
$HIDETEXT
280
     1
  9
$XCLIPFRAME
280
     2
  9
$HALOGAP
280
     0
  9
$OBSCOLOR
 70
   257
  9
$OBSLTYPE
280
     0
  9
$INTERSECTIONDISPLAY
280
     0
  9
$INTERSECTIONCOLOR
 70
   257
  9
$DIMASSOC
280
     2
  9
$PROJECTNAME
  1

  9
$CAMERADISPLAY
290
     0
  9
$LENSLENGTH
 40
50.0
  9
$CAMERAHEIGHT
 40
0.0
  9
$STEPSPERSEC
 40
2.0
  9
$STEPSIZE
 40
6.0
  9
$3DDWFPREC
 40
2.0
  9
$PSOLWIDTH
 40
0.25
  9
$PSOLHEIGHT
 40
4.0
  9
$LOFTANG1
 40
1.570796326794897
  9
$LOFTANG2
 40
1.570796326794897
  9
$LOFTMAG1
 40
0.0
  9
$LOFTMAG2
 40
0.0
  9
$LOFTPARAM
 70
     7
  9
$LOFTNORMALS
280
     1
  9
$LATITUDE
 40
37.795
  9
$LONGITUDE
 40
-122.394
  9
$NORTHDIRECTION
 40
0.0
  9
$TIMEZONE
 70
 -8000
  9
$LIGHTGLYPHDISPLAY
280
     1
  9
$TILEMODELIGHTSYNCH
280
     1
  9
$CMATERIAL
347
3C
  9
$SOLIDHIST
280
     1
  9
$SHOWHIST
280
     1
  9
$DWFFRAME
280
     2
  9
$DGNFRAME
280
     2
  9
$REALWORLDSCALE
290
     1
  9
$INTERFERECOLOR
 62
   256
  9
$CSHADOW
280
     0
  9
$SHADOWPLANELOCATION
 40
0.0
  0
ENDSEC
  0
SECTION
  2
CLASSES
  0
CLASS
  1
ACDBDICTIONARYWDFLT
  2
AcDbDictionaryWithDefault
  3
ObjectDBX Classes
 90
        0
 91
        4
280
     0
281
     0
  0
CLASS
  1
VISUALSTYLE
  2
AcDbVisualStyle
  3
ObjectDBX Classes
 90
     4095
 91
        4
280
     0
281
     0
  0
CLASS
  1
MATERIAL
  2
AcDbMaterial
  3
ObjectDBX Classes
 90
     1153
 91
        4
280
     0
281
     0
  0
CLASS
  1
SUN
  2
AcDbSun
  3
SCENEOE
 90
     1024
 91
        4
280
     0
281
     0
  0
ENDSEC
  0
SECTION
  2
TABLES
  0
TABLE
  2
VPORT
  5
8
330
0
100
AcDbSymbolTable
 70
     1
  0
VPORT
  5
29
330
8
100
AcDbSymbolTableRecord
100
AcDbViewportTableRecord
  2
*Active
 70
     0
 10
0.0
 20
0.0
 11
1.0
 21
1.0
 12
0.0
 22
0.0
 13
0.0
 23
0.0
 14
0.5
 24
0.5
 15
0.5
 25
0.5
 16
0.0
 26
0.0
 36
1.0
 17
91.00082462281999
 27
-128.4993055234307
 37
0.0
 40
256.9986110468615
 41
0.7081814508812795
 42
50.0
 43
0.0
 44
0.0
 50
0.0
 51
0.0
 71
     0
 72
   100
 73
     1
 74
     3
 75
     0
 76
     0
 77
     0
 78
     0
281
     0
 65
     1
110
0.0
120
0.0
130
0.0
111
1.0
121
0.0
131
0.0
112
0.0
122
1.0
132
0.0
 79
     0
146
0.0
 60
     3
 61
     5
292
     1
282
     1
141
0.0
142
0.0
 63
   250
361
3F
  0
ENDTAB
  0
TABLE
  2
LTYPE
  5
5
330
0
100
AcDbSymbolTable
 70
     1
  0
LTYPE
  5
14
330
5
100
AcDbSymbolTableRecord
100
AcDbLinetypeTableRecord
  2
ByBlock
 70
     0
  3

 72
    65
 73
     0
 40
0.0
  0
LTYPE
  5
15
330
5
100
AcDbSymbolTableRecord
100
AcDbLinetypeTableRecord
  2
ByLayer
 70
     0
  3

 72
    65
 73
     0
 40
0.0
  0
LTYPE
  5
16
330
5
100
AcDbSymbolTableRecord
100
AcDbLinetypeTableRecord
  2
Continuous
 70
     0
  3
Solid line
 72
    65
 73
     0
 40
0.0
  0
ENDTAB
  0
TABLE
  2
LAYER
  5
2
330
0
100
AcDbSymbolTable
 70
     2
  0
LAYER
  5
10
330
2
100
AcDbSymbolTableRecord
100
AcDbLayerTableRecord
  2
0
 70
     0
 62
     7
  6
Continuous
370
    -3
390
F
347
3E
  0
LAYER
  5
40
330
2
100
AcDbSymbolTableRecord
100
AcDbLayerTableRecord
  2
_U+30EC_U+30A4_U+30E4_U+30FC 1
 70
     0
 62
     7
  6
Continuous
370
    -3
390
F
347
3E
  0
ENDTAB
  0
TABLE
  2
STYLE
  5
3
330
0
100
AcDbSymbolTable
 70
     1
  0
STYLE
  5
11
330
3
100
AcDbSymbolTableRecord
100
AcDbTextStyleTableRecord
  2
Standard
 70
     0
 40
0.0
 41
1.0
 50
0.0
 71
     0
 42
0.2
  3
txt
  4

  0
ENDTAB
  0
TABLE
  2
VIEW
  5
6
330
0
100
AcDbSymbolTable
 70
     0
  0
ENDTAB
  0
TABLE
  2
UCS
  5
7
330
0
100
AcDbSymbolTable
 70
     0
  0
ENDTAB
  0
TABLE
  2
APPID
  5
9
330
0
100
AcDbSymbolTable
 70
     1
  0
APPID
  5
12
330
9
100
AcDbSymbolTableRecord
100
AcDbRegAppTableRecord
  2
ACAD
 70
     0
  0
ENDTAB
  0
TABLE
  2
DIMSTYLE
  5
A
330
0
100
AcDbSymbolTable
 70
     1
100
AcDbDimStyleTable
  0
DIMSTYLE
105
27
330
A
100
AcDbSymbolTableRecord
100
AcDbDimStyleTableRecord
  2
Standard
 70
     0
178
     0
340
11
  0
ENDTAB
  0
TABLE
  2
BLOCK_RECORD
  5
1
330
0
100
AcDbSymbolTable
 70
     7
  0
BLOCK_RECORD
  5
1F
330
1
100
AcDbSymbolTableRecord
100
AcDbBlockTableRecord
  2
*Model_Space
340
22
 70
     0
280
     1
281
     0
  0
BLOCK_RECORD
  5
1B
330
1
100
AcDbSymbolTableRecord
100
AcDbBlockTableRecord
  2
*Paper_Space
340
1E
 70
     0
280
     1
281
     0
  0
BLOCK_RECORD
  5
23
330
1
100
AcDbSymbolTableRecord
100
AcDbBlockTableRecord
  2
*Paper_Space0
340
26
 70
     0
280
     1
281
     0
  0
BLOCK_RECORD
  5
92
330
1
100
AcDbSymbolTableRecord
100
AcDbBlockTableRecord
  2
block 2
340
0
102
{BLKREFS
331
93
102
}
 70
     0
280
     1
281
     0
  0
BLOCK_RECORD
  5
AA
330
1
100
AcDbSymbolTableRecord
100
AcDbBlockTableRecord
  2
block 3
340
0
102
{BLKREFS
331
AB
102
}
 70
     0
280
     1
281
     0
  0
BLOCK_RECORD
  5
B8
330
1
100
AcDbSymbolTableRecord
100
AcDbBlockTableRecord
  2
block 4
340
0
102
{BLKREFS
331
B9
102
}
 70
     0
280
     1
281
     0
  0
BLOCK_RECORD
  5
CA
330
1
100
AcDbSymbolTableRecord
100
AcDbBlockTableRecord
  2
block 5
340
0
102
{BLKREFS
331
CB
102
}
 70
     0
280
     1
281
     0
  0
BLOCK_RECORD
  5
F2
330
1
100
AcDbSymbolTableRecord
100
AcDbBlockTableRecord
  2
block 6
340
0
102
{BLKREFS
331
F3
102
}
 70
     0
280
     1
281
     0
  0
BLOCK_RECORD
  5
103
330
1
100
AcDbSymbolTableRecord
100
AcDbBlockTableRecord
  2
block 7
340
0
102
{BLKREFS
331
104
102
}
 70
     0
280
     1
281
     0
  0
ENDTAB
  0
ENDSEC
  0
SECTION
  2
BLOCKS
  0
BLOCK
  5
20
330
1F
100
AcDbEntity
  8
0
100
AcDbBlockBegin
  2
*Model_Space
 70
     0
 10
0.0
 20
0.0
 30
0.0
  3
*Model_Space
  1

  0
ENDBLK
  5
21
330
1F
100
AcDbEntity
  8
0
100
AcDbBlockEnd
  0
BLOCK
  5
1C
330
1B
100
AcDbEntity
 67
     1
  8
0
100
AcDbBlockBegin
  2
*Paper_Space
 70
     0
 10
0.0
 20
0.0
 30
0.0
  3
*Paper_Space
  1

  0
ENDBLK
  5
1D
330
1B
100
AcDbEntity
 67
     1
  8
0
100
AcDbBlockEnd
  0
BLOCK
  5
24
330
23
100
AcDbEntity
  8
0
100
AcDbBlockBegin
  2
*Paper_Space0
 70
     0
 10
0.0
 20
0.0
 30
0.0
  3
*Paper_Space0
  1

  0
ENDBLK
  5
25
330
23
100
AcDbEntity
  8
0
100
AcDbBlockEnd
  0
BLOCK
  5
94
330
92
100
AcDbEntity
  8
0
100
AcDbBlockBegin
  2
block 2
 70
     0
 10
0.0
 20
0.0
 30
0.0
  3
block 2
  1

  0
SPLINE
  5
96
330
92
100
AcDbEntity
  8
_U+30EC_U+30A4_U+30E4_U+30FC 1
370
     0
100
AcDbSpline
210
0.0
220
0.0
230
1.0
 70
    11
 71
     3
 72
    26
 73
    22
 74
     0
 42
0.0000000001
 43
0.0000000001
 12
1.0
 22
0.0
 32
0.0
 13
1.0
 23
0.0
 33
0.0
 40
0.0
 40
0.0
 40
0.0
 40
0.0
 40
1.0
 40
1.0
 40
1.0
 40
2.0
 40
2.0
 40
2.0
 40
3.0
 40
3.0
 40
3.0
 40
4.0
 40
4.0
 40
4.0
 40
5.0
 40
5.0
 40
5.0
 40
6.0
 40
6.0
 40
6.0
 40
7.0
 40
7.0
 40
7.0
 40
7.0
 10
85.11246200129133
 20
-141.6740396781232
 30
0.0
 10
85.11246200129133
 20
-141.6740396781232
 30
0.0
 10
85.11246200129133
 20
-140.5695420655521
 30
0.0
 10
85.11246200129133
 20
-140.5695420655521
 30
0.0
 10
85.11246200129133
 20
-140.5695420655521
 30
0.0
 10
84.7824218538044
 20
-140.5695420655521
 30
0.0
 10
84.7824218538044
 20
-140.5695420655521
 30
0.0
 10
84.7824218538044
 20
-140.5695420655521
 30
0.0
 10
84.7824218538044
 20
-140.4214029596863
 30
0.0
 10
84.7824218538044
 20
-140.4214029596863
 30
0.0
 10
85.11452905858248
 20
-140.4069335586483
 30
0.0
 10
85.16103784763335
 20
-140.2436360326474
 30
0.0
 10
85.1906656688065
 20
-140.1292588625371
 30
0.0
 10
85.1906656688065
 20
-140.1292588625371
 30
0.0
 10
85.3367377173811
 20
-140.1292588625371
 30
0.0
 10
85.3367377173811
 20
-140.1292588625371
 30
0.0
 10
85.3367377173811
 20
-140.1292588625371
 30
0.0
 10
85.3367377173811
 20
-141.6740396781232
 30
0.0
 10
85.3367377173811
 20
-141.6740396781232
 30
0.0
 10
85.3367377173811
 20
-141.6740396781232
 30
0.0
 10
85.11246200129133
 20
-141.6740396781232
 30
0.0
 10
85.11246200129133
 20
-141.6740396781232
 30
0.0
  0
HATCH
  5
97
330
92
100
AcDbEntity
  8
_U+30EC_U+30A4_U+30E4_U+30FC 1
 62
     7
420
 16777215
100
AcDbHatch
 10
0.0
 20
0.0
 30
0.0
210
0.0
220
0.0
230
1.0
  2
SOLID
 70
     1
 71
     0
 91
        1
 92
        1
 93
        1
 72
     4
 94
        3
 73
     0
 74
     1
 95
       26
 96
       22
 40
0.0
 40
0.0
 40
0.0
 40
0.0
 40
1.0
 40
1.0
 40
1.0
 40
2.0
 40
2.0
 40
2.0
 40
3.0
 40
3.0
 40
3.0
 40
4.0
 40
4.0
 40
4.0
 40
5.0
 40
5.0
 40
5.0
 40
6.0
 40
6.0
 40
6.0
 40
7.0
 40
7.0
 40
7.0
 40
7.0
 10
85.11246200129133
 20
-141.6740396781232
 10
85.11246200129133
 20
-141.6740396781232
 10
85.11246200129133
 20
-140.5695420655521
 10
85.11246200129133
 20
-140.5695420655521
 10
85.11246200129133
 20
-140.5695420655521
 10
84.7824218538044
 20
-140.5695420655521
 10
84.7824218538044
 20
-140.5695420655521
 10
84.7824218538044
 20
-140.5695420655521
 10
84.7824218538044
 20
-140.4214029596863
 10
84.7824218538044
 20
-140.4214029596863
 10
85.11452905858248
 20
-140.4069335586483
 10
85.16103784763335
 20
-140.2436360326474
 10
85.1906656688065
 20
-140.1292588625371
 10
85.1906656688065
 20
-140.1292588625371
 10
85.3367377173811
 20
-140.1292588625371
 10
85.3367377173811
 20
-140.1292588625371
 10
85.3367377173811
 20
-140.1292588625371
 10
85.3367377173811
 20
-141.6740396781232
 10
85.3367377173811
 20
-141.6740396781232
 10
85.3367377173811
 20
-141.6740396781232
 10
85.11246200129133
 20
-141.6740396781232
 10
85.11246200129133
 20
-141.6740396781232
 97
        0
 97
        0
 75
     2
 76
     1
 98
        0
  0
SPLINE
  5
98
330
92
100
AcDbEntity
  8
_U+30EC_U+30A4_U+30E4_U+30FC 1
370
     0
100
AcDbSpline
210
0.0
220
0.0
230
1.0
 70
    11
 71
     3
 72
    53
 73
    49
 74
     0
 42
0.0000000001
 43
0.0000000001
 12
1.0
 22
0.0
 32
0.0
 13
1.0
 23
0.0
 33
0.0
 40
0.0
 40
0.0
 40
0.0
 40
0.0
 40
1.0
 40
1.0
 40
1.0
 40
2.0
 40
2.0
 40
2.0
 40
3.0
 40
3.0
 40
3.0
 40
4.0
 40
4.0
 40
4.0
 40
5.0
 40
5.0
 40
5.0
 40
6.0
 40
6.0
 40
6.0
 40
7.0
 40
7.0
 40
7.0
 40
8.0
 40
8.0
 40
8.0
 40
9.0
 40
9.0
 40
9.0
 40
10.0
 40
10.0
 40
10.0
 40
11.0
 40
11.0
 40
11.0
 40
12.0
 40
12.0
 40
12.0
 40
13.0
 40
13.0
 40
13.0
 40
14.0
 40
14.0
 40
14.0
 40
15.0
 40
15.0
 40
15.0
 40
16.0
 40
16.0
 40
16.0
 40
16.0
 10
86.31893444022583
 20
-141.7243380722078
 30
0.0
 10
86.24073077271065
 20
-141.7243380722078
 30
0.0
 10
86.13910045589579
 20
-141.7078016138786
 30
0.0
 10
86.03747013908091
 20
-141.64441185695
 30
0.0
 10
85.86418183617285
 20
-141.534168801422
 30
0.0
 10
85.8428222441643
 20
-141.4032551729825
 30
0.0
 10
85.82387421899543
 20
-141.2950791747457
 30
0.0
 10
85.82387421899543
 20
-141.2950791747457
 30
0.0
 10
86.04608287779403
 20
-141.2950791747457
 30
0.0
 10
86.04608287779403
 20
-141.2950791747457
 30
0.0
 10
86.10085989600951
 20
-141.4942056937931
 30
0.0
 10
86.22798391941522
 20
-141.5238335149663
 30
0.0
 10
86.32100149751697
 20
-141.5238335149663
 30
0.0
 10
86.4605278646696
 20
-141.5238335149663
 30
0.0
 10
86.61280108511764
 20
-141.423925745894
 30
0.0
 10
86.61280108511764
 20
-141.1917263101882
 30
0.0
 10
86.61280108511764
 20
-140.9354112060856
 30
0.0
 10
86.4329671007876
 20
-140.8658202772835
 30
0.0
 10
86.31238875880385
 20
-140.8658202772835
 30
0.0
 10
86.28069388033956
 20
-140.8658202772835
 30
0.0
 10
86.13910045589579
 20
-140.8658202772835
 30
0.0
 10
86.05021699237633
 20
-140.9946668484319
 30
0.0
 10
86.05021699237633
 20
-140.9946668484319
 30
0.0
 10
85.8745171226286
 20
-140.9760633328115
 30
0.0
 10
85.8745171226286
 20
-140.9760633328115
 30
0.0
 10
85.8745171226286
 20
-140.9760633328115
 30
0.0
 10
85.99509546461235
 20
-140.1292588625371
 30
0.0
 10
85.99509546461235
 20
-140.1292588625371
 30
0.0
 10
85.99509546461235
 20
-140.1292588625371
 30
0.0
 10
86.7736870442788
 20
-140.1292588625371
 30
0.0
 10
86.7736870442788
 20
-140.1292588625371
 30
0.0
 10
86.7736870442788
 20
-140.1292588625371
 30
0.0
 10
86.7736870442788
 20
-140.3242512670023
 30
0.0
 10
86.7736870442788
 20
-140.3242512670023
 30
0.0
 10
86.7736870442788
 20
-140.3242512670023
 30
0.0
 10
86.15804848106465
 20
-140.3242512670023
 30
0.0
 10
86.15804848106465
 20
-140.3242512670023
 30
0.0
 10
86.15804848106465
 20
-140.3242512670023
 30
0.0
 10
86.09259166684491
 20
-140.7473089925909
 30
0.0
 10
86.09259166684491
 20
-140.7473089925909
 30
0.0
 10
86.15391436648235
 20
-140.7135470568355
 30
0.0
 10
86.23625214857984
 20
-140.6728949301095
 30
0.0
 10
86.35476343327242
 20
-140.6728949301095
 30
0.0
 10
86.60866697053534
 20
-140.6728949301095
 30
0.0
 10
86.84568953992053
 20
-140.8596191054101
 30
0.0
 10
86.84568953992053
 20
-141.1724337754708
 30
0.0
 10
86.84568953992053
 20
-141.4900715792108
 30
0.0
 10
86.62141382383076
 20
-141.7243380722078
 30
0.0
 10
86.31893444022583
 20
-141.7243380722078
 30
0.0
  0
HATCH
  5
99
330
92
100
AcDbEntity
  8
_U+30EC_U+30A4_U+30E4_U+30FC 1
 62
     7
420
 16777215
100
AcDbHatch
 10
0.0
 20
0.0
 30
0.0
210
0.0
220
0.0
230
1.0
  2
SOLID
 70
     1
 71
     0
 91
        1
 92
        1
 93
        1
 72
     4
 94
        3
 73
     0
 74
     1
 95
       53
 96
       49
 40
0.0
 40
0.0
 40
0.0
 40
0.0
 40
1.0
 40
1.0
 40
1.0
 40
2.0
 40
2.0
 40
2.0
 40
3.0
 40
3.0
 40
3.0
 40
4.0
 40
4.0
 40
4.0
 40
5.0
 40
5.0
 40
5.0
 40
6.0
 40
6.0
 40
6.0
 40
7.0
 40
7.0
 40
7.0
 40
8.0
 40
8.0
 40
8.0
 40
9.0
 40
9.0
 40
9.0
 40
10.0
 40
10.0
 40
10.0
 40
11.0
 40
11.0
 40
11.0
 40
12.0
 40
12.0
 40
12.0
 40
13.0
 40
13.0
 40
13.0
 40
14.0
 40
14.0
 40
14.0
 40
15.0
 40
15.0
 40
15.0
 40
16.0
 40
16.0
 40
16.0
 40
16.0
 10
86.31893444022583
 20
-141.7243380722078
 10
86.24073077271065
 20
-141.7243380722078
 10
86.13910045589579
 20
-141.7078016138786
 10
86.03747013908091
 20
-141.64441185695
 10
85.86418183617285
 20
-141.534168801422
 10
85.8428222441643
 20
-141.4032551729825
 10
85.82387421899543
 20
-141.2950791747457
 10
85.82387421899543
 20
-141.2950791747457
 10
86.04608287779403
 20
-141.2950791747457
 10
86.04608287779403
 20
-141.2950791747457
 10
86.10085989600951
 20
-141.4942056937931
 10
86.22798391941522
 20
-141.5238335149663
 10
86.32100149751697
 20
-141.5238335149663
 10
86.4605278646696
 20
-141.5238335149663
 10
86.61280108511764
 20
-141.423925745894
 10
86.61280108511764
 20
-141.1917263101882
 10
86.61280108511764
 20
-140.9354112060856
 10
86.4329671007876
 20
-140.8658202772835
 10
86.31238875880385
 20
-140.8658202772835
 10
86.28069388033956
 20
-140.8658202772835
 10
86.13910045589579
 20
-140.8658202772835
 10
86.05021699237633
 20
-140.9946668484319
 10
86.05021699237633
 20
-140.9946668484319
 10
85.8745171226286
 20
-140.9760633328115
 10
85.8745171226286
 20
-140.9760633328115
 10
85.8745171226286
 20
-140.9760633328115
 10
85.99509546461235
 20
-140.1292588625371
 10
85.99509546461235
 20
-140.1292588625371
 10
85.99509546461235
 20
-140.1292588625371
 10
86.7736870442788
 20
-140.1292588625371
 10
86.7736870442788
 20
-140.1292588625371
 10
86.7736870442788
 20
-140.1292588625371
 10
86.7736870442788
 20
-140.3242512670023
 10
86.7736870442788
 20
-140.3242512670023
 10
86.7736870442788
 20
-140.3242512670023
 10
86.15804848106465
 20
-140.3242512670023
 10
86.15804848106465
 20
-140.3242512670023
 10
86.15804848106465
 20
-140.3242512670023
 10
86.09259166684491
 20
-140.7473089925909
 10
86.09259166684491
 20
-140.7473089925909
 10
86.15391436648235
 20
-140.7135470568355
 10
86.23625214857984
 20
-140.6728949301095
 10
86.35476343327242
 20
-140.6728949301095
 10
86.60866697053534
 20
-140.6728949301095
 10
86.84568953992053
 20
-140.8596191054101
 10
86.84568953992053
 20
-141.1724337754708
 10
86.84568953992053
 20
-141.4900715792108
 10
86.62141382383076
 20
-141.7243380722078
 10
86.31893444022583
 20
-141.7243380722078
 97
        0
 97
        0
 75
     2
 76
     1
 98
        0
  0
ENDBLK
  5
95
330
92
100
AcDbEntity
  8
0
100
AcDbBlockEnd
  0
BLOCK
  5
AC
330
AA
100
AcDbEntity
  8
0
100
AcDbBlockBegin
  2
block 3
 70
     0
 10
0.0
 20
0.0
 30
0.0
  3
block 3
  1

  0
SPLINE
  5
AE
330
AA
100
AcDbEntity
  8
_U+30EC_U+30A4_U+30E4_U+30FC 1
370
     0
100
AcDbSpline
210
0.0
220
0.0
230
1.0
 70
    11
 71
     3
 72
    26
 73
    22
 74
     0
 42
0.0000000001
 43
0.0000000001
 12
1.0
 22
0.0
 32
0.0
 13
1.0
 23
0.0
 33
0.0
 40
0.0
 40
0.0
 40
0.0
 40
0.0
 40
1.0
 40
1.0
 40
1.0
 40
2.0
 40
2.0
 40
2.0
 40
3.0
 40
3.0
 40
3.0
 40
4.0
 40
4.0
 40
4.0
 40
5.0
 40
5.0
 40
5.0
 40
6.0
 40
6.0
 40
6.0
 40
7.0
 40
7.0
 40
7.0
 40
7.0
 10
111.1336127109319
 20
-122.0132242533509
 30
0.0
 10
111.1336127109319
 20
-122.0132242533509
 30
0.0
 10
110.0294596079093
 20
-122.0132242533509
 30
0.0
 10
110.0294596079093
 20
-122.0132242533509
 30
0.0
 10
110.0294596079093
 20
-122.0132242533509
 30
0.0
 10
110.0294596079093
 20
-122.3432644008378
 30
0.0
 10
110.0294596079093
 20
-122.3432644008378
 30
0.0
 10
110.0294596079093
 20
-122.3432644008378
 30
0.0
 10
109.8813205020436
 20
-122.3432644008378
 30
0.0
 10
109.8813205020436
 20
-122.3432644008378
 30
0.0
 10
109.866506591457
 20
-122.0111571960597
 30
0.0
 10
109.7035535750047
 20
-121.9646484070088
 30
0.0
 10
109.5891764048944
 20
-121.9350205858357
 30
0.0
 10
109.5891764048944
 20
-121.9350205858357
 30
0.0
 10
109.5891764048944
 20
-121.7889485372611
 30
0.0
 10
109.5891764048944
 20
-121.7889485372611
 30
0.0
 10
109.5891764048944
 20
-121.7889485372611
 30
0.0
 10
111.1336127109319
 20
-121.7889485372611
 30
0.0
 10
111.1336127109319
 20
-121.7889485372611
 30
0.0
 10
111.1336127109319
 20
-121.7889485372611
 30
0.0
 10
111.1336127109319
 20
-122.0132242533509
 30
0.0
 10
111.1336127109319
 20
-122.0132242533509
 30
0.0
  0
HATCH
  5
AF
330
AA
100
AcDbEntity
  8
_U+30EC_U+30A4_U+30E4_U+30FC 1
 62
     7
420
 16777215
100
AcDbHatch
 10
0.0
 20
0.0
 30
0.0
210
0.0
220
0.0
230
1.0
  2
SOLID
 70
     1
 71
     0
 91
        1
 92
        1
 93
        1
 72
     4
 94
        3
 73
     0
 74
     1
 95
       26
 96
       22
 40
0.0
 40
0.0
 40
0.0
 40
0.0
 40
1.0
 40
1.0
 40
1.0
 40
2.0
 40
2.0
 40
2.0
 40
3.0
 40
3.0
 40
3.0
 40
4.0
 40
4.0
 40
4.0
 40
5.0
 40
5.0
 40
5.0
 40
6.0
 40
6.0
 40
6.0
 40
7.0
 40
7.0
 40
7.0
 40
7.0
 10
111.1336127109319
 20
-122.0132242533509
 10
111.1336127109319
 20
-122.0132242533509
 10
110.0294596079093
 20
-122.0132242533509
 10
110.0294596079093
 20
-122.0132242533509
 10
110.0294596079093
 20
-122.0132242533509
 10
110.0294596079093
 20
-122.3432644008378
 10
110.0294596079093
 20
-122.3432644008378
 10
110.0294596079093
 20
-122.3432644008378
 10
109.8813205020436
 20
-122.3432644008378
 10
109.8813205020436
 20
-122.3432644008378
 10
109.866506591457
 20
-122.0111571960597
 10
109.7035535750047
 20
-121.9646484070088
 10
109.5891764048944
 20
-121.9350205858357
 10
109.5891764048944
 20
-121.9350205858357
 10
109.5891764048944
 20
-121.7889485372611
 10
109.5891764048944
 20
-121.7889485372611
 10
109.5891764048944
 20
-121.7889485372611
 10
111.1336127109319
 20
-121.7889485372611
 10
111.1336127109319
 20
-121.7889485372611
 10
111.1336127109319
 20
-121.7889485372611
 10
111.1336127109319
 20
-122.0132242533509
 10
111.1336127109319
 20
-122.0132242533509
 97
        0
 97
        0
 75
     2
 76
     1
 98
        0
  0
ENDBLK
  5
AD
330
AA
100
AcDbEntity
  8
0
100
AcDbBlockEnd
  0
BLOCK
  5
BA
330
B8
100
AcDbEntity
  8
0
100
AcDbBlockBegin
  2
block 4
 70
     0
 10
0.0
 20
0.0
 30
0.0
  3
block 4
  1

  0
SPLINE
  5
BC
330
B8
100
AcDbEntity
  8
_U+30EC_U+30A4_U+30E4_U+30FC 1
370
     0
100
AcDbSpline
210
0.0
220
0.0
230
1.0
 70
    11
 71
     3
 72
    62
 73
    58
 74
     0
 42
0.0000000001
 43
0.0000000001
 12
1.0
 22
0.0
 32
0.0
 13
1.0
 23
0.0
 33
0.0
 40
0.0
 40
0.0
 40
0.0
 40
0.0
 40
1.0
 40
1.0
 40
1.0
 40
2.0
 40
2.0
 40
2.0
 40
3.0
 40
3.0
 40
3.0
 40
4.0
 40
4.0
 40
4.0
 40
5.0
 40
5.0
 40
5.0
 40
6.0
 40
6.0
 40
6.0
 40
7.0
 40
7.0
 40
7.0
 40
8.0
 40
8.0
 40
8.0
 40
9.0
 40
9.0
 40
9.0
 40
10.0
 40
10.0
 40
10.0
 40
11.0
 40
11.0
 40
11.0
 40
12.0
 40
12.0
 40
12.0
 40
13.0
 40
13.0
 40
13.0
 40
14.0
 40
14.0
 40
14.0
 40
15.0
 40
15.0
 40
15.0
 40
16.0
 40
16.0
 40
16.0
 40
17.0
 40
17.0
 40
17.0
 40
18.0
 40
18.0
 40
18.0
 40
19.0
 40
19.0
 40
19.0
 40
19.0
 10
111.184255614565
 20
-136.8281683685707
 30
0.0
 10
111.184255614565
 20
-136.9235975135122
 30
0.0
 10
111.163240532105
 20
-137.14132754818
 30
0.0
 10
110.9772053759015
 20
-137.2663845142945
 30
0.0
 10
110.8648952630824
 20
-137.3401095576789
 30
0.0
 10
110.7656765131072
 20
-137.3445881818097
 30
0.0
 10
110.6809271641701
 20
-137.348722296392
 30
0.0
 10
110.6809271641701
 20
-137.348722296392
 30
0.0
 10
110.6809271641701
 20
-137.1285806948845
 30
0.0
 10
110.6809271641701
 20
-137.1285806948845
 30
0.0
 10
110.7549967171029
 20
-137.1265136375934
 30
0.0
 10
110.9896077196484
 20
-137.1161783511376
 30
0.0
 10
110.9896077196484
 20
-136.8326469927016
 30
0.0
 10
110.9896077196484
 20
-136.6951876828401
 30
0.0
 10
110.9200167908464
 20
-136.5425699528435
 30
0.0
 10
110.6916069601743
 20
-136.5425699528435
 30
0.0
 10
110.5751627327729
 20
-136.5425699528435
 30
0.0
 10
110.5265868864309
 20
-136.5808105127298
 30
0.0
 10
110.4948920079666
 20
-136.6125053911941
 30
0.0
 10
110.4208224550337
 20
-136.686574944127
 30
0.0
 10
110.4080756017383
 20
-136.8030191715284
 30
0.0
 10
110.4080756017383
 20
-136.8577961897439
 30
0.0
 10
110.4080756017383
 20
-136.8770887244613
 30
0.0
 10
110.4101426590294
 20
-136.9129177175079
 30
0.0
 10
110.4142767736117
 20
-136.9404784813899
 30
0.0
 10
110.4142767736117
 20
-136.9404784813899
 30
0.0
 10
110.2196288786951
 20
-136.9404784813899
 30
0.0
 10
110.2196288786951
 20
-136.9404784813899
 30
0.0
 10
110.2261745601171
 20
-136.9022379215036
 30
0.0
 10
110.2282416174082
 20
-136.8602077565836
 30
0.0
 10
110.2282416174082
 20
-136.8536620751616
 30
0.0
 10
110.2282416174082
 20
-136.7882052609419
 30
0.0
 10
110.2068820253997
 20
-136.5894232514429
 30
0.0
 10
109.970203965563
 20
-136.5894232514429
 30
0.0
 10
109.7924370385241
 20
-136.5894232514429
 30
0.0
 10
109.7373155107601
 20
-136.7203368798824
 30
0.0
 10
109.7373155107601
 20
-136.8305799354104
 30
0.0
 10
109.7373155107601
 20
-137.0948187591291
 30
0.0
 10
109.970203965563
 20
-137.1034314978422
 30
0.0
 10
110.0418619516562
 20
-137.1075656124245
 30
0.0
 10
110.0418619516562
 20
-137.1075656124245
 30
0.0
 10
110.0418619516562
 20
-137.3108262460542
 30
0.0
 10
110.0418619516562
 20
-137.3108262460542
 30
0.0
 10
109.9171494950902
 20
-137.3022135073411
 30
0.0
 10
109.5406005585524
 20
-137.2746527434591
 30
0.0
 10
109.5406005585524
 20
-136.817833082115
 30
0.0
 10
109.5406005585524
 20
-136.5935573660252
 30
0.0
 10
109.6677245819581
 20
-136.3524006820577
 30
0.0
 10
109.963658284141
 20
-136.3524006820577
 30
0.0
 10
110.150037949893
 20
-136.3524006820577
 30
0.0
 10
110.2323757319905
 20
-136.4474853174506
 30
0.0
 10
110.293698431628
 20
-136.5470485769744
 30
0.0
 10
110.32125919551
 20
-136.4857258773369
 30
0.0
 10
110.4015299203163
 20
-136.3038248357157
 30
0.0
 10
110.6788601068789
 20
-136.3038248357157
 30
0.0
 10
111.0171684835304
 20
-136.3038248357157
 30
0.0
 10
111.184255614565
 20
-136.5511826915566
 30
0.0
 10
111.184255614565
 20
-136.8281683685707
 30
0.0
  0
HATCH
  5
BD
330
B8
100
AcDbEntity
  8
_U+30EC_U+30A4_U+30E4_U+30FC 1
 62
     7
420
 16777215
100
AcDbHatch
 10
0.0
 20
0.0
 30
0.0
210
0.0
220
0.0
230
1.0
  2
SOLID
 70
     1
 71
     0
 91
        1
 92
        1
 93
        1
 72
     4
 94
        3
 73
     0
 74
     1
 95
       62
 96
       58
 40
0.0
 40
0.0
 40
0.0
 40
0.0
 40
1.0
 40
1.0
 40
1.0
 40
2.0
 40
2.0
 40
2.0
 40
3.0
 40
3.0
 40
3.0
 40
4.0
 40
4.0
 40
4.0
 40
5.0
 40
5.0
 40
5.0
 40
6.0
 40
6.0
 40
6.0
 40
7.0
 40
7.0
 40
7.0
 40
8.0
 40
8.0
 40
8.0
 40
9.0
 40
9.0
 40
9.0
 40
10.0
 40
10.0
 40
10.0
 40
11.0
 40
11.0
 40
11.0
 40
12.0
 40
12.0
 40
12.0
 40
13.0
 40
13.0
 40
13.0
 40
14.0
 40
14.0
 40
14.0
 40
15.0
 40
15.0
 40
15.0
 40
16.0
 40
16.0
 40
16.0
 40
17.0
 40
17.0
 40
17.0
 40
18.0
 40
18.0
 40
18.0
 40
19.0
 40
19.0
 40
19.0
 40
19.0
 10
111.184255614565
 20
-136.8281683685707
 10
111.184255614565
 20
-136.9235975135122
 10
111.163240532105
 20
-137.14132754818
 10
110.9772053759015
 20
-137.2663845142945
 10
110.8648952630824
 20
-137.3401095576789
 10
110.7656765131072
 20
-137.3445881818097
 10
110.6809271641701
 20
-137.348722296392
 10
110.6809271641701
 20
-137.348722296392
 10
110.6809271641701
 20
-137.1285806948845
 10
110.6809271641701
 20
-137.1285806948845
 10
110.7549967171029
 20
-137.1265136375934
 10
110.9896077196484
 20
-137.1161783511376
 10
110.9896077196484
 20
-136.8326469927016
 10
110.9896077196484
 20
-136.6951876828401
 10
110.9200167908464
 20
-136.5425699528435
 10
110.6916069601743
 20
-136.5425699528435
 10
110.5751627327729
 20
-136.5425699528435
 10
110.5265868864309
 20
-136.5808105127298
 10
110.4948920079666
 20
-136.6125053911941
 10
110.4208224550337
 20
-136.686574944127
 10
110.4080756017383
 20
-136.8030191715284
 10
110.4080756017383
 20
-136.8577961897439
 10
110.4080756017383
 20
-136.8770887244613
 10
110.4101426590294
 20
-136.9129177175079
 10
110.4142767736117
 20
-136.9404784813899
 10
110.4142767736117
 20
-136.9404784813899
 10
110.2196288786951
 20
-136.9404784813899
 10
110.2196288786951
 20
-136.9404784813899
 10
110.2261745601171
 20
-136.9022379215036
 10
110.2282416174082
 20
-136.8602077565836
 10
110.2282416174082
 20
-136.8536620751616
 10
110.2282416174082
 20
-136.7882052609419
 10
110.2068820253997
 20
-136.5894232514429
 10
109.970203965563
 20
-136.5894232514429
 10
109.7924370385241
 20
-136.5894232514429
 10
109.7373155107601
 20
-136.7203368798824
 10
109.7373155107601
 20
-136.8305799354104
 10
109.7373155107601
 20
-137.0948187591291
 10
109.970203965563
 20
-137.1034314978422
 10
110.0418619516562
 20
-137.1075656124245
 10
110.0418619516562
 20
-137.1075656124245
 10
110.0418619516562
 20
-137.3108262460542
 10
110.0418619516562
 20
-137.3108262460542
 10
109.9171494950902
 20
-137.3022135073411
 10
109.5406005585524
 20
-137.2746527434591
 10
109.5406005585524
 20
-136.817833082115
 10
109.5406005585524
 20
-136.5935573660252
 10
109.6677245819581
 20
-136.3524006820577
 10
109.963658284141
 20
-136.3524006820577
 10
110.150037949893
 20
-136.3524006820577
 10
110.2323757319905
 20
-136.4474853174506
 10
110.293698431628
 20
-136.5470485769744
 10
110.32125919551
 20
-136.4857258773369
 10
110.4015299203163
 20
-136.3038248357157
 10
110.6788601068789
 20
-136.3038248357157
 10
111.0171684835304
 20
-136.3038248357157
 10
111.184255614565
 20
-136.5511826915566
 10
111.184255614565
 20
-136.8281683685707
 97
        0
 97
        0
 75
     2
 76
     1
 98
        0
  0
ENDBLK
  5
BB
330
B8
100
AcDbEntity
  8
0
100
AcDbBlockEnd
  0
BLOCK
  5
CC
330
CA
100
AcDbEntity
  8
0
100
AcDbBlockBegin
  2
block 5
 70
     0
 10
0.0
 20
0.0
 30
0.0
  3
block 5
  1

  0
POLYLINE
  5
CE
330
CA
100
AcDbEntity
  8
_U+30EC_U+30A4_U+30E4_U+30FC 1
370
     0
100
AcDb2dPolyline
 66
     1
 10
0.0
 20
0.0
 30
0.0
  0
VERTEX
  5
CF
330
CE
100
AcDbEntity
  8
_U+30EC_U+30A4_U+30E4_U+30FC 1
370
     0
100
AcDbVertex
100
AcDb2dVertex
 10
87.99290633650872
 20
-116.3269219001717
 30
0.0
  0
VERTEX
  5
D0
330
CE
100
AcDbEntity
  8
_U+30EC_U+30A4_U+30E4_U+30FC 1
370
     0
100
AcDbVertex
100
AcDb2dVertex
 10
87.99290633650872
 20
-116.6738430155364
 30
0.0
  0
VERTEX
  5
D1
330
CE
100
AcDbEntity
  8
_U+30EC_U+30A4_U+30E4_U+30FC 1
370
     0
100
AcDbVertex
100
AcDb2dVertex
 10
87.77517630184093
 20
-116.6738430155364
 30
0.0
  0
VERTEX
  5
D2
330
CE
100
AcDbEntity
  8
_U+30EC_U+30A4_U+30E4_U+30FC 1
370
     0
100
AcDbVertex
100
AcDb2dVertex
 10
87.77517630184093
 20
-116.3269219001717
 30
0.0
  0
VERTEX
  5
D3
330
CE
100
AcDbEntity
  8
_U+30EC_U+30A4_U+30E4_U+30FC 1
370
     0
100
AcDbVertex
100
AcDb2dVertex
 10
87.11923012144936
 20
-116.3269219001717
 30
0.0
  0
VERTEX
  5
D4
330
CE
100
AcDbEntity
  8
_U+30EC_U+30A4_U+30E4_U+30FC 1
370
     0
100
AcDbVertex
100
AcDb2dVertex
 10
87.11923012144936
 20
-116.102646184082
 30
0.0
  0
VERTEX
  5
D5
330
CE
100
AcDbEntity
  8
_U+30EC_U+30A4_U+30E4_U+30FC 1
370
     0
100
AcDbVertex
100
AcDb2dVertex
 10
87.79825844159211
 20
-115.1295789642732
 30
0.0
  0
VERTEX
  5
D6
330
CE
100
AcDbEntity
  8
_U+30EC_U+30A4_U+30E4_U+30FC 1
370
     0
100
AcDbVertex
100
AcDb2dVertex
 10
87.99290633650872
 20
-115.1295789642732
 30
0.0
  0
VERTEX
  5
D7
330
CE
100
AcDbEntity
  8
_U+30EC_U+30A4_U+30E4_U+30FC 1
370
     0
100
AcDbVertex
100
AcDb2dVertex
 10
87.99290633650872
 20
-116.1279676358986
 30
0.0
  0
VERTEX
  5
D8
330
CE
100
AcDbEntity
  8
_U+30EC_U+30A4_U+30E4_U+30FC 1
370
     0
100
AcDbVertex
100
AcDb2dVertex
 10
88.20030108472076
 20
-116.1279676358986
 30
0.0
  0
VERTEX
  5
D9
330
CE
100
AcDbEntity
  8
_U+30EC_U+30A4_U+30E4_U+30FC 1
370
     0
100
AcDbVertex
100
AcDb2dVertex
 10
88.20030108472076
 20
-116.3269219001717
 30
0.0
  0
VERTEX
  5
DA
330
CE
100
AcDbEntity
  8
_U+30EC_U+30A4_U+30E4_U+30FC 1
370
     0
100
AcDbVertex
100
AcDb2dVertex
 10
87.99290633650872
 20
-116.3269219001717
 30
0.0
  0
SEQEND
  5
DB
330
CE
100
AcDbEntity
  8
_U+30EC_U+30A4_U+30E4_U+30FC 1
370
     0
  0
POLYLINE
  5
DC
330
CA
100
AcDbEntity
  8
_U+30EC_U+30A4_U+30E4_U+30FC 1
370
     0
100
AcDb2dPolyline
 66
     1
 10
0.0
 20
0.0
 30
0.0
  0
VERTEX
  5
DD
330
DC
100
AcDbEntity
  8
_U+30EC_U+30A4_U+30E4_U+30FC 1
370
     0
100
AcDbVertex
100
AcDb2dVertex
 10
87.77517630184093
 20
-115.4721937102813
 30
0.0
  0
VERTEX
  5
DE
330
DC
100
AcDbEntity
  8
_U+30EC_U+30A4_U+30E4_U+30FC 1
370
     0
100
AcDbVertex
100
AcDb2dVertex
 10
87.31801213094828
 20
-116.1279676358986
 30
0.0
  0
VERTEX
  5
DF
330
DC
100
AcDbEntity
  8
_U+30EC_U+30A4_U+30E4_U+30FC 1
370
     0
100
AcDbVertex
100
AcDb2dVertex
 10
87.77517630184093
 20
-116.1279676358986
 30
0.0
  0
VERTEX
  5
E0
330
DC
100
AcDbEntity
  8
_U+30EC_U+30A4_U+30E4_U+30FC 1
370
     0
100
AcDbVertex
100
AcDb2dVertex
 10
87.77517630184093
 20
-115.4721937102813
 30
0.0
  0
SEQEND
  5
E1
330
DC
100
AcDbEntity
  8
_U+30EC_U+30A4_U+30E4_U+30FC 1
370
     0
  0
HATCH
  5
E2
330
CA
100
AcDbEntity
  8
_U+30EC_U+30A4_U+30E4_U+30FC 1
 62
     7
420
 16777215
100
AcDbHatch
 10
0.0
 20
0.0
 30
0.0
210
0.0
220
0.0
230
1.0
  2
SOLID
 70
     1
 71
     0
 91
        2
 92
        1
 93
       11
 72
     1
 10
87.99290633650872
 20
-116.3269219001717
 11
87.99290633650872
 21
-116.6738430155364
 72
     1
 10
87.99290633650872
 20
-116.6738430155364
 11
87.77517630184093
 21
-116.6738430155364
 72
     1
 10
87.77517630184093
 20
-116.6738430155364
 11
87.77517630184093
 21
-116.3269219001717
 72
     1
 10
87.77517630184093
 20
-116.3269219001717
 11
87.11923012144936
 21
-116.3269219001717
 72
     1
 10
87.11923012144936
 20
-116.3269219001717
 11
87.11923012144936
 21
-116.102646184082
 72
     1
 10
87.11923012144936
 20
-116.102646184082
 11
87.79825844159211
 21
-115.1295789642732
 72
     1
 10
87.79825844159211
 20
-115.1295789642732
 11
87.99290633650872
 21
-115.1295789642732
 72
     1
 10
87.99290633650872
 20
-115.1295789642732
 11
87.99290633650872
 21
-116.1279676358986
 72
     1
 10
87.99290633650872
 20
-116.1279676358986
 11
88.20030108472076
 21
-116.1279676358986
 72
     1
 10
88.20030108472076
 20
-116.1279676358986
 11
88.20030108472076
 21
-116.3269219001717
 72
     1
 10
88.20030108472076
 20
-116.3269219001717
 11
87.99290633650872
 21
-116.3269219001717
 97
        0
 92
        1
 93
        3
 72
     1
 10
87.77517630184093
 20
-115.4721937102813
 11
87.31801213094828
 21
-116.1279676358986
 72
     1
 10
87.31801213094828
 20
-116.1279676358986
 11
87.77517630184093
 21
-116.1279676358986
 72
     1
 10
87.77517630184093
 20
-116.1279676358986
 11
87.77517630184093
 21
-115.4721937102813
 97
        0
 75
     2
 76
     1
 98
        0
  0
SPLINE
  5
E3
330
CA
100
AcDbEntity
  8
_U+30EC_U+30A4_U+30E4_U+30FC 1
370
     0
100
AcDbSpline
210
0.0
220
0.0
230
1.0
 70
    11
 71
     3
 72
    29
 73
    25
 74
     0
 42
0.0000000001
 43
0.0000000001
 12
1.0
 22
0.0
 32
0.0
 13
1.0
 23
0.0
 33
0.0
 40
0.0
 40
0.0
 40
0.0
 40
0.0
 40
1.0
 40
1.0
 40
1.0
 40
2.0
 40
2.0
 40
2.0
 40
3.0
 40
3.0
 40
3.0
 40
4.0
 40
4.0
 40
4.0
 40
5.0
 40
5.0
 40
5.0
 40
6.0
 40
6.0
 40
6.0
 40
7.0
 40
7.0
 40
7.0
 40
8.0
 40
8.0
 40
8.0
 40
8.0
 10
89.23555227803834
 20
-116.4960760884975
 30
0.0
 10
89.1273762798015
 20
-116.7055378940007
 30
0.0
 10
88.95408797689343
 20
-116.7246581739438
 30
0.0
 10
88.83764374949199
 20
-116.7246581739438
 30
0.0
 10
88.67675779033081
 20
-116.7246581739438
 30
0.0
 10
88.53516436588704
 20
-116.678149384893
 30
0.0
 10
88.44007973049415
 20
-116.4960760884975
 30
0.0
 10
88.33638235638813
 20
-116.3014281935809
 30
0.0
 10
88.31708982167073
 20
-116.06457787897
 30
0.0
 10
88.31708982167073
 20
-115.9016248625177
 30
0.0
 10
88.31708982167073
 20
-115.7577921260085
 30
0.0
 10
88.33431529909699
 20
-115.506127900811
 30
0.0
 10
88.44007973049415
 20
-115.3071736365378
 30
0.0
 10
88.54791121918247
 20
-115.1040852576823
 30
0.0
 10
88.70879717834364
 20
-115.0808308631569
 30
0.0
 10
88.83764374949199
 20
-115.0808308631569
 30
0.0
 10
88.996462651362
 20
-115.0808308631569
 30
0.0
 10
89.14012313309692
 20
-115.1252725949166
 30
0.0
 10
89.23555227803834
 20
-115.3071736365378
 30
0.0
 10
89.33477102801353
 20
-115.4997544741633
 30
0.0
 10
89.35819767731323
 20
-115.7281643048353
 30
0.0
 10
89.35819767731323
 20
-115.9016248625177
 30
0.0
 10
89.35819767731323
 20
-116.0730183629088
 30
0.0
 10
89.33683808530468
 20
-116.3036675056463
 30
0.0
 10
89.23555227803834
 20
-116.4960760884975
 30
0.0
  0
SPLINE
  5
E4
330
CA
100
AcDbEntity
  8
_U+30EC_U+30A4_U+30E4_U+30FC 1
370
     0
100
AcDbSpline
210
0.0
220
0.0
230
1.0
 70
    11
 71
     3
 72
    17
 73
    13
 74
     0
 42
0.0000000001
 43
0.0000000001
 12
1.0
 22
0.0
 32
0.0
 13
1.0
 23
0.0
 33
0.0
 40
0.0
 40
0.0
 40
0.0
 40
0.0
 40
1.0
 40
1.0
 40
1.0
 40
2.0
 40
2.0
 40
2.0
 40
3.0
 40
3.0
 40
3.0
 40
4.0
 40
4.0
 40
4.0
 40
4.0
 10
88.83764374949199
 20
-115.2734117007823
 30
0.0
 10
88.58787432681137
 20
-115.2734117007823
 30
0.0
 10
88.5413655377605
 20
-115.5569430592184
 30
0.0
 10
88.5413655377605
 20
-115.9016248625177
 30
0.0
 10
88.5413655377605
 20
-116.2211574687746
 30
0.0
 10
88.57753904035562
 20
-116.5300102790272
 30
0.0
 10
88.83764374949199
 20
-116.5300102790272
 30
0.0
 10
89.08534611488145
 20
-116.5300102790272
 30
0.0
 10
89.13392196122346
 20
-116.2485459778823
 30
0.0
 10
89.13392196122346
 20
-115.9016248625177
 30
0.0
 10
89.13392196122346
 20
-115.582264511035
 30
0.0
 10
89.09568140133719
 20
-115.2734117007823
 30
0.0
 10
88.83764374949199
 20
-115.2734117007823
 30
0.0
  0
HATCH
  5
E5
330
CA
100
AcDbEntity
  8
_U+30EC_U+30A4_U+30E4_U+30FC 1
 62
     7
420
 16777215
100
AcDbHatch
 10
0.0
 20
0.0
 30
0.0
210
0.0
220
0.0
230
1.0
  2
SOLID
 70
     1
 71
     0
 91
        2
 92
        1
 93
        1
 72
     4
 94
        3
 73
     0
 74
     1
 95
       29
 96
       25
 40
0.0
 40
0.0
 40
0.0
 40
0.0
 40
1.0
 40
1.0
 40
1.0
 40
2.0
 40
2.0
 40
2.0
 40
3.0
 40
3.0
 40
3.0
 40
4.0
 40
4.0
 40
4.0
 40
5.0
 40
5.0
 40
5.0
 40
6.0
 40
6.0
 40
6.0
 40
7.0
 40
7.0
 40
7.0
 40
8.0
 40
8.0
 40
8.0
 40
8.0
 10
89.23555227803834
 20
-116.4960760884975
 10
89.1273762798015
 20
-116.7055378940007
 10
88.95408797689343
 20
-116.7246581739438
 10
88.83764374949199
 20
-116.7246581739438
 10
88.67675779033081
 20
-116.7246581739438
 10
88.53516436588704
 20
-116.678149384893
 10
88.44007973049415
 20
-116.4960760884975
 10
88.33638235638813
 20
-116.3014281935809
 10
88.31708982167073
 20
-116.06457787897
 10
88.31708982167073
 20
-115.9016248625177
 10
88.31708982167073
 20
-115.7577921260085
 10
88.33431529909699
 20
-115.506127900811
 10
88.44007973049415
 20
-115.3071736365378
 10
88.54791121918247
 20
-115.1040852576823
 10
88.70879717834364
 20
-115.0808308631569
 10
88.83764374949199
 20
-115.0808308631569
 10
88.996462651362
 20
-115.0808308631569
 10
89.14012313309692
 20
-115.1252725949166
 10
89.23555227803834
 20
-115.3071736365378
 10
89.33477102801353
 20
-115.4997544741633
 10
89.35819767731323
 20
-115.7281643048353
 10
89.35819767731323
 20
-115.9016248625177
 10
89.35819767731323
 20
-116.0730183629088
 10
89.33683808530468
 20
-116.3036675056463
 10
89.23555227803834
 20
-116.4960760884975
 97
        0
 97
        0
 92
        1
 93
        1
 72
     4
 94
        3
 73
     0
 74
     1
 95
       17
 96
       13
 40
0.0
 40
0.0
 40
0.0
 40
0.0
 40
1.0
 40
1.0
 40
1.0
 40
2.0
 40
2.0
 40
2.0
 40
3.0
 40
3.0
 40
3.0
 40
4.0
 40
4.0
 40
4.0
 40
4.0
 10
88.83764374949199
 20
-115.2734117007823
 10
88.58787432681137
 20
-115.2734117007823
 10
88.5413655377605
 20
-115.5569430592184
 10
88.5413655377605
 20
-115.9016248625177
 10
88.5413655377605
 20
-116.2211574687746
 10
88.57753904035562
 20
-116.5300102790272
 10
88.83764374949199
 20
-116.5300102790272
 10
89.08534611488145
 20
-116.5300102790272
 10
89.13392196122346
 20
-116.2485459778823
 10
89.13392196122346
 20
-115.9016248625177
 10
89.13392196122346
 20
-115.582264511035
 10
89.09568140133719
 20
-115.2734117007823
 10
88.83764374949199
 20
-115.2734117007823
 97
        0
 97
        0
 75
     2
 76
     1
 98
        0
  0
ENDBLK
  5
CD
330
CA
100
AcDbEntity
  8
0
100
AcDbBlockEnd
  0
BLOCK
  5
F4
330
F2
100
AcDbEntity
  8
0
100
AcDbBlockBegin
  2
block 6
 70
     0
 10
0.0
 20
0.0
 30
0.0
  3
block 6
  1

  0
SPLINE
  5
F6
330
F2
100
AcDbEntity
  8
_U+30EC_U+30A4_U+30E4_U+30FC 1
370
     0
100
AcDbSpline
210
0.0
220
0.0
230
1.0
 70
    11
 71
     3
 72
    26
 73
    22
 74
     0
 42
0.0000000001
 43
0.0000000001
 12
1.0
 22
0.0
 32
0.0
 13
1.0
 23
0.0
 33
0.0
 40
0.0
 40
0.0
 40
0.0
 40
0.0
 40
1.0
 40
1.0
 40
1.0
 40
2.0
 40
2.0
 40
2.0
 40
3.0
 40
3.0
 40
3.0
 40
4.0
 40
4.0
 40
4.0
 40
5.0
 40
5.0
 40
5.0
 40
6.0
 40
6.0
 40
6.0
 40
7.0
 40
7.0
 40
7.0
 40
7.0
 10
72.61227754261083
 20
-141.6740396781232
 30
0.0
 10
72.61227754261083
 20
-141.6740396781232
 30
0.0
 10
72.61227754261083
 20
-140.5695420655521
 30
0.0
 10
72.61227754261083
 20
-140.5695420655521
 30
0.0
 10
72.61227754261083
 20
-140.5695420655521
 30
0.0
 10
72.28223739512389
 20
-140.5695420655521
 30
0.0
 10
72.28223739512389
 20
-140.5695420655521
 30
0.0
 10
72.28223739512389
 20
-140.5695420655521
 30
0.0
 10
72.28223739512389
 20
-140.4214029596863
 30
0.0
 10
72.28223739512389
 20
-140.4214029596863
 30
0.0
 10
72.61434459990197
 20
-140.4069335586483
 30
0.0
 10
72.66085338895284
 20
-140.2436360326474
 30
0.0
 10
72.690481210126
 20
-140.1292588625371
 30
0.0
 10
72.690481210126
 20
-140.1292588625371
 30
0.0
 10
72.83655325870059
 20
-140.1292588625371
 30
0.0
 10
72.83655325870059
 20
-140.1292588625371
 30
0.0
 10
72.83655325870059
 20
-140.1292588625371
 30
0.0
 10
72.83655325870059
 20
-141.6740396781232
 30
0.0
 10
72.83655325870059
 20
-141.6740396781232
 30
0.0
 10
72.83655325870059
 20
-141.6740396781232
 30
0.0
 10
72.61227754261083
 20
-141.6740396781232
 30
0.0
 10
72.61227754261083
 20
-141.6740396781232
 30
0.0
  0
HATCH
  5
F7
330
F2
100
AcDbEntity
  8
_U+30EC_U+30A4_U+30E4_U+30FC 1
 62
     7
420
 16777215
100
AcDbHatch
 10
0.0
 20
0.0
 30
0.0
210
0.0
220
0.0
230
1.0
  2
SOLID
 70
     1
 71
     0
 91
        1
 92
        1
 93
        1
 72
     4
 94
        3
 73
     0
 74
     1
 95
       26
 96
       22
 40
0.0
 40
0.0
 40
0.0
 40
0.0
 40
1.0
 40
1.0
 40
1.0
 40
2.0
 40
2.0
 40
2.0
 40
3.0
 40
3.0
 40
3.0
 40
4.0
 40
4.0
 40
4.0
 40
5.0
 40
5.0
 40
5.0
 40
6.0
 40
6.0
 40
6.0
 40
7.0
 40
7.0
 40
7.0
 40
7.0
 10
72.61227754261083
 20
-141.6740396781232
 10
72.61227754261083
 20
-141.6740396781232
 10
72.61227754261083
 20
-140.5695420655521
 10
72.61227754261083
 20
-140.5695420655521
 10
72.61227754261083
 20
-140.5695420655521
 10
72.28223739512389
 20
-140.5695420655521
 10
72.28223739512389
 20
-140.5695420655521
 10
72.28223739512389
 20
-140.5695420655521
 10
72.28223739512389
 20
-140.4214029596863
 10
72.28223739512389
 20
-140.4214029596863
 10
72.61434459990197
 20
-140.4069335586483
 10
72.66085338895284
 20
-140.2436360326474
 10
72.690481210126
 20
-140.1292588625371
 10
72.690481210126
 20
-140.1292588625371
 10
72.83655325870059
 20
-140.1292588625371
 10
72.83655325870059
 20
-140.1292588625371
 10
72.83655325870059
 20
-140.1292588625371
 10
72.83655325870059
 20
-141.6740396781232
 10
72.83655325870059
 20
-141.6740396781232
 10
72.83655325870059
 20
-141.6740396781232
 10
72.61227754261083
 20
-141.6740396781232
 10
72.61227754261083
 20
-141.6740396781232
 97
        0
 97
        0
 75
     2
 76
     1
 98
        0
  0
SPLINE
  5
F8
330
F2
100
AcDbEntity
  8
_U+30EC_U+30A4_U+30E4_U+30FC 1
370
     0
100
AcDbSpline
210
0.0
220
0.0
230
1.0
 70
    11
 71
     3
 72
    29
 73
    25
 74
     0
 42
0.0000000001
 43
0.0000000001
 12
1.0
 22
0.0
 32
0.0
 13
1.0
 23
0.0
 33
0.0
 40
0.0
 40
0.0
 40
0.0
 40
0.0
 40
1.0
 40
1.0
 40
1.0
 40
2.0
 40
2.0
 40
2.0
 40
3.0
 40
3.0
 40
3.0
 40
4.0
 40
4.0
 40
4.0
 40
5.0
 40
5.0
 40
5.0
 40
6.0
 40
6.0
 40
6.0
 40
7.0
 40
7.0
 40
7.0
 40
8.0
 40
8.0
 40
8.0
 40
8.0
 10
74.23543428048629
 20
-141.4962727510843
 30
0.0
 10
74.12760279179797
 20
-141.7057345565875
 30
0.0
 10
73.95414223411564
 20
-141.7243380722078
 30
0.0
 10
73.83769800671419
 20
-141.7243380722078
 30
0.0
 10
73.67698430232728
 20
-141.7243380722078
 30
0.0
 10
73.53521862310926
 20
-141.6781737927055
 30
0.0
 10
73.4399617329421
 20
-141.4962727510843
 30
0.0
 10
73.33643661361035
 20
-141.3012803466191
 30
0.0
 10
73.31731633366721
 20
-141.064946796331
 30
0.0
 10
73.31731633366721
 20
-140.9016492703302
 30
0.0
 10
73.31731633366721
 20
-140.7576442790467
 30
0.0
 10
73.33419730154493
 20
-140.5061523086235
 30
0.0
 10
73.4399617329421
 20
-140.307025789576
 30
0.0
 10
73.54796547640468
 20
-140.1041096654948
 30
0.0
 10
73.70867918079158
 20
-140.0810275257437
 30
0.0
 10
73.83769800671419
 20
-140.0810275257437
 30
0.0
 10
73.99634465380994
 20
-140.0810275257437
 30
0.0
 10
74.14017739031912
 20
-140.1251247479548
 30
0.0
 10
74.23543428048629
 20
-140.307025789576
 30
0.0
 10
74.33482528523574
 20
-140.49995113675
 30
0.0
 10
74.35807967976118
 20
-140.7280164578736
 30
0.0
 10
74.35807967976118
 20
-140.9016492703302
 30
0.0
 10
74.35807967976118
 20
-141.0732150254956
 30
0.0
 10
74.33706459730115
 20
-141.3033474039103
 30
0.0
 10
74.23543428048629
 20
-141.4962727510843
 30
0.0
  0
SPLINE
  5
F9
330
F2
100
AcDbEntity
  8
_U+30EC_U+30A4_U+30E4_U+30FC 1
370
     0
100
AcDbSpline
210
0.0
220
0.0
230
1.0
 70
    11
 71
     3
 72
    17
 73
    13
 74
     0
 42
0.0000000001
 43
0.0000000001
 12
1.0
 22
0.0
 32
0.0
 13
1.0
 23
0.0
 33
0.0
 40
0.0
 40
0.0
 40
0.0
 40
0.0
 40
1.0
 40
1.0
 40
1.0
 40
2.0
 40
2.0
 40
2.0
 40
3.0
 40
3.0
 40
3.0
 40
4.0
 40
4.0
 40
4.0
 40
4.0
 10
73.83769800671419
 20
-140.2732638538206
 30
0.0
 10
73.58810083880783
 20
-140.2732638538206
 30
0.0
 10
73.54159204975697
 20
-140.5571397218052
 30
0.0
 10
73.54159204975697
 20
-140.9016492703302
 30
0.0
 10
73.54159204975697
 20
-141.2213541313613
 30
0.0
 10
73.57759329757782
 20
-141.5300346868397
 30
0.0
 10
73.83769800671419
 20
-141.5300346868397
 30
0.0
 10
74.0852281173294
 20
-141.5300346868397
 30
0.0
 10
74.13397621844568
 20
-141.2489148952433
 30
0.0
 10
74.13397621844568
 20
-140.9016492703302
 30
0.0
 10
74.13397621844568
 20
-140.581944409299
 30
0.0
 10
74.0957356585594
 20
-140.2732638538206
 30
0.0
 10
73.83769800671419
 20
-140.2732638538206
 30
0.0
  0
HATCH
  5
FA
330
F2
100
AcDbEntity
  8
_U+30EC_U+30A4_U+30E4_U+30FC 1
 62
     7
420
 16777215
100
AcDbHatch
 10
0.0
 20
0.0
 30
0.0
210
0.0
220
0.0
230
1.0
  2
SOLID
 70
     1
 71
     0
 91
        2
 92
        1
 93
        1
 72
     4
 94
        3
 73
     0
 74
     1
 95
       29
 96
       25
 40
0.0
 40
0.0
 40
0.0
 40
0.0
 40
1.0
 40
1.0
 40
1.0
 40
2.0
 40
2.0
 40
2.0
 40
3.0
 40
3.0
 40
3.0
 40
4.0
 40
4.0
 40
4.0
 40
5.0
 40
5.0
 40
5.0
 40
6.0
 40
6.0
 40
6.0
 40
7.0
 40
7.0
 40
7.0
 40
8.0
 40
8.0
 40
8.0
 40
8.0
 10
74.23543428048629
 20
-141.4962727510843
 10
74.12760279179797
 20
-141.7057345565875
 10
73.95414223411564
 20
-141.7243380722078
 10
73.83769800671419
 20
-141.7243380722078
 10
73.67698430232728
 20
-141.7243380722078
 10
73.53521862310926
 20
-141.6781737927055
 10
73.4399617329421
 20
-141.4962727510843
 10
73.33643661361035
 20
-141.3012803466191
 10
73.31731633366721
 20
-141.064946796331
 10
73.31731633366721
 20
-140.9016492703302
 10
73.31731633366721
 20
-140.7576442790467
 10
73.33419730154493
 20
-140.5061523086235
 10
73.4399617329421
 20
-140.307025789576
 10
73.54796547640468
 20
-140.1041096654948
 10
73.70867918079158
 20
-140.0810275257437
 10
73.83769800671419
 20
-140.0810275257437
 10
73.99634465380994
 20
-140.0810275257437
 10
74.14017739031912
 20
-140.1251247479548
 10
74.23543428048629
 20
-140.307025789576
 10
74.33482528523574
 20
-140.49995113675
 10
74.35807967976118
 20
-140.7280164578736
 10
74.35807967976118
 20
-140.9016492703302
 10
74.35807967976118
 20
-141.0732150254956
 10
74.33706459730115
 20
-141.3033474039103
 10
74.23543428048629
 20
-141.4962727510843
 97
        0
 97
        0
 92
        1
 93
        1
 72
     4
 94
        3
 73
     0
 74
     1
 95
       17
 96
       13
 40
0.0
 40
0.0
 40
0.0
 40
0.0
 40
1.0
 40
1.0
 40
1.0
 40
2.0
 40
2.0
 40
2.0
 40
3.0
 40
3.0
 40
3.0
 40
4.0
 40
4.0
 40
4.0
 40
4.0
 10
73.83769800671419
 20
-140.2732638538206
 10
73.58810083880783
 20
-140.2732638538206
 10
73.54159204975697
 20
-140.5571397218052
 10
73.54159204975697
 20
-140.9016492703302
 10
73.54159204975697
 20
-141.2213541313613
 10
73.57759329757782
 20
-141.5300346868397
 10
73.83769800671419
 20
-141.5300346868397
 10
74.0852281173294
 20
-141.5300346868397
 10
74.13397621844568
 20
-141.2489148952433
 10
74.13397621844568
 20
-140.9016492703302
 10
74.13397621844568
 20
-140.581944409299
 10
74.0957356585594
 20
-140.2732638538206
 10
73.83769800671419
 20
-140.2732638538206
 97
        0
 97
        0
 75
     2
 76
     1
 98
        0
  0
ENDBLK
  5
F5
330
F2
100
AcDbEntity
  8
0
100
AcDbBlockEnd
  0
BLOCK
  5
105
330
103
100
AcDbEntity
  8
0
100
AcDbBlockBegin
  2
block 7
 70
     0
 10
0.0
 20
0.0
 30
0.0
  3
block 7
  1

  0
SPLINE
  5
107
330
103
100
AcDbEntity
  8
_U+30EC_U+30A4_U+30E4_U+30FC 1
370
     0
100
AcDbSpline
210
0.0
220
0.0
230
1.0
 70
    11
 71
     3
 72
    26
 73
    22
 74
     0
 42
0.0000000001
 43
0.0000000001
 12
1.0
 22
0.0
 32
0.0
 13
1.0
 23
0.0
 33
0.0
 40
0.0
 40
0.0
 40
0.0
 40
0.0
 40
1.0
 40
1.0
 40
1.0
 40
2.0
 40
2.0
 40
2.0
 40
3.0
 40
3.0
 40
3.0
 40
4.0
 40
4.0
 40
4.0
 40
5.0
 40
5.0
 40
5.0
 40
6.0
 40
6.0
 40
6.0
 40
7.0
 40
7.0
 40
7.0
 40
7.0
 10
111.1336127109319
 20
-129.4566975587817
 30
0.0
 10
111.1336127109319
 20
-129.4566975587817
 30
0.0
 10
110.0294596079093
 20
-129.4566975587817
 30
0.0
 10
110.0294596079093
 20
-129.4566975587817
 30
0.0
 10
110.0294596079093
 20
-129.4566975587817
 30
0.0
 10
110.0294596079093
 20
-129.7867377062686
 30
0.0
 10
110.0294596079093
 20
-129.7867377062686
 30
0.0
 10
110.0294596079093
 20
-129.7867377062686
 30
0.0
 10
109.8813205020436
 20
-129.7867377062686
 30
0.0
 10
109.8813205020436
 20
-129.7867377062686
 30
0.0
 10
109.866506591457
 20
-129.4546305014905
 30
0.0
 10
109.7035535750047
 20
-129.4081217124397
 30
0.0
 10
109.5891764048944
 20
-129.3784938912665
 30
0.0
 10
109.5891764048944
 20
-129.3784938912665
 30
0.0
 10
109.5891764048944
 20
-129.2324218426919
 30
0.0
 10
109.5891764048944
 20
-129.2324218426919
 30
0.0
 10
109.5891764048944
 20
-129.2324218426919
 30
0.0
 10
111.1336127109319
 20
-129.2324218426919
 30
0.0
 10
111.1336127109319
 20
-129.2324218426919
 30
0.0
 10
111.1336127109319
 20
-129.2324218426919
 30
0.0
 10
111.1336127109319
 20
-129.4566975587817
 30
0.0
 10
111.1336127109319
 20
-129.4566975587817
 30
0.0
  0
HATCH
  5
108
330
103
100
AcDbEntity
  8
_U+30EC_U+30A4_U+30E4_U+30FC 1
 62
     7
420
 16777215
100
AcDbHatch
 10
0.0
 20
0.0
 30
0.0
210
0.0
220
0.0
230
1.0
  2
SOLID
 70
     1
 71
     0
 91
        1
 92
        1
 93
        1
 72
     4
 94
        3
 73
     0
 74
     1
 95
       26
 96
       22
 40
0.0
 40
0.0
 40
0.0
 40
0.0
 40
1.0
 40
1.0
 40
1.0
 40
2.0
 40
2.0
 40
2.0
 40
3.0
 40
3.0
 40
3.0
 40
4.0
 40
4.0
 40
4.0
 40
5.0
 40
5.0
 40
5.0
 40
6.0
 40
6.0
 40
6.0
 40
7.0
 40
7.0
 40
7.0
 40
7.0
 10
111.1336127109319
 20
-129.4566975587817
 10
111.1336127109319
 20
-129.4566975587817
 10
110.0294596079093
 20
-129.4566975587817
 10
110.0294596079093
 20
-129.4566975587817
 10
110.0294596079093
 20
-129.4566975587817
 10
110.0294596079093
 20
-129.7867377062686
 10
110.0294596079093
 20
-129.7867377062686
 10
110.0294596079093
 20
-129.7867377062686
 10
109.8813205020436
 20
-129.7867377062686
 10
109.8813205020436
 20
-129.7867377062686
 10
109.866506591457
 20
-129.4546305014905
 10
109.7035535750047
 20
-129.4081217124397
 10
109.5891764048944
 20
-129.3784938912665
 10
109.5891764048944
 20
-129.3784938912665
 10
109.5891764048944
 20
-129.2324218426919
 10
109.5891764048944
 20
-129.2324218426919
 10
109.5891764048944
 20
-129.2324218426919
 10
111.1336127109319
 20
-129.2324218426919
 10
111.1336127109319
 20
-129.2324218426919
 10
111.1336127109319
 20
-129.2324218426919
 10
111.1336127109319
 20
-129.4566975587817
 10
111.1336127109319
 20
-129.4566975587817
 97
        0
 97
        0
 75
     2
 76
     1
 98
        0
  0
SPLINE
  5
109
330
103
100
AcDbEntity
  8
_U+30EC_U+30A4_U+30E4_U+30FC 1
370
     0
100
AcDbSpline
210
0.0
220
0.0
230
1.0
 70
    11
 71
     3
 72
    62
 73
    58
 74
     0
 42
0.0000000001
 43
0.0000000001
 12
1.0
 22
0.0
 32
0.0
 13
1.0
 23
0.0
 33
0.0
 40
0.0
 40
0.0
 40
0.0
 40
0.0
 40
1.0
 40
1.0
 40
1.0
 40
2.0
 40
2.0
 40
2.0
 40
3.0
 40
3.0
 40
3.0
 40
4.0
 40
4.0
 40
4.0
 40
5.0
 40
5.0
 40
5.0
 40
6.0
 40
6.0
 40
6.0
 40
7.0
 40
7.0
 40
7.0
 40
8.0
 40
8.0
 40
8.0
 40
9.0
 40
9.0
 40
9.0
 40
10.0
 40
10.0
 40
10.0
 40
11.0
 40
11.0
 40
11.0
 40
12.0
 40
12.0
 40
12.0
 40
13.0
 40
13.0
 40
13.0
 40
14.0
 40
14.0
 40
14.0
 40
15.0
 40
15.0
 40
15.0
 40
16.0
 40
16.0
 40
16.0
 40
17.0
 40
17.0
 40
17.0
 40
18.0
 40
18.0
 40
18.0
 40
19.0
 40
19.0
 40
19.0
 40
19.0
 10
111.184255614565
 20
-128.2395453238429
 30
0.0
 10
111.184255614565
 20
-128.3349744687843
 30
0.0
 10
111.163240532105
 20
-128.5527045034521
 30
0.0
 10
110.9772053759015
 20
-128.6777614695667
 30
0.0
 10
110.8648952630824
 20
-128.751486512951
 30
0.0
 10
110.7656765131072
 20
-128.7559651370819
 30
0.0
 10
110.6809271641701
 20
-128.7600992516641
 30
0.0
 10
110.6809271641701
 20
-128.7600992516641
 30
0.0
 10
110.6809271641701
 20
-128.5399576501567
 30
0.0
 10
110.6809271641701
 20
-128.5399576501567
 30
0.0
 10
110.7549967171029
 20
-128.5378905928655
 30
0.0
 10
110.9896077196484
 20
-128.5275553064098
 30
0.0
 10
110.9896077196484
 20
-128.2440239479737
 30
0.0
 10
110.9896077196484
 20
-128.1065646381122
 30
0.0
 10
110.9200167908464
 20
-127.9539469081157
 30
0.0
 10
110.6916069601743
 20
-127.9539469081157
 30
0.0
 10
110.5751627327729
 20
-127.9539469081157
 30
0.0
 10
110.5265868864309
 20
-127.992187468002
 30
0.0
 10
110.4948920079666
 20
-128.0238823464663
 30
0.0
 10
110.4208224550337
 20
-128.0979518993991
 30
0.0
 10
110.4080756017383
 20
-128.2143961268006
 30
0.0
 10
110.4080756017383
 20
-128.2691731450161
 30
0.0
 10
110.4080756017383
 20
-128.2884656797334
 30
0.0
 10
110.4101426590294
 20
-128.32429467278
 30
0.0
 10
110.4142767736117
 20
-128.351855436662
 30
0.0
 10
110.4142767736117
 20
-128.351855436662
 30
0.0
 10
110.2196288786951
 20
-128.351855436662
 30
0.0
 10
110.2196288786951
 20
-128.351855436662
 30
0.0
 10
110.2261745601171
 20
-128.3136148767758
 30
0.0
 10
110.2282416174082
 20
-128.2715847118557
 30
0.0
 10
110.2282416174082
 20
-128.2650390304337
 30
0.0
 10
110.2282416174082
 20
-128.199582216214
 30
0.0
 10
110.2068820253997
 20
-128.0008002067151
 30
0.0
 10
109.970203965563
 20
-128.0008002067151
 30
0.0
 10
109.7924370385241
 20
-128.0008002067151
 30
0.0
 10
109.7373155107601
 20
-128.1317138351546
 30
0.0
 10
109.7373155107601
 20
-128.2419568906826
 30
0.0
 10
109.7373155107601
 20
-128.5061957144012
 30
0.0
 10
109.970203965563
 20
-128.5148084531144
 30
0.0
 10
110.0418619516562
 20
-128.5189425676967
 30
0.0
 10
110.0418619516562
 20
-128.5189425676967
 30
0.0
 10
110.0418619516562
 20
-128.7222032013264
 30
0.0
 10
110.0418619516562
 20
-128.7222032013264
 30
0.0
 10
109.9171494950902
 20
-128.7135904626133
 30
0.0
 10
109.5406005585524
 20
-128.6860296987313
 30
0.0
 10
109.5406005585524
 20
-128.2292100373872
 30
0.0
 10
109.5406005585524
 20
-128.0049343212974
 30
0.0
 10
109.6677245819581
 20
-127.7637776373299
 30
0.0
 10
109.963658284141
 20
-127.7637776373299
 30
0.0
 10
110.150037949893
 20
-127.7637776373299
 30
0.0
 10
110.2323757319905
 20
-127.8588622727228
 30
0.0
 10
110.293698431628
 20
-127.9584255322465
 30
0.0
 10
110.32125919551
 20
-127.8971028326091
 30
0.0
 10
110.4015299203163
 20
-127.7152017909879
 30
0.0
 10
110.6788601068789
 20
-127.7152017909879
 30
0.0
 10
111.0171684835304
 20
-127.7152017909879
 30
0.0
 10
111.184255614565
 20
-127.9625596468288
 30
0.0
 10
111.184255614565
 20
-128.2395453238429
 30
0.0
  0
HATCH
  5
10A
330
103
100
AcDbEntity
  8
_U+30EC_U+30A4_U+30E4_U+30FC 1
 62
     7
420
 16777215
100
AcDbHatch
 10
0.0
 20
0.0
 30
0.0
210
0.0
220
0.0
230
1.0
  2
SOLID
 70
     1
 71
     0
 91
        1
 92
        1
 93
        1
 72
     4
 94
        3
 73
     0
 74
     1
 95
       62
 96
       58
 40
0.0
 40
0.0
 40
0.0
 40
0.0
 40
1.0
 40
1.0
 40
1.0
 40
2.0
 40
2.0
 40
2.0
 40
3.0
 40
3.0
 40
3.0
 40
4.0
 40
4.0
 40
4.0
 40
5.0
 40
5.0
 40
5.0
 40
6.0
 40
6.0
 40
6.0
 40
7.0
 40
7.0
 40
7.0
 40
8.0
 40
8.0
 40
8.0
 40
9.0
 40
9.0
 40
9.0
 40
10.0
 40
10.0
 40
10.0
 40
11.0
 40
11.0
 40
11.0
 40
12.0
 40
12.0
 40
12.0
 40
13.0
 40
13.0
 40
13.0
 40
14.0
 40
14.0
 40
14.0
 40
15.0
 40
15.0
 40
15.0
 40
16.0
 40
16.0
 40
16.0
 40
17.0
 40
17.0
 40
17.0
 40
18.0
 40
18.0
 40
18.0
 40
19.0
 40
19.0
 40
19.0
 40
19.0
 10
111.184255614565
 20
-128.2395453238429
 10
111.184255614565
 20
-128.3349744687843
 10
111.163240532105
 20
-128.5527045034521
 10
110.9772053759015
 20
-128.6777614695667
 10
110.8648952630824
 20
-128.751486512951
 10
110.7656765131072
 20
-128.7559651370819
 10
110.6809271641701
 20
-128.7600992516641
 10
110.6809271641701
 20
-128.7600992516641
 10
110.6809271641701
 20
-128.5399576501567
 10
110.6809271641701
 20
-128.5399576501567
 10
110.7549967171029
 20
-128.5378905928655
 10
110.9896077196484
 20
-128.5275553064098
 10
110.9896077196484
 20
-128.2440239479737
 10
110.9896077196484
 20
-128.1065646381122
 10
110.9200167908464
 20
-127.9539469081157
 10
110.6916069601743
 20
-127.9539469081157
 10
110.5751627327729
 20
-127.9539469081157
 10
110.5265868864309
 20
-127.992187468002
 10
110.4948920079666
 20
-128.0238823464663
 10
110.4208224550337
 20
-128.0979518993991
 10
110.4080756017383
 20
-128.2143961268006
 10
110.4080756017383
 20
-128.2691731450161
 10
110.4080756017383
 20
-128.2884656797334
 10
110.4101426590294
 20
-128.32429467278
 10
110.4142767736117
 20
-128.351855436662
 10
110.4142767736117
 20
-128.351855436662
 10
110.2196288786951
 20
-128.351855436662
 10
110.2196288786951
 20
-128.351855436662
 10
110.2261745601171
 20
-128.3136148767758
 10
110.2282416174082
 20
-128.2715847118557
 10
110.2282416174082
 20
-128.2650390304337
 10
110.2282416174082
 20
-128.199582216214
 10
110.2068820253997
 20
-128.0008002067151
 10
109.970203965563
 20
-128.0008002067151
 10
109.7924370385241
 20
-128.0008002067151
 10
109.7373155107601
 20
-128.1317138351546
 10
109.7373155107601
 20
-128.2419568906826
 10
109.7373155107601
 20
-128.5061957144012
 10
109.970203965563
 20
-128.5148084531144
 10
110.0418619516562
 20
-128.5189425676967
 10
110.0418619516562
 20
-128.5189425676967
 10
110.0418619516562
 20
-128.7222032013264
 10
110.0418619516562
 20
-128.7222032013264
 10
109.9171494950902
 20
-128.7135904626133
 10
109.5406005585524
 20
-128.6860296987313
 10
109.5406005585524
 20
-128.2292100373872
 10
109.5406005585524
 20
-128.0049343212974
 10
109.6677245819581
 20
-127.7637776373299
 10
109.963658284141
 20
-127.7637776373299
 10
110.150037949893
 20
-127.7637776373299
 10
110.2323757319905
 20
-127.8588622727228
 10
110.293698431628
 20
-127.9584255322465
 10
110.32125919551
 20
-127.8971028326091
 10
110.4015299203163
 20
-127.7152017909879
 10
110.6788601068789
 20
-127.7152017909879
 10
111.0171684835304
 20
-127.7152017909879
 10
111.184255614565
 20
-127.9625596468288
 10
111.184255614565
 20
-128.2395453238429
 97
        0
 97
        0
 75
     2
 76
     1
 98
        0
  0
ENDBLK
  5
106
330
103
100
AcDbEntity
  8
0
100
AcDbBlockEnd
  0
ENDSEC
  0
SECTION
  2
ENTITIES
  0
POLYLINE
  5
41
330
1F
100
AcDbEntity
  8
_U+30EC_U+30A4_U+30E4_U+30FC 1
370
     0
100
AcDb2dPolyline
 66
     1
 10
0.0
 20
0.0
 30
0.0
  0
VERTEX
  5
42
330
41
100
AcDbEntity
  8
_U+30EC_U+30A4_U+30E4_U+30FC 1
370
     0
100
AcDbVertex
100
AcDb2dVertex
 10
68.24976298102571
 20
-122.3191327471979
 30
0.0
  0
VERTEX
  5
43
330
41
100
AcDbEntity
  8
_U+30EC_U+30A4_U+30E4_U+30FC 1
370
     0
100
AcDbVertex
100
AcDb2dVertex
 10
78.24949578146682
 20
-122.3191327471979
 30
0.0
  0
VERTEX
  5
44
330
41
100
AcDbEntity
  8
_U+30EC_U+30A4_U+30E4_U+30FC 1
370
     0
100
AcDbVertex
100
AcDb2dVertex
 10
78.24949578146682
 20
-138.319545243198
 30
0.0
  0
VERTEX
  5
45
330
41
100
AcDbEntity
  8
_U+30EC_U+30A4_U+30E4_U+30FC 1
370
     0
100
AcDbVertex
100
AcDb2dVertex
 10
93.25013567654639
 20
-138.319545243198
 30
0.0
  0
VERTEX
  5
46
330
41
100
AcDbEntity
  8
_U+30EC_U+30A4_U+30E4_U+30FC 1
370
     0
100
AcDbVertex
100
AcDb2dVertex
 10
93.25013567654639
 20
-135.3195582995036
 30
0.0
  0
VERTEX
  5
47
330
41
100
AcDbEntity
  8
_U+30EC_U+30A4_U+30E4_U+30FC 1
370
     0
100
AcDbVertex
100
AcDb2dVertex
 10
92.24965792429293
 20
-135.3195582995036
 30
0.0
  0
VERTEX
  5
48
330
41
100
AcDbEntity
  8
_U+30EC_U+30A4_U+30E4_U+30FC 1
370
     0
100
AcDbVertex
100
AcDb2dVertex
 10
92.24965792429293
 20
-137.3194555212258
 30
0.0
  0
VERTEX
  5
49
330
41
100
AcDbEntity
  8
_U+30EC_U+30A4_U+30E4_U+30FC 1
370
     0
100
AcDbVertex
100
AcDb2dVertex
 10
79.1493613140649
 20
-137.3194555212258
 30
0.0
  0
VERTEX
  5
4A
330
41
100
AcDbEntity
  8
_U+30EC_U+30A4_U+30E4_U+30FC 1
370
     0
100
AcDbVertex
100
AcDb2dVertex
 10
79.1493613140649
 20
-122.3191327471979
 30
0.0
  0
VERTEX
  5
4B
330
41
100
AcDbEntity
  8
_U+30EC_U+30A4_U+30E4_U+30FC 1
370
     0
100
AcDbVertex
100
AcDb2dVertex
 10
108.2500700160884
 20
-122.3191327471979
 30
0.0
  0
VERTEX
  5
4C
330
41
100
AcDbEntity
  8
_U+30EC_U+30A4_U+30E4_U+30FC 1
370
     0
100
AcDbVertex
100
AcDb2dVertex
 10
108.2500700160884
 20
-121.3193958030035
 30
0.0
  0
VERTEX
  5
4D
330
41
100
AcDbEntity
  8
_U+30EC_U+30A4_U+30E4_U+30FC 1
370
     0
100
AcDbVertex
100
AcDb2dVertex
 10
68.24976298102571
 20
-121.3193958030035
 30
0.0
  0
VERTEX
  5
4E
330
41
100
AcDbEntity
  8
_U+30EC_U+30A4_U+30E4_U+30FC 1
370
     0
100
AcDbVertex
100
AcDb2dVertex
 10
68.24976298102571
 20
-122.3191327471979
 30
0.0
  0
SEQEND
  5
50
330
41
100
AcDbEntity
  8
_U+30EC_U+30A4_U+30E4_U+30FC 1
370
     0
  0
HATCH
  5
4F
330
1F
100
AcDbEntity
  8
_U+30EC_U+30A4_U+30E4_U+30FC 1
 62
   253
420
 11711154
100
AcDbHatch
 10
0.0
 20
0.0
 30
0.0
210
0.0
220
0.0
230
1.0
  2
SOLID
 70
     1
 71
     0
 91
        1
 92
        1
 93
       12
 72
     1
 10
68.24976298102571
 20
-122.3191327471979
 11
78.24949578146682
 21
-122.3191327471979
 72
     1
 10
78.24949578146682
 20
-122.3191327471979
 11
78.24949578146682
 21
-138.319545243198
 72
     1
 10
78.24949578146682
 20
-138.319545243198
 11
93.25013567654639
 21
-138.319545243198
 72
     1
 10
93.25013567654639
 20
-138.319545243198
 11
93.25013567654639
 21
-135.3195582995036
 72
     1
 10
93.25013567654639
 20
-135.3195582995036
 11
92.24965792429293
 21
-135.3195582995036
 72
     1
 10
92.24965792429293
 20
-135.3195582995036
 11
92.24965792429293
 21
-137.3194555212258
 72
     1
 10
92.24965792429293
 20
-137.3194555212258
 11
79.1493613140649
 21
-137.3194555212258
 72
     1
 10
79.1493613140649
 20
-137.3194555212258
 11
79.1493613140649
 21
-122.3191327471979
 72
     1
 10
79.1493613140649
 20
-122.3191327471979
 11
108.2500700160884
 21
-122.3191327471979
 72
     1
 10
108.2500700160884
 20
-122.3191327471979
 11
108.2500700160884
 21
-121.3193958030035
 72
     1
 10
108.2500700160884
 20
-121.3193958030035
 11
68.24976298102571
 21
-121.3193958030035
 72
     1
 10
68.24976298102571
 20
-121.3193958030035
 11
68.24976298102571
 21
-122.3191327471979
 97
        0
 75
     2
 76
     1
 98
        0
  0
POLYLINE
  5
51
330
1F
100
AcDbEntity
  8
_U+30EC_U+30A4_U+30E4_U+30FC 1
 62
     7
420
 16777215
370
    25
100
AcDb2dPolyline
 66
     1
 10
0.0
 20
0.0
 30
0.0
  0
VERTEX
  5
52
330
51
100
AcDbEntity
  8
_U+30EC_U+30A4_U+30E4_U+30FC 1
 62
     7
420
 16777215
370
    25
100
AcDbVertex
100
AcDb2dVertex
 10
68.24976298102571
 20
-121.3193958030035
 30
0.0
  0
VERTEX
  5
53
330
51
100
AcDbEntity
  8
_U+30EC_U+30A4_U+30E4_U+30FC 1
 62
     7
420
 16777215
370
    25
100
AcDbVertex
100
AcDb2dVertex
 10
108.2500700160884
 20
-121.3193958030035
 30
0.0
  0
SEQEND
  5
54
330
51
100
AcDbEntity
  8
_U+30EC_U+30A4_U+30E4_U+30FC 1
 62
     7
420
 16777215
370
    25
  0
POLYLINE
  5
55
330
1F
100
AcDbEntity
  8
_U+30EC_U+30A4_U+30E4_U+30FC 1
 62
     7
420
 16777215
370
    25
100
AcDb2dPolyline
 66
     1
 10
0.0
 20
0.0
 30
0.0
  0
VERTEX
  5
56
330
55
100
AcDbEntity
  8
_U+30EC_U+30A4_U+30E4_U+30FC 1
 62
     7
420
 16777215
370
    25
100
AcDbVertex
100
AcDb2dVertex
 10
68.24976298102571
 20
-122.3191327471979
 30
0.0
  0
VERTEX
  5
57
330
55
100
AcDbEntity
  8
_U+30EC_U+30A4_U+30E4_U+30FC 1
 62
     7
420
 16777215
370
    25
100
AcDbVertex
100
AcDb2dVertex
 10
78.24949578146682
 20
-122.3191327471979
 30
0.0
  0
SEQEND
  5
58
330
55
100
AcDbEntity
  8
_U+30EC_U+30A4_U+30E4_U+30FC 1
 62
     7
420
 16777215
370
    25
  0
POLYLINE
  5
59
330
1F
100
AcDbEntity
  8
_U+30EC_U+30A4_U+30E4_U+30FC 1
 62
     7
420
 16777215
370
    25
100
AcDb2dPolyline
 66
     1
 10
0.0
 20
0.0
 30
0.0
  0
VERTEX
  5
5A
330
59
100
AcDbEntity
  8
_U+30EC_U+30A4_U+30E4_U+30FC 1
 62
     7
420
 16777215
370
    25
100
AcDbVertex
100
AcDb2dVertex
 10
108.2500700160884
 20
-122.3191327471979
 30
0.0
  0
VERTEX
  5
5B
330
59
100
AcDbEntity
  8
_U+30EC_U+30A4_U+30E4_U+30FC 1
 62
     7
420
 16777215
370
    25
100
AcDbVertex
100
AcDb2dVertex
 10
108.2500700160884
 20
-121.3193958030035
 30
0.0
  0
SEQEND
  5
5C
330
59
100
AcDbEntity
  8
_U+30EC_U+30A4_U+30E4_U+30FC 1
 62
     7
420
 16777215
370
    25
  0
POLYLINE
  5
5D
330
1F
100
AcDbEntity
  8
_U+30EC_U+30A4_U+30E4_U+30FC 1
 62
     7
420
 16777215
370
    25
100
AcDb2dPolyline
 66
     1
 10
0.0
 20
0.0
 30
0.0
  0
VERTEX
  5
5E
330
5D
100
AcDbEntity
  8
_U+30EC_U+30A4_U+30E4_U+30FC 1
 62
     7
420
 16777215
370
    25
100
AcDbVertex
100
AcDb2dVertex
 10
79.1493613140649
 20
-122.3191327471979
 30
0.0
  0
VERTEX
  5
5F
330
5D
100
AcDbEntity
  8
_U+30EC_U+30A4_U+30E4_U+30FC 1
 62
     7
420
 16777215
370
    25
100
AcDbVertex
100
AcDb2dVertex
 10
108.2500700160884
 20
-122.3191327471979
 30
0.0
  0
SEQEND
  5
60
330
5D
100
AcDbEntity
  8
_U+30EC_U+30A4_U+30E4_U+30FC 1
 62
     7
420
 16777215
370
    25
  0
POLYLINE
  5
61
330
1F
100
AcDbEntity
  8
_U+30EC_U+30A4_U+30E4_U+30FC 1
 62
     7
420
 16777215
370
    25
100
AcDb2dPolyline
 66
     1
 10
0.0
 20
0.0
 30
0.0
  0
VERTEX
  5
62
330
61
100
AcDbEntity
  8
_U+30EC_U+30A4_U+30E4_U+30FC 1
 62
     7
420
 16777215
370
    25
100
AcDbVertex
100
AcDb2dVertex
 10
68.24976298102571
 20
-122.3191327471979
 30
0.0
  0
VERTEX
  5
63
330
61
100
AcDbEntity
  8
_U+30EC_U+30A4_U+30E4_U+30FC 1
 62
     7
420
 16777215
370
    25
100
AcDbVertex
100
AcDb2dVertex
 10
68.24976298102571
 20
-121.3193958030035
 30
0.0
  0
SEQEND
  5
64
330
61
100
AcDbEntity
  8
_U+30EC_U+30A4_U+30E4_U+30FC 1
 62
     7
420
 16777215
370
    25
  0
POLYLINE
  5
65
330
1F
100
AcDbEntity
  8
_U+30EC_U+30A4_U+30E4_U+30FC 1
 62
     7
420
 16777215
370
    25
100
AcDb2dPolyline
 66
     1
 10
0.0
 20
0.0
 30
0.0
  0
VERTEX
  5
66
330
65
100
AcDbEntity
  8
_U+30EC_U+30A4_U+30E4_U+30FC 1
 62
     7
420
 16777215
370
    25
100
AcDbVertex
100
AcDb2dVertex
 10
78.24949578146682
 20
-138.319545243198
 30
0.0
  0
VERTEX
  5
67
330
65
100
AcDbEntity
  8
_U+30EC_U+30A4_U+30E4_U+30FC 1
 62
     7
420
 16777215
370
    25
100
AcDbVertex
100
AcDb2dVertex
 10
78.24949578146682
 20
-122.3191327471979
 30
0.0
  0
SEQEND
  5
68
330
65
100
AcDbEntity
  8
_U+30EC_U+30A4_U+30E4_U+30FC 1
 62
     7
420
 16777215
370
    25
  0
POLYLINE
  5
69
330
1F
100
AcDbEntity
  8
_U+30EC_U+30A4_U+30E4_U+30FC 1
 62
     7
420
 16777215
370
    25
100
AcDb2dPolyline
 66
     1
 10
0.0
 20
0.0
 30
0.0
  0
VERTEX
  5
6A
330
69
100
AcDbEntity
  8
_U+30EC_U+30A4_U+30E4_U+30FC 1
 62
     7
420
 16777215
370
    25
100
AcDbVertex
100
AcDb2dVertex
 10
92.24965792429293
 20
-135.3195582995036
 30
0.0
  0
VERTEX
  5
6B
330
69
100
AcDbEntity
  8
_U+30EC_U+30A4_U+30E4_U+30FC 1
 62
     7
420
 16777215
370
    25
100
AcDbVertex
100
AcDb2dVertex
 10
93.25013567654639
 20
-135.3195582995036
 30
0.0
  0
SEQEND
  5
6C
330
69
100
AcDbEntity
  8
_U+30EC_U+30A4_U+30E4_U+30FC 1
 62
     7
420
 16777215
370
    25
  0
POLYLINE
  5
6D
330
1F
100
AcDbEntity
  8
_U+30EC_U+30A4_U+30E4_U+30FC 1
 62
     7
420
 16777215
370
    25
100
AcDb2dPolyline
 66
     1
 10
0.0
 20
0.0
 30
0.0
  0
VERTEX
  5
6E
330
6D
100
AcDbEntity
  8
_U+30EC_U+30A4_U+30E4_U+30FC 1
 62
     7
420
 16777215
370
    25
100
AcDbVertex
100
AcDb2dVertex
 10
78.24949578146682
 20
-138.319545243198
 30
0.0
  0
VERTEX
  5
6F
330
6D
100
AcDbEntity
  8
_U+30EC_U+30A4_U+30E4_U+30FC 1
 62
     7
420
 16777215
370
    25
100
AcDbVertex
100
AcDb2dVertex
 10
93.25013567654639
 20
-138.319545243198
 30
0.0
  0
SEQEND
  5
70
330
6D
100
AcDbEntity
  8
_U+30EC_U+30A4_U+30E4_U+30FC 1
 62
     7
420
 16777215
370
    25
  0
POLYLINE
  5
71
330
1F
100
AcDbEntity
  8
_U+30EC_U+30A4_U+30E4_U+30FC 1
 62
     7
420
 16777215
370
    25
100
AcDb2dPolyline
 66
     1
 10
0.0
 20
0.0
 30
0.0
  0
VERTEX
  5
72
330
71
100
AcDbEntity
  8
_U+30EC_U+30A4_U+30E4_U+30FC 1
 62
     7
420
 16777215
370
    25
100
AcDbVertex
100
AcDb2dVertex
 10
79.1493613140649
 20
-137.3194555212258
 30
0.0
  0
VERTEX
  5
73
330
71
100
AcDbEntity
  8
_U+30EC_U+30A4_U+30E4_U+30FC 1
 62
     7
420
 16777215
370
    25
100
AcDbVertex
100
AcDb2dVertex
 10
92.24965792429293
 20
-137.3194555212258
 30
0.0
  0
SEQEND
  5
74
330
71
100
AcDbEntity
  8
_U+30EC_U+30A4_U+30E4_U+30FC 1
 62
     7
420
 16777215
370
    25
  0
POLYLINE
  5
75
330
1F
100
AcDbEntity
  8
_U+30EC_U+30A4_U+30E4_U+30FC 1
 62
     7
420
 16777215
370
    25
100
AcDb2dPolyline
 66
     1
 10
0.0
 20
0.0
 30
0.0
  0
VERTEX
  5
76
330
75
100
AcDbEntity
  8
_U+30EC_U+30A4_U+30E4_U+30FC 1
 62
     7
420
 16777215
370
    25
100
AcDbVertex
100
AcDb2dVertex
 10
93.25013567654639
 20
-138.319545243198
 30
0.0
  0
VERTEX
  5
77
330
75
100
AcDbEntity
  8
_U+30EC_U+30A4_U+30E4_U+30FC 1
 62
     7
420
 16777215
370
    25
100
AcDbVertex
100
AcDb2dVertex
 10
93.25013567654639
 20
-135.3195582995036
 30
0.0
  0
SEQEND
  5
78
330
75
100
AcDbEntity
  8
_U+30EC_U+30A4_U+30E4_U+30FC 1
 62
     7
420
 16777215
370
    25
  0
POLYLINE
  5
79
330
1F
100
AcDbEntity
  8
_U+30EC_U+30A4_U+30E4_U+30FC 1
 62
     7
420
 16777215
370
    25
100
AcDb2dPolyline
 66
     1
 10
0.0
 20
0.0
 30
0.0
  0
VERTEX
  5
7A
330
79
100
AcDbEntity
  8
_U+30EC_U+30A4_U+30E4_U+30FC 1
 62
     7
420
 16777215
370
    25
100
AcDbVertex
100
AcDb2dVertex
 10
92.24965792429293
 20
-137.3194555212258
 30
0.0
  0
VERTEX
  5
7B
330
79
100
AcDbEntity
  8
_U+30EC_U+30A4_U+30E4_U+30FC 1
 62
     7
420
 16777215
370
    25
100
AcDbVertex
100
AcDb2dVertex
 10
92.24965792429293
 20
-135.3195582995036
 30
0.0
  0
SEQEND
  5
7C
330
79
100
AcDbEntity
  8
_U+30EC_U+30A4_U+30E4_U+30FC 1
 62
     7
420
 16777215
370
    25
  0
POLYLINE
  5
7D
330
1F
100
AcDbEntity
  8
_U+30EC_U+30A4_U+30E4_U+30FC 1
 62
     7
420
 16777215
370
    25
100
AcDb2dPolyline
 66
     1
 10
0.0
 20
0.0
 30
0.0
  0
VERTEX
  5
7E
330
7D
100
AcDbEntity
  8
_U+30EC_U+30A4_U+30E4_U+30FC 1
 62
     7
420
 16777215
370
    25
100
AcDbVertex
100
AcDb2dVertex
 10
79.1493613140649
 20
-137.3194555212258
 30
0.0
  0
VERTEX
  5
7F
330
7D
100
AcDbEntity
  8
_U+30EC_U+30A4_U+30E4_U+30FC 1
 62
     7
420
 16777215
370
    25
100
AcDbVertex
100
AcDb2dVertex
 10
79.1493613140649
 20
-122.3191327471979
 30
0.0
  0
SEQEND
  5
80
330
7D
100
AcDbEntity
  8
_U+30EC_U+30A4_U+30E4_U+30FC 1
 62
     7
420
 16777215
370
    25
  0
SPLINE
  5
81
330
1F
100
AcDbEntity
  8
_U+30EC_U+30A4_U+30E4_U+30FC 1
 62
     7
420
 16777215
370
     9
100
AcDbSpline
210
0.0
220
0.0
230
1.0
 70
    11
 71
     3
 72
    17
 73
    13
 74
     0
 42
0.0000000001
 43
0.0000000001
 12
1.0
 22
0.0
 32
0.0
 13
1.0
 23
0.0
 33
0.0
 40
0.0
 40
0.0
 40
0.0
 40
0.0
 40
1.0
 40
1.0
 40
1.0
 40
2.0
 40
2.0
 40
2.0
 40
3.0
 40
3.0
 40
3.0
 40
4.0
 40
4.0
 40
4.0
 40
4.0
 10
68.34966964514355
 20
-117.3192838595592
 30
0.0
 10
68.34966964514355
 20
-117.2641446929061
 30
0.0
 10
68.30486686850878
 20
-117.2193771929175
 30
0.0
 10
68.24976298102571
 20
-117.2193771929175
 30
0.0
 10
68.19462381576575
 20
-117.2193771929175
 30
0.0
 10
68.14985631690787
 20
-117.2641446929061
 30
0.0
 10
68.14985631690787
 20
-117.3192838595592
 30
0.0
 10
68.14985631690787
 20
-117.3747405262119
 30
0.0
 10
68.19462381576575
 20
-117.4195433039786
 30
0.0
 10
68.24976298102571
 20
-117.4195433039786
 30
0.0
 10
68.30486686850878
 20
-117.4195433039786
 30
0.0
 10
68.34966964514355
 20
-117.3747405262119
 30
0.0
 10
68.34966964514355
 20
-117.3192838595592
 30
0.0
  0
SPLINE
  5
82
330
1F
100
AcDbEntity
  8
_U+30EC_U+30A4_U+30E4_U+30FC 1
 62
     7
420
 16777215
370
     9
100
AcDbSpline
210
0.0
220
0.0
230
1.0
 70
    11
 71
     3
 72
    17
 73
    13
 74
     0
 42
0.0000000001
 43
0.0000000001
 12
1.0
 22
0.0
 32
0.0
 13
1.0
 23
0.0
 33
0.0
 40
0.0
 40
0.0
 40
0.0
 40
0.0
 40
1.0
 40
1.0
 40
1.0
 40
2.0
 40
2.0
 40
2.0
 40
3.0
 40
3.0
 40
3.0
 40
4.0
 40
4.0
 40
4.0
 40
4.0
 10
108.3499766802063
 20
-117.3192838595592
 30
0.0
 10
108.3499766802063
 20
-117.2641446929061
 30
0.0
 10
108.3051739035715
 20
-117.2193771929175
 30
0.0
 10
108.2500700160884
 20
-117.2193771929175
 30
0.0
 10
108.1949308508285
 20
-117.2193771929175
 30
0.0
 10
108.1501633519706
 20
-117.2641446929061
 30
0.0
 10
108.1501633519706
 20
-117.3192838595592
 30
0.0
 10
108.1501633519706
 20
-117.3747405262119
 30
0.0
 10
108.1949308508285
 20
-117.4195433039786
 30
0.0
 10
108.2500700160884
 20
-117.4195433039786
 30
0.0
 10
108.3051739035715
 20
-117.4195433039786
 30
0.0
 10
108.3499766802063
 20
-117.3747405262119
 30
0.0
 10
108.3499766802063
 20
-117.3192838595592
 30
0.0
  0
SPLINE
  5
83
330
1F
100
AcDbEntity
  8
_U+30EC_U+30A4_U+30E4_U+30FC 1
 62
     7
420
 16777215
370
     9
100
AcDbSpline
210
0.0
220
0.0
230
1.0
 70
    11
 71
     3
 72
    17
 73
    13
 74
     0
 42
0.0000000001
 43
0.0000000001
 12
1.0
 22
0.0
 32
0.0
 13
1.0
 23
0.0
 33
0.0
 40
0.0
 40
0.0
 40
0.0
 40
0.0
 40
1.0
 40
1.0
 40
1.0
 40
2.0
 40
2.0
 40
2.0
 40
3.0
 40
3.0
 40
3.0
 40
4.0
 40
4.0
 40
4.0
 40
4.0
 10
112.3500885225993
 20
-121.3193958030035
 30
0.0
 10
112.3500885225993
 20
-121.2642566363508
 30
0.0
 10
112.3052857459646
 20
-121.2194891363619
 30
0.0
 10
112.2501818584815
 20
-121.2194891363619
 30
0.0
 10
112.1950426932216
 20
-121.2194891363619
 30
0.0
 10
112.1502751943637
 20
-121.2642566363508
 30
0.0
 10
112.1502751943637
 20
-121.3193958030035
 30
0.0
 10
112.1502751943637
 20
-121.3744996918787
 30
0.0
 10
112.1950426932216
 20
-121.4193024696451
 30
0.0
 10
112.2501818584815
 20
-121.4193024696451
 30
0.0
 10
112.3052857459646
 20
-121.4193024696451
 30
0.0
 10
112.3500885225993
 20
-121.3744996918787
 30
0.0
 10
112.3500885225993
 20
-121.3193958030035
 30
0.0
  0
SPLINE
  5
84
330
1F
100
AcDbEntity
  8
_U+30EC_U+30A4_U+30E4_U+30FC 1
 62
     7
420
 16777215
370
     9
100
AcDbSpline
210
0.0
220
0.0
230
1.0
 70
    11
 71
     3
 72
    17
 73
    13
 74
     0
 42
0.0000000001
 43
0.0000000001
 12
1.0
 22
0.0
 32
0.0
 13
1.0
 23
0.0
 33
0.0
 40
0.0
 40
0.0
 40
0.0
 40
0.0
 40
1.0
 40
1.0
 40
1.0
 40
2.0
 40
2.0
 40
2.0
 40
3.0
 40
3.0
 40
3.0
 40
4.0
 40
4.0
 40
4.0
 40
4.0
 10
112.3500885225993
 20
-122.3191327471979
 30
0.0
 10
112.3500885225993
 20
-122.264028858323
 30
0.0
 10
112.3052857459646
 20
-122.2192260805562
 30
0.0
 10
112.2501818584815
 20
-122.2192260805562
 30
0.0
 10
112.1950426932216
 20
-122.2192260805562
 30
0.0
 10
112.1502751943637
 20
-122.264028858323
 30
0.0
 10
112.1502751943637
 20
-122.3191327471979
 30
0.0
 10
112.1502751943637
 20
-122.3746246916287
 30
0.0
 10
112.1950426932216
 20
-122.4193921916173
 30
0.0
 10
112.2501818584815
 20
-122.4193921916173
 30
0.0
 10
112.3052857459646
 20
-122.4193921916173
 30
0.0
 10
112.3500885225993
 20
-122.3746246916287
 30
0.0
 10
112.3500885225993
 20
-122.3191327471979
 30
0.0
  0
SPLINE
  5
85
330
1F
100
AcDbEntity
  8
_U+30EC_U+30A4_U+30E4_U+30FC 1
 62
     7
420
 16777215
370
     9
100
AcDbSpline
210
0.0
220
0.0
230
1.0
 70
    11
 71
     3
 72
    17
 73
    13
 74
     0
 42
0.0000000001
 43
0.0000000001
 12
1.0
 22
0.0
 32
0.0
 13
1.0
 23
0.0
 33
0.0
 40
0.0
 40
0.0
 40
0.0
 40
0.0
 40
1.0
 40
1.0
 40
1.0
 40
2.0
 40
2.0
 40
2.0
 40
3.0
 40
3.0
 40
3.0
 40
4.0
 40
4.0
 40
4.0
 40
4.0
 10
112.3500885225993
 20
-135.3195582995036
 30
0.0
 10
112.3500885225993
 20
-135.264101632851
 30
0.0
 10
112.3052857459646
 20
-135.2192988550842
 30
0.0
 10
112.2501818584815
 20
-135.2192988550842
 30
0.0
 10
112.1950426932216
 20
-135.2192988550842
 30
0.0
 10
112.1502751943637
 20
-135.264101632851
 30
0.0
 10
112.1502751943637
 20
-135.3195582995036
 30
0.0
 10
112.1502751943637
 20
-135.3746974661561
 30
0.0
 10
112.1950426932216
 20
-135.4194649661453
 30
0.0
 10
112.2501818584815
 20
-135.4194649661453
 30
0.0
 10
112.3052857459646
 20
-135.4194649661453
 30
0.0
 10
112.3500885225993
 20
-135.3746974661561
 30
0.0
 10
112.3500885225993
 20
-135.3195582995036
 30
0.0
  0
SPLINE
  5
86
330
1F
100
AcDbEntity
  8
_U+30EC_U+30A4_U+30E4_U+30FC 1
 62
     7
420
 16777215
370
     9
100
AcDbSpline
210
0.0
220
0.0
230
1.0
 70
    11
 71
     3
 72
    17
 73
    13
 74
     0
 42
0.0000000001
 43
0.0000000001
 12
1.0
 22
0.0
 32
0.0
 13
1.0
 23
0.0
 33
0.0
 40
0.0
 40
0.0
 40
0.0
 40
0.0
 40
1.0
 40
1.0
 40
1.0
 40
2.0
 40
2.0
 40
2.0
 40
3.0
 40
3.0
 40
3.0
 40
4.0
 40
4.0
 40
4.0
 40
4.0
 10
112.3500885225993
 20
-138.319545243198
 30
0.0
 10
112.3500885225993
 20
-138.2640885765453
 30
0.0
 10
112.3052857459646
 20
-138.2192857987786
 30
0.0
 10
112.2501818584815
 20
-138.2192857987786
 30
0.0
 10
112.1950426932216
 20
-138.2192857987786
 30
0.0
 10
112.1502751943637
 20
-138.2640885765453
 30
0.0
 10
112.1502751943637
 20
-138.319545243198
 30
0.0
 10
112.1502751943637
 20
-138.3746844098511
 30
0.0
 10
112.1950426932216
 20
-138.4194519098396
 30
0.0
 10
112.2501818584815
 20
-138.4194519098396
 30
0.0
 10
112.3052857459646
 20
-138.4194519098396
 30
0.0
 10
112.3500885225993
 20
-138.3746844098511
 30
0.0
 10
112.3500885225993
 20
-138.319545243198
 30
0.0
  0
SPLINE
  5
87
330
1F
100
AcDbEntity
  8
_U+30EC_U+30A4_U+30E4_U+30FC 1
 62
     7
420
 16777215
370
     9
100
AcDbSpline
210
0.0
220
0.0
230
1.0
 70
    11
 71
     3
 72
    17
 73
    13
 74
     0
 42
0.0000000001
 43
0.0000000001
 12
1.0
 22
0.0
 32
0.0
 13
1.0
 23
0.0
 33
0.0
 40
0.0
 40
0.0
 40
0.0
 40
0.0
 40
1.0
 40
1.0
 40
1.0
 40
2.0
 40
2.0
 40
2.0
 40
3.0
 40
3.0
 40
3.0
 40
4.0
 40
4.0
 40
4.0
 40
4.0
 10
78.34940244558466
 20
-142.3193044088649
 30
0.0
 10
78.34940244558466
 20
-142.2642005199893
 30
0.0
 10
78.30459966894989
 20
-142.2193977422232
 30
0.0
 10
78.24949578146682
 20
-142.2193977422232
 30
0.0
 10
78.19435661620687
 20
-142.2193977422232
 30
0.0
 10
78.149589117349
 20
-142.2642005199893
 30
0.0
 10
78.149589117349
 20
-142.3193044088649
 30
0.0
 10
78.149589117349
 20
-142.3747610755175
 30
0.0
 10
78.19435661620687
 20
-142.4192110755065
 30
0.0
 10
78.24949578146682
 20
-142.4192110755065
 30
0.0
 10
78.30459966894989
 20
-142.4192110755065
 30
0.0
 10
78.34940244558466
 20
-142.3747610755175
 30
0.0
 10
78.34940244558466
 20
-142.3193044088649
 30
0.0
  0
SPLINE
  5
88
330
1F
100
AcDbEntity
  8
_U+30EC_U+30A4_U+30E4_U+30FC 1
 62
     7
420
 16777215
370
     9
100
AcDbSpline
210
0.0
220
0.0
230
1.0
 70
    11
 71
     3
 72
    17
 73
    13
 74
     0
 42
0.0000000001
 43
0.0000000001
 12
1.0
 22
0.0
 32
0.0
 13
1.0
 23
0.0
 33
0.0
 40
0.0
 40
0.0
 40
0.0
 40
0.0
 40
1.0
 40
1.0
 40
1.0
 40
2.0
 40
2.0
 40
2.0
 40
3.0
 40
3.0
 40
3.0
 40
4.0
 40
4.0
 40
4.0
 40
4.0
 10
93.35004234066423
 20
-142.3193044088649
 30
0.0
 10
93.35004234066423
 20
-142.2642005199893
 30
0.0
 10
93.30523956402946
 20
-142.2193977422232
 30
0.0
 10
93.25013567654639
 20
-142.2193977422232
 30
0.0
 10
93.19499651128645
 20
-142.2193977422232
 30
0.0
 10
93.15022901242857
 20
-142.2642005199893
 30
0.0
 10
93.15022901242857
 20
-142.3193044088649
 30
0.0
 10
93.15022901242857
 20
-142.3747610755175
 30
0.0
 10
93.19499651128645
 20
-142.4192110755065
 30
0.0
 10
93.25013567654639
 20
-142.4192110755065
 30
0.0
 10
93.30523956402946
 20
-142.4192110755065
 30
0.0
 10
93.35004234066423
 20
-142.3747610755175
 30
0.0
 10
93.35004234066423
 20
-142.3193044088649
 30
0.0
  0
SPLINE
  5
89
330
1F
100
AcDbEntity
  8
_U+30EC_U+30A4_U+30E4_U+30FC 1
 62
     7
420
 16777215
370
     9
100
AcDbSpline
210
0.0
220
0.0
230
1.0
 70
    11
 71
     3
 72
    17
 73
    13
 74
     0
 42
0.0000000001
 43
0.0000000001
 12
1.0
 22
0.0
 32
0.0
 13
1.0
 23
0.0
 33
0.0
 40
0.0
 40
0.0
 40
0.0
 40
0.0
 40
1.0
 40
1.0
 40
1.0
 40
2.0
 40
2.0
 40
2.0
 40
3.0
 40
3.0
 40
3.0
 40
4.0
 40
4.0
 40
4.0
 40
4.0
 10
68.34966964514355
 20
-142.3193044088649
 30
0.0
 10
68.34966964514355
 20
-142.2642005199893
 30
0.0
 10
68.30486686850878
 20
-142.2193977422232
 30
0.0
 10
68.24976298102571
 20
-142.2193977422232
 30
0.0
 10
68.19462381576575
 20
-142.2193977422232
 30
0.0
 10
68.14985631690787
 20
-142.2642005199893
 30
0.0
 10
68.14985631690787
 20
-142.3193044088649
 30
0.0
 10
68.14985631690787
 20
-142.3747610755175
 30
0.0
 10
68.19462381576575
 20
-142.4192110755065
 30
0.0
 10
68.24976298102571
 20
-142.4192110755065
 30
0.0
 10
68.30486686850878
 20
-142.4192110755065
 30
0.0
 10
68.34966964514355
 20
-142.3747610755175
 30
0.0
 10
68.34966964514355
 20
-142.3193044088649
 30
0.0
  0
POLYLINE
  5
8A
330
1F
100
AcDbEntity
  8
_U+30EC_U+30A4_U+30E4_U+30FC 1
 62
     7
420
 16777215
370
     9
100
AcDb2dPolyline
 66
     1
 10
0.0
 20
0.0
 30
0.0
  0
VERTEX
  5
8B
330
8A
100
AcDbEntity
  8
_U+30EC_U+30A4_U+30E4_U+30FC 1
 62
     7
420
 16777215
370
     9
100
AcDbVertex
100
AcDb2dVertex
 10
78.24949578146682
 20
-142.3193044088649
 30
0.0
  0
VERTEX
  5
8C
330
8A
100
AcDbEntity
  8
_U+30EC_U+30A4_U+30E4_U+30FC 1
 62
     7
420
 16777215
370
     9
100
AcDbVertex
100
AcDb2dVertex
 10
93.25013567654639
 20
-142.3193044088649
 30
0.0
  0
SEQEND
  5
8D
330
8A
100
AcDbEntity
  8
_U+30EC_U+30A4_U+30E4_U+30FC 1
 62
     7
420
 16777215
370
     9
  0
POLYLINE
  5
8E
330
1F
100
AcDbEntity
  8
_U+30EC_U+30A4_U+30E4_U+30FC 1
 62
     7
420
 16777215
370
     9
100
AcDb2dPolyline
 66
     1
 10
0.0
 20
0.0
 30
0.0
  0
VERTEX
  5
8F
330
8E
100
AcDbEntity
  8
_U+30EC_U+30A4_U+30E4_U+30FC 1
 62
     7
420
 16777215
370
     9
100
AcDbVertex
100
AcDb2dVertex
 10
93.25013567654639
 20
-140.8592630203405
 30
0.0
  0
VERTEX
  5
90
330
8E
100
AcDbEntity
  8
_U+30EC_U+30A4_U+30E4_U+30FC 1
 62
     7
420
 16777215
370
     9
100
AcDbVertex
100
AcDb2dVertex
 10
93.25013567654639
 20
-143.3194294086145
 30
0.0
  0
SEQEND
  5
91
330
8E
100
AcDbEntity
  8
_U+30EC_U+30A4_U+30E4_U+30FC 1
 62
     7
420
 16777215
370
     9
  0
INSERT
  5
93
330
1F
100
AcDbEntity
  8
_U+30EC_U+30A4_U+30E4_U+30FC 1
100
AcDbBlockReference
  2
block 2
 10
0.0
 20
0.0
 30
0.0
  0
POLYLINE
  5
9A
330
1F
100
AcDbEntity
  8
_U+30EC_U+30A4_U+30E4_U+30FC 1
 62
     7
420
 16777215
370
     9
100
AcDb2dPolyline
 66
     1
 10
0.0
 20
0.0
 30
0.0
  0
VERTEX
  5
9B
330
9A
100
AcDbEntity
  8
_U+30EC_U+30A4_U+30E4_U+30FC 1
 62
     7
420
 16777215
370
     9
100
AcDbVertex
100
AcDb2dVertex
 10
112.2501818584815
 20
-121.3193958030035
 30
0.0
  0
VERTEX
  5
9C
330
9A
100
AcDbEntity
  8
_U+30EC_U+30A4_U+30E4_U+30FC 1
 62
     7
420
 16777215
370
     9
100
AcDbVertex
100
AcDb2dVertex
 10
112.2501818584815
 20
-117.5490833039461
 30
0.0
  0
SEQEND
  5
9D
330
9A
100
AcDbEntity
  8
_U+30EC_U+30A4_U+30E4_U+30FC 1
 62
     7
420
 16777215
370
     9
  0
POLYLINE
  5
9E
330
1F
100
AcDbEntity
  8
_U+30EC_U+30A4_U+30E4_U+30FC 1
 62
     7
420
 16777215
370
     9
100
AcDb2dPolyline
 66
     1
 10
0.0
 20
0.0
 30
0.0
  0
VERTEX
  5
9F
330
9E
100
AcDbEntity
  8
_U+30EC_U+30A4_U+30E4_U+30FC 1
 62
     7
420
 16777215
370
     9
100
AcDbVertex
100
AcDb2dVertex
 10
112.2501818584815
 20
-121.3193958030035
 30
0.0
  0
VERTEX
  5
A0
330
9E
100
AcDbEntity
  8
_U+30EC_U+30A4_U+30E4_U+30FC 1
 62
     7
420
 16777215
370
     9
100
AcDbVertex
100
AcDb2dVertex
 10
112.2501818584815
 20
-122.3191327471979
 30
0.0
  0
SEQEND
  5
A1
330
9E
100
AcDbEntity
  8
_U+30EC_U+30A4_U+30E4_U+30FC 1
 62
     7
420
 16777215
370
     9
  0
POLYLINE
  5
A2
330
1F
100
AcDbEntity
  8
_U+30EC_U+30A4_U+30E4_U+30FC 1
 62
     7
420
 16777215
370
     9
100
AcDb2dPolyline
 66
     1
 10
0.0
 20
0.0
 30
0.0
  0
VERTEX
  5
A3
330
A2
100
AcDbEntity
  8
_U+30EC_U+30A4_U+30E4_U+30FC 1
 62
     7
420
 16777215
370
     9
100
AcDbVertex
100
AcDb2dVertex
 10
110.7901405068414
 20
-121.3193958030035
 30
0.0
  0
VERTEX
  5
A4
330
A2
100
AcDbEntity
  8
_U+30EC_U+30A4_U+30E4_U+30FC 1
 62
     7
420
 16777215
370
     9
100
AcDbVertex
100
AcDb2dVertex
 10
113.2499187774205
 20
-121.3193958030035
 30
0.0
  0
SEQEND
  5
A5
330
A2
100
AcDbEntity
  8
_U+30EC_U+30A4_U+30E4_U+30FC 1
 62
     7
420
 16777215
370
     9
  0
POLYLINE
  5
A6
330
1F
100
AcDbEntity
  8
_U+30EC_U+30A4_U+30E4_U+30FC 1
 62
     7
420
 16777215
370
     9
100
AcDb2dPolyline
 66
     1
 10
0.0
 20
0.0
 30
0.0
  0
VERTEX
  5
A7
330
A6
100
AcDbEntity
  8
_U+30EC_U+30A4_U+30E4_U+30FC 1
 62
     7
420
 16777215
370
     9
100
AcDbVertex
100
AcDb2dVertex
 10
110.7901405068414
 20
-122.3191327471979
 30
0.0
  0
VERTEX
  5
A8
330
A6
100
AcDbEntity
  8
_U+30EC_U+30A4_U+30E4_U+30FC 1
 62
     7
420
 16777215
370
     9
100
AcDbVertex
100
AcDb2dVertex
 10
113.2499187774205
 20
-122.3191327471979
 30
0.0
  0
SEQEND
  5
A9
330
A6
100
AcDbEntity
  8
_U+30EC_U+30A4_U+30E4_U+30FC 1
 62
     7
420
 16777215
370
     9
  0
INSERT
  5
AB
330
1F
100
AcDbEntity
  8
_U+30EC_U+30A4_U+30E4_U+30FC 1
100
AcDbBlockReference
  2
block 3
 10
0.0
 20
0.0
 30
0.0
  0
POLYLINE
  5
B0
330
1F
100
AcDbEntity
  8
_U+30EC_U+30A4_U+30E4_U+30FC 1
 62
     7
420
 16777215
370
     9
100
AcDb2dPolyline
 66
     1
 10
0.0
 20
0.0
 30
0.0
  0
VERTEX
  5
B1
330
B0
100
AcDbEntity
  8
_U+30EC_U+30A4_U+30E4_U+30FC 1
 62
     7
420
 16777215
370
     9
100
AcDbVertex
100
AcDb2dVertex
 10
112.2501818584815
 20
-138.319545243198
 30
0.0
  0
VERTEX
  5
B2
330
B0
100
AcDbEntity
  8
_U+30EC_U+30A4_U+30E4_U+30FC 1
 62
     7
420
 16777215
370
     9
100
AcDbVertex
100
AcDb2dVertex
 10
112.2501818584815
 20
-135.3195582995036
 30
0.0
  0
SEQEND
  5
B3
330
B0
100
AcDbEntity
  8
_U+30EC_U+30A4_U+30E4_U+30FC 1
 62
     7
420
 16777215
370
     9
  0
POLYLINE
  5
B4
330
1F
100
AcDbEntity
  8
_U+30EC_U+30A4_U+30E4_U+30FC 1
 62
     7
420
 16777215
370
     9
100
AcDb2dPolyline
 66
     1
 10
0.0
 20
0.0
 30
0.0
  0
VERTEX
  5
B5
330
B4
100
AcDbEntity
  8
_U+30EC_U+30A4_U+30E4_U+30FC 1
 62
     7
420
 16777215
370
     9
100
AcDbVertex
100
AcDb2dVertex
 10
95.78985338953058
 20
-138.319545243198
 30
0.0
  0
VERTEX
  5
B6
330
B4
100
AcDbEntity
  8
_U+30EC_U+30A4_U+30E4_U+30FC 1
 62
     7
420
 16777215
370
     9
100
AcDbVertex
100
AcDb2dVertex
 10
113.2499187774205
 20
-138.319545243198
 30
0.0
  0
SEQEND
  5
B7
330
B4
100
AcDbEntity
  8
_U+30EC_U+30A4_U+30E4_U+30FC 1
 62
     7
420
 16777215
370
     9
  0
INSERT
  5
B9
330
1F
100
AcDbEntity
  8
_U+30EC_U+30A4_U+30E4_U+30FC 1
100
AcDbBlockReference
  2
block 4
 10
0.0
 20
0.0
 30
0.0
  0
POLYLINE
  5
BE
330
1F
100
AcDbEntity
  8
_U+30EC_U+30A4_U+30E4_U+30FC 1
 62
     7
420
 16777215
370
     9
100
AcDb2dPolyline
 66
     1
 10
0.0
 20
0.0
 30
0.0
  0
VERTEX
  5
BF
330
BE
100
AcDbEntity
  8
_U+30EC_U+30A4_U+30E4_U+30FC 1
 62
     7
420
 16777215
370
     9
100
AcDbVertex
100
AcDb2dVertex
 10
68.24976298102571
 20
-117.3192838595592
 30
0.0
  0
VERTEX
  5
C0
330
BE
100
AcDbEntity
  8
_U+30EC_U+30A4_U+30E4_U+30FC 1
 62
     7
420
 16777215
370
     9
100
AcDbVertex
100
AcDb2dVertex
 10
108.2500700160884
 20
-117.3192838595592
 30
0.0
  0
SEQEND
  5
C1
330
BE
100
AcDbEntity
  8
_U+30EC_U+30A4_U+30E4_U+30FC 1
 62
     7
420
 16777215
370
     9
  0
POLYLINE
  5
C2
330
1F
100
AcDbEntity
  8
_U+30EC_U+30A4_U+30E4_U+30FC 1
 62
     7
420
 16777215
370
     9
100
AcDb2dPolyline
 66
     1
 10
0.0
 20
0.0
 30
0.0
  0
VERTEX
  5
C3
330
C2
100
AcDbEntity
  8
_U+30EC_U+30A4_U+30E4_U+30FC 1
 62
     7
420
 16777215
370
     9
100
AcDbVertex
100
AcDb2dVertex
 10
68.24976298102571
 20
-118.7793252480829
 30
0.0
  0
VERTEX
  5
C4
330
C2
100
AcDbEntity
  8
_U+30EC_U+30A4_U+30E4_U+30FC 1
 62
     7
420
 16777215
370
     9
100
AcDbVertex
100
AcDb2dVertex
 10
68.24976298102571
 20
-116.3191588598092
 30
0.0
  0
SEQEND
  5
C5
330
C2
100
AcDbEntity
  8
_U+30EC_U+30A4_U+30E4_U+30FC 1
 62
     7
420
 16777215
370
     9
  0
POLYLINE
  5
C6
330
1F
100
AcDbEntity
  8
_U+30EC_U+30A4_U+30E4_U+30FC 1
 62
     7
420
 16777215
370
     9
100
AcDb2dPolyline
 66
     1
 10
0.0
 20
0.0
 30
0.0
  0
VERTEX
  5
C7
330
C6
100
AcDbEntity
  8
_U+30EC_U+30A4_U+30E4_U+30FC 1
 62
     7
420
 16777215
370
     9
100
AcDbVertex
100
AcDb2dVertex
 10
108.2500700160884
 20
-118.7793252480829
 30
0.0
  0
VERTEX
  5
C8
330
C6
100
AcDbEntity
  8
_U+30EC_U+30A4_U+30E4_U+30FC 1
 62
     7
420
 16777215
370
     9
100
AcDbVertex
100
AcDb2dVertex
 10
108.2500700160884
 20
-116.3191588598092
 30
0.0
  0
SEQEND
  5
C9
330
C6
100
AcDbEntity
  8
_U+30EC_U+30A4_U+30E4_U+30FC 1
 62
     7
420
 16777215
370
     9
  0
INSERT
  5
CB
330
1F
100
AcDbEntity
  8
_U+30EC_U+30A4_U+30E4_U+30FC 1
100
AcDbBlockReference
  2
block 5
 10
0.0
 20
0.0
 30
0.0
  0
POLYLINE
  5
E6
330
1F
100
AcDbEntity
  8
_U+30EC_U+30A4_U+30E4_U+30FC 1
 62
     7
420
 16777215
370
     9
100
AcDb2dPolyline
 66
     1
 10
0.0
 20
0.0
 30
0.0
  0
VERTEX
  5
E7
330
E6
100
AcDbEntity
  8
_U+30EC_U+30A4_U+30E4_U+30FC 1
 62
     7
420
 16777215
370
     9
100
AcDbVertex
100
AcDb2dVertex
 10
68.24976298102571
 20
-142.3193044088649
 30
0.0
  0
VERTEX
  5
E8
330
E6
100
AcDbEntity
  8
_U+30EC_U+30A4_U+30E4_U+30FC 1
 62
     7
420
 16777215
370
     9
100
AcDbVertex
100
AcDb2dVertex
 10
78.24949578146682
 20
-142.3193044088649
 30
0.0
  0
SEQEND
  5
E9
330
E6
100
AcDbEntity
  8
_U+30EC_U+30A4_U+30E4_U+30FC 1
 62
     7
420
 16777215
370
     9
  0
POLYLINE
  5
EA
330
1F
100
AcDbEntity
  8
_U+30EC_U+30A4_U+30E4_U+30FC 1
 62
     7
420
 16777215
370
     9
100
AcDb2dPolyline
 66
     1
 10
0.0
 20
0.0
 30
0.0
  0
VERTEX
  5
EB
330
EA
100
AcDbEntity
  8
_U+30EC_U+30A4_U+30E4_U+30FC 1
 62
     7
420
 16777215
370
     9
100
AcDbVertex
100
AcDb2dVertex
 10
68.24976298102571
 20
-124.8595560798963
 30
0.0
  0
VERTEX
  5
EC
330
EA
100
AcDbEntity
  8
_U+30EC_U+30A4_U+30E4_U+30FC 1
 62
     7
420
 16777215
370
     9
100
AcDbVertex
100
AcDb2dVertex
 10
68.24976298102571
 20
-143.3194294086145
 30
0.0
  0
SEQEND
  5
ED
330
EA
100
AcDbEntity
  8
_U+30EC_U+30A4_U+30E4_U+30FC 1
 62
     7
420
 16777215
370
     9
  0
POLYLINE
  5
EE
330
1F
100
AcDbEntity
  8
_U+30EC_U+30A4_U+30E4_U+30FC 1
 62
     7
420
 16777215
370
     9
100
AcDb2dPolyline
 66
     1
 10
0.0
 20
0.0
 30
0.0
  0
VERTEX
  5
EF
330
EE
100
AcDbEntity
  8
_U+30EC_U+30A4_U+30E4_U+30FC 1
 62
     7
420
 16777215
370
     9
100
AcDbVertex
100
AcDb2dVertex
 10
78.24949578146682
 20
-140.8592630203405
 30
0.0
  0
VERTEX
  5
F0
330
EE
100
AcDbEntity
  8
_U+30EC_U+30A4_U+30E4_U+30FC 1
 62
     7
420
 16777215
370
     9
100
AcDbVertex
100
AcDb2dVertex
 10
78.24949578146682
 20
-143.3194294086145
 30
0.0
  0
SEQEND
  5
F1
330
EE
100
AcDbEntity
  8
_U+30EC_U+30A4_U+30E4_U+30FC 1
 62
     7
420
 16777215
370
     9
  0
INSERT
  5
F3
330
1F
100
AcDbEntity
  8
_U+30EC_U+30A4_U+30E4_U+30FC 1
100
AcDbBlockReference
  2
block 6
 10
0.0
 20
0.0
 30
0.0
  0
POLYLINE
  5
FB
330
1F
100
AcDbEntity
  8
_U+30EC_U+30A4_U+30E4_U+30FC 1
 62
     7
420
 16777215
370
     9
100
AcDb2dPolyline
 66
     1
 10
0.0
 20
0.0
 30
0.0
  0
VERTEX
  5
FC
330
FB
100
AcDbEntity
  8
_U+30EC_U+30A4_U+30E4_U+30FC 1
 62
     7
420
 16777215
370
     9
100
AcDbVertex
100
AcDb2dVertex
 10
112.2501818584815
 20
-135.3195582995036
 30
0.0
  0
VERTEX
  5
FD
330
FB
100
AcDbEntity
  8
_U+30EC_U+30A4_U+30E4_U+30FC 1
 62
     7
420
 16777215
370
     9
100
AcDbVertex
100
AcDb2dVertex
 10
112.2501818584815
 20
-122.3191327471979
 30
0.0
  0
SEQEND
  5
FE
330
FB
100
AcDbEntity
  8
_U+30EC_U+30A4_U+30E4_U+30FC 1
 62
     7
420
 16777215
370
     9
  0
POLYLINE
  5
FF
330
1F
100
AcDbEntity
  8
_U+30EC_U+30A4_U+30E4_U+30FC 1
 62
     7
420
 16777215
370
     9
100
AcDb2dPolyline
 66
     1
 10
0.0
 20
0.0
 30
0.0
  0
VERTEX
  5
100
330
FF
100
AcDbEntity
  8
_U+30EC_U+30A4_U+30E4_U+30FC 1
 62
     7
420
 16777215
370
     9
100
AcDbVertex
100
AcDb2dVertex
 10
95.78985338953058
 20
-135.3195582995036
 30
0.0
  0
VERTEX
  5
101
330
FF
100
AcDbEntity
  8
_U+30EC_U+30A4_U+30E4_U+30FC 1
 62
     7
420
 16777215
370
     9
100
AcDbVertex
100
AcDb2dVertex
 10
113.2499187774205
 20
-135.3195582995036
 30
0.0
  0
SEQEND
  5
102
330
FF
100
AcDbEntity
  8
_U+30EC_U+30A4_U+30E4_U+30FC 1
 62
     7
420
 16777215
370
     9
  0
INSERT
  5
104
330
1F
100
AcDbEntity
  8
_U+30EC_U+30A4_U+30E4_U+30FC 1
100
AcDbBlockReference
  2
block 7
 10
0.0
 20
0.0
 30
0.0
  0
ENDSEC
  0
SECTION
  2
OBJECTS
  0
DICTIONARY
  5
C
330
0
100
AcDbDictionary
281
     1
  3
ACAD_GROUP
350
D
  3
ACAD_LAYOUT
350
1A
  3
ACAD_MATERIAL
350
3B
  3
ACAD_MLEADERSTYLE
350
10C
  3
ACAD_MLINESTYLE
350
17
  3
ACAD_PLOTSETTINGS
350
19
  3
ACAD_PLOTSTYLENAME
350
E
  3
ACAD_TABLESTYLE
350
10B
  3
ACAD_VISUALSTYLE
350
2A
  0
SUN
  5
3F
330
29
100
AcDbSun
 90
        1
290
     0
 63
     7
421
 16777215
 40
1.0
291
     1
 91
  2455826
 92
 54000000
292
     0
 70
     2
 71
   256
280
     1
  0
DICTIONARY
  5
D
102
{ACAD_REACTORS
330
C
102
}
330
C
100
AcDbDictionary
281
     1
  0
DICTIONARY
  5
1A
102
{ACAD_REACTORS
330
C
102
}
330
C
100
AcDbDictionary
281
     1
  3
Layout1
350
1E
  3
Layout2
350
26
  3
Model
350
22
  0
DICTIONARY
  5
3B
102
{ACAD_REACTORS
330
C
102
}
330
C
100
AcDbDictionary
281
     1
  3
ByBlock
350
3D
  3
ByLayer
350
3C
  3
Global
350
3E
  0
DICTIONARY
  5
10C
102
{ACAD_REACTORS
330
C
102
}
330
C
100
AcDbDictionary
281
     1
  0
DICTIONARY
  5
17
102
{ACAD_REACTORS
330
C
102
}
330
C
100
AcDbDictionary
281
     1
  3
Standard
350
18
  0
DICTIONARY
  5
19
102
{ACAD_REACTORS
330
C
102
}
330
C
100
AcDbDictionary
281
     1
  0
ACDBDICTIONARYWDFLT
  5
E
102
{ACAD_REACTORS
330
C
102
}
330
C
100
AcDbDictionary
281
     1
  3
Normal
350
F
100
AcDbDictionaryWithDefault
340
F
  0
DICTIONARY
  5
10B
102
{ACAD_REACTORS
330
C
102
}
330
C
100
AcDbDictionary
281
     1
  0
DICTIONARY
  5
2A
102
{ACAD_REACTORS
330
C
102
}
330
C
100
AcDbDictionary
281
     1
  3
2dWireframe
350
2F
  3
3D Hidden
350
31
  3
3dWireframe
350
30
  3
Basic
350
32
  3
Brighten
350
36
  3
ColorChange
350
3A
  3
Conceptual
350
34
  3
Dim
350
35
  3
Facepattern
350
39
  3
Flat
350
2B
  3
FlatWithEdges
350
2C
  3
Gouraud
350
2D
  3
GouraudWithEdges
350
2E
  3
Linepattern
350
38
  3
Realistic
350
33
  3
Thicken
350
37
  0
LAYOUT
  5
1E
102
{ACAD_REACTORS
330
1A
102
}
330
1A
100
AcDbPlotSettings
  1

  2
none_device
  4

  6

 40
0.0
 41
0.0
 42
0.0
 43
0.0
 44
0.0
 45
0.0
 46
0.0
 47
0.0
 48
0.0
 49
0.0
140
0.0
141
0.0
142
1.0
143
1.0
 70
   688
 72
     0
 73
     0
 74
     5
  7

 75
    16
 76
     0
 77
     2
 78
   300
147
1.0
148
0.0
149
0.0
100
AcDbLayout
  1
Layout1
 70
     1
 71
     1
 10
0.0
 20
0.0
 11
12.0
 21
9.0
 12
0.0
 22
0.0
 32
0.0
 14
1.000000000000000E+20
 24
1.000000000000000E+20
 34
1.000000000000000E+20
 15
-1.000000000000000E+20
 25
-1.000000000000000E+20
 35
-1.000000000000000E+20
146
0.0
 13
0.0
 23
0.0
 33
0.0
 16
1.0
 26
0.0
 36
0.0
 17
0.0
 27
1.0
 37
0.0
 76
     0
330
1B
  0
LAYOUT
  5
26
102
{ACAD_REACTORS
330
1A
102
}
330
1A
100
AcDbPlotSettings
  1

  2
none_device
  4

  6

 40
0.0
 41
0.0
 42
0.0
 43
0.0
 44
0.0
 45
0.0
 46
0.0
 47
0.0
 48
0.0
 49
0.0
140
0.0
141
0.0
142
1.0
143
1.0
 70
   688
 72
     0
 73
     0
 74
     5
  7

 75
    16
 76
     0
 77
     2
 78
   300
147
1.0
148
0.0
149
0.0
100
AcDbLayout
  1
Layout2
 70
     1
 71
     2
 10
0.0
 20
0.0
 11
0.0
 21
0.0
 12
0.0
 22
0.0
 32
0.0
 14
0.0
 24
0.0
 34
0.0
 15
0.0
 25
0.0
 35
0.0
146
0.0
 13
0.0
 23
0.0
 33
0.0
 16
1.0
 26
0.0
 36
0.0
 17
0.0
 27
1.0
 37
0.0
 76
     0
330
23
  0
LAYOUT
  5
22
102
{ACAD_REACTORS
330
1A
102
}
330
1A
100
AcDbPlotSettings
  1

  2
none_device
  4

  6

 40
0.0
 41
0.0
 42
0.0
 43
0.0
 44
0.0
 45
0.0
 46
0.0
 47
0.0
 48
0.0
 49
0.0
140
0.0
141
0.0
142
1.0
143
1.0
 70
  1712
 72
     0
 73
     0
 74
     0
  7

 75
     0
 76
     0
 77
     2
 78
   300
147
1.0
148
0.0
149
0.0
100
AcDbLayout
  1
Model
 70
     1
 71
     0
 10
0.0
 20
0.0
 11
12.0
 21
9.0
 12
0.0
 22
0.0
 32
0.0
 14
1.000000000000000E+20
 24
1.000000000000000E+20
 34
1.000000000000000E+20
 15
-1.000000000000000E+20
 25
-1.000000000000000E+20
 35
-1.000000000000000E+20
146
0.0
 13
0.0
 23
0.0
 33
0.0
 16
1.0
 26
0.0
 36
0.0
 17
0.0
 27
1.0
 37
0.0
 76
     0
330
1F
331
29
  0
MATERIAL
  5
3D
102
{ACAD_REACTORS
330
3B
102
}
330
3B
100
AcDbMaterial
  1
ByBlock
 72
     1
 94
      127
  0
MATERIAL
  5
3C
102
{ACAD_REACTORS
330
3B
102
}
330
3B
100
AcDbMaterial
  1
ByLayer
 72
     1
 94
      127
  0
MATERIAL
  5
3E
102
{ACAD_REACTORS
330
3B
102
}
330
3B
100
AcDbMaterial
  1
Global
 72
     1
 94
      127
  0
MLINESTYLE
  5
18
102
{ACAD_REACTORS
330
17
102
}
330
17
100
AcDbMlineStyle
  2
Standard
 70
     0
  3

 62
   256
 51
90.0
 52
90.0
 71
     2
 49
0.5
 62
   256
  6
BYLAYER
 49
-0.5
 62
   256
  6
BYLAYER
  0
ACDBPLACEHOLDER
  5
F
102
{ACAD_REACTORS
330
E
102
}
330
E
  0
VISUALSTYLE
  5
2F
102
{ACAD_REACTORS
330
2A
102
}
330
2A
100
AcDbVisualStyle
  2
2dWireframe
 70
     4
177
     2
291
     0
 71
     0
176
     1
 72
     2
176
     1
 73
     0
176
     1
 90
        0
176
     1
 40
-0.6
176
     1
 41
-30.0
176
     1
 62
     5
 63
     7
421
 16777215
176
     1
 74
     1
176
     1
 91
        4
176
     1
 64
     7
176
     1
 65
   257
176
     1
 75
     1
176
     1
175
     1
176
     1
 42
1.0
176
     1
 92
        0
176
     1
 66
   257
176
     1
 43
1.0
176
     1
 76
     1
176
     1
 77
     6
176
     1
 78
     2
176
     1
 67
     7
176
     1
 79
     5
176
     1
170
     0
176
     1
171
     0
176
     1
290
     0
176
     1
 93
        1
176
     1
 44
0.0
176
     1
173
     0
176
     1
  0
VISUALSTYLE
  5
31
102
{ACAD_REACTORS
330
2A
102
}
330
2A
100
AcDbVisualStyle
  2
3D Hidden
 70
     6
177
     2
291
     0
 71
     1
176
     1
 72
     2
176
     1
 73
     2
176
     1
 90
        0
176
     1
 40
-0.6
176
     1
 41
-30.0
176
     1
 62
     5
 63
     7
421
 16777215
176
     1
 74
     2
176
     1
 91
        2
176
     1
 64
     7
176
     1
 65
   257
176
     1
 75
     2
176
     1
175
     1
176
     1
 42
40.0
176
     1
 92
        0
176
     1
 66
   257
176
     1
 43
1.0
176
     1
 76
     1
176
     1
 77
     6
176
     1
 78
     2
176
     1
 67
     7
176
     1
 79
     3
176
     1
170
     0
176
     1
171
     0
176
     1
290
     0
176
     1
 93
        1
176
     1
 44
0.0
176
     1
173
     0
176
     1
  0
VISUALSTYLE
  5
30
102
{ACAD_REACTORS
330
2A
102
}
330
2A
100
AcDbVisualStyle
  2
3dWireframe
 70
     5
177
     2
291
     0
 71
     0
176
     1
 72
     2
176
     1
 73
     0
176
     1
 90
        0
176
     1
 40
-0.6
176
     1
 41
-30.0
176
     1
 62
     5
 63
     7
421
 16777215
176
     1
 74
     1
176
     1
 91
        4
176
     1
 64
     7
176
     1
 65
   257
176
     1
 75
     1
176
     1
175
     1
176
     1
 42
1.0
176
     1
 92
        0
176
     1
 66
   257
176
     1
 43
1.0
176
     1
 76
     1
176
     1
 77
     6
176
     1
 78
     2
176
     1
 67
     7
176
     1
 79
     5
176
     1
170
     0
176
     1
171
     0
176
     1
290
     0
176
     1
 93
        1
176
     1
 44
0.0
176
     1
173
     0
176
     1
  0
VISUALSTYLE
  5
32
102
{ACAD_REACTORS
330
2A
102
}
330
2A
100
AcDbVisualStyle
  2
Basic
 70
     7
177
     2
291
     1
 71
     1
176
     1
 72
     0
176
     1
 73
     1
176
     1
 90
        0
176
     1
 40
-0.6
176
     1
 41
-30.0
176
     1
 62
     5
 63
     7
421
 16777215
176
     1
 74
     0
176
     1
 91
        4
176
     1
 64
     7
176
     1
 65
   257
176
     1
 75
     1
176
     1
175
     1
176
     1
 42
1.0
176
     1
 92
        8
176
     1
 66
     7
176
     1
 43
1.0
176
     1
 76
     1
176
     1
 77
     6
176
     1
 78
     2
176
     1
 67
     7
176
     1
 79
     5
176
     1
170
     0
176
     1
171
     0
176
     1
290
     0
176
     1
 93
        1
176
     1
 44
0.0
176
     1
173
     0
176
     1
  0
VISUALSTYLE
  5
36
102
{ACAD_REACTORS
330
2A
102
}
330
2A
100
AcDbVisualStyle
  2
Brighten
 70
    12
177
     2
291
     1
 71
     2
176
     1
 72
     2
176
     1
 73
     0
176
     1
 90
        0
176
     1
 40
-0.6
176
     1
 41
-30.0
176
     1
 62
     5
 63
     7
421
 16777215
176
     1
 74
     1
176
     1
 91
        4
176
     1
 64
     7
176
     1
 65
   257
176
     1
 75
     1
176
     1
175
     1
176
     1
 42
1.0
176
     1
 92
        8
176
     1
 66
     7
176
     1
 43
1.0
176
     1
 76
     1
176
     1
 77
     6
176
     1
 78
     2
176
     1
 67
     7
176
     1
 79
     5
176
     1
170
     0
176
     1
171
     0
176
     1
290
     0
176
     1
 93
        1
176
     1
 44
50.0
176
     1
173
     0
176
     1
  0
VISUALSTYLE
  5
3A
102
{ACAD_REACTORS
330
2A
102
}
330
2A
100
AcDbVisualStyle
  2
ColorChange
 70
    16
177
     2
291
     1
 71
     2
176
     1
 72
     2
176
     1
 73
     3
176
     1
 90
        0
176
     1
 40
-0.6
176
     1
 41
-30.0
176
     1
 62
     5
 63
     8
421
  8421504
176
     1
 74
     1
176
     1
 91
        4
176
     1
 64
     7
176
     1
 65
   257
176
     1
 75
     1
176
     1
175
     1
176
     1
 42
1.0
176
     1
 92
        8
176
     1
 66
     8
424
  8421504
176
     1
 43
1.0
176
     1
 76
     1
176
     1
 77
     6
176
     1
 78
     2
176
     1
 67
     7
176
     1
 79
     5
176
     1
170
     0
176
     1
171
     0
176
     1
290
     0
176
     1
 93
        1
176
     1
 44
0.0
176
     1
173
     0
176
     1
  0
VISUALSTYLE
  5
34
102
{ACAD_REACTORS
330
2A
102
}
330
2A
100
AcDbVisualStyle
  2
Conceptual
 70
     9
177
     2
291
     0
 71
     3
176
     1
 72
     2
176
     1
 73
     0
176
     1
 90
        0
176
     1
 40
-0.6
176
     1
 41
-30.0
176
     1
 62
     5
 63
     7
421
 16777215
176
     1
 74
     2
176
     1
 91
        2
176
     1
 64
     7
176
     1
 65
   257
176
     1
 75
     1
176
     1
175
     1
176
     1
 42
40.0
176
     1
 92
        8
176
     1
 66
     7
176
     1
 43
1.0
176
     1
 76
     1
176
     1
 77
     6
176
     1
 78
     2
176
     1
 67
     7
176
     1
 79
     3
176
     1
170
     0
176
     1
171
     0
176
     1
290
     0
176
     1
 93
        1
176
     1
 44
0.0
176
     1
173
     0
176
     1
  0
VISUALSTYLE
  5
35
102
{ACAD_REACTORS
330
2A
102
}
330
2A
100
AcDbVisualStyle
  2
Dim
 70
    11
177
     2
291
     1
 71
     2
176
     1
 72
     2
176
     1
 73
     0
176
     1
 90
        0
176
     1
 40
-0.6
176
     1
 41
-30.0
176
     1
 62
     5
 63
     7
421
 16777215
176
     1
 74
     1
176
     1
 91
        4
176
     1
 64
     7
176
     1
 65
   257
176
     1
 75
     1
176
     1
175
     1
176
     1
 42
1.0
176
     1
 92
        8
176
     1
 66
     7
176
     1
 43
1.0
176
     1
 76
     1
176
     1
 77
     6
176
     1
 78
     2
176
     1
 67
     7
176
     1
 79
     5
176
     1
170
     0
176
     1
171
     0
176
     1
290
     0
176
     1
 93
        1
176
     1
 44
-50.0
176
     1
173
     0
176
     1
  0
VISUALSTYLE
  5
39
102
{ACAD_REACTORS
330
2A
102
}
330
2A
100
AcDbVisualStyle
  2
Facepattern
 70
    15
177
     2
291
     1
 71
     2
176
     1
 72
     2
176
     1
 73
     0
176
     1
 90
        0
176
     1
 40
-0.6
176
     1
 41
-30.0
176
     1
 62
     5
 63
     7
421
 16777215
176
     1
 74
     1
176
     1
 91
        4
176
     1
 64
     7
176
     1
 65
   257
176
     1
 75
     1
176
     1
175
     1
176
     1
 42
1.0
176
     1
 92
        8
176
     1
 66
     7
176
     1
 43
1.0
176
     1
 76
     1
176
     1
 77
     6
176
     1
 78
     2
176
     1
 67
     7
176
     1
 79
     5
176
     1
170
     0
176
     1
171
     0
176
     1
290
     0
176
     1
 93
        1
176
     1
 44
0.0
176
     1
173
     0
176
     1
  0
VISUALSTYLE
  5
2B
102
{ACAD_REACTORS
330
2A
102
}
330
2A
100
AcDbVisualStyle
  2
Flat
 70
     0
177
     2
291
     1
 71
     2
176
     1
 72
     1
176
     1
 73
     1
176
     1
 90
        2
176
     1
 40
-0.6
176
     1
 41
30.0
176
     1
 62
     5
 63
     7
421
 16777215
176
     1
 74
     0
176
     1
 91
        4
176
     1
 64
     7
176
     1
 65
   257
176
     1
 75
     1
176
     1
175
     1
176
     1
 42
1.0
176
     1
 92
        8
176
     1
 66
     7
176
     1
 43
1.0
176
     1
 76
     1
176
     1
 77
     6
176
     1
 78
     2
176
     1
 67
     7
176
     1
 79
     5
176
     1
170
     0
176
     1
171
     0
176
     1
290
     0
176
     1
 93
       13
176
     1
 44
0.0
176
     1
173
     0
176
     1
  0
VISUALSTYLE
  5
2C
102
{ACAD_REACTORS
330
2A
102
}
330
2A
100
AcDbVisualStyle
  2
FlatWithEdges
 70
     1
177
     2
291
     1
 71
     2
176
     1
 72
     1
176
     1
 73
     1
176
     1
 90
        2
176
     1
 40
-0.6
176
     1
 41
30.0
176
     1
 62
     5
 63
     7
421
 16777215
176
     1
 74
     1
176
     1
 91
        4
176
     1
 64
     7
176
     1
 65
   257
176
     1
 75
     1
176
     1
175
     1
176
     1
 42
1.0
176
     1
 92
        0
176
     1
 66
   257
176
     1
 43
1.0
176
     1
 76
     1
176
     1
 77
     6
176
     1
 78
     2
176
     1
 67
     7
176
     1
 79
     5
176
     1
170
     0
176
     1
171
     0
176
     1
290
     0
176
     1
 93
       13
176
     1
 44
0.0
176
     1
173
     0
176
     1
  0
VISUALSTYLE
  5
2D
102
{ACAD_REACTORS
330
2A
102
}
330
2A
100
AcDbVisualStyle
  2
Gouraud
 70
     2
177
     2
291
     1
 71
     2
176
     1
 72
     2
176
     1
 73
     1
176
     1
 90
        2
176
     1
 40
-0.6
176
     1
 41
30.0
176
     1
 62
     5
 63
     7
421
 16777215
176
     1
 74
     0
176
     1
 91
        4
176
     1
 64
     7
176
     1
 65
   257
176
     1
 75
     1
176
     1
175
     1
176
     1
 42
1.0
176
     1
 92
        0
176
     1
 66
     7
176
     1
 43
1.0
176
     1
 76
     1
176
     1
 77
     6
176
     1
 78
     2
176
     1
 67
     7
176
     1
 79
     5
176
     1
170
     0
176
     1
171
     0
176
     1
290
     0
176
     1
 93
       13
176
     1
 44
0.0
176
     1
173
     0
176
     1
  0
VISUALSTYLE
  5
2E
102
{ACAD_REACTORS
330
2A
102
}
330
2A
100
AcDbVisualStyle
  2
GouraudWithEdges
 70
     3
177
     2
291
     1
 71
     2
176
     1
 72
     2
176
     1
 73
     1
176
     1
 90
        2
176
     1
 40
-0.6
176
     1
 41
30.0
176
     1
 62
     5
 63
     7
421
 16777215
176
     1
 74
     1
176
     1
 91
        4
176
     1
 64
     7
176
     1
 65
   257
176
     1
 75
     1
176
     1
175
     1
176
     1
 42
1.0
176
     1
 92
        0
176
     1
 66
   257
176
     1
 43
1.0
176
     1
 76
     1
176
     1
 77
     6
176
     1
 78
     2
176
     1
 67
     7
176
     1
 79
     5
176
     1
170
     0
176
     1
171
     0
176
     1
290
     0
176
     1
 93
       13
176
     1
 44
0.0
176
     1
173
     0
176
     1
  0
VISUALSTYLE
  5
38
102
{ACAD_REACTORS
330
2A
102
}
330
2A
100
AcDbVisualStyle
  2
Linepattern
 70
    14
177
     2
291
     1
 71
     2
176
     1
 72
     2
176
     1
 73
     0
176
     1
 90
        0
176
     1
 40
-0.6
176
     1
 41
-30.0
176
     1
 62
     5
 63
     7
421
 16777215
176
     1
 74
     1
176
     1
 91
        4
176
     1
 64
     7
176
     1
 65
   257
176
     1
 75
     7
176
     1
175
     7
176
     1
 42
1.0
176
     1
 92
        8
176
     1
 66
     7
176
     1
 43
1.0
176
     1
 76
     1
176
     1
 77
     6
176
     1
 78
     2
176
     1
 67
     7
176
     1
 79
     5
176
     1
170
     0
176
     1
171
     0
176
     1
290
     0
176
     1
 93
        1
176
     1
 44
0.0
176
     1
173
     0
176
     1
  0
VISUALSTYLE
  5
33
102
{ACAD_REACTORS
330
2A
102
}
330
2A
100
AcDbVisualStyle
  2
Realistic
 70
     8
177
     2
291
     0
 71
     2
176
     1
 72
     2
176
     1
 73
     0
176
     1
 90
        0
176
     1
 40
-0.6
176
     1
 41
-30.0
176
     1
 62
     5
 63
     7
421
 16777215
176
     1
 74
     1
176
     1
 91
        0
176
     1
 64
     7
176
     1
 65
   257
176
     1
 75
     1
176
     1
175
     1
176
     1
 42
1.0
176
     1
 92
        8
176
     1
 66
     8
424
  7895160
176
     1
 43
1.0
176
     1
 76
     1
176
     1
 77
     6
176
     1
 78
     2
176
     1
 67
     7
176
     1
 79
     5
176
     1
170
     0
176
     1
171
     0
176
     1
290
     0
176
     1
 93
       13
176
     1
 44
0.0
176
     1
173
     0
176
     1
  0
VISUALSTYLE
  5
37
102
{ACAD_REACTORS
330
2A
102
}
330
2A
100
AcDbVisualStyle
  2
Thicken
 70
    13
177
     2
291
     1
 71
     2
176
     1
 72
     2
176
     1
 73
     0
176
     1
 90
        0
176
     1
 40
-0.6
176
     1
 41
-30.0
176
     1
 62
     5
 63
     7
421
 16777215
176
     1
 74
     1
176
     1
 91
        4
176
     1
 64
     7
176
     1
 65
   257
176
     1
 75
     1
176
     1
175
     1
176
     1
 42
1.0
176
     1
 92
       12
176
     1
 66
     7
176
     1
 43
1.0
176
     1
 76
     1
176
     1
 77
     6
176
     1
 78
     2
176
     1
 67
     7
176
     1
 79
     5
176
     1
170
     0
176
     1
171
     0
176
     1
290
     0
176
     1
 93
        1
176
     1
 44
0.0
176
     1
173
     0
176
     1
  0
ENDSEC
  0
EOF
