  0
SECTION
  2
HEADER
  9
$ACADVER
  1
AC1024
  9
$ACADMAINTVER
 70
     6
  9
$DWGCODEPAGE
  3
UNDEFINED
  9
$INSBASE
 10
0.0
 20
0.0
 30
0.0
  9
$EXTMIN
 10
1.000000000000000E+20
 20
1.000000000000000E+20
 30
1.000000000000000E+20
  9
$EXTMAX
 10
-1.000000000000000E+20
 20
-1.000000000000000E+20
 30
-1.000000000000000E+20
  9
$LIMMIN
 10
0.0
 20
0.0
  9
$LIMMAX
 10
12.0
 20
9.0
  9
$ORTHOMODE
 70
     0
  9
$REGENMODE
 70
     1
  9
$FILLMODE
 70
     1
  9
$QTEXTMODE
 70
     0
  9
$MIRRTEXT
 70
     1
  9
$LTSCALE
 40
1.0
  9
$ATTMODE
 70
     1
  9
$TEXTSIZE
 40
0.2
  9
$TRACEWID
 40
0.05
  9
$TEXTSTYLE
  7
Standard
  9
$CLAYER
  8
0
  9
$CELTYPE
  6
ByLayer
  9
$CECOLOR
 62
   256
  9
$CELTSCALE
 40
1.0
  9
$DISPSILH
 70
     0
  9
$DIMSCALE
 40
1.0
  9
$DIMASZ
 40
0.18
  9
$DIMEXO
 40
0.0625
  9
$DIMDLI
 40
0.38
  9
$DIMRND
 40
0.0
  9
$DIMDLE
 40
0.0
  9
$DIMEXE
 40
0.18
  9
$DIMTP
 40
0.0
  9
$DIMTM
 40
0.0
  9
$DIMTXT
 40
0.18
  9
$DIMCEN
 40
0.09
  9
$DIMTSZ
 40
0.0
  9
$DIMTOL
 70
     0
  9
$DIMLIM
 70
     0
  9
$DIMTIH
 70
     1
  9
$DIMTOH
 70
     1
  9
$DIMSE1
 70
     0
  9
$DIMSE2
 70
     0
  9
$DIMTAD
 70
     0
  9
$DIMZIN
 70
     0
  9
$DIMBLK
  1

  9
$DIMASO
 70
     1
  9
$DIMSHO
 70
     1
  9
$DIMPOST
  1

  9
$DIMAPOST
  1

  9
$DIMALT
 70
     0
  9
$DIMALTD
 70
     2
  9
$DIMALTF
 40
25.4
  9
$DIMLFAC
 40
1.0
  9
$DIMTOFL
 70
     0
  9
$DIMTVP
 40
0.0
  9
$DIMTIX
 70
     0
  9
$DIMSOXD
 70
     0
  9
$DIMSAH
 70
     0
  9
$DIMBLK1
  1

  9
$DIMBLK2
  1

  9
$DIMSTYLE
  2
Standard
  9
$DIMCLRD
 70
     0
  9
$DIMCLRE
 70
     0
  9
$DIMCLRT
 70
     0
  9
$DIMTFAC
 40
1.0
  9
$DIMGAP
 40
0.09
  9
$DIMJUST
 70
     0
  9
$DIMSD1
 70
     0
  9
$DIMSD2
 70
     0
  9
$DIMTOLJ
 70
     1
  9
$DIMTZIN
 70
     0
  9
$DIMALTZ
 70
     0
  9
$DIMALTTZ
 70
     0
  9
$DIMUPT
 70
     0
  9
$DIMDEC
 70
     4
  9
$DIMTDEC
 70
     4
  9
$DIMALTU
 70
     2
  9
$DIMALTTD
 70
     2
  9
$DIMTXSTY
  7
Standard
  9
$DIMAUNIT
 70
     0
  9
$DIMADEC
 70
     0
  9
$DIMALTRND
 40
0.0
  9
$DIMAZIN
 70
     0
  9
$DIMDSEP
 70
    46
  9
$DIMATFIT
 70
     3
  9
$DIMFRAC
 70
     0
  9
$DIMLDRBLK
  1

  9
$DIMLUNIT
 70
     2
  9
$DIMLWD
 70
    -2
  9
$DIMLWE
 70
    -2
  9
$DIMTMOVE
 70
     0
  9
$DIMFXL
 40
1.0
  9
$DIMFXLON
 70
     0
  9
$DIMJOGANG
 40
0.7853981633974483
  9
$DIMTFILL
 70
     0
  9
$DIMTFILLCLR
 70
     0
  9
$DIMARCSYM
 70
     0
  9
$DIMLTYPE
  6

  9
$DIMLTEX1
  6

  9
$DIMLTEX2
  6

  9
$DIMTXTDIRECTION
 70
     0
  9
$LUNITS
 70
     2
  9
$LUPREC
 70
     4
  9
$SKETCHINC
 40
0.1
  9
$FILLETRAD
 40
0.5
  9
$AUNITS
 70
     0
  9
$AUPREC
 70
     0
  9
$MENU
  1
.
  9
$ELEVATION
 40
0.0
  9
$PELEVATION
 40
0.0
  9
$THICKNESS
 40
0.0
  9
$LIMCHECK
 70
     0
  9
$CHAMFERA
 40
0.5
  9
$CHAMFERB
 40
0.5
  9
$CHAMFERC
 40
1.0
  9
$CHAMFERD
 40
0.0
  9
$SKPOLY
 70
     0
  9
$TDCREATE
 40
2457917.612905081
  9
$TDUCREATE
 40
2457917.237905093
  9
$TDUPDATE
 40
2457917.612905081
  9
$TDUUPDATE
 40
2457917.237905093
  9
$TDINDWG
 40
0.0000000116
  9
$TDUSRTIMER
 40
0.0000000116
  9
$USRTIMER
 70
     1
  9
$ANGBASE
 50
0.0
  9
$ANGDIR
 70
     0
  9
$PDMODE
 70
     0
  9
$PDSIZE
 40
0.0
  9
$PLINEWID
 40
0.0
  9
$SPLFRAME
 70
     0
  9
$SPLINETYPE
 70
     6
  9
$SPLINESEGS
 70
     8
  9
$HANDSEED
  5
15C
  9
$SURFTAB1
 70
     6
  9
$SURFTAB2
 70
     6
  9
$SURFTYPE
 70
     6
  9
$SURFU
 70
     6
  9
$SURFV
 70
     6
  9
$UCSBASE
  2

  9
$UCSNAME
  2

  9
$UCSORG
 10
0.0
 20
0.0
 30
0.0
  9
$UCSXDIR
 10
1.0
 20
0.0
 30
0.0
  9
$UCSYDIR
 10
0.0
 20
1.0
 30
0.0
  9
$UCSORTHOREF
  2

  9
$UCSORTHOVIEW
 70
     0
  9
$UCSORGTOP
 10
0.0
 20
0.0
 30
0.0
  9
$UCSORGBOTTOM
 10
0.0
 20
0.0
 30
0.0
  9
$UCSORGLEFT
 10
0.0
 20
0.0
 30
0.0
  9
$UCSORGRIGHT
 10
0.0
 20
0.0
 30
0.0
  9
$UCSORGFRONT
 10
0.0
 20
0.0
 30
0.0
  9
$UCSORGBACK
 10
0.0
 20
0.0
 30
0.0
  9
$PUCSBASE
  2

  9
$PUCSNAME
  2

  9
$PUCSORG
 10
0.0
 20
0.0
 30
0.0
  9
$PUCSXDIR
 10
1.0
 20
0.0
 30
0.0
  9
$PUCSYDIR
 10
0.0
 20
1.0
 30
0.0
  9
$PUCSORTHOREF
  2

  9
$PUCSORTHOVIEW
 70
     0
  9
$PUCSORGTOP
 10
0.0
 20
0.0
 30
0.0
  9
$PUCSORGBOTTOM
 10
0.0
 20
0.0
 30
0.0
  9
$PUCSORGLEFT
 10
0.0
 20
0.0
 30
0.0
  9
$PUCSORGRIGHT
 10
0.0
 20
0.0
 30
0.0
  9
$PUCSORGFRONT
 10
0.0
 20
0.0
 30
0.0
  9
$PUCSORGBACK
 10
0.0
 20
0.0
 30
0.0
  9
$USERI1
 70
     0
  9
$USERI2
 70
     0
  9
$USERI3
 70
     0
  9
$USERI4
 70
     0
  9
$USERI5
 70
     0
  9
$USERR1
 40
0.0
  9
$USERR2
 40
0.0
  9
$USERR3
 40
0.0
  9
$USERR4
 40
0.0
  9
$USERR5
 40
0.0
  9
$WORLDVIEW
 70
     1
  9
$SHADEDGE
 70
     3
  9
$SHADEDIF
 70
    70
  9
$TILEMODE
 70
     1
  9
$MAXACTVP
 70
    64
  9
$PINSBASE
 10
0.0
 20
0.0
 30
0.0
  9
$PLIMCHECK
 70
     0
  9
$PEXTMIN
 10
1.000000000000000E+20
 20
1.000000000000000E+20
 30
1.000000000000000E+20
  9
$PEXTMAX
 10
-1.000000000000000E+20
 20
-1.000000000000000E+20
 30
-1.000000000000000E+20
  9
$PLIMMIN
 10
0.0
 20
0.0
  9
$PLIMMAX
 10
12.0
 20
9.0
  9
$UNITMODE
 70
     0
  9
$VISRETAIN
 70
     1
  9
$PLINEGEN
 70
     0
  9
$PSLTSCALE
 70
     1
  9
$TREEDEPTH
 70
  3020
  9
$CMLSTYLE
  2
Standard
  9
$CMLJUST
 70
     0
  9
$CMLSCALE
 40
1.0
  9
$PROXYGRAPHICS
 70
     1
  9
$MEASUREMENT
 70
     0
  9
$CELWEIGHT
370
    -1
  9
$ENDCAPS
280
     0
  9
$JOINSTYLE
280
     0
  9
$LWDISPLAY
290
     1
  9
$INSUNITS
 70
     1
  9
$HYPERLINKBASE
  1

  9
$STYLESHEET
  1

  9
$XEDIT
290
     1
  9
$CEPSNTYPE
380
     0
  9
$PSTYLEMODE
290
     1
  9
$FINGERPRINTGUID
  2
{2DC497D8-784A-2EA1-8FAA-D779D5169282}
  9
$VERSIONGUID
  2
{FAEB1C32-E019-11D5-929B-00C0DF256EC4}
  9
$EXTNAMES
290
     1
  9
$PSVPSCALE
 40
0.0
  9
$OLESTARTUP
290
     0
  9
$SORTENTS
280
   127
  9
$INDEXCTL
280
     0
  9
$HIDETEXT
280
     1
  9
$XCLIPFRAME
280
     2
  9
$HALOGAP
280
     0
  9
$OBSCOLOR
 70
   257
  9
$OBSLTYPE
280
     0
  9
$INTERSECTIONDISPLAY
280
     0
  9
$INTERSECTIONCOLOR
 70
   257
  9
$DIMASSOC
280
     2
  9
$PROJECTNAME
  1

  9
$CAMERADISPLAY
290
     0
  9
$LENSLENGTH
 40
50.0
  9
$CAMERAHEIGHT
 40
0.0
  9
$STEPSPERSEC
 40
2.0
  9
$STEPSIZE
 40
6.0
  9
$3DDWFPREC
 40
2.0
  9
$PSOLWIDTH
 40
0.25
  9
$PSOLHEIGHT
 40
4.0
  9
$LOFTANG1
 40
1.570796326794897
  9
$LOFTANG2
 40
1.570796326794897
  9
$LOFTMAG1
 40
0.0
  9
$LOFTMAG2
 40
0.0
  9
$LOFTPARAM
 70
     7
  9
$LOFTNORMALS
280
     1
  9
$LATITUDE
 40
37.795
  9
$LONGITUDE
 40
-122.394
  9
$NORTHDIRECTION
 40
0.0
  9
$TIMEZONE
 70
 -8000
  9
$LIGHTGLYPHDISPLAY
280
     1
  9
$TILEMODELIGHTSYNCH
280
     1
  9
$CMATERIAL
347
3C
  9
$SOLIDHIST
280
     1
  9
$SHOWHIST
280
     1
  9
$DWFFRAME
280
     2
  9
$DGNFRAME
280
     2
  9
$REALWORLDSCALE
290
     1
  9
$INTERFERECOLOR
 62
   256
  9
$CSHADOW
280
     0
  9
$SHADOWPLANELOCATION
 40
0.0
  0
ENDSEC
  0
SECTION
  2
CLASSES
  0
CLASS
  1
ACDBDICTIONARYWDFLT
  2
AcDbDictionaryWithDefault
  3
ObjectDBX Classes
 90
        0
 91
        4
280
     0
281
     0
  0
CLASS
  1
VISUALSTYLE
  2
AcDbVisualStyle
  3
ObjectDBX Classes
 90
     4095
 91
        4
280
     0
281
     0
  0
CLASS
  1
MATERIAL
  2
AcDbMaterial
  3
ObjectDBX Classes
 90
     1153
 91
        4
280
     0
281
     0
  0
CLASS
  1
SUN
  2
AcDbSun
  3
SCENEOE
 90
     1024
 91
        4
280
     0
281
     0
  0
ENDSEC
  0
SECTION
  2
TABLES
  0
TABLE
  2
VPORT
  5
8
330
0
100
AcDbSymbolTable
 70
     1
  0
VPORT
  5
29
330
8
100
AcDbSymbolTableRecord
100
AcDbViewportTableRecord
  2
*Active
 70
     0
 10
0.0
 20
0.0
 11
1.0
 21
1.0
 12
0.0
 22
0.0
 13
0.0
 23
0.0
 14
0.5
 24
0.5
 15
0.5
 25
0.5
 16
0.0
 26
0.0
 36
1.0
 17
91.00082462281999
 27
-128.4993055234307
 37
0.0
 40
256.9986110468615
 41
0.7081814508812795
 42
50.0
 43
0.0
 44
0.0
 50
0.0
 51
0.0
 71
     0
 72
   100
 73
     1
 74
     3
 75
     0
 76
     0
 77
     0
 78
     0
281
     0
 65
     1
110
0.0
120
0.0
130
0.0
111
1.0
121
0.0
131
0.0
112
0.0
122
1.0
132
0.0
 79
     0
146
0.0
 60
     3
 61
     5
292
     1
282
     1
141
0.0
142
0.0
 63
   250
361
3F
  0
ENDTAB
  0
TABLE
  2
LTYPE
  5
5
330
0
100
AcDbSymbolTable
 70
     1
  0
LTYPE
  5
14
330
5
100
AcDbSymbolTableRecord
100
AcDbLinetypeTableRecord
  2
ByBlock
 70
     0
  3

 72
    65
 73
     0
 40
0.0
  0
LTYPE
  5
15
330
5
100
AcDbSymbolTableRecord
100
AcDbLinetypeTableRecord
  2
ByLayer
 70
     0
  3

 72
    65
 73
     0
 40
0.0
  0
LTYPE
  5
16
330
5
100
AcDbSymbolTableRecord
100
AcDbLinetypeTableRecord
  2
Continuous
 70
     0
  3
Solid line
 72
    65
 73
     0
 40
0.0
  0
ENDTAB
  0
TABLE
  2
LAYER
  5
2
330
0
100
AcDbSymbolTable
 70
     2
  0
LAYER
  5
10
330
2
100
AcDbSymbolTableRecord
100
AcDbLayerTableRecord
  2
0
 70
     0
 62
     7
  6
Continuous
370
    -3
390
F
347
3E
  0
LAYER
  5
40
330
2
100
AcDbSymbolTableRecord
100
AcDbLayerTableRecord
  2
_U+30EC_U+30A4_U+30E4_U+30FC 1
 70
     0
 62
     7
  6
Continuous
370
    -3
390
F
347
3E
  0
ENDTAB
  0
TABLE
  2
STYLE
  5
3
330
0
100
AcDbSymbolTable
 70
     1
  0
STYLE
  5
11
330
3
100
AcDbSymbolTableRecord
100
AcDbTextStyleTableRecord
  2
Standard
 70
     0
 40
0.0
 41
1.0
 50
0.0
 71
     0
 42
0.2
  3
txt
  4

  0
ENDTAB
  0
TABLE
  2
VIEW
  5
6
330
0
100
AcDbSymbolTable
 70
     0
  0
ENDTAB
  0
TABLE
  2
UCS
  5
7
330
0
100
AcDbSymbolTable
 70
     0
  0
ENDTAB
  0
TABLE
  2
APPID
  5
9
330
0
100
AcDbSymbolTable
 70
     1
  0
APPID
  5
12
330
9
100
AcDbSymbolTableRecord
100
AcDbRegAppTableRecord
  2
ACAD
 70
     0
  0
ENDTAB
  0
TABLE
  2
DIMSTYLE
  5
A
330
0
100
AcDbSymbolTable
 70
     1
100
AcDbDimStyleTable
  0
DIMSTYLE
105
27
330
A
100
AcDbSymbolTableRecord
100
AcDbDimStyleTableRecord
  2
Standard
 70
     0
178
     0
340
11
  0
ENDTAB
  0
TABLE
  2
BLOCK_RECORD
  5
1
330
0
100
AcDbSymbolTable
 70
    13
  0
BLOCK_RECORD
  5
1F
330
1
100
AcDbSymbolTableRecord
100
AcDbBlockTableRecord
  2
*Model_Space
340
22
 70
     0
280
     1
281
     0
  0
BLOCK_RECORD
  5
1B
330
1
100
AcDbSymbolTableRecord
100
AcDbBlockTableRecord
  2
*Paper_Space
340
1E
 70
     0
280
     1
281
     0
  0
BLOCK_RECORD
  5
23
330
1
100
AcDbSymbolTableRecord
100
AcDbBlockTableRecord
  2
*Paper_Space0
340
26
 70
     0
280
     1
281
     0
  0
BLOCK_RECORD
  5
C1
330
1
100
AcDbSymbolTableRecord
100
AcDbBlockTableRecord
  2
block 2
340
0
102
{BLKREFS
331
C2
102
}
 70
     0
280
     1
281
     0
  0
BLOCK_RECORD
  5
CD
330
1
100
AcDbSymbolTableRecord
100
AcDbBlockTableRecord
  2
block 3
340
0
102
{BLKREFS
331
CE
102
}
 70
     0
280
     1
281
     0
  0
BLOCK_RECORD
  5
D5
330
1
100
AcDbSymbolTableRecord
100
AcDbBlockTableRecord
  2
block 4
340
0
102
{BLKREFS
331
D6
102
}
 70
     0
280
     1
281
     0
  0
BLOCK_RECORD
  5
E9
330
1
100
AcDbSymbolTableRecord
100
AcDbBlockTableRecord
  2
block 5
340
0
102
{BLKREFS
331
EA
102
}
 70
     0
280
     1
281
     0
  0
BLOCK_RECORD
  5
EF
330
1
100
AcDbSymbolTableRecord
100
AcDbBlockTableRecord
  2
block 6
340
0
102
{BLKREFS
331
F0
102
}
 70
     0
280
     1
281
     0
  0
BLOCK_RECORD
  5
FB
330
1
100
AcDbSymbolTableRecord
100
AcDbBlockTableRecord
  2
block 7
340
0
102
{BLKREFS
331
FC
102
}
 70
     0
280
     1
281
     0
  0
BLOCK_RECORD
  5
104
330
1
100
AcDbSymbolTableRecord
100
AcDbBlockTableRecord
  2
block 8
340
0
102
{BLKREFS
331
105
102
}
 70
     0
280
     1
281
     0
  0
BLOCK_RECORD
  5
110
330
1
100
AcDbSymbolTableRecord
100
AcDbBlockTableRecord
  2
block 9
340
0
102
{BLKREFS
331
111
102
}
 70
     0
280
     1
281
     0
  0
BLOCK_RECORD
  5
116
330
1
100
AcDbSymbolTableRecord
100
AcDbBlockTableRecord
  2
block 10
340
0
102
{BLKREFS
331
117
102
}
 70
     0
280
     1
281
     0
  0
BLOCK_RECORD
  5
126
330
1
100
AcDbSymbolTableRecord
100
AcDbBlockTableRecord
  2
block 11
340
0
102
{BLKREFS
331
127
102
}
 70
     0
280
     1
281
     0
  0
BLOCK_RECORD
  5
141
330
1
100
AcDbSymbolTableRecord
100
AcDbBlockTableRecord
  2
block 12
340
0
102
{BLKREFS
331
142
102
}
 70
     0
280
     1
281
     0
  0
BLOCK_RECORD
  5
151
330
1
100
AcDbSymbolTableRecord
100
AcDbBlockTableRecord
  2
block 13
340
0
102
{BLKREFS
331
152
102
}
 70
     0
280
     1
281
     0
  0
ENDTAB
  0
ENDSEC
  0
SECTION
  2
BLOCKS
  0
BLOCK
  5
20
330
1F
100
AcDbEntity
  8
0
100
AcDbBlockBegin
  2
*Model_Space
 70
     0
 10
0.0
 20
0.0
 30
0.0
  3
*Model_Space
  1

  0
ENDBLK
  5
21
330
1F
100
AcDbEntity
  8
0
100
AcDbBlockEnd
  0
BLOCK
  5
1C
330
1B
100
AcDbEntity
 67
     1
  8
0
100
AcDbBlockBegin
  2
*Paper_Space
 70
     0
 10
0.0
 20
0.0
 30
0.0
  3
*Paper_Space
  1

  0
ENDBLK
  5
1D
330
1B
100
AcDbEntity
 67
     1
  8
0
100
AcDbBlockEnd
  0
BLOCK
  5
24
330
23
100
AcDbEntity
  8
0
100
AcDbBlockBegin
  2
*Paper_Space0
 70
     0
 10
0.0
 20
0.0
 30
0.0
  3
*Paper_Space0
  1

  0
ENDBLK
  5
25
330
23
100
AcDbEntity
  8
0
100
AcDbBlockEnd
  0
BLOCK
  5
C3
330
C1
100
AcDbEntity
  8
0
100
AcDbBlockBegin
  2
block 2
 70
     0
 10
0.0
 20
0.0
 30
0.0
  3
block 2
  1

  0
POLYLINE
  5
C5
330
C1
100
AcDbEntity
  8
_U+30EC_U+30A4_U+30E4_U+30FC 1
 62
     7
420
 16777215
370
     9
100
AcDb2dPolyline
 66
     1
 10
0.0
 20
0.0
 30
0.0
  0
VERTEX
  5
C6
330
C5
100
AcDbEntity
  8
_U+30EC_U+30A4_U+30E4_U+30FC 1
 62
     7
420
 16777215
370
     9
100
AcDbVertex
100
AcDb2dVertex
 10
84.87148727919242
 20
-143.7448794085082
 30
0.0
  0
VERTEX
  5
C7
330
C5
100
AcDbEntity
  8
_U+30EC_U+30A4_U+30E4_U+30FC 1
 62
     7
420
 16777215
370
     9
100
AcDbVertex
100
AcDb2dVertex
 10
99.87124522985005
 20
-143.7448794085082
 30
0.0
  0
SEQEND
  5
C8
330
C5
100
AcDbEntity
  8
_U+30EC_U+30A4_U+30E4_U+30FC 1
 62
     7
420
 16777215
370
     9
  0
POLYLINE
  5
C9
330
C1
100
AcDbEntity
  8
_U+30EC_U+30A4_U+30E4_U+30FC 1
 62
     7
420
 16777215
370
     9
100
AcDb2dPolyline
 66
     1
 10
0.0
 20
0.0
 30
0.0
  0
VERTEX
  5
CA
330
C9
100
AcDbEntity
  8
_U+30EC_U+30A4_U+30E4_U+30FC 1
 62
     7
420
 16777215
370
     9
100
AcDbVertex
100
AcDb2dVertex
 10
99.87124522985005
 20
-142.2848380199845
 30
0.0
  0
VERTEX
  5
CB
330
C9
100
AcDbEntity
  8
_U+30EC_U+30A4_U+30E4_U+30FC 1
 62
     7
420
 16777215
370
     9
100
AcDbVertex
100
AcDb2dVertex
 10
99.87124522985005
 20
-144.7446516304807
 30
0.0
  0
SEQEND
  5
CC
330
C9
100
AcDbEntity
  8
_U+30EC_U+30A4_U+30E4_U+30FC 1
 62
     7
420
 16777215
370
     9
  0
INSERT
  5
CE
330
C1
100
AcDbEntity
  8
_U+30EC_U+30A4_U+30E4_U+30FC 1
100
AcDbBlockReference
  2
block 3
 10
0.0
 20
0.0
 30
0.0
  0
ENDBLK
  5
C4
330
C1
100
AcDbEntity
  8
0
100
AcDbBlockEnd
  0
BLOCK
  5
CF
330
CD
100
AcDbEntity
  8
0
100
AcDbBlockBegin
  2
block 3
 70
     0
 10
0.0
 20
0.0
 30
0.0
  3
block 3
  1

  0
SPLINE
  5
D1
330
CD
100
AcDbEntity
  8
_U+30EC_U+30A4_U+30E4_U+30FC 1
370
     0
100
AcDbSpline
210
0.0
220
0.0
230
1.0
 70
    11
 71
     3
 72
    26
 73
    22
 74
     0
 42
0.0000000001
 43
0.0000000001
 12
1.0
 22
0.0
 32
0.0
 13
1.0
 23
0.0
 33
0.0
 40
0.0
 40
0.0
 40
0.0
 40
0.0
 40
1.0
 40
1.0
 40
1.0
 40
2.0
 40
2.0
 40
2.0
 40
3.0
 40
3.0
 40
3.0
 40
4.0
 40
4.0
 40
4.0
 40
5.0
 40
5.0
 40
5.0
 40
6.0
 40
6.0
 40
6.0
 40
7.0
 40
7.0
 40
7.0
 40
7.0
 10
91.73428003349005
 20
-143.0989311708225
 30
0.0
 10
91.73428003349005
 20
-143.0989311708225
 30
0.0
 10
91.73428003349005
 20
-141.9947780677999
 30
0.0
 10
91.73428003349005
 20
-141.9947780677999
 30
0.0
 10
91.73428003349005
 20
-141.9947780677999
 30
0.0
 10
91.40423988600311
 20
-141.9947780677999
 30
0.0
 10
91.40423988600311
 20
-141.9947780677999
 30
0.0
 10
91.40423988600311
 20
-141.9947780677999
 30
0.0
 10
91.40423988600311
 20
-141.8466389619342
 30
0.0
 10
91.40423988600311
 20
-141.8466389619342
 30
0.0
 10
91.7363470907812
 20
-141.8318250513476
 30
0.0
 10
91.78285587983207
 20
-141.6688720348953
 30
0.0
 10
91.81248370100522
 20
-141.554494864785
 30
0.0
 10
91.81248370100522
 20
-141.554494864785
 30
0.0
 10
91.95855574957982
 20
-141.554494864785
 30
0.0
 10
91.95855574957982
 20
-141.554494864785
 30
0.0
 10
91.95855574957982
 20
-141.554494864785
 30
0.0
 10
91.95855574957982
 20
-143.0989311708225
 30
0.0
 10
91.95855574957982
 20
-143.0989311708225
 30
0.0
 10
91.95855574957982
 20
-143.0989311708225
 30
0.0
 10
91.73428003349005
 20
-143.0989311708225
 30
0.0
 10
91.73428003349005
 20
-143.0989311708225
 30
0.0
  0
HATCH
  5
D2
330
CD
100
AcDbEntity
  8
_U+30EC_U+30A4_U+30E4_U+30FC 1
 62
     7
420
 16777215
100
AcDbHatch
 10
0.0
 20
0.0
 30
0.0
210
0.0
220
0.0
230
1.0
  2
SOLID
 70
     1
 71
     0
 91
        1
 92
        1
 93
        1
 72
     4
 94
        3
 73
     0
 74
     1
 95
       26
 96
       22
 40
0.0
 40
0.0
 40
0.0
 40
0.0
 40
1.0
 40
1.0
 40
1.0
 40
2.0
 40
2.0
 40
2.0
 40
3.0
 40
3.0
 40
3.0
 40
4.0
 40
4.0
 40
4.0
 40
5.0
 40
5.0
 40
5.0
 40
6.0
 40
6.0
 40
6.0
 40
7.0
 40
7.0
 40
7.0
 40
7.0
 10
91.73428003349005
 20
-143.0989311708225
 10
91.73428003349005
 20
-143.0989311708225
 10
91.73428003349005
 20
-141.9947780677999
 10
91.73428003349005
 20
-141.9947780677999
 10
91.73428003349005
 20
-141.9947780677999
 10
91.40423988600311
 20
-141.9947780677999
 10
91.40423988600311
 20
-141.9947780677999
 10
91.40423988600311
 20
-141.9947780677999
 10
91.40423988600311
 20
-141.8466389619342
 10
91.40423988600311
 20
-141.8466389619342
 10
91.7363470907812
 20
-141.8318250513476
 10
91.78285587983207
 20
-141.6688720348953
 10
91.81248370100522
 20
-141.554494864785
 10
91.81248370100522
 20
-141.554494864785
 10
91.95855574957982
 20
-141.554494864785
 10
91.95855574957982
 20
-141.554494864785
 10
91.95855574957982
 20
-141.554494864785
 10
91.95855574957982
 20
-143.0989311708225
 10
91.95855574957982
 20
-143.0989311708225
 10
91.95855574957982
 20
-143.0989311708225
 10
91.73428003349005
 20
-143.0989311708225
 10
91.73428003349005
 20
-143.0989311708225
 97
        0
 97
        0
 75
     2
 76
     1
 98
        0
  0
SPLINE
  5
D3
330
CD
100
AcDbEntity
  8
_U+30EC_U+30A4_U+30E4_U+30FC 1
370
     0
100
AcDbSpline
210
0.0
220
0.0
230
1.0
 70
    11
 71
     3
 72
    53
 73
    49
 74
     0
 42
0.0000000001
 43
0.0000000001
 12
1.0
 22
0.0
 32
0.0
 13
1.0
 23
0.0
 33
0.0
 40
0.0
 40
0.0
 40
0.0
 40
0.0
 40
1.0
 40
1.0
 40
1.0
 40
2.0
 40
2.0
 40
2.0
 40
3.0
 40
3.0
 40
3.0
 40
4.0
 40
4.0
 40
4.0
 40
5.0
 40
5.0
 40
5.0
 40
6.0
 40
6.0
 40
6.0
 40
7.0
 40
7.0
 40
7.0
 40
8.0
 40
8.0
 40
8.0
 40
9.0
 40
9.0
 40
9.0
 40
10.0
 40
10.0
 40
10.0
 40
11.0
 40
11.0
 40
11.0
 40
12.0
 40
12.0
 40
12.0
 40
13.0
 40
13.0
 40
13.0
 40
14.0
 40
14.0
 40
14.0
 40
15.0
 40
15.0
 40
15.0
 40
16.0
 40
16.0
 40
16.0
 40
16.0
 10
92.94075247242453
 20
-143.1495740744557
 30
0.0
 10
92.86254880490937
 20
-143.1495740744557
 30
0.0
 10
92.7609184880945
 20
-143.1326931065779
 30
0.0
 10
92.65928817127963
 20
-143.0693033496493
 30
0.0
 10
92.48599986837156
 20
-142.9594048036699
 30
0.0
 10
92.46464027636301
 20
-142.8281466656819
 30
0.0
 10
92.44569225119413
 20
-142.7203151769936
 30
0.0
 10
92.44569225119413
 20
-142.7203151769936
 30
0.0
 10
92.66790090999275
 20
-142.7203151769936
 30
0.0
 10
92.66790090999275
 20
-142.7203151769936
 30
0.0
 10
92.72267792820823
 20
-142.9190971864925
 30
0.0
 10
92.84980195161394
 20
-142.9487250076656
 30
0.0
 10
92.94281952971569
 20
-142.9487250076656
 30
0.0
 10
93.0823458968683
 20
-142.9487250076656
 30
0.0
 10
93.23461911731636
 20
-142.8491617481419
 30
0.0
 10
93.23461911731636
 20
-142.6166178028875
 30
0.0
 10
93.23461911731636
 20
-142.3606472083335
 30
0.0
 10
93.05478513298631
 20
-142.2907117699829
 30
0.0
 10
92.93420679100257
 20
-142.2907117699829
 30
0.0
 10
92.90251191253826
 20
-142.2907117699829
 30
0.0
 10
92.7609184880945
 20
-142.2907117699829
 30
0.0
 10
92.67203502457505
 20
-142.4199028506798
 30
0.0
 10
92.67203502457505
 20
-142.4199028506798
 30
0.0
 10
92.4963351548273
 20
-142.4009548255109
 30
0.0
 10
92.4963351548273
 20
-142.4009548255109
 30
0.0
 10
92.4963351548273
 20
-142.4009548255109
 30
0.0
 10
92.61691349681105
 20
-141.554494864785
 30
0.0
 10
92.61691349681105
 20
-141.554494864785
 30
0.0
 10
92.61691349681105
 20
-141.554494864785
 30
0.0
 10
93.39550507647752
 20
-141.554494864785
 30
0.0
 10
93.39550507647752
 20
-141.554494864785
 30
0.0
 10
93.39550507647752
 20
-141.554494864785
 30
0.0
 10
93.39550507647752
 20
-141.7491427597016
 30
0.0
 10
93.39550507647752
 20
-141.7491427597016
 30
0.0
 10
93.39550507647752
 20
-141.7491427597016
 30
0.0
 10
92.77986651326337
 20
-141.7491427597016
 30
0.0
 10
92.77986651326337
 20
-141.7491427597016
 30
0.0
 10
92.77986651326337
 20
-141.7491427597016
 30
0.0
 10
92.71440969904363
 20
-142.1722004852903
 30
0.0
 10
92.71440969904363
 20
-142.1722004852903
 30
0.0
 10
92.77573239868107
 20
-142.1384385495348
 30
0.0
 10
92.85807018077854
 20
-142.0981309323574
 30
0.0
 10
92.97658146547114
 20
-142.0981309323574
 30
0.0
 10
93.23048500273406
 20
-142.0981309323574
 30
0.0
 10
93.46750757211923
 20
-142.2845105981094
 30
0.0
 10
93.46750757211923
 20
-142.5976697777186
 30
0.0
 10
93.46750757211923
 20
-142.9149630719102
 30
0.0
 10
93.24323185602947
 20
-143.1495740744557
 30
0.0
 10
92.94075247242453
 20
-143.1495740744557
 30
0.0
  0
HATCH
  5
D4
330
CD
100
AcDbEntity
  8
_U+30EC_U+30A4_U+30E4_U+30FC 1
 62
     7
420
 16777215
100
AcDbHatch
 10
0.0
 20
0.0
 30
0.0
210
0.0
220
0.0
230
1.0
  2
SOLID
 70
     1
 71
     0
 91
        1
 92
        1
 93
        1
 72
     4
 94
        3
 73
     0
 74
     1
 95
       53
 96
       49
 40
0.0
 40
0.0
 40
0.0
 40
0.0
 40
1.0
 40
1.0
 40
1.0
 40
2.0
 40
2.0
 40
2.0
 40
3.0
 40
3.0
 40
3.0
 40
4.0
 40
4.0
 40
4.0
 40
5.0
 40
5.0
 40
5.0
 40
6.0
 40
6.0
 40
6.0
 40
7.0
 40
7.0
 40
7.0
 40
8.0
 40
8.0
 40
8.0
 40
9.0
 40
9.0
 40
9.0
 40
10.0
 40
10.0
 40
10.0
 40
11.0
 40
11.0
 40
11.0
 40
12.0
 40
12.0
 40
12.0
 40
13.0
 40
13.0
 40
13.0
 40
14.0
 40
14.0
 40
14.0
 40
15.0
 40
15.0
 40
15.0
 40
16.0
 40
16.0
 40
16.0
 40
16.0
 10
92.94075247242453
 20
-143.1495740744557
 10
92.86254880490937
 20
-143.1495740744557
 10
92.7609184880945
 20
-143.1326931065779
 10
92.65928817127963
 20
-143.0693033496493
 10
92.48599986837156
 20
-142.9594048036699
 10
92.46464027636301
 20
-142.8281466656819
 10
92.44569225119413
 20
-142.7203151769936
 10
92.44569225119413
 20
-142.7203151769936
 10
92.66790090999275
 20
-142.7203151769936
 10
92.66790090999275
 20
-142.7203151769936
 10
92.72267792820823
 20
-142.9190971864925
 10
92.84980195161394
 20
-142.9487250076656
 10
92.94281952971569
 20
-142.9487250076656
 10
93.0823458968683
 20
-142.9487250076656
 10
93.23461911731636
 20
-142.8491617481419
 10
93.23461911731636
 20
-142.6166178028875
 10
93.23461911731636
 20
-142.3606472083335
 10
93.05478513298631
 20
-142.2907117699829
 10
92.93420679100257
 20
-142.2907117699829
 10
92.90251191253826
 20
-142.2907117699829
 10
92.7609184880945
 20
-142.2907117699829
 10
92.67203502457505
 20
-142.4199028506798
 10
92.67203502457505
 20
-142.4199028506798
 10
92.4963351548273
 20
-142.4009548255109
 10
92.4963351548273
 20
-142.4009548255109
 10
92.4963351548273
 20
-142.4009548255109
 10
92.61691349681105
 20
-141.554494864785
 10
92.61691349681105
 20
-141.554494864785
 10
92.61691349681105
 20
-141.554494864785
 10
93.39550507647752
 20
-141.554494864785
 10
93.39550507647752
 20
-141.554494864785
 10
93.39550507647752
 20
-141.554494864785
 10
93.39550507647752
 20
-141.7491427597016
 10
93.39550507647752
 20
-141.7491427597016
 10
93.39550507647752
 20
-141.7491427597016
 10
92.77986651326337
 20
-141.7491427597016
 10
92.77986651326337
 20
-141.7491427597016
 10
92.77986651326337
 20
-141.7491427597016
 10
92.71440969904363
 20
-142.1722004852903
 10
92.71440969904363
 20
-142.1722004852903
 10
92.77573239868107
 20
-142.1384385495348
 10
92.85807018077854
 20
-142.0981309323574
 10
92.97658146547114
 20
-142.0981309323574
 10
93.23048500273406
 20
-142.0981309323574
 10
93.46750757211923
 20
-142.2845105981094
 10
93.46750757211923
 20
-142.5976697777186
 10
93.46750757211923
 20
-142.9149630719102
 10
93.24323185602947
 20
-143.1495740744557
 10
92.94075247242453
 20
-143.1495740744557
 97
        0
 97
        0
 75
     2
 76
     1
 98
        0
  0
ENDBLK
  5
D0
330
CD
100
AcDbEntity
  8
0
100
AcDbBlockEnd
  0
BLOCK
  5
D7
330
D5
100
AcDbEntity
  8
0
100
AcDbBlockBegin
  2
block 4
 70
     0
 10
0.0
 20
0.0
 30
0.0
  3
block 4
  1

  0
POLYLINE
  5
D9
330
D5
100
AcDbEntity
  8
_U+30EC_U+30A4_U+30E4_U+30FC 1
 62
     7
420
 16777215
370
     9
100
AcDb2dPolyline
 66
     1
 10
0.0
 20
0.0
 30
0.0
  0
VERTEX
  5
DA
330
D9
100
AcDbEntity
  8
_U+30EC_U+30A4_U+30E4_U+30FC 1
 62
     7
420
 16777215
370
     9
100
AcDbVertex
100
AcDb2dVertex
 10
115.8716573216455
 20
-119.7449838589525
 30
0.0
  0
VERTEX
  5
DB
330
D9
100
AcDbEntity
  8
_U+30EC_U+30A4_U+30E4_U+30FC 1
 62
     7
420
 16777215
370
     9
100
AcDbVertex
100
AcDb2dVertex
 10
115.8716573216455
 20
-115.9746713598951
 30
0.0
  0
SEQEND
  5
DC
330
D9
100
AcDbEntity
  8
_U+30EC_U+30A4_U+30E4_U+30FC 1
 62
     7
420
 16777215
370
     9
  0
POLYLINE
  5
DD
330
D5
100
AcDbEntity
  8
_U+30EC_U+30A4_U+30E4_U+30FC 1
 62
     7
420
 16777215
370
     9
100
AcDb2dPolyline
 66
     1
 10
0.0
 20
0.0
 30
0.0
  0
VERTEX
  5
DE
330
DD
100
AcDbEntity
  8
_U+30EC_U+30A4_U+30E4_U+30FC 1
 62
     7
420
 16777215
370
     9
100
AcDbVertex
100
AcDb2dVertex
 10
115.8716573216455
 20
-119.7449838589525
 30
0.0
  0
VERTEX
  5
DF
330
DD
100
AcDbEntity
  8
_U+30EC_U+30A4_U+30E4_U+30FC 1
 62
     7
420
 16777215
370
     9
100
AcDbVertex
100
AcDb2dVertex
 10
115.8716573216455
 20
-120.744756080925
 30
0.0
  0
SEQEND
  5
E0
330
DD
100
AcDbEntity
  8
_U+30EC_U+30A4_U+30E4_U+30FC 1
 62
     7
420
 16777215
370
     9
  0
POLYLINE
  5
E1
330
D5
100
AcDbEntity
  8
_U+30EC_U+30A4_U+30E4_U+30FC 1
 62
     7
420
 16777215
370
     9
100
AcDb2dPolyline
 66
     1
 10
0.0
 20
0.0
 30
0.0
  0
VERTEX
  5
E2
330
E1
100
AcDbEntity
  8
_U+30EC_U+30A4_U+30E4_U+30FC 1
 62
     7
420
 16777215
370
     9
100
AcDbVertex
100
AcDb2dVertex
 10
114.4116159700054
 20
-119.7449838589525
 30
0.0
  0
VERTEX
  5
E3
330
E1
100
AcDbEntity
  8
_U+30EC_U+30A4_U+30E4_U+30FC 1
 62
     7
420
 16777215
370
     9
100
AcDbVertex
100
AcDb2dVertex
 10
116.8714295183614
 20
-119.7449838589525
 30
0.0
  0
SEQEND
  5
E4
330
E1
100
AcDbEntity
  8
_U+30EC_U+30A4_U+30E4_U+30FC 1
 62
     7
420
 16777215
370
     9
  0
POLYLINE
  5
E5
330
D5
100
AcDbEntity
  8
_U+30EC_U+30A4_U+30E4_U+30FC 1
 62
     7
420
 16777215
370
     9
100
AcDb2dPolyline
 66
     1
 10
0.0
 20
0.0
 30
0.0
  0
VERTEX
  5
E6
330
E5
100
AcDbEntity
  8
_U+30EC_U+30A4_U+30E4_U+30FC 1
 62
     7
420
 16777215
370
     9
100
AcDbVertex
100
AcDb2dVertex
 10
114.4116159700054
 20
-120.744756080925
 30
0.0
  0
VERTEX
  5
E7
330
E5
100
AcDbEntity
  8
_U+30EC_U+30A4_U+30E4_U+30FC 1
 62
     7
420
 16777215
370
     9
100
AcDbVertex
100
AcDb2dVertex
 10
116.8714295183614
 20
-120.744756080925
 30
0.0
  0
SEQEND
  5
E8
330
E5
100
AcDbEntity
  8
_U+30EC_U+30A4_U+30E4_U+30FC 1
 62
     7
420
 16777215
370
     9
  0
INSERT
  5
EA
330
D5
100
AcDbEntity
  8
_U+30EC_U+30A4_U+30E4_U+30FC 1
100
AcDbBlockReference
  2
block 5
 10
0.0
 20
0.0
 30
0.0
  0
ENDBLK
  5
D8
330
D5
100
AcDbEntity
  8
0
100
AcDbBlockEnd
  0
BLOCK
  5
EB
330
E9
100
AcDbEntity
  8
0
100
AcDbBlockBegin
  2
block 5
 70
     0
 10
0.0
 20
0.0
 30
0.0
  3
block 5
  1

  0
SPLINE
  5
ED
330
E9
100
AcDbEntity
  8
_U+30EC_U+30A4_U+30E4_U+30FC 1
370
     0
100
AcDbSpline
210
0.0
220
0.0
230
1.0
 70
    11
 71
     3
 72
    26
 73
    22
 74
     0
 42
0.0000000001
 43
0.0000000001
 12
1.0
 22
0.0
 32
0.0
 13
1.0
 23
0.0
 33
0.0
 40
0.0
 40
0.0
 40
0.0
 40
0.0
 40
1.0
 40
1.0
 40
1.0
 40
2.0
 40
2.0
 40
2.0
 40
3.0
 40
3.0
 40
3.0
 40
4.0
 40
4.0
 40
4.0
 40
5.0
 40
5.0
 40
5.0
 40
6.0
 40
6.0
 40
6.0
 40
7.0
 40
7.0
 40
7.0
 40
7.0
 10
114.754752575478
 20
-120.3199598223506
 30
0.0
 10
114.754752575478
 20
-120.3199598223506
 30
0.0
 10
113.6505994724554
 20
-120.3199598223506
 30
0.0
 10
113.6505994724554
 20
-120.3199598223506
 30
0.0
 10
113.6505994724554
 20
-120.3199598223506
 30
0.0
 10
113.6505994724554
 20
-120.6499999698375
 30
0.0
 10
113.6505994724554
 20
-120.6499999698375
 30
0.0
 10
113.6505994724554
 20
-120.6499999698375
 30
0.0
 10
113.5024603665897
 20
-120.6499999698375
 30
0.0
 10
113.5024603665897
 20
-120.6499999698375
 30
0.0
 10
113.4876464560031
 20
-120.3178927650594
 30
0.0
 10
113.3246934395508
 20
-120.2713839760086
 30
0.0
 10
113.2103162694405
 20
-120.2417561548354
 30
0.0
 10
113.2103162694405
 20
-120.2417561548354
 30
0.0
 10
113.2103162694405
 20
-120.0956841062608
 30
0.0
 10
113.2103162694405
 20
-120.0956841062608
 30
0.0
 10
113.2103162694405
 20
-120.0956841062608
 30
0.0
 10
114.754752575478
 20
-120.0956841062608
 30
0.0
 10
114.754752575478
 20
-120.0956841062608
 30
0.0
 10
114.754752575478
 20
-120.0956841062608
 30
0.0
 10
114.754752575478
 20
-120.3199598223506
 30
0.0
 10
114.754752575478
 20
-120.3199598223506
 30
0.0
  0
HATCH
  5
EE
330
E9
100
AcDbEntity
  8
_U+30EC_U+30A4_U+30E4_U+30FC 1
 62
     7
420
 16777215
100
AcDbHatch
 10
0.0
 20
0.0
 30
0.0
210
0.0
220
0.0
230
1.0
  2
SOLID
 70
     1
 71
     0
 91
        1
 92
        1
 93
        1
 72
     4
 94
        3
 73
     0
 74
     1
 95
       26
 96
       22
 40
0.0
 40
0.0
 40
0.0
 40
0.0
 40
1.0
 40
1.0
 40
1.0
 40
2.0
 40
2.0
 40
2.0
 40
3.0
 40
3.0
 40
3.0
 40
4.0
 40
4.0
 40
4.0
 40
5.0
 40
5.0
 40
5.0
 40
6.0
 40
6.0
 40
6.0
 40
7.0
 40
7.0
 40
7.0
 40
7.0
 10
114.754752575478
 20
-120.3199598223506
 10
114.754752575478
 20
-120.3199598223506
 10
113.6505994724554
 20
-120.3199598223506
 10
113.6505994724554
 20
-120.3199598223506
 10
113.6505994724554
 20
-120.3199598223506
 10
113.6505994724554
 20
-120.6499999698375
 10
113.6505994724554
 20
-120.6499999698375
 10
113.6505994724554
 20
-120.6499999698375
 10
113.5024603665897
 20
-120.6499999698375
 10
113.5024603665897
 20
-120.6499999698375
 10
113.4876464560031
 20
-120.3178927650594
 10
113.3246934395508
 20
-120.2713839760086
 10
113.2103162694405
 20
-120.2417561548354
 10
113.2103162694405
 20
-120.2417561548354
 10
113.2103162694405
 20
-120.0956841062608
 10
113.2103162694405
 20
-120.0956841062608
 10
113.2103162694405
 20
-120.0956841062608
 10
114.754752575478
 20
-120.0956841062608
 10
114.754752575478
 20
-120.0956841062608
 10
114.754752575478
 20
-120.0956841062608
 10
114.754752575478
 20
-120.3199598223506
 10
114.754752575478
 20
-120.3199598223506
 97
        0
 97
        0
 75
     2
 76
     1
 98
        0
  0
ENDBLK
  5
EC
330
E9
100
AcDbEntity
  8
0
100
AcDbBlockEnd
  0
BLOCK
  5
F1
330
EF
100
AcDbEntity
  8
0
100
AcDbBlockBegin
  2
block 6
 70
     0
 10
0.0
 20
0.0
 30
0.0
  3
block 6
  1

  0
POLYLINE
  5
F3
330
EF
100
AcDbEntity
  8
_U+30EC_U+30A4_U+30E4_U+30FC 1
 62
     7
420
 16777215
370
     9
100
AcDb2dPolyline
 66
     1
 10
0.0
 20
0.0
 30
0.0
  0
VERTEX
  5
F4
330
F3
100
AcDbEntity
  8
_U+30EC_U+30A4_U+30E4_U+30FC 1
 62
     7
420
 16777215
370
     9
100
AcDbVertex
100
AcDb2dVertex
 10
115.8716573216455
 20
-120.744756080925
 30
0.0
  0
VERTEX
  5
F5
330
F3
100
AcDbEntity
  8
_U+30EC_U+30A4_U+30E4_U+30FC 1
 62
     7
420
 16777215
370
     9
100
AcDbVertex
100
AcDb2dVertex
 10
115.8716573216455
 20
-136.745133299147
 30
0.0
  0
SEQEND
  5
F6
330
F3
100
AcDbEntity
  8
_U+30EC_U+30A4_U+30E4_U+30FC 1
 62
     7
420
 16777215
370
     9
  0
POLYLINE
  5
F7
330
EF
100
AcDbEntity
  8
_U+30EC_U+30A4_U+30E4_U+30FC 1
 62
     7
420
 16777215
370
     9
100
AcDb2dPolyline
 66
     1
 10
0.0
 20
0.0
 30
0.0
  0
VERTEX
  5
F8
330
F7
100
AcDbEntity
  8
_U+30EC_U+30A4_U+30E4_U+30FC 1
 62
     7
420
 16777215
370
     9
100
AcDbVertex
100
AcDb2dVertex
 10
102.4116684983718
 20
-136.745133299147
 30
0.0
  0
VERTEX
  5
F9
330
F7
100
AcDbEntity
  8
_U+30EC_U+30A4_U+30E4_U+30FC 1
 62
     7
420
 16777215
370
     9
100
AcDbVertex
100
AcDb2dVertex
 10
116.8714295183614
 20
-136.745133299147
 30
0.0
  0
SEQEND
  5
FA
330
F7
100
AcDbEntity
  8
_U+30EC_U+30A4_U+30E4_U+30FC 1
 62
     7
420
 16777215
370
     9
  0
INSERT
  5
FC
330
EF
100
AcDbEntity
  8
_U+30EC_U+30A4_U+30E4_U+30FC 1
100
AcDbBlockReference
  2
block 7
 10
0.0
 20
0.0
 30
0.0
  0
ENDBLK
  5
F2
330
EF
100
AcDbEntity
  8
0
100
AcDbBlockEnd
  0
BLOCK
  5
FD
330
FB
100
AcDbEntity
  8
0
100
AcDbBlockBegin
  2
block 7
 70
     0
 10
0.0
 20
0.0
 30
0.0
  3
block 7
  1

  0
SPLINE
  5
FF
330
FB
100
AcDbEntity
  8
_U+30EC_U+30A4_U+30E4_U+30FC 1
370
     0
100
AcDbSpline
210
0.0
220
0.0
230
1.0
 70
    11
 71
     3
 72
    26
 73
    22
 74
     0
 42
0.0000000001
 43
0.0000000001
 12
1.0
 22
0.0
 32
0.0
 13
1.0
 23
0.0
 33
0.0
 40
0.0
 40
0.0
 40
0.0
 40
0.0
 40
1.0
 40
1.0
 40
1.0
 40
2.0
 40
2.0
 40
2.0
 40
3.0
 40
3.0
 40
3.0
 40
4.0
 40
4.0
 40
4.0
 40
5.0
 40
5.0
 40
5.0
 40
6.0
 40
6.0
 40
6.0
 40
7.0
 40
7.0
 40
7.0
 40
7.0
 10
114.754752575478
 20
-129.3805609485576
 30
0.0
 10
114.754752575478
 20
-129.3805609485576
 30
0.0
 10
113.6505994724554
 20
-129.3805609485576
 30
0.0
 10
113.6505994724554
 20
-129.3805609485576
 30
0.0
 10
113.6505994724554
 20
-129.3805609485576
 30
0.0
 10
113.6505994724554
 20
-129.7106010960446
 30
0.0
 10
113.6505994724554
 20
-129.7106010960446
 30
0.0
 10
113.6505994724554
 20
-129.7106010960446
 30
0.0
 10
113.5024603665897
 20
-129.7106010960446
 30
0.0
 10
113.5024603665897
 20
-129.7106010960446
 30
0.0
 10
113.4876464560031
 20
-129.3784938912665
 30
0.0
 10
113.3246934395508
 20
-129.3319851022156
 30
0.0
 10
113.2103162694405
 20
-129.3023572810425
 30
0.0
 10
113.2103162694405
 20
-129.3023572810425
 30
0.0
 10
113.2103162694405
 20
-129.1562852324679
 30
0.0
 10
113.2103162694405
 20
-129.1562852324679
 30
0.0
 10
113.2103162694405
 20
-129.1562852324679
 30
0.0
 10
114.754752575478
 20
-129.1562852324679
 30
0.0
 10
114.754752575478
 20
-129.1562852324679
 30
0.0
 10
114.754752575478
 20
-129.1562852324679
 30
0.0
 10
114.754752575478
 20
-129.3805609485576
 30
0.0
 10
114.754752575478
 20
-129.3805609485576
 30
0.0
  0
HATCH
  5
100
330
FB
100
AcDbEntity
  8
_U+30EC_U+30A4_U+30E4_U+30FC 1
 62
     7
420
 16777215
100
AcDbHatch
 10
0.0
 20
0.0
 30
0.0
210
0.0
220
0.0
230
1.0
  2
SOLID
 70
     1
 71
     0
 91
        1
 92
        1
 93
        1
 72
     4
 94
        3
 73
     0
 74
     1
 95
       26
 96
       22
 40
0.0
 40
0.0
 40
0.0
 40
0.0
 40
1.0
 40
1.0
 40
1.0
 40
2.0
 40
2.0
 40
2.0
 40
3.0
 40
3.0
 40
3.0
 40
4.0
 40
4.0
 40
4.0
 40
5.0
 40
5.0
 40
5.0
 40
6.0
 40
6.0
 40
6.0
 40
7.0
 40
7.0
 40
7.0
 40
7.0
 10
114.754752575478
 20
-129.3805609485576
 10
114.754752575478
 20
-129.3805609485576
 10
113.6505994724554
 20
-129.3805609485576
 10
113.6505994724554
 20
-129.3805609485576
 10
113.6505994724554
 20
-129.3805609485576
 10
113.6505994724554
 20
-129.7106010960446
 10
113.6505994724554
 20
-129.7106010960446
 10
113.6505994724554
 20
-129.7106010960446
 10
113.5024603665897
 20
-129.7106010960446
 10
113.5024603665897
 20
-129.7106010960446
 10
113.4876464560031
 20
-129.3784938912665
 10
113.3246934395508
 20
-129.3319851022156
 10
113.2103162694405
 20
-129.3023572810425
 10
113.2103162694405
 20
-129.3023572810425
 10
113.2103162694405
 20
-129.1562852324679
 10
113.2103162694405
 20
-129.1562852324679
 10
113.2103162694405
 20
-129.1562852324679
 10
114.754752575478
 20
-129.1562852324679
 10
114.754752575478
 20
-129.1562852324679
 10
114.754752575478
 20
-129.1562852324679
 10
114.754752575478
 20
-129.3805609485576
 10
114.754752575478
 20
-129.3805609485576
 97
        0
 97
        0
 75
     2
 76
     1
 98
        0
  0
SPLINE
  5
101
330
FB
100
AcDbEntity
  8
_U+30EC_U+30A4_U+30E4_U+30FC 1
370
     0
100
AcDbSpline
210
0.0
220
0.0
230
1.0
 70
    11
 71
     3
 72
    32
 73
    28
 74
     0
 42
0.0000000001
 43
0.0000000001
 12
1.0
 22
0.0
 32
0.0
 13
1.0
 23
0.0
 33
0.0
 40
0.0
 40
0.0
 40
0.0
 40
0.0
 40
1.0
 40
1.0
 40
1.0
 40
2.0
 40
2.0
 40
2.0
 40
3.0
 40
3.0
 40
3.0
 40
4.0
 40
4.0
 40
4.0
 40
5.0
 40
5.0
 40
5.0
 40
6.0
 40
6.0
 40
6.0
 40
7.0
 40
7.0
 40
7.0
 40
8.0
 40
8.0
 40
8.0
 40
9.0
 40
9.0
 40
9.0
 40
9.0
 10
114.8053954791112
 20
-128.151006369872
 30
0.0
 10
114.8053954791112
 20
-128.6670816735624
 30
0.0
 10
114.251424125083
 20
-128.6756944122755
 30
0.0
 10
114.037483695449
 20
-128.6756944122755
 30
0.0
 10
113.8070068074857
 20
-128.6756944122755
 30
0.0
 10
113.1596733658073
 20
-128.6564018775581
 30
0.0
 10
113.1596733658073
 20
-128.1127658099857
 30
0.0
 10
113.1596733658073
 20
-127.9394775070776
 30
0.0
 10
113.2296088041579
 20
-127.6938421989793
 30
0.0
 10
113.561716008936
 20
-127.6559461486416
 30
0.0
 10
113.561716008936
 20
-127.6559461486416
 30
0.0
 10
113.561716008936
 20
-127.8695420687271
 30
0.0
 10
113.561716008936
 20
-127.8695420687271
 30
0.0
 10
113.5045274238808
 20
-127.8802218647313
 30
0.0
 10
113.3563883180151
 20
-127.9119167431956
 30
0.0
 10
113.3563883180151
 20
-128.1148328672768
 30
0.0
 10
113.3563883180151
 20
-128.406976964426
 30
0.0
 10
113.6843614082109
 20
-128.4469400720549
 30
0.0
 10
113.8893445895832
 20
-128.4596869253504
 30
0.0
 10
113.811140922068
 20
-128.3666693472486
 30
0.0
 10
113.7518852797218
 20
-128.2988009661892
 30
0.0
 10
113.7518852797218
 20
-128.116899924568
 30
0.0
 10
113.7518852797218
 20
-127.937065940238
 30
0.0
 10
113.8600612779586
 20
-127.634586556633
 30
0.0
 10
114.2662380356696
 20
-127.634586556633
 30
0.0
 10
114.5855983871522
 20
-127.634586556633
 30
0.0
 10
114.8053954791112
 20
-127.8337130756805
 30
0.0
 10
114.8053954791112
 20
-128.151006369872
 30
0.0
  0
SPLINE
  5
102
330
FB
100
AcDbEntity
  8
_U+30EC_U+30A4_U+30E4_U+30FC 1
370
     0
100
AcDbSpline
210
0.0
220
0.0
230
1.0
 70
    11
 71
     3
 72
    17
 73
    13
 74
     0
 42
0.0000000001
 43
0.0000000001
 12
1.0
 22
0.0
 32
0.0
 13
1.0
 23
0.0
 33
0.0
 40
0.0
 40
0.0
 40
0.0
 40
0.0
 40
1.0
 40
1.0
 40
1.0
 40
2.0
 40
2.0
 40
2.0
 40
3.0
 40
3.0
 40
3.0
 40
4.0
 40
4.0
 40
4.0
 40
4.0
 10
113.9465331746384
 20
-128.1341254019943
 30
0.0
 10
113.9465331746384
 20
-128.3962971684218
 30
0.0
 10
114.1580620374327
 20
-128.4341932187595
 30
0.0
 10
114.2745062648342
 20
-128.4341932187595
 30
0.0
 10
114.4502061345819
 20
-128.4341932187595
 30
0.0
 10
114.6131591510342
 20
-128.3391085833666
 30
0.0
 10
114.6131591510342
 20
-128.1551404844543
 30
0.0
 10
114.6131591510342
 20
-128.0345621424705
 30
0.0
 10
114.5539035086879
 20
-127.8588622727228
 30
0.0
 10
114.2683050929607
 20
-127.8588622727228
 30
0.0
 10
114.0440293768709
 20
-127.8588622727228
 30
0.0
 10
113.9465331746384
 20
-127.9983886398754
 30
0.0
 10
113.9465331746384
 20
-128.1341254019943
 30
0.0
  0
HATCH
  5
103
330
FB
100
AcDbEntity
  8
_U+30EC_U+30A4_U+30E4_U+30FC 1
 62
     7
420
 16777215
100
AcDbHatch
 10
0.0
 20
0.0
 30
0.0
210
0.0
220
0.0
230
1.0
  2
SOLID
 70
     1
 71
     0
 91
        2
 92
        1
 93
        1
 72
     4
 94
        3
 73
     0
 74
     1
 95
       32
 96
       28
 40
0.0
 40
0.0
 40
0.0
 40
0.0
 40
1.0
 40
1.0
 40
1.0
 40
2.0
 40
2.0
 40
2.0
 40
3.0
 40
3.0
 40
3.0
 40
4.0
 40
4.0
 40
4.0
 40
5.0
 40
5.0
 40
5.0
 40
6.0
 40
6.0
 40
6.0
 40
7.0
 40
7.0
 40
7.0
 40
8.0
 40
8.0
 40
8.0
 40
9.0
 40
9.0
 40
9.0
 40
9.0
 10
114.8053954791112
 20
-128.151006369872
 10
114.8053954791112
 20
-128.6670816735624
 10
114.251424125083
 20
-128.6756944122755
 10
114.037483695449
 20
-128.6756944122755
 10
113.8070068074857
 20
-128.6756944122755
 10
113.1596733658073
 20
-128.6564018775581
 10
113.1596733658073
 20
-128.1127658099857
 10
113.1596733658073
 20
-127.9394775070776
 10
113.2296088041579
 20
-127.6938421989793
 10
113.561716008936
 20
-127.6559461486416
 10
113.561716008936
 20
-127.6559461486416
 10
113.561716008936
 20
-127.8695420687271
 10
113.561716008936
 20
-127.8695420687271
 10
113.5045274238808
 20
-127.8802218647313
 10
113.3563883180151
 20
-127.9119167431956
 10
113.3563883180151
 20
-128.1148328672768
 10
113.3563883180151
 20
-128.406976964426
 10
113.6843614082109
 20
-128.4469400720549
 10
113.8893445895832
 20
-128.4596869253504
 10
113.811140922068
 20
-128.3666693472486
 10
113.7518852797218
 20
-128.2988009661892
 10
113.7518852797218
 20
-128.116899924568
 10
113.7518852797218
 20
-127.937065940238
 10
113.8600612779586
 20
-127.634586556633
 10
114.2662380356696
 20
-127.634586556633
 10
114.5855983871522
 20
-127.634586556633
 10
114.8053954791112
 20
-127.8337130756805
 10
114.8053954791112
 20
-128.151006369872
 97
        0
 97
        0
 92
        1
 93
        1
 72
     4
 94
        3
 73
     0
 74
     1
 95
       17
 96
       13
 40
0.0
 40
0.0
 40
0.0
 40
0.0
 40
1.0
 40
1.0
 40
1.0
 40
2.0
 40
2.0
 40
2.0
 40
3.0
 40
3.0
 40
3.0
 40
4.0
 40
4.0
 40
4.0
 40
4.0
 10
113.9465331746384
 20
-128.1341254019943
 10
113.9465331746384
 20
-128.3962971684218
 10
114.1580620374327
 20
-128.4341932187595
 10
114.2745062648342
 20
-128.4341932187595
 10
114.4502061345819
 20
-128.4341932187595
 10
114.6131591510342
 20
-128.3391085833666
 10
114.6131591510342
 20
-128.1551404844543
 10
114.6131591510342
 20
-128.0345621424705
 10
114.5539035086879
 20
-127.8588622727228
 10
114.2683050929607
 20
-127.8588622727228
 10
114.0440293768709
 20
-127.8588622727228
 10
113.9465331746384
 20
-127.9983886398754
 10
113.9465331746384
 20
-128.1341254019943
 97
        0
 97
        0
 75
     2
 76
     1
 98
        0
  0
ENDBLK
  5
FE
330
FB
100
AcDbEntity
  8
0
100
AcDbBlockEnd
  0
BLOCK
  5
106
330
104
100
AcDbEntity
  8
0
100
AcDbBlockBegin
  2
block 8
 70
     0
 10
0.0
 20
0.0
 30
0.0
  3
block 8
  1

  0
POLYLINE
  5
108
330
104
100
AcDbEntity
  8
_U+30EC_U+30A4_U+30E4_U+30FC 1
 62
     7
420
 16777215
370
     9
100
AcDb2dPolyline
 66
     1
 10
0.0
 20
0.0
 30
0.0
  0
VERTEX
  5
109
330
108
100
AcDbEntity
  8
_U+30EC_U+30A4_U+30E4_U+30FC 1
 62
     7
420
 16777215
370
     9
100
AcDbVertex
100
AcDb2dVertex
 10
115.8716573216455
 20
-139.744449965064
 30
0.0
  0
VERTEX
  5
10A
330
108
100
AcDbEntity
  8
_U+30EC_U+30A4_U+30E4_U+30FC 1
 62
     7
420
 16777215
370
     9
100
AcDbVertex
100
AcDb2dVertex
 10
115.8716573216455
 20
-136.745133299147
 30
0.0
  0
SEQEND
  5
10B
330
108
100
AcDbEntity
  8
_U+30EC_U+30A4_U+30E4_U+30FC 1
 62
     7
420
 16777215
370
     9
  0
POLYLINE
  5
10C
330
104
100
AcDbEntity
  8
_U+30EC_U+30A4_U+30E4_U+30FC 1
 62
     7
420
 16777215
370
     9
100
AcDb2dPolyline
 66
     1
 10
0.0
 20
0.0
 30
0.0
  0
VERTEX
  5
10D
330
10C
100
AcDbEntity
  8
_U+30EC_U+30A4_U+30E4_U+30FC 1
 62
     7
420
 16777215
370
     9
100
AcDbVertex
100
AcDb2dVertex
 10
102.4116684983718
 20
-139.744449965064
 30
0.0
  0
VERTEX
  5
10E
330
10C
100
AcDbEntity
  8
_U+30EC_U+30A4_U+30E4_U+30FC 1
 62
     7
420
 16777215
370
     9
100
AcDbVertex
100
AcDb2dVertex
 10
116.8714295183614
 20
-139.744449965064
 30
0.0
  0
SEQEND
  5
10F
330
10C
100
AcDbEntity
  8
_U+30EC_U+30A4_U+30E4_U+30FC 1
 62
     7
420
 16777215
370
     9
  0
INSERT
  5
111
330
104
100
AcDbEntity
  8
_U+30EC_U+30A4_U+30E4_U+30FC 1
100
AcDbBlockReference
  2
block 9
 10
0.0
 20
0.0
 30
0.0
  0
ENDBLK
  5
107
330
104
100
AcDbEntity
  8
0
100
AcDbBlockEnd
  0
BLOCK
  5
112
330
110
100
AcDbEntity
  8
0
100
AcDbBlockBegin
  2
block 9
 70
     0
 10
0.0
 20
0.0
 30
0.0
  3
block 9
  1

  0
SPLINE
  5
114
330
110
100
AcDbEntity
  8
_U+30EC_U+30A4_U+30E4_U+30FC 1
370
     0
100
AcDbSpline
210
0.0
220
0.0
230
1.0
 70
    11
 71
     3
 72
    62
 73
    58
 74
     0
 42
0.0000000001
 43
0.0000000001
 12
1.0
 22
0.0
 32
0.0
 13
1.0
 23
0.0
 33
0.0
 40
0.0
 40
0.0
 40
0.0
 40
0.0
 40
1.0
 40
1.0
 40
1.0
 40
2.0
 40
2.0
 40
2.0
 40
3.0
 40
3.0
 40
3.0
 40
4.0
 40
4.0
 40
4.0
 40
5.0
 40
5.0
 40
5.0
 40
6.0
 40
6.0
 40
6.0
 40
7.0
 40
7.0
 40
7.0
 40
8.0
 40
8.0
 40
8.0
 40
9.0
 40
9.0
 40
9.0
 40
10.0
 40
10.0
 40
10.0
 40
11.0
 40
11.0
 40
11.0
 40
12.0
 40
12.0
 40
12.0
 40
13.0
 40
13.0
 40
13.0
 40
14.0
 40
14.0
 40
14.0
 40
15.0
 40
15.0
 40
15.0
 40
16.0
 40
16.0
 40
16.0
 40
17.0
 40
17.0
 40
17.0
 40
18.0
 40
18.0
 40
18.0
 40
19.0
 40
19.0
 40
19.0
 40
19.0
 10
114.8053954791112
 20
-138.2520263326245
 30
0.0
 10
114.8053954791112
 20
-138.3474554775659
 30
0.0
 10
114.7843803966511
 20
-138.5651855122337
 30
0.0
 10
114.5983452404476
 20
-138.6902424783483
 30
0.0
 10
114.4860351276285
 20
-138.7643120312812
 30
0.0
 10
114.3868163776533
 20
-138.7684461458635
 30
0.0
 10
114.3020670287162
 20
-138.7725802604457
 30
0.0
 10
114.3020670287162
 20
-138.7725802604457
 30
0.0
 10
114.3020670287162
 20
-138.5524386589383
 30
0.0
 10
114.3020670287162
 20
-138.5524386589383
 30
0.0
 10
114.376136581649
 20
-138.5503716016471
 30
0.0
 10
114.6107475841945
 20
-138.5400363151914
 30
0.0
 10
114.6107475841945
 20
-138.2565049567553
 30
0.0
 10
114.6107475841945
 20
-138.1190456468939
 30
0.0
 10
114.5411566553925
 20
-137.9664279168973
 30
0.0
 10
114.3127468247204
 20
-137.9664279168973
 30
0.0
 10
114.196302597319
 20
-137.9664279168973
 30
0.0
 10
114.147726750977
 20
-138.0046684767836
 30
0.0
 10
114.1160318725127
 20
-138.0363633552479
 30
0.0
 10
114.0419623195798
 20
-138.1104329081807
 30
0.0
 10
114.0292154662844
 20
-138.2268771355822
 30
0.0
 10
114.0292154662844
 20
-138.2816541537977
 30
0.0
 10
114.0292154662844
 20
-138.300946688515
 30
0.0
 10
114.0312825235755
 20
-138.3367756815616
 30
0.0
 10
114.0354166381578
 20
-138.3643364454437
 30
0.0
 10
114.0354166381578
 20
-138.3643364454437
 30
0.0
 10
113.8407687432412
 20
-138.3643364454437
 30
0.0
 10
113.8407687432412
 20
-138.3643364454437
 30
0.0
 10
113.8473144246632
 20
-138.3260958855574
 30
0.0
 10
113.8493814819543
 20
-138.2840657206373
 30
0.0
 10
113.8493814819543
 20
-138.2775200392153
 30
0.0
 10
113.8493814819543
 20
-138.2120632249956
 30
0.0
 10
113.8280218899458
 20
-138.0132812154967
 30
0.0
 10
113.5913438301091
 20
-138.0132812154967
 30
0.0
 10
113.4135769030702
 20
-138.0132812154967
 30
0.0
 10
113.3584553753062
 20
-138.1441948439362
 30
0.0
 10
113.3584553753062
 20
-138.2544378994642
 30
0.0
 10
113.3584553753062
 20
-138.5186767231828
 30
0.0
 10
113.5913438301091
 20
-138.527289461896
 30
0.0
 10
113.6630018162023
 20
-138.5314235764783
 30
0.0
 10
113.6630018162023
 20
-138.5314235764783
 30
0.0
 10
113.6630018162023
 20
-138.734684210108
 30
0.0
 10
113.6630018162023
 20
-138.734684210108
 30
0.0
 10
113.5382893596363
 20
-138.7260714713949
 30
0.0
 10
113.1617404230985
 20
-138.6985107075129
 30
0.0
 10
113.1617404230985
 20
-138.2416910461687
 30
0.0
 10
113.1617404230985
 20
-138.017415330079
 30
0.0
 10
113.2888644465042
 20
-137.7762586461115
 30
0.0
 10
113.5847981486871
 20
-137.7762586461115
 30
0.0
 10
113.7711778144392
 20
-137.7762586461115
 30
0.0
 10
113.8535155965366
 20
-137.8713432815044
 30
0.0
 10
113.9148382961741
 20
-137.9709065410281
 30
0.0
 10
113.9423990600561
 20
-137.9095838413907
 30
0.0
 10
114.0226697848624
 20
-137.7276827997695
 30
0.0
 10
114.299999971425
 20
-137.7276827997695
 30
0.0
 10
114.6383083480765
 20
-137.7276827997695
 30
0.0
 10
114.8053954791112
 20
-137.9750406556104
 30
0.0
 10
114.8053954791112
 20
-138.2520263326245
 30
0.0
  0
HATCH
  5
115
330
110
100
AcDbEntity
  8
_U+30EC_U+30A4_U+30E4_U+30FC 1
 62
     7
420
 16777215
100
AcDbHatch
 10
0.0
 20
0.0
 30
0.0
210
0.0
220
0.0
230
1.0
  2
SOLID
 70
     1
 71
     0
 91
        1
 92
        1
 93
        1
 72
     4
 94
        3
 73
     0
 74
     1
 95
       62
 96
       58
 40
0.0
 40
0.0
 40
0.0
 40
0.0
 40
1.0
 40
1.0
 40
1.0
 40
2.0
 40
2.0
 40
2.0
 40
3.0
 40
3.0
 40
3.0
 40
4.0
 40
4.0
 40
4.0
 40
5.0
 40
5.0
 40
5.0
 40
6.0
 40
6.0
 40
6.0
 40
7.0
 40
7.0
 40
7.0
 40
8.0
 40
8.0
 40
8.0
 40
9.0
 40
9.0
 40
9.0
 40
10.0
 40
10.0
 40
10.0
 40
11.0
 40
11.0
 40
11.0
 40
12.0
 40
12.0
 40
12.0
 40
13.0
 40
13.0
 40
13.0
 40
14.0
 40
14.0
 40
14.0
 40
15.0
 40
15.0
 40
15.0
 40
16.0
 40
16.0
 40
16.0
 40
17.0
 40
17.0
 40
17.0
 40
18.0
 40
18.0
 40
18.0
 40
19.0
 40
19.0
 40
19.0
 40
19.0
 10
114.8053954791112
 20
-138.2520263326245
 10
114.8053954791112
 20
-138.3474554775659
 10
114.7843803966511
 20
-138.5651855122337
 10
114.5983452404476
 20
-138.6902424783483
 10
114.4860351276285
 20
-138.7643120312812
 10
114.3868163776533
 20
-138.7684461458635
 10
114.3020670287162
 20
-138.7725802604457
 10
114.3020670287162
 20
-138.7725802604457
 10
114.3020670287162
 20
-138.5524386589383
 10
114.3020670287162
 20
-138.5524386589383
 10
114.376136581649
 20
-138.5503716016471
 10
114.6107475841945
 20
-138.5400363151914
 10
114.6107475841945
 20
-138.2565049567553
 10
114.6107475841945
 20
-138.1190456468939
 10
114.5411566553925
 20
-137.9664279168973
 10
114.3127468247204
 20
-137.9664279168973
 10
114.196302597319
 20
-137.9664279168973
 10
114.147726750977
 20
-138.0046684767836
 10
114.1160318725127
 20
-138.0363633552479
 10
114.0419623195798
 20
-138.1104329081807
 10
114.0292154662844
 20
-138.2268771355822
 10
114.0292154662844
 20
-138.2816541537977
 10
114.0292154662844
 20
-138.300946688515
 10
114.0312825235755
 20
-138.3367756815616
 10
114.0354166381578
 20
-138.3643364454437
 10
114.0354166381578
 20
-138.3643364454437
 10
113.8407687432412
 20
-138.3643364454437
 10
113.8407687432412
 20
-138.3643364454437
 10
113.8473144246632
 20
-138.3260958855574
 10
113.8493814819543
 20
-138.2840657206373
 10
113.8493814819543
 20
-138.2775200392153
 10
113.8493814819543
 20
-138.2120632249956
 10
113.8280218899458
 20
-138.0132812154967
 10
113.5913438301091
 20
-138.0132812154967
 10
113.4135769030702
 20
-138.0132812154967
 10
113.3584553753062
 20
-138.1441948439362
 10
113.3584553753062
 20
-138.2544378994642
 10
113.3584553753062
 20
-138.5186767231828
 10
113.5913438301091
 20
-138.527289461896
 10
113.6630018162023
 20
-138.5314235764783
 10
113.6630018162023
 20
-138.5314235764783
 10
113.6630018162023
 20
-138.734684210108
 10
113.6630018162023
 20
-138.734684210108
 10
113.5382893596363
 20
-138.7260714713949
 10
113.1617404230985
 20
-138.6985107075129
 10
113.1617404230985
 20
-138.2416910461687
 10
113.1617404230985
 20
-138.017415330079
 10
113.2888644465042
 20
-137.7762586461115
 10
113.5847981486871
 20
-137.7762586461115
 10
113.7711778144392
 20
-137.7762586461115
 10
113.8535155965366
 20
-137.8713432815044
 10
113.9148382961741
 20
-137.9709065410281
 10
113.9423990600561
 20
-137.9095838413907
 10
114.0226697848624
 20
-137.7276827997695
 10
114.299999971425
 20
-137.7276827997695
 10
114.6383083480765
 20
-137.7276827997695
 10
114.8053954791112
 20
-137.9750406556104
 10
114.8053954791112
 20
-138.2520263326245
 97
        0
 97
        0
 75
     2
 76
     1
 98
        0
  0
ENDBLK
  5
113
330
110
100
AcDbEntity
  8
0
100
AcDbBlockEnd
  0
BLOCK
  5
118
330
116
100
AcDbEntity
  8
0
100
AcDbBlockBegin
  2
block 10
 70
     0
 10
0.0
 20
0.0
 30
0.0
  3
block 10
  1

  0
POLYLINE
  5
11A
330
116
100
AcDbEntity
  8
_U+30EC_U+30A4_U+30E4_U+30FC 1
 62
     7
420
 16777215
370
     9
100
AcDb2dPolyline
 66
     1
 10
0.0
 20
0.0
 30
0.0
  0
VERTEX
  5
11B
330
11A
100
AcDbEntity
  8
_U+30EC_U+30A4_U+30E4_U+30FC 1
 62
     7
420
 16777215
370
     9
100
AcDbVertex
100
AcDb2dVertex
 10
64.87131612277263
 20
-115.7445191377304
 30
0.0
  0
VERTEX
  5
11C
330
11A
100
AcDbEntity
  8
_U+30EC_U+30A4_U+30E4_U+30FC 1
 62
     7
420
 16777215
370
     9
100
AcDbVertex
100
AcDb2dVertex
 10
111.8711927014837
 20
-115.7445191377304
 30
0.0
  0
SEQEND
  5
11D
330
11A
100
AcDbEntity
  8
_U+30EC_U+30A4_U+30E4_U+30FC 1
 62
     7
420
 16777215
370
     9
  0
POLYLINE
  5
11E
330
116
100
AcDbEntity
  8
_U+30EC_U+30A4_U+30E4_U+30FC 1
 62
     7
420
 16777215
370
     9
100
AcDb2dPolyline
 66
     1
 10
0.0
 20
0.0
 30
0.0
  0
VERTEX
  5
11F
330
11E
100
AcDbEntity
  8
_U+30EC_U+30A4_U+30E4_U+30FC 1
 62
     7
420
 16777215
370
     9
100
AcDbVertex
100
AcDb2dVertex
 10
64.87131612277263
 20
-117.2045605262544
 30
0.0
  0
VERTEX
  5
120
330
11E
100
AcDbEntity
  8
_U+30EC_U+30A4_U+30E4_U+30FC 1
 62
     7
420
 16777215
370
     9
100
AcDbVertex
100
AcDb2dVertex
 10
64.87131612277263
 20
-114.7447469157582
 30
0.0
  0
SEQEND
  5
121
330
11E
100
AcDbEntity
  8
_U+30EC_U+30A4_U+30E4_U+30FC 1
 62
     7
420
 16777215
370
     9
  0
POLYLINE
  5
122
330
116
100
AcDbEntity
  8
_U+30EC_U+30A4_U+30E4_U+30FC 1
 62
     7
420
 16777215
370
     9
100
AcDb2dPolyline
 66
     1
 10
0.0
 20
0.0
 30
0.0
  0
VERTEX
  5
123
330
122
100
AcDbEntity
  8
_U+30EC_U+30A4_U+30E4_U+30FC 1
 62
     7
420
 16777215
370
     9
100
AcDbVertex
100
AcDb2dVertex
 10
111.8711927014837
 20
-117.2045605262544
 30
0.0
  0
VERTEX
  5
124
330
122
100
AcDbEntity
  8
_U+30EC_U+30A4_U+30E4_U+30FC 1
 62
     7
420
 16777215
370
     9
100
AcDbVertex
100
AcDb2dVertex
 10
111.8711927014837
 20
-114.7447469157582
 30
0.0
  0
SEQEND
  5
125
330
122
100
AcDbEntity
  8
_U+30EC_U+30A4_U+30E4_U+30FC 1
 62
     7
420
 16777215
370
     9
  0
INSERT
  5
127
330
116
100
AcDbEntity
  8
_U+30EC_U+30A4_U+30E4_U+30FC 1
100
AcDbBlockReference
  2
block 11
 10
0.0
 20
0.0
 30
0.0
  0
ENDBLK
  5
119
330
116
100
AcDbEntity
  8
0
100
AcDbBlockEnd
  0
BLOCK
  5
128
330
126
100
AcDbEntity
  8
0
100
AcDbBlockBegin
  2
block 11
 70
     0
 10
0.0
 20
0.0
 30
0.0
  3
block 11
  1

  0
POLYLINE
  5
12A
330
126
100
AcDbEntity
  8
_U+30EC_U+30A4_U+30E4_U+30FC 1
370
     0
100
AcDb2dPolyline
 66
     1
 10
0.0
 20
0.0
 30
0.0
  0
VERTEX
  5
12B
330
12A
100
AcDbEntity
  8
_U+30EC_U+30A4_U+30E4_U+30FC 1
370
     0
100
AcDbVertex
100
AcDb2dVertex
 10
88.11434595236378
 20
-114.7519964990898
 30
0.0
  0
VERTEX
  5
12C
330
12A
100
AcDbEntity
  8
_U+30EC_U+30A4_U+30E4_U+30FC 1
370
     0
100
AcDbVertex
100
AcDb2dVertex
 10
88.11434595236378
 20
-115.0989176144544
 30
0.0
  0
VERTEX
  5
12D
330
12A
100
AcDbEntity
  8
_U+30EC_U+30A4_U+30E4_U+30FC 1
370
     0
100
AcDbVertex
100
AcDb2dVertex
 10
87.89644366292173
 20
-115.0989176144544
 30
0.0
  0
VERTEX
  5
12E
330
12A
100
AcDbEntity
  8
_U+30EC_U+30A4_U+30E4_U+30FC 1
370
     0
100
AcDbVertex
100
AcDb2dVertex
 10
87.89644366292173
 20
-114.7519964990898
 30
0.0
  0
VERTEX
  5
12F
330
12A
100
AcDbEntity
  8
_U+30EC_U+30A4_U+30E4_U+30FC 1
370
     0
100
AcDbVertex
100
AcDb2dVertex
 10
87.24066973730442
 20
-114.7519964990898
 30
0.0
  0
VERTEX
  5
130
330
12A
100
AcDbEntity
  8
_U+30EC_U+30A4_U+30E4_U+30FC 1
370
     0
100
AcDbVertex
100
AcDb2dVertex
 10
87.24066973730442
 20
-114.527720783
 30
0.0
  0
VERTEX
  5
131
330
12A
100
AcDbEntity
  8
_U+30EC_U+30A4_U+30E4_U+30FC 1
370
     0
100
AcDbVertex
100
AcDb2dVertex
 10
87.91969805744716
 20
-113.5546535631912
 30
0.0
  0
VERTEX
  5
132
330
12A
100
AcDbEntity
  8
_U+30EC_U+30A4_U+30E4_U+30FC 1
370
     0
100
AcDbVertex
100
AcDb2dVertex
 10
88.11434595236378
 20
-113.5546535631912
 30
0.0
  0
VERTEX
  5
133
330
12A
100
AcDbEntity
  8
_U+30EC_U+30A4_U+30E4_U+30FC 1
370
     0
100
AcDbVertex
100
AcDb2dVertex
 10
88.11434595236378
 20
-114.5530422348166
 30
0.0
  0
VERTEX
  5
134
330
12A
100
AcDbEntity
  8
_U+30EC_U+30A4_U+30E4_U+30FC 1
370
     0
100
AcDbVertex
100
AcDb2dVertex
 10
88.32174070057582
 20
-114.5530422348166
 30
0.0
  0
VERTEX
  5
135
330
12A
100
AcDbEntity
  8
_U+30EC_U+30A4_U+30E4_U+30FC 1
370
     0
100
AcDbVertex
100
AcDb2dVertex
 10
88.32174070057582
 20
-114.7519964990898
 30
0.0
  0
VERTEX
  5
136
330
12A
100
AcDbEntity
  8
_U+30EC_U+30A4_U+30E4_U+30FC 1
370
     0
100
AcDbVertex
100
AcDb2dVertex
 10
88.11434595236378
 20
-114.7519964990898
 30
0.0
  0
SEQEND
  5
137
330
12A
100
AcDbEntity
  8
_U+30EC_U+30A4_U+30E4_U+30FC 1
370
     0
  0
POLYLINE
  5
138
330
126
100
AcDbEntity
  8
_U+30EC_U+30A4_U+30E4_U+30FC 1
370
     0
100
AcDb2dPolyline
 66
     1
 10
0.0
 20
0.0
 30
0.0
  0
VERTEX
  5
139
330
138
100
AcDbEntity
  8
_U+30EC_U+30A4_U+30E4_U+30FC 1
370
     0
100
AcDbVertex
100
AcDb2dVertex
 10
87.89644366292173
 20
-113.8972683091993
 30
0.0
  0
VERTEX
  5
13A
330
138
100
AcDbEntity
  8
_U+30EC_U+30A4_U+30E4_U+30FC 1
370
     0
100
AcDbVertex
100
AcDb2dVertex
 10
87.4396240015776
 20
-114.5530422348166
 30
0.0
  0
VERTEX
  5
13B
330
138
100
AcDbEntity
  8
_U+30EC_U+30A4_U+30E4_U+30FC 1
370
     0
100
AcDbVertex
100
AcDb2dVertex
 10
87.89644366292173
 20
-114.5530422348166
 30
0.0
  0
VERTEX
  5
13C
330
138
100
AcDbEntity
  8
_U+30EC_U+30A4_U+30E4_U+30FC 1
370
     0
100
AcDbVertex
100
AcDb2dVertex
 10
87.89644366292173
 20
-113.8972683091993
 30
0.0
  0
SEQEND
  5
13D
330
138
100
AcDbEntity
  8
_U+30EC_U+30A4_U+30E4_U+30FC 1
370
     0
  0
HATCH
  5
13E
330
126
100
AcDbEntity
  8
_U+30EC_U+30A4_U+30E4_U+30FC 1
 62
     7
420
 16777215
100
AcDbHatch
 10
0.0
 20
0.0
 30
0.0
210
0.0
220
0.0
230
1.0
  2
SOLID
 70
     1
 71
     0
 91
        2
 92
        1
 93
       11
 72
     1
 10
88.11434595236378
 20
-114.7519964990898
 11
88.11434595236378
 21
-115.0989176144544
 72
     1
 10
88.11434595236378
 20
-115.0989176144544
 11
87.89644366292173
 21
-115.0989176144544
 72
     1
 10
87.89644366292173
 20
-115.0989176144544
 11
87.89644366292173
 21
-114.7519964990898
 72
     1
 10
87.89644366292173
 20
-114.7519964990898
 11
87.24066973730442
 21
-114.7519964990898
 72
     1
 10
87.24066973730442
 20
-114.7519964990898
 11
87.24066973730442
 21
-114.527720783
 72
     1
 10
87.24066973730442
 20
-114.527720783
 11
87.91969805744716
 21
-113.5546535631912
 72
     1
 10
87.91969805744716
 20
-113.5546535631912
 11
88.11434595236378
 21
-113.5546535631912
 72
     1
 10
88.11434595236378
 20
-113.5546535631912
 11
88.11434595236378
 21
-114.5530422348166
 72
     1
 10
88.11434595236378
 20
-114.5530422348166
 11
88.32174070057582
 21
-114.5530422348166
 72
     1
 10
88.32174070057582
 20
-114.5530422348166
 11
88.32174070057582
 21
-114.7519964990898
 72
     1
 10
88.32174070057582
 20
-114.7519964990898
 11
88.11434595236378
 21
-114.7519964990898
 97
        0
 92
        1
 93
        3
 72
     1
 10
87.89644366292173
 20
-113.8972683091993
 11
87.4396240015776
 21
-114.5530422348166
 72
     1
 10
87.4396240015776
 20
-114.5530422348166
 11
87.89644366292173
 21
-114.5530422348166
 72
     1
 10
87.89644366292173
 20
-114.5530422348166
 11
87.89644366292173
 21
-113.8972683091993
 97
        0
 75
     2
 76
     1
 98
        0
  0
SPLINE
  5
13F
330
126
100
AcDbEntity
  8
_U+30EC_U+30A4_U+30E4_U+30FC 1
370
     0
100
AcDbSpline
210
0.0
220
0.0
230
1.0
 70
    11
 71
     3
 72
    26
 73
    22
 74
     0
 42
0.0000000001
 43
0.0000000001
 12
1.0
 22
0.0
 32
0.0
 13
1.0
 23
0.0
 33
0.0
 40
0.0
 40
0.0
 40
0.0
 40
0.0
 40
1.0
 40
1.0
 40
1.0
 40
2.0
 40
2.0
 40
2.0
 40
3.0
 40
3.0
 40
3.0
 40
4.0
 40
4.0
 40
4.0
 40
5.0
 40
5.0
 40
5.0
 40
6.0
 40
6.0
 40
6.0
 40
7.0
 40
7.0
 40
7.0
 40
7.0
 10
88.87037215660186
 20
-115.0989176144544
 30
0.0
 10
88.87037215660186
 20
-115.0989176144544
 30
0.0
 10
88.63334958721667
 20
-115.0989176144544
 30
0.0
 10
88.63334958721667
 20
-115.0989176144544
 30
0.0
 10
88.65884329380752
 20
-114.7900648042018
 30
0.0
 10
88.85107962188445
 20
-114.271750188446
 30
0.0
 10
89.25725637959542
 20
-113.7661824259855
 30
0.0
 10
89.25725637959542
 20
-113.7661824259855
 30
0.0
 10
88.41958141235692
 20
-113.7661824259855
 30
0.0
 10
88.41958141235692
 20
-113.7661824259855
 30
0.0
 10
88.41958141235692
 20
-113.7661824259855
 30
0.0
 10
88.41958141235692
 20
-113.5546535631912
 30
0.0
 10
88.41958141235692
 20
-113.5546535631912
 30
0.0
 10
88.41958141235692
 20
-113.5546535631912
 30
0.0
 10
89.49427894898061
 20
-113.5546535631912
 30
0.0
 10
89.49427894898061
 20
-113.5546535631912
 30
0.0
 10
89.49427894898061
 20
-113.5546535631912
 30
0.0
 10
89.49427894898061
 20
-113.7661824259855
 30
0.0
 10
89.49427894898061
 20
-113.7661824259855
 30
0.0
 10
89.17078448291564
 20
-114.0559149562951
 30
0.0
 10
88.90413409235731
 20
-114.6482991249838
 30
0.0
 10
88.87037215660186
 20
-115.0989176144544
 30
0.0
  0
HATCH
  5
140
330
126
100
AcDbEntity
  8
_U+30EC_U+30A4_U+30E4_U+30FC 1
 62
     7
420
 16777215
100
AcDbHatch
 10
0.0
 20
0.0
 30
0.0
210
0.0
220
0.0
230
1.0
  2
SOLID
 70
     1
 71
     0
 91
        1
 92
        1
 93
        1
 72
     4
 94
        3
 73
     0
 74
     1
 95
       26
 96
       22
 40
0.0
 40
0.0
 40
0.0
 40
0.0
 40
1.0
 40
1.0
 40
1.0
 40
2.0
 40
2.0
 40
2.0
 40
3.0
 40
3.0
 40
3.0
 40
4.0
 40
4.0
 40
4.0
 40
5.0
 40
5.0
 40
5.0
 40
6.0
 40
6.0
 40
6.0
 40
7.0
 40
7.0
 40
7.0
 40
7.0
 10
88.87037215660186
 20
-115.0989176144544
 10
88.87037215660186
 20
-115.0989176144544
 10
88.63334958721667
 20
-115.0989176144544
 10
88.63334958721667
 20
-115.0989176144544
 10
88.65884329380752
 20
-114.7900648042018
 10
88.85107962188445
 20
-114.271750188446
 10
89.25725637959542
 20
-113.7661824259855
 10
89.25725637959542
 20
-113.7661824259855
 10
88.41958141235692
 20
-113.7661824259855
 10
88.41958141235692
 20
-113.7661824259855
 10
88.41958141235692
 20
-113.7661824259855
 10
88.41958141235692
 20
-113.5546535631912
 10
88.41958141235692
 20
-113.5546535631912
 10
88.41958141235692
 20
-113.5546535631912
 10
89.49427894898061
 20
-113.5546535631912
 10
89.49427894898061
 20
-113.5546535631912
 10
89.49427894898061
 20
-113.5546535631912
 10
89.49427894898061
 20
-113.7661824259855
 10
89.49427894898061
 20
-113.7661824259855
 10
89.17078448291564
 20
-114.0559149562951
 10
88.90413409235731
 20
-114.6482991249838
 10
88.87037215660186
 20
-115.0989176144544
 97
        0
 97
        0
 75
     2
 76
     1
 98
        0
  0
ENDBLK
  5
129
330
126
100
AcDbEntity
  8
0
100
AcDbBlockEnd
  0
BLOCK
  5
143
330
141
100
AcDbEntity
  8
0
100
AcDbBlockBegin
  2
block 12
 70
     0
 10
0.0
 20
0.0
 30
0.0
  3
block 12
  1

  0
POLYLINE
  5
145
330
141
100
AcDbEntity
  8
_U+30EC_U+30A4_U+30E4_U+30FC 1
 62
     7
420
 16777215
370
     9
100
AcDb2dPolyline
 66
     1
 10
0.0
 20
0.0
 30
0.0
  0
VERTEX
  5
146
330
145
100
AcDbEntity
  8
_U+30EC_U+30A4_U+30E4_U+30FC 1
 62
     7
420
 16777215
370
     9
100
AcDbVertex
100
AcDb2dVertex
 10
84.87148727919242
 20
-143.7448794085082
 30
0.0
  0
VERTEX
  5
147
330
145
100
AcDbEntity
  8
_U+30EC_U+30A4_U+30E4_U+30FC 1
 62
     7
420
 16777215
370
     9
100
AcDbVertex
100
AcDb2dVertex
 10
64.87131612277263
 20
-143.7448794085082
 30
0.0
  0
SEQEND
  5
148
330
145
100
AcDbEntity
  8
_U+30EC_U+30A4_U+30E4_U+30FC 1
 62
     7
420
 16777215
370
     9
  0
POLYLINE
  5
149
330
141
100
AcDbEntity
  8
_U+30EC_U+30A4_U+30E4_U+30FC 1
 62
     7
420
 16777215
370
     9
100
AcDb2dPolyline
 66
     1
 10
0.0
 20
0.0
 30
0.0
  0
VERTEX
  5
14A
330
149
100
AcDbEntity
  8
_U+30EC_U+30A4_U+30E4_U+30FC 1
 62
     7
420
 16777215
370
     9
100
AcDbVertex
100
AcDb2dVertex
 10
84.87148727919242
 20
-142.2848380199845
 30
0.0
  0
VERTEX
  5
14B
330
149
100
AcDbEntity
  8
_U+30EC_U+30A4_U+30E4_U+30FC 1
 62
     7
420
 16777215
370
     9
100
AcDbVertex
100
AcDb2dVertex
 10
84.87148727919242
 20
-144.7446516304807
 30
0.0
  0
SEQEND
  5
14C
330
149
100
AcDbEntity
  8
_U+30EC_U+30A4_U+30E4_U+30FC 1
 62
     7
420
 16777215
370
     9
  0
POLYLINE
  5
14D
330
141
100
AcDbEntity
  8
_U+30EC_U+30A4_U+30E4_U+30FC 1
 62
     7
420
 16777215
370
     9
100
AcDb2dPolyline
 66
     1
 10
0.0
 20
0.0
 30
0.0
  0
VERTEX
  5
14E
330
14D
100
AcDbEntity
  8
_U+30EC_U+30A4_U+30E4_U+30FC 1
 62
     7
420
 16777215
370
     9
100
AcDbVertex
100
AcDb2dVertex
 10
64.87131612277263
 20
-123.2851441358453
 30
0.0
  0
VERTEX
  5
14F
330
14D
100
AcDbEntity
  8
_U+30EC_U+30A4_U+30E4_U+30FC 1
 62
     7
420
 16777215
370
     9
100
AcDbVertex
100
AcDb2dVertex
 10
64.87131612277263
 20
-144.7446516304807
 30
0.0
  0
SEQEND
  5
150
330
14D
100
AcDbEntity
  8
_U+30EC_U+30A4_U+30E4_U+30FC 1
 62
     7
420
 16777215
370
     9
  0
INSERT
  5
152
330
141
100
AcDbEntity
  8
_U+30EC_U+30A4_U+30E4_U+30FC 1
100
AcDbBlockReference
  2
block 13
 10
0.0
 20
0.0
 30
0.0
  0
ENDBLK
  5
144
330
141
100
AcDbEntity
  8
0
100
AcDbBlockEnd
  0
BLOCK
  5
153
330
151
100
AcDbEntity
  8
0
100
AcDbBlockBegin
  2
block 13
 70
     0
 10
0.0
 20
0.0
 30
0.0
  3
block 13
  1

  0
SPLINE
  5
155
330
151
100
AcDbEntity
  8
_U+30EC_U+30A4_U+30E4_U+30FC 1
370
     0
100
AcDbSpline
210
0.0
220
0.0
230
1.0
 70
    11
 71
     3
 72
    44
 73
    40
 74
     0
 42
0.0000000001
 43
0.0000000001
 12
1.0
 22
0.0
 32
0.0
 13
1.0
 23
0.0
 33
0.0
 40
0.0
 40
0.0
 40
0.0
 40
0.0
 40
1.0
 40
1.0
 40
1.0
 40
2.0
 40
2.0
 40
2.0
 40
3.0
 40
3.0
 40
3.0
 40
4.0
 40
4.0
 40
4.0
 40
5.0
 40
5.0
 40
5.0
 40
6.0
 40
6.0
 40
6.0
 40
7.0
 40
7.0
 40
7.0
 40
8.0
 40
8.0
 40
8.0
 40
9.0
 40
9.0
 40
9.0
 40
10.0
 40
10.0
 40
10.0
 40
11.0
 40
11.0
 40
11.0
 40
12.0
 40
12.0
 40
12.0
 40
13.0
 40
13.0
 40
13.0
 40
13.0
 10
74.37547741196168
 20
-142.5170545433638
 30
0.0
 10
74.15757512251963
 20
-142.6758734452338
 30
0.0
 10
74.06438528964362
 20
-142.7499429981667
 30
0.0
 10
74.0158094433016
 20
-142.8936034799016
 30
0.0
 10
74.0158094433016
 20
-142.8936034799016
 30
0.0
 10
74.7942287681938
 20
-142.8936034799016
 30
0.0
 10
74.7942287681938
 20
-142.8936034799016
 30
0.0
 10
74.7942287681938
 20
-142.8936034799016
 30
0.0
 10
74.7942287681938
 20
-143.0989311708225
 30
0.0
 10
74.7942287681938
 20
-143.0989311708225
 30
0.0
 10
74.7942287681938
 20
-143.0989311708225
 30
0.0
 10
73.76621227539526
 20
-143.0989311708225
 30
0.0
 10
73.76621227539526
 20
-143.0989311708225
 30
0.0
 10
73.79790715385955
 20
-142.7413302594536
 30
0.0
 10
73.86353622285357
 20
-142.6631265919384
 30
0.0
 10
74.24852564333024
 20
-142.3647813229157
 30
0.0
 10
74.5044962378843
 20
-142.1659993134168
 30
0.0
 10
74.56995305210404
 20
-142.0981309323574
 30
0.0
 10
74.56995305210404
 20
-141.9606716224959
 30
0.0
 10
74.56995305210404
 20
-141.8421603378034
 30
0.0
 10
74.49812281123658
 20
-141.7112467093638
 30
0.0
 10
74.30140785902881
 20
-141.7112467093638
 30
0.0
 10
74.04113089511819
 20
-141.7112467093638
 30
0.0
 10
74.03269041117933
 20
-141.9417235973271
 30
0.0
 10
74.02838404182278
 20
-142.0581678247285
 30
0.0
 10
74.02838404182278
 20
-142.0581678247285
 30
0.0
 10
73.80428058050727
 20
-142.0581678247285
 30
0.0
 10
73.80428058050727
 20
-142.0581678247285
 30
0.0
 10
73.81272106444612
 20
-141.9310438013228
 30
0.0
 10
73.82322860567614
 20
-141.8190781980522
 30
0.0
 10
73.90367158525673
 20
-141.7005669133596
 30
0.0
 10
74.0135701312362
 20
-141.5396809541984
 30
0.0
 10
74.19977754221395
 20
-141.505919018443
 30
0.0
 10
74.3162217696154
 20
-141.505919018443
 30
0.0
 10
74.59337970140375
 20
-141.505919018443
 30
0.0
 10
74.80060219484152
 20
-141.6898871173553
 30
0.0
 10
74.80060219484152
 20
-141.9627386797871
 30
0.0
 10
74.80060219484152
 20
-142.1914930200077
 30
0.0
 10
74.68433022221434
 20
-142.2907117699829
 30
0.0
 10
74.37547741196168
 20
-142.5170545433638
 30
0.0
  0
HATCH
  5
156
330
151
100
AcDbEntity
  8
_U+30EC_U+30A4_U+30E4_U+30FC 1
 62
     7
420
 16777215
100
AcDbHatch
 10
0.0
 20
0.0
 30
0.0
210
0.0
220
0.0
230
1.0
  2
SOLID
 70
     1
 71
     0
 91
        1
 92
        1
 93
        1
 72
     4
 94
        3
 73
     0
 74
     1
 95
       44
 96
       40
 40
0.0
 40
0.0
 40
0.0
 40
0.0
 40
1.0
 40
1.0
 40
1.0
 40
2.0
 40
2.0
 40
2.0
 40
3.0
 40
3.0
 40
3.0
 40
4.0
 40
4.0
 40
4.0
 40
5.0
 40
5.0
 40
5.0
 40
6.0
 40
6.0
 40
6.0
 40
7.0
 40
7.0
 40
7.0
 40
8.0
 40
8.0
 40
8.0
 40
9.0
 40
9.0
 40
9.0
 40
10.0
 40
10.0
 40
10.0
 40
11.0
 40
11.0
 40
11.0
 40
12.0
 40
12.0
 40
12.0
 40
13.0
 40
13.0
 40
13.0
 40
13.0
 10
74.37547741196168
 20
-142.5170545433638
 10
74.15757512251963
 20
-142.6758734452338
 10
74.06438528964362
 20
-142.7499429981667
 10
74.0158094433016
 20
-142.8936034799016
 10
74.0158094433016
 20
-142.8936034799016
 10
74.7942287681938
 20
-142.8936034799016
 10
74.7942287681938
 20
-142.8936034799016
 10
74.7942287681938
 20
-142.8936034799016
 10
74.7942287681938
 20
-143.0989311708225
 10
74.7942287681938
 20
-143.0989311708225
 10
74.7942287681938
 20
-143.0989311708225
 10
73.76621227539526
 20
-143.0989311708225
 10
73.76621227539526
 20
-143.0989311708225
 10
73.79790715385955
 20
-142.7413302594536
 10
73.86353622285357
 20
-142.6631265919384
 10
74.24852564333024
 20
-142.3647813229157
 10
74.5044962378843
 20
-142.1659993134168
 10
74.56995305210404
 20
-142.0981309323574
 10
74.56995305210404
 20
-141.9606716224959
 10
74.56995305210404
 20
-141.8421603378034
 10
74.49812281123658
 20
-141.7112467093638
 10
74.30140785902881
 20
-141.7112467093638
 10
74.04113089511819
 20
-141.7112467093638
 10
74.03269041117933
 20
-141.9417235973271
 10
74.02838404182278
 20
-142.0581678247285
 10
74.02838404182278
 20
-142.0581678247285
 10
73.80428058050727
 20
-142.0581678247285
 10
73.80428058050727
 20
-142.0581678247285
 10
73.81272106444612
 20
-141.9310438013228
 10
73.82322860567614
 20
-141.8190781980522
 10
73.90367158525673
 20
-141.7005669133596
 10
74.0135701312362
 20
-141.5396809541984
 10
74.19977754221395
 20
-141.505919018443
 10
74.3162217696154
 20
-141.505919018443
 10
74.59337970140375
 20
-141.505919018443
 10
74.80060219484152
 20
-141.6898871173553
 10
74.80060219484152
 20
-141.9627386797871
 10
74.80060219484152
 20
-142.1914930200077
 10
74.68433022221434
 20
-142.2907117699829
 10
74.37547741196168
 20
-142.5170545433638
 97
        0
 97
        0
 75
     2
 76
     1
 98
        0
  0
SPLINE
  5
157
330
151
100
AcDbEntity
  8
_U+30EC_U+30A4_U+30E4_U+30FC 1
370
     0
100
AcDbSpline
210
0.0
220
0.0
230
1.0
 70
    11
 71
     3
 72
    29
 73
    25
 74
     0
 42
0.0000000001
 43
0.0000000001
 12
1.0
 22
0.0
 32
0.0
 13
1.0
 23
0.0
 33
0.0
 40
0.0
 40
0.0
 40
0.0
 40
0.0
 40
1.0
 40
1.0
 40
1.0
 40
2.0
 40
2.0
 40
2.0
 40
3.0
 40
3.0
 40
3.0
 40
4.0
 40
4.0
 40
4.0
 40
5.0
 40
5.0
 40
5.0
 40
6.0
 40
6.0
 40
6.0
 40
7.0
 40
7.0
 40
7.0
 40
8.0
 40
8.0
 40
8.0
 40
8.0
 10
75.85686847061912
 20
-142.9211642437836
 30
0.0
 10
75.7490369819308
 20
-143.1306260492868
 30
0.0
 10
75.57557642424847
 20
-143.1495740744557
 30
0.0
 10
75.45913219684702
 20
-143.1495740744557
 30
0.0
 10
75.29841849246012
 20
-143.1495740744557
 30
0.0
 10
75.15665281324209
 20
-143.1030652854048
 30
0.0
 10
75.06139592307493
 20
-142.9211642437836
 30
0.0
 10
74.95787080374318
 20
-142.726516348867
 30
0.0
 10
74.93875052380004
 20
-142.4898382890303
 30
0.0
 10
74.93875052380004
 20
-142.326885272578
 30
0.0
 10
74.93875052380004
 20
-142.1828802812946
 30
0.0
 10
74.95563149167776
 20
-141.9310438013228
 30
0.0
 10
75.06139592307493
 20
-141.7322617918239
 30
0.0
 10
75.16939966653752
 20
-141.5293456677427
 30
0.0
 10
75.33011337092442
 20
-141.505919018443
 30
0.0
 10
75.45913219684702
 20
-141.505919018443
 30
0.0
 10
75.61777884394279
 20
-141.505919018443
 30
0.0
 10
75.76161158045196
 20
-141.5503607502027
 30
0.0
 10
75.85686847061912
 20
-141.7322617918239
 30
0.0
 10
75.95625947536858
 20
-141.9248426294494
 30
0.0
 10
75.97951386989402
 20
-142.1532524601214
 30
0.0
 10
75.97951386989402
 20
-142.326885272578
 30
0.0
 10
75.97951386989402
 20
-142.4981065181949
 30
0.0
 10
75.958498787434
 20
-142.7285834061582
 30
0.0
 10
75.85686847061912
 20
-142.9211642437836
 30
0.0
  0
SPLINE
  5
158
330
151
100
AcDbEntity
  8
_U+30EC_U+30A4_U+30E4_U+30FC 1
370
     0
100
AcDbSpline
210
0.0
220
0.0
230
1.0
 70
    11
 71
     3
 72
    17
 73
    13
 74
     0
 42
0.0000000001
 43
0.0000000001
 12
1.0
 22
0.0
 32
0.0
 13
1.0
 23
0.0
 33
0.0
 40
0.0
 40
0.0
 40
0.0
 40
0.0
 40
1.0
 40
1.0
 40
1.0
 40
2.0
 40
2.0
 40
2.0
 40
3.0
 40
3.0
 40
3.0
 40
4.0
 40
4.0
 40
4.0
 40
4.0
 10
75.45913219684702
 20
-141.6984998560684
 30
0.0
 10
75.20953502894068
 20
-141.6984998560684
 30
0.0
 10
75.1630262398898
 20
-141.9820312145045
 30
0.0
 10
75.1630262398898
 20
-142.326885272578
 30
0.0
 10
75.1630262398898
 20
-142.6462456240607
 30
0.0
 10
75.19902748771067
 20
-142.9549261795391
 30
0.0
 10
75.45913219684702
 20
-142.9549261795391
 30
0.0
 10
75.70666230746222
 20
-142.9549261795391
 30
0.0
 10
75.75541040857851
 20
-142.6738063879427
 30
0.0
 10
75.75541040857851
 20
-142.326885272578
 30
0.0
 10
75.75541040857851
 20
-142.0071804115468
 30
0.0
 10
75.7173421034665
 20
-141.6984998560684
 30
0.0
 10
75.45913219684702
 20
-141.6984998560684
 30
0.0
  0
HATCH
  5
159
330
151
100
AcDbEntity
  8
_U+30EC_U+30A4_U+30E4_U+30FC 1
 62
     7
420
 16777215
100
AcDbHatch
 10
0.0
 20
0.0
 30
0.0
210
0.0
220
0.0
230
1.0
  2
SOLID
 70
     1
 71
     0
 91
        2
 92
        1
 93
        1
 72
     4
 94
        3
 73
     0
 74
     1
 95
       29
 96
       25
 40
0.0
 40
0.0
 40
0.0
 40
0.0
 40
1.0
 40
1.0
 40
1.0
 40
2.0
 40
2.0
 40
2.0
 40
3.0
 40
3.0
 40
3.0
 40
4.0
 40
4.0
 40
4.0
 40
5.0
 40
5.0
 40
5.0
 40
6.0
 40
6.0
 40
6.0
 40
7.0
 40
7.0
 40
7.0
 40
8.0
 40
8.0
 40
8.0
 40
8.0
 10
75.85686847061912
 20
-142.9211642437836
 10
75.7490369819308
 20
-143.1306260492868
 10
75.57557642424847
 20
-143.1495740744557
 10
75.45913219684702
 20
-143.1495740744557
 10
75.29841849246012
 20
-143.1495740744557
 10
75.15665281324209
 20
-143.1030652854048
 10
75.06139592307493
 20
-142.9211642437836
 10
74.95787080374318
 20
-142.726516348867
 10
74.93875052380004
 20
-142.4898382890303
 10
74.93875052380004
 20
-142.326885272578
 10
74.93875052380004
 20
-142.1828802812946
 10
74.95563149167776
 20
-141.9310438013228
 10
75.06139592307493
 20
-141.7322617918239
 10
75.16939966653752
 20
-141.5293456677427
 10
75.33011337092442
 20
-141.505919018443
 10
75.45913219684702
 20
-141.505919018443
 10
75.61777884394279
 20
-141.505919018443
 10
75.76161158045196
 20
-141.5503607502027
 10
75.85686847061912
 20
-141.7322617918239
 10
75.95625947536858
 20
-141.9248426294494
 10
75.97951386989402
 20
-142.1532524601214
 10
75.97951386989402
 20
-142.326885272578
 10
75.97951386989402
 20
-142.4981065181949
 10
75.958498787434
 20
-142.7285834061582
 10
75.85686847061912
 20
-142.9211642437836
 97
        0
 97
        0
 92
        1
 93
        1
 72
     4
 94
        3
 73
     0
 74
     1
 95
       17
 96
       13
 40
0.0
 40
0.0
 40
0.0
 40
0.0
 40
1.0
 40
1.0
 40
1.0
 40
2.0
 40
2.0
 40
2.0
 40
3.0
 40
3.0
 40
3.0
 40
4.0
 40
4.0
 40
4.0
 40
4.0
 10
75.45913219684702
 20
-141.6984998560684
 10
75.20953502894068
 20
-141.6984998560684
 10
75.1630262398898
 20
-141.9820312145045
 10
75.1630262398898
 20
-142.326885272578
 10
75.1630262398898
 20
-142.6462456240607
 10
75.19902748771067
 20
-142.9549261795391
 10
75.45913219684702
 20
-142.9549261795391
 10
75.70666230746222
 20
-142.9549261795391
 10
75.75541040857851
 20
-142.6738063879427
 10
75.75541040857851
 20
-142.326885272578
 10
75.75541040857851
 20
-142.0071804115468
 10
75.7173421034665
 20
-141.6984998560684
 10
75.45913219684702
 20
-141.6984998560684
 97
        0
 97
        0
 75
     2
 76
     1
 98
        0
  0
ENDBLK
  5
154
330
151
100
AcDbEntity
  8
0
100
AcDbBlockEnd
  0
ENDSEC
  0
SECTION
  2
ENTITIES
  0
POLYLINE
  5
41
330
1F
100
AcDbEntity
  8
_U+30EC_U+30A4_U+30E4_U+30FC 1
370
     0
100
AcDb2dPolyline
 66
     1
 10
0.0
 20
0.0
 30
0.0
  0
VERTEX
  5
42
330
41
100
AcDbEntity
  8
_U+30EC_U+30A4_U+30E4_U+30FC 1
370
     0
100
AcDbVertex
100
AcDb2dVertex
 10
64.87131612277263
 20
-120.744756080925
 30
0.0
  0
VERTEX
  5
43
330
41
100
AcDbEntity
  8
_U+30EC_U+30A4_U+30E4_U+30FC 1
370
     0
100
AcDbVertex
100
AcDb2dVertex
 10
84.87148727919242
 20
-120.744756080925
 30
0.0
  0
VERTEX
  5
44
330
41
100
AcDbEntity
  8
_U+30EC_U+30A4_U+30E4_U+30FC 1
370
     0
100
AcDbVertex
100
AcDb2dVertex
 10
84.87148727919242
 20
-139.744449965064
 30
0.0
  0
VERTEX
  5
45
330
41
100
AcDbEntity
  8
_U+30EC_U+30A4_U+30E4_U+30FC 1
370
     0
100
AcDbVertex
100
AcDb2dVertex
 10
99.87124522985005
 20
-139.744449965064
 30
0.0
  0
VERTEX
  5
46
330
41
100
AcDbEntity
  8
_U+30EC_U+30A4_U+30E4_U+30FC 1
370
     0
100
AcDbVertex
100
AcDb2dVertex
 10
99.87124522985005
 20
-136.745133299147
 30
0.0
  0
VERTEX
  5
47
330
41
100
AcDbEntity
  8
_U+30EC_U+30A4_U+30E4_U+30FC 1
370
     0
100
AcDbVertex
100
AcDb2dVertex
 10
98.87147303313414
 20
-136.745133299147
 30
0.0
  0
VERTEX
  5
48
330
41
100
AcDbEntity
  8
_U+30EC_U+30A4_U+30E4_U+30FC 1
370
     0
100
AcDbVertex
100
AcDb2dVertex
 10
98.87147303313414
 20
-138.7446777430914
 30
0.0
  0
VERTEX
  5
49
330
41
100
AcDbEntity
  8
_U+30EC_U+30A4_U+30E4_U+30FC 1
370
     0
100
AcDbVertex
100
AcDb2dVertex
 10
85.7713175340136
 20
-138.7446777430914
 30
0.0
  0
VERTEX
  5
4A
330
41
100
AcDbEntity
  8
_U+30EC_U+30A4_U+30E4_U+30FC 1
370
     0
100
AcDbVertex
100
AcDb2dVertex
 10
85.7713175340136
 20
-120.744756080925
 30
0.0
  0
VERTEX
  5
4B
330
41
100
AcDbEntity
  8
_U+30EC_U+30A4_U+30E4_U+30FC 1
370
     0
100
AcDbVertex
100
AcDb2dVertex
 10
99.87124522985005
 20
-120.744756080925
 30
0.0
  0
VERTEX
  5
4C
330
41
100
AcDbEntity
  8
_U+30EC_U+30A4_U+30E4_U+30FC 1
370
     0
100
AcDbVertex
100
AcDb2dVertex
 10
100.5712999748574
 20
-120.2948233032596
 30
0.0
  0
VERTEX
  5
4D
330
41
100
AcDbEntity
  8
_U+30EC_U+30A4_U+30E4_U+30FC 1
370
     0
100
AcDbVertex
100
AcDb2dVertex
 10
101.2713496385748
 20
-120.744756080925
 30
0.0
  0
VERTEX
  5
4E
330
41
100
AcDbEntity
  8
_U+30EC_U+30A4_U+30E4_U+30FC 1
370
     0
100
AcDbVertex
100
AcDb2dVertex
 10
101.9713665651604
 20
-120.2948233032596
 30
0.0
  0
VERTEX
  5
4F
330
41
100
AcDbEntity
  8
_U+30EC_U+30A4_U+30E4_U+30FC 1
370
     0
100
AcDbVertex
100
AcDb2dVertex
 10
102.6714187695228
 20
-120.744756080925
 30
0.0
  0
VERTEX
  5
50
330
41
100
AcDbEntity
  8
_U+30EC_U+30A4_U+30E4_U+30FC 1
370
     0
100
AcDbVertex
100
AcDb2dVertex
 10
103.3714709738852
 20
-120.2948233032596
 30
0.0
  0
VERTEX
  5
51
330
41
100
AcDbEntity
  8
_U+30EC_U+30A4_U+30E4_U+30FC 1
370
     0
100
AcDbVertex
100
AcDb2dVertex
 10
104.0715231782476
 20
-120.744756080925
 30
0.0
  0
VERTEX
  5
52
330
41
100
AcDbEntity
  8
_U+30EC_U+30A4_U+30E4_U+30FC 1
370
     0
100
AcDbVertex
100
AcDb2dVertex
 10
104.7715401048331
 20
-120.2948233032596
 30
0.0
  0
VERTEX
  5
53
330
41
100
AcDbEntity
  8
_U+30EC_U+30A4_U+30E4_U+30FC 1
370
     0
100
AcDbVertex
100
AcDb2dVertex
 10
105.4715923091955
 20
-120.744756080925
 30
0.0
  0
VERTEX
  5
54
330
41
100
AcDbEntity
  8
_U+30EC_U+30A4_U+30E4_U+30FC 1
370
     0
100
AcDbVertex
100
AcDb2dVertex
 10
106.1716471956796
 20
-120.2948233032596
 30
0.0
  0
VERTEX
  5
55
330
41
100
AcDbEntity
  8
_U+30EC_U+30A4_U+30E4_U+30FC 1
370
     0
100
AcDbVertex
100
AcDb2dVertex
 10
106.8716967179203
 20
-120.744756080925
 30
0.0
  0
VERTEX
  5
56
330
41
100
AcDbEntity
  8
_U+30EC_U+30A4_U+30E4_U+30FC 1
370
     0
100
AcDbVertex
100
AcDb2dVertex
 10
111.8711927014837
 20
-120.744756080925
 30
0.0
  0
VERTEX
  5
57
330
41
100
AcDbEntity
  8
_U+30EC_U+30A4_U+30E4_U+30FC 1
370
     0
100
AcDbVertex
100
AcDb2dVertex
 10
111.8711927014837
 20
-119.7449838589525
 30
0.0
  0
VERTEX
  5
58
330
41
100
AcDbEntity
  8
_U+30EC_U+30A4_U+30E4_U+30FC 1
370
     0
100
AcDbVertex
100
AcDb2dVertex
 10
64.87131612277263
 20
-119.7449838589525
 30
0.0
  0
VERTEX
  5
59
330
41
100
AcDbEntity
  8
_U+30EC_U+30A4_U+30E4_U+30FC 1
370
     0
100
AcDbVertex
100
AcDb2dVertex
 10
64.87131612277263
 20
-120.744756080925
 30
0.0
  0
SEQEND
  5
5B
330
41
100
AcDbEntity
  8
_U+30EC_U+30A4_U+30E4_U+30FC 1
370
     0
  0
HATCH
  5
5A
330
1F
100
AcDbEntity
  8
_U+30EC_U+30A4_U+30E4_U+30FC 1
 62
   253
420
 11711154
100
AcDbHatch
 10
0.0
 20
0.0
 30
0.0
210
0.0
220
0.0
230
1.0
  2
SOLID
 70
     1
 71
     0
 91
        1
 92
        1
 93
       23
 72
     1
 10
64.87131612277263
 20
-120.744756080925
 11
84.87148727919242
 21
-120.744756080925
 72
     1
 10
84.87148727919242
 20
-120.744756080925
 11
84.87148727919242
 21
-139.744449965064
 72
     1
 10
84.87148727919242
 20
-139.744449965064
 11
99.87124522985005
 21
-139.744449965064
 72
     1
 10
99.87124522985005
 20
-139.744449965064
 11
99.87124522985005
 21
-136.745133299147
 72
     1
 10
99.87124522985005
 20
-136.745133299147
 11
98.87147303313414
 21
-136.745133299147
 72
     1
 10
98.87147303313414
 20
-136.745133299147
 11
98.87147303313414
 21
-138.7446777430914
 72
     1
 10
98.87147303313414
 20
-138.7446777430914
 11
85.7713175340136
 21
-138.7446777430914
 72
     1
 10
85.7713175340136
 20
-138.7446777430914
 11
85.7713175340136
 21
-120.744756080925
 72
     1
 10
85.7713175340136
 20
-120.744756080925
 11
99.87124522985005
 21
-120.744756080925
 72
     1
 10
99.87124522985005
 20
-120.744756080925
 11
100.5712999748574
 21
-120.2948233032596
 72
     1
 10
100.5712999748574
 20
-120.2948233032596
 11
101.2713496385748
 21
-120.744756080925
 72
     1
 10
101.2713496385748
 20
-120.744756080925
 11
101.9713665651604
 21
-120.2948233032596
 72
     1
 10
101.9713665651604
 20
-120.2948233032596
 11
102.6714187695228
 21
-120.744756080925
 72
     1
 10
102.6714187695228
 20
-120.744756080925
 11
103.3714709738852
 21
-120.2948233032596
 72
     1
 10
103.3714709738852
 20
-120.2948233032596
 11
104.0715231782476
 21
-120.744756080925
 72
     1
 10
104.0715231782476
 20
-120.744756080925
 11
104.7715401048331
 21
-120.2948233032596
 72
     1
 10
104.7715401048331
 20
-120.2948233032596
 11
105.4715923091955
 21
-120.744756080925
 72
     1
 10
105.4715923091955
 20
-120.744756080925
 11
106.1716471956796
 21
-120.2948233032596
 72
     1
 10
106.1716471956796
 20
-120.2948233032596
 11
106.8716967179203
 21
-120.744756080925
 72
     1
 10
106.8716967179203
 20
-120.744756080925
 11
111.8711927014837
 21
-120.744756080925
 72
     1
 10
111.8711927014837
 20
-120.744756080925
 11
111.8711927014837
 21
-119.7449838589525
 72
     1
 10
111.8711927014837
 20
-119.7449838589525
 11
64.87131612277263
 21
-119.7449838589525
 72
     1
 10
64.87131612277263
 20
-119.7449838589525
 11
64.87131612277263
 21
-120.744756080925
 97
        0
 75
     2
 76
     1
 98
        0
  0
POLYLINE
  5
5C
330
1F
100
AcDbEntity
  8
_U+30EC_U+30A4_U+30E4_U+30FC 1
 62
     7
420
 16777215
370
    25
100
AcDb2dPolyline
 66
     1
 10
0.0
 20
0.0
 30
0.0
  0
VERTEX
  5
5D
330
5C
100
AcDbEntity
  8
_U+30EC_U+30A4_U+30E4_U+30FC 1
 62
     7
420
 16777215
370
    25
100
AcDbVertex
100
AcDb2dVertex
 10
64.87131612277263
 20
-119.7449838589525
 30
0.0
  0
VERTEX
  5
5E
330
5C
100
AcDbEntity
  8
_U+30EC_U+30A4_U+30E4_U+30FC 1
 62
     7
420
 16777215
370
    25
100
AcDbVertex
100
AcDb2dVertex
 10
111.8711927014837
 20
-119.7449838589525
 30
0.0
  0
SEQEND
  5
5F
330
5C
100
AcDbEntity
  8
_U+30EC_U+30A4_U+30E4_U+30FC 1
 62
     7
420
 16777215
370
    25
  0
POLYLINE
  5
60
330
1F
100
AcDbEntity
  8
_U+30EC_U+30A4_U+30E4_U+30FC 1
 62
     7
420
 16777215
370
    25
100
AcDb2dPolyline
 66
     1
 10
0.0
 20
0.0
 30
0.0
  0
VERTEX
  5
61
330
60
100
AcDbEntity
  8
_U+30EC_U+30A4_U+30E4_U+30FC 1
 62
     7
420
 16777215
370
    25
100
AcDbVertex
100
AcDb2dVertex
 10
64.87131612277263
 20
-120.744756080925
 30
0.0
  0
VERTEX
  5
62
330
60
100
AcDbEntity
  8
_U+30EC_U+30A4_U+30E4_U+30FC 1
 62
     7
420
 16777215
370
    25
100
AcDbVertex
100
AcDb2dVertex
 10
84.87148727919242
 20
-120.744756080925
 30
0.0
  0
SEQEND
  5
63
330
60
100
AcDbEntity
  8
_U+30EC_U+30A4_U+30E4_U+30FC 1
 62
     7
420
 16777215
370
    25
  0
POLYLINE
  5
64
330
1F
100
AcDbEntity
  8
_U+30EC_U+30A4_U+30E4_U+30FC 1
 62
     7
420
 16777215
370
    25
100
AcDb2dPolyline
 66
     1
 10
0.0
 20
0.0
 30
0.0
  0
VERTEX
  5
65
330
64
100
AcDbEntity
  8
_U+30EC_U+30A4_U+30E4_U+30FC 1
 62
     7
420
 16777215
370
    25
100
AcDbVertex
100
AcDb2dVertex
 10
111.8711927014837
 20
-120.744756080925
 30
0.0
  0
VERTEX
  5
66
330
64
100
AcDbEntity
  8
_U+30EC_U+30A4_U+30E4_U+30FC 1
 62
     7
420
 16777215
370
    25
100
AcDbVertex
100
AcDb2dVertex
 10
111.8711927014837
 20
-119.7449838589525
 30
0.0
  0
SEQEND
  5
67
330
64
100
AcDbEntity
  8
_U+30EC_U+30A4_U+30E4_U+30FC 1
 62
     7
420
 16777215
370
    25
  0
POLYLINE
  5
68
330
1F
100
AcDbEntity
  8
_U+30EC_U+30A4_U+30E4_U+30FC 1
 62
     7
420
 16777215
370
    25
100
AcDb2dPolyline
 66
     1
 10
0.0
 20
0.0
 30
0.0
  0
VERTEX
  5
69
330
68
100
AcDbEntity
  8
_U+30EC_U+30A4_U+30E4_U+30FC 1
 62
     7
420
 16777215
370
    25
100
AcDbVertex
100
AcDb2dVertex
 10
85.7713175340136
 20
-120.744756080925
 30
0.0
  0
VERTEX
  5
6A
330
68
100
AcDbEntity
  8
_U+30EC_U+30A4_U+30E4_U+30FC 1
 62
     7
420
 16777215
370
    25
100
AcDbVertex
100
AcDb2dVertex
 10
99.87124522985005
 20
-120.744756080925
 30
0.0
  0
SEQEND
  5
6B
330
68
100
AcDbEntity
  8
_U+30EC_U+30A4_U+30E4_U+30FC 1
 62
     7
420
 16777215
370
    25
  0
POLYLINE
  5
6C
330
1F
100
AcDbEntity
  8
_U+30EC_U+30A4_U+30E4_U+30FC 1
 62
     7
420
 16777215
370
    25
100
AcDb2dPolyline
 66
     1
 10
0.0
 20
0.0
 30
0.0
  0
VERTEX
  5
6D
330
6C
100
AcDbEntity
  8
_U+30EC_U+30A4_U+30E4_U+30FC 1
 62
     7
420
 16777215
370
    25
100
AcDbVertex
100
AcDb2dVertex
 10
105.4715923091955
 20
-120.744756080925
 30
0.0
  0
VERTEX
  5
6E
330
6C
100
AcDbEntity
  8
_U+30EC_U+30A4_U+30E4_U+30FC 1
 62
     7
420
 16777215
370
    25
100
AcDbVertex
100
AcDb2dVertex
 10
106.1716471956796
 20
-120.2948233032596
 30
0.0
  0
SEQEND
  5
6F
330
6C
100
AcDbEntity
  8
_U+30EC_U+30A4_U+30E4_U+30FC 1
 62
     7
420
 16777215
370
    25
  0
POLYLINE
  5
70
330
1F
100
AcDbEntity
  8
_U+30EC_U+30A4_U+30E4_U+30FC 1
 62
     7
420
 16777215
370
    25
100
AcDb2dPolyline
 66
     1
 10
0.0
 20
0.0
 30
0.0
  0
VERTEX
  5
71
330
70
100
AcDbEntity
  8
_U+30EC_U+30A4_U+30E4_U+30FC 1
 62
     7
420
 16777215
370
    25
100
AcDbVertex
100
AcDb2dVertex
 10
106.8716967179203
 20
-120.744756080925
 30
0.0
  0
VERTEX
  5
72
330
70
100
AcDbEntity
  8
_U+30EC_U+30A4_U+30E4_U+30FC 1
 62
     7
420
 16777215
370
    25
100
AcDbVertex
100
AcDb2dVertex
 10
106.1716471956796
 20
-120.2948233032596
 30
0.0
  0
SEQEND
  5
73
330
70
100
AcDbEntity
  8
_U+30EC_U+30A4_U+30E4_U+30FC 1
 62
     7
420
 16777215
370
    25
  0
POLYLINE
  5
74
330
1F
100
AcDbEntity
  8
_U+30EC_U+30A4_U+30E4_U+30FC 1
 62
     7
420
 16777215
370
    25
100
AcDb2dPolyline
 66
     1
 10
0.0
 20
0.0
 30
0.0
  0
VERTEX
  5
75
330
74
100
AcDbEntity
  8
_U+30EC_U+30A4_U+30E4_U+30FC 1
 62
     7
420
 16777215
370
    25
100
AcDbVertex
100
AcDb2dVertex
 10
105.4715923091955
 20
-120.744756080925
 30
0.0
  0
VERTEX
  5
76
330
74
100
AcDbEntity
  8
_U+30EC_U+30A4_U+30E4_U+30FC 1
 62
     7
420
 16777215
370
    25
100
AcDbVertex
100
AcDb2dVertex
 10
104.7715401048331
 20
-120.2948233032596
 30
0.0
  0
SEQEND
  5
77
330
74
100
AcDbEntity
  8
_U+30EC_U+30A4_U+30E4_U+30FC 1
 62
     7
420
 16777215
370
    25
  0
POLYLINE
  5
78
330
1F
100
AcDbEntity
  8
_U+30EC_U+30A4_U+30E4_U+30FC 1
 62
     7
420
 16777215
370
    25
100
AcDb2dPolyline
 66
     1
 10
0.0
 20
0.0
 30
0.0
  0
VERTEX
  5
79
330
78
100
AcDbEntity
  8
_U+30EC_U+30A4_U+30E4_U+30FC 1
 62
     7
420
 16777215
370
    25
100
AcDbVertex
100
AcDb2dVertex
 10
104.0715231782476
 20
-120.744756080925
 30
0.0
  0
VERTEX
  5
7A
330
78
100
AcDbEntity
  8
_U+30EC_U+30A4_U+30E4_U+30FC 1
 62
     7
420
 16777215
370
    25
100
AcDbVertex
100
AcDb2dVertex
 10
104.7715401048331
 20
-120.2948233032596
 30
0.0
  0
SEQEND
  5
7B
330
78
100
AcDbEntity
  8
_U+30EC_U+30A4_U+30E4_U+30FC 1
 62
     7
420
 16777215
370
    25
  0
POLYLINE
  5
7C
330
1F
100
AcDbEntity
  8
_U+30EC_U+30A4_U+30E4_U+30FC 1
 62
     7
420
 16777215
370
    25
100
AcDb2dPolyline
 66
     1
 10
0.0
 20
0.0
 30
0.0
  0
VERTEX
  5
7D
330
7C
100
AcDbEntity
  8
_U+30EC_U+30A4_U+30E4_U+30FC 1
 62
     7
420
 16777215
370
    25
100
AcDbVertex
100
AcDb2dVertex
 10
102.6714187695228
 20
-120.744756080925
 30
0.0
  0
VERTEX
  5
7E
330
7C
100
AcDbEntity
  8
_U+30EC_U+30A4_U+30E4_U+30FC 1
 62
     7
420
 16777215
370
    25
100
AcDbVertex
100
AcDb2dVertex
 10
103.3714709738852
 20
-120.2948233032596
 30
0.0
  0
SEQEND
  5
7F
330
7C
100
AcDbEntity
  8
_U+30EC_U+30A4_U+30E4_U+30FC 1
 62
     7
420
 16777215
370
    25
  0
POLYLINE
  5
80
330
1F
100
AcDbEntity
  8
_U+30EC_U+30A4_U+30E4_U+30FC 1
 62
     7
420
 16777215
370
    25
100
AcDb2dPolyline
 66
     1
 10
0.0
 20
0.0
 30
0.0
  0
VERTEX
  5
81
330
80
100
AcDbEntity
  8
_U+30EC_U+30A4_U+30E4_U+30FC 1
 62
     7
420
 16777215
370
    25
100
AcDbVertex
100
AcDb2dVertex
 10
104.0715231782476
 20
-120.744756080925
 30
0.0
  0
VERTEX
  5
82
330
80
100
AcDbEntity
  8
_U+30EC_U+30A4_U+30E4_U+30FC 1
 62
     7
420
 16777215
370
    25
100
AcDbVertex
100
AcDb2dVertex
 10
103.3714709738852
 20
-120.2948233032596
 30
0.0
  0
SEQEND
  5
83
330
80
100
AcDbEntity
  8
_U+30EC_U+30A4_U+30E4_U+30FC 1
 62
     7
420
 16777215
370
    25
  0
POLYLINE
  5
84
330
1F
100
AcDbEntity
  8
_U+30EC_U+30A4_U+30E4_U+30FC 1
 62
     7
420
 16777215
370
    25
100
AcDb2dPolyline
 66
     1
 10
0.0
 20
0.0
 30
0.0
  0
VERTEX
  5
85
330
84
100
AcDbEntity
  8
_U+30EC_U+30A4_U+30E4_U+30FC 1
 62
     7
420
 16777215
370
    25
100
AcDbVertex
100
AcDb2dVertex
 10
102.6714187695228
 20
-120.744756080925
 30
0.0
  0
VERTEX
  5
86
330
84
100
AcDbEntity
  8
_U+30EC_U+30A4_U+30E4_U+30FC 1
 62
     7
420
 16777215
370
    25
100
AcDbVertex
100
AcDb2dVertex
 10
101.9713665651604
 20
-120.2948233032596
 30
0.0
  0
SEQEND
  5
87
330
84
100
AcDbEntity
  8
_U+30EC_U+30A4_U+30E4_U+30FC 1
 62
     7
420
 16777215
370
    25
  0
POLYLINE
  5
88
330
1F
100
AcDbEntity
  8
_U+30EC_U+30A4_U+30E4_U+30FC 1
 62
     7
420
 16777215
370
    25
100
AcDb2dPolyline
 66
     1
 10
0.0
 20
0.0
 30
0.0
  0
VERTEX
  5
89
330
88
100
AcDbEntity
  8
_U+30EC_U+30A4_U+30E4_U+30FC 1
 62
     7
420
 16777215
370
    25
100
AcDbVertex
100
AcDb2dVertex
 10
101.2713496385748
 20
-120.744756080925
 30
0.0
  0
VERTEX
  5
8A
330
88
100
AcDbEntity
  8
_U+30EC_U+30A4_U+30E4_U+30FC 1
 62
     7
420
 16777215
370
    25
100
AcDbVertex
100
AcDb2dVertex
 10
101.9713665651604
 20
-120.2948233032596
 30
0.0
  0
SEQEND
  5
8B
330
88
100
AcDbEntity
  8
_U+30EC_U+30A4_U+30E4_U+30FC 1
 62
     7
420
 16777215
370
    25
  0
POLYLINE
  5
8C
330
1F
100
AcDbEntity
  8
_U+30EC_U+30A4_U+30E4_U+30FC 1
 62
     7
420
 16777215
370
    25
100
AcDb2dPolyline
 66
     1
 10
0.0
 20
0.0
 30
0.0
  0
VERTEX
  5
8D
330
8C
100
AcDbEntity
  8
_U+30EC_U+30A4_U+30E4_U+30FC 1
 62
     7
420
 16777215
370
    25
100
AcDbVertex
100
AcDb2dVertex
 10
101.2713496385748
 20
-120.744756080925
 30
0.0
  0
VERTEX
  5
8E
330
8C
100
AcDbEntity
  8
_U+30EC_U+30A4_U+30E4_U+30FC 1
 62
     7
420
 16777215
370
    25
100
AcDbVertex
100
AcDb2dVertex
 10
100.5712999748574
 20
-120.2948233032596
 30
0.0
  0
SEQEND
  5
8F
330
8C
100
AcDbEntity
  8
_U+30EC_U+30A4_U+30E4_U+30FC 1
 62
     7
420
 16777215
370
    25
  0
POLYLINE
  5
90
330
1F
100
AcDbEntity
  8
_U+30EC_U+30A4_U+30E4_U+30FC 1
 62
     7
420
 16777215
370
    25
100
AcDb2dPolyline
 66
     1
 10
0.0
 20
0.0
 30
0.0
  0
VERTEX
  5
91
330
90
100
AcDbEntity
  8
_U+30EC_U+30A4_U+30E4_U+30FC 1
 62
     7
420
 16777215
370
    25
100
AcDbVertex
100
AcDb2dVertex
 10
99.87124522985005
 20
-120.744756080925
 30
0.0
  0
VERTEX
  5
92
330
90
100
AcDbEntity
  8
_U+30EC_U+30A4_U+30E4_U+30FC 1
 62
     7
420
 16777215
370
    25
100
AcDbVertex
100
AcDb2dVertex
 10
100.5712999748574
 20
-120.2948233032596
 30
0.0
  0
SEQEND
  5
93
330
90
100
AcDbEntity
  8
_U+30EC_U+30A4_U+30E4_U+30FC 1
 62
     7
420
 16777215
370
    25
  0
POLYLINE
  5
94
330
1F
100
AcDbEntity
  8
_U+30EC_U+30A4_U+30E4_U+30FC 1
 62
     7
420
 16777215
370
    25
100
AcDb2dPolyline
 66
     1
 10
0.0
 20
0.0
 30
0.0
  0
VERTEX
  5
95
330
94
100
AcDbEntity
  8
_U+30EC_U+30A4_U+30E4_U+30FC 1
 62
     7
420
 16777215
370
    25
100
AcDbVertex
100
AcDb2dVertex
 10
106.8716967179203
 20
-120.744756080925
 30
0.0
  0
VERTEX
  5
96
330
94
100
AcDbEntity
  8
_U+30EC_U+30A4_U+30E4_U+30FC 1
 62
     7
420
 16777215
370
    25
100
AcDbVertex
100
AcDb2dVertex
 10
111.8711927014837
 20
-120.744756080925
 30
0.0
  0
SEQEND
  5
97
330
94
100
AcDbEntity
  8
_U+30EC_U+30A4_U+30E4_U+30FC 1
 62
     7
420
 16777215
370
    25
  0
POLYLINE
  5
98
330
1F
100
AcDbEntity
  8
_U+30EC_U+30A4_U+30E4_U+30FC 1
 62
     7
420
 16777215
370
    25
100
AcDb2dPolyline
 66
     1
 10
0.0
 20
0.0
 30
0.0
  0
VERTEX
  5
99
330
98
100
AcDbEntity
  8
_U+30EC_U+30A4_U+30E4_U+30FC 1
 62
     7
420
 16777215
370
    25
100
AcDbVertex
100
AcDb2dVertex
 10
64.87131612277263
 20
-120.744756080925
 30
0.0
  0
VERTEX
  5
9A
330
98
100
AcDbEntity
  8
_U+30EC_U+30A4_U+30E4_U+30FC 1
 62
     7
420
 16777215
370
    25
100
AcDbVertex
100
AcDb2dVertex
 10
64.87131612277263
 20
-119.7449838589525
 30
0.0
  0
SEQEND
  5
9B
330
98
100
AcDbEntity
  8
_U+30EC_U+30A4_U+30E4_U+30FC 1
 62
     7
420
 16777215
370
    25
  0
POLYLINE
  5
9C
330
1F
100
AcDbEntity
  8
_U+30EC_U+30A4_U+30E4_U+30FC 1
 62
     7
420
 16777215
370
    25
100
AcDb2dPolyline
 66
     1
 10
0.0
 20
0.0
 30
0.0
  0
VERTEX
  5
9D
330
9C
100
AcDbEntity
  8
_U+30EC_U+30A4_U+30E4_U+30FC 1
 62
     7
420
 16777215
370
    25
100
AcDbVertex
100
AcDb2dVertex
 10
84.87148727919242
 20
-139.744449965064
 30
0.0
  0
VERTEX
  5
9E
330
9C
100
AcDbEntity
  8
_U+30EC_U+30A4_U+30E4_U+30FC 1
 62
     7
420
 16777215
370
    25
100
AcDbVertex
100
AcDb2dVertex
 10
84.87148727919242
 20
-120.744756080925
 30
0.0
  0
SEQEND
  5
9F
330
9C
100
AcDbEntity
  8
_U+30EC_U+30A4_U+30E4_U+30FC 1
 62
     7
420
 16777215
370
    25
  0
POLYLINE
  5
A0
330
1F
100
AcDbEntity
  8
_U+30EC_U+30A4_U+30E4_U+30FC 1
 62
     7
420
 16777215
370
    25
100
AcDb2dPolyline
 66
     1
 10
0.0
 20
0.0
 30
0.0
  0
VERTEX
  5
A1
330
A0
100
AcDbEntity
  8
_U+30EC_U+30A4_U+30E4_U+30FC 1
 62
     7
420
 16777215
370
    25
100
AcDbVertex
100
AcDb2dVertex
 10
98.87147303313414
 20
-136.745133299147
 30
0.0
  0
VERTEX
  5
A2
330
A0
100
AcDbEntity
  8
_U+30EC_U+30A4_U+30E4_U+30FC 1
 62
     7
420
 16777215
370
    25
100
AcDbVertex
100
AcDb2dVertex
 10
99.87124522985005
 20
-136.745133299147
 30
0.0
  0
SEQEND
  5
A3
330
A0
100
AcDbEntity
  8
_U+30EC_U+30A4_U+30E4_U+30FC 1
 62
     7
420
 16777215
370
    25
  0
POLYLINE
  5
A4
330
1F
100
AcDbEntity
  8
_U+30EC_U+30A4_U+30E4_U+30FC 1
 62
     7
420
 16777215
370
    25
100
AcDb2dPolyline
 66
     1
 10
0.0
 20
0.0
 30
0.0
  0
VERTEX
  5
A5
330
A4
100
AcDbEntity
  8
_U+30EC_U+30A4_U+30E4_U+30FC 1
 62
     7
420
 16777215
370
    25
100
AcDbVertex
100
AcDb2dVertex
 10
84.87148727919242
 20
-139.744449965064
 30
0.0
  0
VERTEX
  5
A6
330
A4
100
AcDbEntity
  8
_U+30EC_U+30A4_U+30E4_U+30FC 1
 62
     7
420
 16777215
370
    25
100
AcDbVertex
100
AcDb2dVertex
 10
99.87124522985005
 20
-139.744449965064
 30
0.0
  0
SEQEND
  5
A7
330
A4
100
AcDbEntity
  8
_U+30EC_U+30A4_U+30E4_U+30FC 1
 62
     7
420
 16777215
370
    25
  0
POLYLINE
  5
A8
330
1F
100
AcDbEntity
  8
_U+30EC_U+30A4_U+30E4_U+30FC 1
 62
     7
420
 16777215
370
    25
100
AcDb2dPolyline
 66
     1
 10
0.0
 20
0.0
 30
0.0
  0
VERTEX
  5
A9
330
A8
100
AcDbEntity
  8
_U+30EC_U+30A4_U+30E4_U+30FC 1
 62
     7
420
 16777215
370
    25
100
AcDbVertex
100
AcDb2dVertex
 10
85.7713175340136
 20
-138.7446777430914
 30
0.0
  0
VERTEX
  5
AA
330
A8
100
AcDbEntity
  8
_U+30EC_U+30A4_U+30E4_U+30FC 1
 62
     7
420
 16777215
370
    25
100
AcDbVertex
100
AcDb2dVertex
 10
98.87147303313414
 20
-138.7446777430914
 30
0.0
  0
SEQEND
  5
AB
330
A8
100
AcDbEntity
  8
_U+30EC_U+30A4_U+30E4_U+30FC 1
 62
     7
420
 16777215
370
    25
  0
POLYLINE
  5
AC
330
1F
100
AcDbEntity
  8
_U+30EC_U+30A4_U+30E4_U+30FC 1
 62
     7
420
 16777215
370
    25
100
AcDb2dPolyline
 66
     1
 10
0.0
 20
0.0
 30
0.0
  0
VERTEX
  5
AD
330
AC
100
AcDbEntity
  8
_U+30EC_U+30A4_U+30E4_U+30FC 1
 62
     7
420
 16777215
370
    25
100
AcDbVertex
100
AcDb2dVertex
 10
99.87124522985005
 20
-139.744449965064
 30
0.0
  0
VERTEX
  5
AE
330
AC
100
AcDbEntity
  8
_U+30EC_U+30A4_U+30E4_U+30FC 1
 62
     7
420
 16777215
370
    25
100
AcDbVertex
100
AcDb2dVertex
 10
99.87124522985005
 20
-136.745133299147
 30
0.0
  0
SEQEND
  5
AF
330
AC
100
AcDbEntity
  8
_U+30EC_U+30A4_U+30E4_U+30FC 1
 62
     7
420
 16777215
370
    25
  0
POLYLINE
  5
B0
330
1F
100
AcDbEntity
  8
_U+30EC_U+30A4_U+30E4_U+30FC 1
 62
     7
420
 16777215
370
    25
100
AcDb2dPolyline
 66
     1
 10
0.0
 20
0.0
 30
0.0
  0
VERTEX
  5
B1
330
B0
100
AcDbEntity
  8
_U+30EC_U+30A4_U+30E4_U+30FC 1
 62
     7
420
 16777215
370
    25
100
AcDbVertex
100
AcDb2dVertex
 10
98.87147303313414
 20
-138.7446777430914
 30
0.0
  0
VERTEX
  5
B2
330
B0
100
AcDbEntity
  8
_U+30EC_U+30A4_U+30E4_U+30FC 1
 62
     7
420
 16777215
370
    25
100
AcDbVertex
100
AcDb2dVertex
 10
98.87147303313414
 20
-136.745133299147
 30
0.0
  0
SEQEND
  5
B3
330
B0
100
AcDbEntity
  8
_U+30EC_U+30A4_U+30E4_U+30FC 1
 62
     7
420
 16777215
370
    25
  0
POLYLINE
  5
B4
330
1F
100
AcDbEntity
  8
_U+30EC_U+30A4_U+30E4_U+30FC 1
 62
     7
420
 16777215
370
    25
100
AcDb2dPolyline
 66
     1
 10
0.0
 20
0.0
 30
0.0
  0
VERTEX
  5
B5
330
B4
100
AcDbEntity
  8
_U+30EC_U+30A4_U+30E4_U+30FC 1
 62
     7
420
 16777215
370
    25
100
AcDbVertex
100
AcDb2dVertex
 10
85.7713175340136
 20
-138.7446777430914
 30
0.0
  0
VERTEX
  5
B6
330
B4
100
AcDbEntity
  8
_U+30EC_U+30A4_U+30E4_U+30FC 1
 62
     7
420
 16777215
370
    25
100
AcDbVertex
100
AcDb2dVertex
 10
85.7713175340136
 20
-120.744756080925
 30
0.0
  0
SEQEND
  5
B7
330
B4
100
AcDbEntity
  8
_U+30EC_U+30A4_U+30E4_U+30FC 1
 62
     7
420
 16777215
370
    25
  0
SPLINE
  5
B8
330
1F
100
AcDbEntity
  8
_U+30EC_U+30A4_U+30E4_U+30FC 1
 62
     7
420
 16777215
370
     9
100
AcDbSpline
210
0.0
220
0.0
230
1.0
 70
    11
 71
     3
 72
    17
 73
    13
 74
     0
 42
0.0000000001
 43
0.0000000001
 12
1.0
 22
0.0
 32
0.0
 13
1.0
 23
0.0
 33
0.0
 40
0.0
 40
0.0
 40
0.0
 40
0.0
 40
1.0
 40
1.0
 40
1.0
 40
2.0
 40
2.0
 40
2.0
 40
3.0
 40
3.0
 40
3.0
 40
4.0
 40
4.0
 40
4.0
 40
4.0
 10
64.97192834242801
 20
-115.7445191377304
 30
0.0
 10
64.97192834242801
 20
-115.6894152488555
 30
0.0
 10
64.92712556579325
 20
-115.6446124710888
 30
0.0
 10
64.87131612277263
 20
-115.6446124710888
 30
0.0
 10
64.81621387268476
 20
-115.6446124710888
 30
0.0
 10
64.77141109491835
 20
-115.6894152488555
 30
0.0
 10
64.77141109491835
 20
-115.7445191377304
 30
0.0
 10
64.77141109491835
 20
-115.8003285821612
 30
0.0
 10
64.81621387268476
 20
-115.8451313599276
 30
0.0
 10
64.87131612277263
 20
-115.8451313599276
 30
0.0
 10
64.92712556579325
 20
-115.8451313599276
 30
0.0
 10
64.97192834242801
 20
-115.8003285821612
 30
0.0
 10
64.97192834242801
 20
-115.7445191377304
 30
0.0
  0
SPLINE
  5
B9
330
1F
100
AcDbEntity
  8
_U+30EC_U+30A4_U+30E4_U+30FC 1
 62
     7
420
 16777215
370
     9
100
AcDbSpline
210
0.0
220
0.0
230
1.0
 70
    11
 71
     3
 72
    17
 73
    13
 74
     0
 42
0.0000000001
 43
0.0000000001
 12
1.0
 22
0.0
 32
0.0
 13
1.0
 23
0.0
 33
0.0
 40
0.0
 40
0.0
 40
0.0
 40
0.0
 40
1.0
 40
1.0
 40
1.0
 40
2.0
 40
2.0
 40
2.0
 40
3.0
 40
3.0
 40
3.0
 40
4.0
 40
4.0
 40
4.0
 40
4.0
 10
111.9710993656015
 20
-115.7445191377304
 30
0.0
 10
111.9710993656015
 20
-115.6894152488555
 30
0.0
 10
111.9263318667436
 20
-115.6446124710888
 30
0.0
 10
111.8711927014837
 20
-115.6446124710888
 30
0.0
 10
111.8160916387129
 20
-115.6446124710888
 30
0.0
 10
111.7712888609462
 20
-115.6894152488555
 30
0.0
 10
111.7712888609462
 20
-115.7445191377304
 30
0.0
 10
111.7712888609462
 20
-115.8003285821612
 30
0.0
 10
111.8160916387129
 20
-115.8451313599276
 30
0.0
 10
111.8711927014837
 20
-115.8451313599276
 30
0.0
 10
111.9263318667436
 20
-115.8451313599276
 30
0.0
 10
111.9710993656015
 20
-115.8003285821612
 30
0.0
 10
111.9710993656015
 20
-115.7445191377304
 30
0.0
  0
SPLINE
  5
BA
330
1F
100
AcDbEntity
  8
_U+30EC_U+30A4_U+30E4_U+30FC 1
 62
     7
420
 16777215
370
     9
100
AcDbSpline
210
0.0
220
0.0
230
1.0
 70
    11
 71
     3
 72
    17
 73
    13
 74
     0
 42
0.0000000001
 43
0.0000000001
 12
1.0
 22
0.0
 32
0.0
 13
1.0
 23
0.0
 33
0.0
 40
0.0
 40
0.0
 40
0.0
 40
0.0
 40
1.0
 40
1.0
 40
1.0
 40
2.0
 40
2.0
 40
2.0
 40
3.0
 40
3.0
 40
3.0
 40
4.0
 40
4.0
 40
4.0
 40
4.0
 10
115.9715639857634
 20
-119.7449838589525
 30
0.0
 10
115.9715639857634
 20
-119.6898446922997
 30
0.0
 10
115.9267612091286
 20
-119.6450771923109
 30
0.0
 10
115.8716573216455
 20
-119.6450771923109
 30
0.0
 10
115.8158478786249
 20
-119.6450771923109
 30
0.0
 10
115.7710451019901
 20
-119.6898446922997
 30
0.0
 10
115.7710451019901
 20
-119.7449838589525
 30
0.0
 10
115.7710451019901
 20
-119.8000877478277
 30
0.0
 10
115.8158478786249
 20
-119.8448905255945
 30
0.0
 10
115.8716573216455
 20
-119.8448905255945
 30
0.0
 10
115.9267612091286
 20
-119.8448905255945
 30
0.0
 10
115.9715639857634
 20
-119.8000877478277
 30
0.0
 10
115.9715639857634
 20
-119.7449838589525
 30
0.0
  0
SPLINE
  5
BB
330
1F
100
AcDbEntity
  8
_U+30EC_U+30A4_U+30E4_U+30FC 1
 62
     7
420
 16777215
370
     9
100
AcDbSpline
210
0.0
220
0.0
230
1.0
 70
    11
 71
     3
 72
    17
 73
    13
 74
     0
 42
0.0000000001
 43
0.0000000001
 12
1.0
 22
0.0
 32
0.0
 13
1.0
 23
0.0
 33
0.0
 40
0.0
 40
0.0
 40
0.0
 40
0.0
 40
1.0
 40
1.0
 40
1.0
 40
2.0
 40
2.0
 40
2.0
 40
3.0
 40
3.0
 40
3.0
 40
4.0
 40
4.0
 40
4.0
 40
4.0
 10
115.9715639857634
 20
-120.744756080925
 30
0.0
 10
115.9715639857634
 20
-120.689616914272
 30
0.0
 10
115.9267612091286
 20
-120.6448494142831
 30
0.0
 10
115.8716573216455
 20
-120.6448494142831
 30
0.0
 10
115.8158478786249
 20
-120.6448494142831
 30
0.0
 10
115.7710451019901
 20
-120.689616914272
 30
0.0
 10
115.7710451019901
 20
-120.744756080925
 30
0.0
 10
115.7710451019901
 20
-120.7998599698
 30
0.0
 10
115.8158478786249
 20
-120.8446627475667
 30
0.0
 10
115.8716573216455
 20
-120.8446627475667
 30
0.0
 10
115.9267612091286
 20
-120.8446627475667
 30
0.0
 10
115.9715639857634
 20
-120.7998599698
 30
0.0
 10
115.9715639857634
 20
-120.744756080925
 30
0.0
  0
SPLINE
  5
BC
330
1F
100
AcDbEntity
  8
_U+30EC_U+30A4_U+30E4_U+30FC 1
 62
     7
420
 16777215
370
     9
100
AcDbSpline
210
0.0
220
0.0
230
1.0
 70
    11
 71
     3
 72
    17
 73
    13
 74
     0
 42
0.0000000001
 43
0.0000000001
 12
1.0
 22
0.0
 32
0.0
 13
1.0
 23
0.0
 33
0.0
 40
0.0
 40
0.0
 40
0.0
 40
0.0
 40
1.0
 40
1.0
 40
1.0
 40
2.0
 40
2.0
 40
2.0
 40
3.0
 40
3.0
 40
3.0
 40
4.0
 40
4.0
 40
4.0
 40
4.0
 10
115.9715639857634
 20
-136.745133299147
 30
0.0
 10
115.9715639857634
 20
-136.6893238547165
 30
0.0
 10
115.9267612091286
 20
-136.644556354728
 30
0.0
 10
115.8716573216455
 20
-136.644556354728
 30
0.0
 10
115.8158478786249
 20
-136.644556354728
 30
0.0
 10
115.7710451019901
 20
-136.6893238547165
 30
0.0
 10
115.7710451019901
 20
-136.745133299147
 30
0.0
 10
115.7710451019901
 20
-136.8002724658
 30
0.0
 10
115.8158478786249
 20
-136.8450399657886
 30
0.0
 10
115.8716573216455
 20
-136.8450399657886
 30
0.0
 10
115.9267612091286
 20
-136.8450399657886
 30
0.0
 10
115.9715639857634
 20
-136.8002724658
 30
0.0
 10
115.9715639857634
 20
-136.745133299147
 30
0.0
  0
SPLINE
  5
BD
330
1F
100
AcDbEntity
  8
_U+30EC_U+30A4_U+30E4_U+30FC 1
 62
     7
420
 16777215
370
     9
100
AcDbSpline
210
0.0
220
0.0
230
1.0
 70
    11
 71
     3
 72
    17
 73
    13
 74
     0
 42
0.0000000001
 43
0.0000000001
 12
1.0
 22
0.0
 32
0.0
 13
1.0
 23
0.0
 33
0.0
 40
0.0
 40
0.0
 40
0.0
 40
0.0
 40
1.0
 40
1.0
 40
1.0
 40
2.0
 40
2.0
 40
2.0
 40
3.0
 40
3.0
 40
3.0
 40
4.0
 40
4.0
 40
4.0
 40
4.0
 10
115.9715639857634
 20
-139.744449965064
 30
0.0
 10
115.9715639857634
 20
-139.6893107984109
 30
0.0
 10
115.9267612091286
 20
-139.6445432984223
 30
0.0
 10
115.8716573216455
 20
-139.6445432984223
 30
0.0
 10
115.8158478786249
 20
-139.6445432984223
 30
0.0
 10
115.7710451019901
 20
-139.6893107984109
 30
0.0
 10
115.7710451019901
 20
-139.744449965064
 30
0.0
 10
115.7710451019901
 20
-139.8002594094944
 30
0.0
 10
115.8158478786249
 20
-139.845026909483
 30
0.0
 10
115.8716573216455
 20
-139.845026909483
 30
0.0
 10
115.9267612091286
 20
-139.845026909483
 30
0.0
 10
115.9715639857634
 20
-139.8002594094944
 30
0.0
 10
115.9715639857634
 20
-139.744449965064
 30
0.0
  0
SPLINE
  5
BE
330
1F
100
AcDbEntity
  8
_U+30EC_U+30A4_U+30E4_U+30FC 1
 62
     7
420
 16777215
370
     9
100
AcDbSpline
210
0.0
220
0.0
230
1.0
 70
    11
 71
     3
 72
    17
 73
    13
 74
     0
 42
0.0000000001
 43
0.0000000001
 12
1.0
 22
0.0
 32
0.0
 13
1.0
 23
0.0
 33
0.0
 40
0.0
 40
0.0
 40
0.0
 40
0.0
 40
1.0
 40
1.0
 40
1.0
 40
2.0
 40
2.0
 40
2.0
 40
3.0
 40
3.0
 40
3.0
 40
4.0
 40
4.0
 40
4.0
 40
4.0
 10
84.97139394331025
 20
-143.7448794085082
 30
0.0
 10
84.97139394331025
 20
-143.6897755196333
 30
0.0
 10
84.9265911666755
 20
-143.6449727418666
 30
0.0
 10
84.87148727919242
 20
-143.6449727418666
 30
0.0
 10
84.81634811393246
 20
-143.6449727418666
 30
0.0
 10
84.77158061507458
 20
-143.6897755196333
 30
0.0
 10
84.77158061507458
 20
-143.7448794085082
 30
0.0
 10
84.77158061507458
 20
-143.8000185751613
 30
0.0
 10
84.81634811393246
 20
-143.8447860751498
 30
0.0
 10
84.87148727919242
 20
-143.8447860751498
 30
0.0
 10
84.9265911666755
 20
-143.8447860751498
 30
0.0
 10
84.97139394331025
 20
-143.8000185751613
 30
0.0
 10
84.97139394331025
 20
-143.7448794085082
 30
0.0
  0
SPLINE
  5
BF
330
1F
100
AcDbEntity
  8
_U+30EC_U+30A4_U+30E4_U+30FC 1
 62
     7
420
 16777215
370
     9
100
AcDbSpline
210
0.0
220
0.0
230
1.0
 70
    11
 71
     3
 72
    17
 73
    13
 74
     0
 42
0.0000000001
 43
0.0000000001
 12
1.0
 22
0.0
 32
0.0
 13
1.0
 23
0.0
 33
0.0
 40
0.0
 40
0.0
 40
0.0
 40
0.0
 40
1.0
 40
1.0
 40
1.0
 40
2.0
 40
2.0
 40
2.0
 40
3.0
 40
3.0
 40
3.0
 40
4.0
 40
4.0
 40
4.0
 40
4.0
 10
99.97115189396787
 20
-143.7448794085082
 30
0.0
 10
99.97115189396787
 20
-143.6897755196333
 30
0.0
 10
99.92638439510999
 20
-143.6449727418666
 30
0.0
 10
99.87124522985005
 20
-143.6449727418666
 30
0.0
 10
99.81614134236698
 20
-143.6449727418666
 30
0.0
 10
99.77133856573221
 20
-143.6897755196333
 30
0.0
 10
99.77133856573221
 20
-143.7448794085082
 30
0.0
 10
99.77133856573221
 20
-143.8000185751613
 30
0.0
 10
99.81614134236698
 20
-143.8447860751498
 30
0.0
 10
99.87124522985005
 20
-143.8447860751498
 30
0.0
 10
99.92638439510999
 20
-143.8447860751498
 30
0.0
 10
99.97115189396787
 20
-143.8000185751613
 30
0.0
 10
99.97115189396787
 20
-143.7448794085082
 30
0.0
  0
SPLINE
  5
C0
330
1F
100
AcDbEntity
  8
_U+30EC_U+30A4_U+30E4_U+30FC 1
 62
     7
420
 16777215
370
     9
100
AcDbSpline
210
0.0
220
0.0
230
1.0
 70
    11
 71
     3
 72
    17
 73
    13
 74
     0
 42
0.0000000001
 43
0.0000000001
 12
1.0
 22
0.0
 32
0.0
 13
1.0
 23
0.0
 33
0.0
 40
0.0
 40
0.0
 40
0.0
 40
0.0
 40
1.0
 40
1.0
 40
1.0
 40
2.0
 40
2.0
 40
2.0
 40
3.0
 40
3.0
 40
3.0
 40
4.0
 40
4.0
 40
4.0
 40
4.0
 10
64.97192834242801
 20
-143.7448794085082
 30
0.0
 10
64.97192834242801
 20
-143.6897755196333
 30
0.0
 10
64.92712556579325
 20
-143.6449727418666
 30
0.0
 10
64.87131612277263
 20
-143.6449727418666
 30
0.0
 10
64.81621387268476
 20
-143.6449727418666
 30
0.0
 10
64.77141109491835
 20
-143.6897755196333
 30
0.0
 10
64.77141109491835
 20
-143.7448794085082
 30
0.0
 10
64.77141109491835
 20
-143.8000185751613
 30
0.0
 10
64.81621387268476
 20
-143.8447860751498
 30
0.0
 10
64.87131612277263
 20
-143.8447860751498
 30
0.0
 10
64.92712556579325
 20
-143.8447860751498
 30
0.0
 10
64.97192834242801
 20
-143.8000185751613
 30
0.0
 10
64.97192834242801
 20
-143.7448794085082
 30
0.0
  0
INSERT
  5
C2
330
1F
100
AcDbEntity
  8
_U+30EC_U+30A4_U+30E4_U+30FC 1
100
AcDbBlockReference
  2
block 2
 10
0.0
 20
0.0
 30
0.0
  0
INSERT
  5
D6
330
1F
100
AcDbEntity
  8
_U+30EC_U+30A4_U+30E4_U+30FC 1
100
AcDbBlockReference
  2
block 4
 10
0.0
 20
0.0
 30
0.0
  0
INSERT
  5
F0
330
1F
100
AcDbEntity
  8
_U+30EC_U+30A4_U+30E4_U+30FC 1
100
AcDbBlockReference
  2
block 6
 10
0.0
 20
0.0
 30
0.0
  0
INSERT
  5
105
330
1F
100
AcDbEntity
  8
_U+30EC_U+30A4_U+30E4_U+30FC 1
100
AcDbBlockReference
  2
block 8
 10
0.0
 20
0.0
 30
0.0
  0
INSERT
  5
117
330
1F
100
AcDbEntity
  8
_U+30EC_U+30A4_U+30E4_U+30FC 1
100
AcDbBlockReference
  2
block 10
 10
0.0
 20
0.0
 30
0.0
  0
INSERT
  5
142
330
1F
100
AcDbEntity
  8
_U+30EC_U+30A4_U+30E4_U+30FC 1
100
AcDbBlockReference
  2
block 12
 10
0.0
 20
0.0
 30
0.0
  0
ENDSEC
  0
SECTION
  2
OBJECTS
  0
DICTIONARY
  5
C
330
0
100
AcDbDictionary
281
     1
  3
ACAD_GROUP
350
D
  3
ACAD_LAYOUT
350
1A
  3
ACAD_MATERIAL
350
3B
  3
ACAD_MLEADERSTYLE
350
15B
  3
ACAD_MLINESTYLE
350
17
  3
ACAD_PLOTSETTINGS
350
19
  3
ACAD_PLOTSTYLENAME
350
E
  3
ACAD_TABLESTYLE
350
15A
  3
ACAD_VISUALSTYLE
350
2A
  0
SUN
  5
3F
330
29
100
AcDbSun
 90
        1
290
     0
 63
     7
421
 16777215
 40
1.0
291
     1
 91
  2455826
 92
 54000000
292
     0
 70
     2
 71
   256
280
     1
  0
DICTIONARY
  5
D
102
{ACAD_REACTORS
330
C
102
}
330
C
100
AcDbDictionary
281
     1
  0
DICTIONARY
  5
1A
102
{ACAD_REACTORS
330
C
102
}
330
C
100
AcDbDictionary
281
     1
  3
Layout1
350
1E
  3
Layout2
350
26
  3
Model
350
22
  0
DICTIONARY
  5
3B
102
{ACAD_REACTORS
330
C
102
}
330
C
100
AcDbDictionary
281
     1
  3
ByBlock
350
3D
  3
ByLayer
350
3C
  3
Global
350
3E
  0
DICTIONARY
  5
15B
102
{ACAD_REACTORS
330
C
102
}
330
C
100
AcDbDictionary
281
     1
  0
DICTIONARY
  5
17
102
{ACAD_REACTORS
330
C
102
}
330
C
100
AcDbDictionary
281
     1
  3
Standard
350
18
  0
DICTIONARY
  5
19
102
{ACAD_REACTORS
330
C
102
}
330
C
100
AcDbDictionary
281
     1
  0
ACDBDICTIONARYWDFLT
  5
E
102
{ACAD_REACTORS
330
C
102
}
330
C
100
AcDbDictionary
281
     1
  3
Normal
350
F
100
AcDbDictionaryWithDefault
340
F
  0
DICTIONARY
  5
15A
102
{ACAD_REACTORS
330
C
102
}
330
C
100
AcDbDictionary
281
     1
  0
DICTIONARY
  5
2A
102
{ACAD_REACTORS
330
C
102
}
330
C
100
AcDbDictionary
281
     1
  3
2dWireframe
350
2F
  3
3D Hidden
350
31
  3
3dWireframe
350
30
  3
Basic
350
32
  3
Brighten
350
36
  3
ColorChange
350
3A
  3
Conceptual
350
34
  3
Dim
350
35
  3
Facepattern
350
39
  3
Flat
350
2B
  3
FlatWithEdges
350
2C
  3
Gouraud
350
2D
  3
GouraudWithEdges
350
2E
  3
Linepattern
350
38
  3
Realistic
350
33
  3
Thicken
350
37
  0
LAYOUT
  5
1E
102
{ACAD_REACTORS
330
1A
102
}
330
1A
100
AcDbPlotSettings
  1

  2
none_device
  4

  6

 40
0.0
 41
0.0
 42
0.0
 43
0.0
 44
0.0
 45
0.0
 46
0.0
 47
0.0
 48
0.0
 49
0.0
140
0.0
141
0.0
142
1.0
143
1.0
 70
   688
 72
     0
 73
     0
 74
     5
  7

 75
    16
 76
     0
 77
     2
 78
   300
147
1.0
148
0.0
149
0.0
100
AcDbLayout
  1
Layout1
 70
     1
 71
     1
 10
0.0
 20
0.0
 11
12.0
 21
9.0
 12
0.0
 22
0.0
 32
0.0
 14
1.000000000000000E+20
 24
1.000000000000000E+20
 34
1.000000000000000E+20
 15
-1.000000000000000E+20
 25
-1.000000000000000E+20
 35
-1.000000000000000E+20
146
0.0
 13
0.0
 23
0.0
 33
0.0
 16
1.0
 26
0.0
 36
0.0
 17
0.0
 27
1.0
 37
0.0
 76
     0
330
1B
  0
LAYOUT
  5
26
102
{ACAD_REACTORS
330
1A
102
}
330
1A
100
AcDbPlotSettings
  1

  2
none_device
  4

  6

 40
0.0
 41
0.0
 42
0.0
 43
0.0
 44
0.0
 45
0.0
 46
0.0
 47
0.0
 48
0.0
 49
0.0
140
0.0
141
0.0
142
1.0
143
1.0
 70
   688
 72
     0
 73
     0
 74
     5
  7

 75
    16
 76
     0
 77
     2
 78
   300
147
1.0
148
0.0
149
0.0
100
AcDbLayout
  1
Layout2
 70
     1
 71
     2
 10
0.0
 20
0.0
 11
0.0
 21
0.0
 12
0.0
 22
0.0
 32
0.0
 14
0.0
 24
0.0
 34
0.0
 15
0.0
 25
0.0
 35
0.0
146
0.0
 13
0.0
 23
0.0
 33
0.0
 16
1.0
 26
0.0
 36
0.0
 17
0.0
 27
1.0
 37
0.0
 76
     0
330
23
  0
LAYOUT
  5
22
102
{ACAD_REACTORS
330
1A
102
}
330
1A
100
AcDbPlotSettings
  1

  2
none_device
  4

  6

 40
0.0
 41
0.0
 42
0.0
 43
0.0
 44
0.0
 45
0.0
 46
0.0
 47
0.0
 48
0.0
 49
0.0
140
0.0
141
0.0
142
1.0
143
1.0
 70
  1712
 72
     0
 73
     0
 74
     0
  7

 75
     0
 76
     0
 77
     2
 78
   300
147
1.0
148
0.0
149
0.0
100
AcDbLayout
  1
Model
 70
     1
 71
     0
 10
0.0
 20
0.0
 11
12.0
 21
9.0
 12
0.0
 22
0.0
 32
0.0
 14
1.000000000000000E+20
 24
1.000000000000000E+20
 34
1.000000000000000E+20
 15
-1.000000000000000E+20
 25
-1.000000000000000E+20
 35
-1.000000000000000E+20
146
0.0
 13
0.0
 23
0.0
 33
0.0
 16
1.0
 26
0.0
 36
0.0
 17
0.0
 27
1.0
 37
0.0
 76
     0
330
1F
331
29
  0
MATERIAL
  5
3D
102
{ACAD_REACTORS
330
3B
102
}
330
3B
100
AcDbMaterial
  1
ByBlock
 72
     1
 94
      127
  0
MATERIAL
  5
3C
102
{ACAD_REACTORS
330
3B
102
}
330
3B
100
AcDbMaterial
  1
ByLayer
 72
     1
 94
      127
  0
MATERIAL
  5
3E
102
{ACAD_REACTORS
330
3B
102
}
330
3B
100
AcDbMaterial
  1
Global
 72
     1
 94
      127
  0
MLINESTYLE
  5
18
102
{ACAD_REACTORS
330
17
102
}
330
17
100
AcDbMlineStyle
  2
Standard
 70
     0
  3

 62
   256
 51
90.0
 52
90.0
 71
     2
 49
0.5
 62
   256
  6
BYLAYER
 49
-0.5
 62
   256
  6
BYLAYER
  0
ACDBPLACEHOLDER
  5
F
102
{ACAD_REACTORS
330
E
102
}
330
E
  0
VISUALSTYLE
  5
2F
102
{ACAD_REACTORS
330
2A
102
}
330
2A
100
AcDbVisualStyle
  2
2dWireframe
 70
     4
177
     2
291
     0
 71
     0
176
     1
 72
     2
176
     1
 73
     0
176
     1
 90
        0
176
     1
 40
-0.6
176
     1
 41
-30.0
176
     1
 62
     5
 63
     7
421
 16777215
176
     1
 74
     1
176
     1
 91
        4
176
     1
 64
     7
176
     1
 65
   257
176
     1
 75
     1
176
     1
175
     1
176
     1
 42
1.0
176
     1
 92
        0
176
     1
 66
   257
176
     1
 43
1.0
176
     1
 76
     1
176
     1
 77
     6
176
     1
 78
     2
176
     1
 67
     7
176
     1
 79
     5
176
     1
170
     0
176
     1
171
     0
176
     1
290
     0
176
     1
 93
        1
176
     1
 44
0.0
176
     1
173
     0
176
     1
  0
VISUALSTYLE
  5
31
102
{ACAD_REACTORS
330
2A
102
}
330
2A
100
AcDbVisualStyle
  2
3D Hidden
 70
     6
177
     2
291
     0
 71
     1
176
     1
 72
     2
176
     1
 73
     2
176
     1
 90
        0
176
     1
 40
-0.6
176
     1
 41
-30.0
176
     1
 62
     5
 63
     7
421
 16777215
176
     1
 74
     2
176
     1
 91
        2
176
     1
 64
     7
176
     1
 65
   257
176
     1
 75
     2
176
     1
175
     1
176
     1
 42
40.0
176
     1
 92
        0
176
     1
 66
   257
176
     1
 43
1.0
176
     1
 76
     1
176
     1
 77
     6
176
     1
 78
     2
176
     1
 67
     7
176
     1
 79
     3
176
     1
170
     0
176
     1
171
     0
176
     1
290
     0
176
     1
 93
        1
176
     1
 44
0.0
176
     1
173
     0
176
     1
  0
VISUALSTYLE
  5
30
102
{ACAD_REACTORS
330
2A
102
}
330
2A
100
AcDbVisualStyle
  2
3dWireframe
 70
     5
177
     2
291
     0
 71
     0
176
     1
 72
     2
176
     1
 73
     0
176
     1
 90
        0
176
     1
 40
-0.6
176
     1
 41
-30.0
176
     1
 62
     5
 63
     7
421
 16777215
176
     1
 74
     1
176
     1
 91
        4
176
     1
 64
     7
176
     1
 65
   257
176
     1
 75
     1
176
     1
175
     1
176
     1
 42
1.0
176
     1
 92
        0
176
     1
 66
   257
176
     1
 43
1.0
176
     1
 76
     1
176
     1
 77
     6
176
     1
 78
     2
176
     1
 67
     7
176
     1
 79
     5
176
     1
170
     0
176
     1
171
     0
176
     1
290
     0
176
     1
 93
        1
176
     1
 44
0.0
176
     1
173
     0
176
     1
  0
VISUALSTYLE
  5
32
102
{ACAD_REACTORS
330
2A
102
}
330
2A
100
AcDbVisualStyle
  2
Basic
 70
     7
177
     2
291
     1
 71
     1
176
     1
 72
     0
176
     1
 73
     1
176
     1
 90
        0
176
     1
 40
-0.6
176
     1
 41
-30.0
176
     1
 62
     5
 63
     7
421
 16777215
176
     1
 74
     0
176
     1
 91
        4
176
     1
 64
     7
176
     1
 65
   257
176
     1
 75
     1
176
     1
175
     1
176
     1
 42
1.0
176
     1
 92
        8
176
     1
 66
     7
176
     1
 43
1.0
176
     1
 76
     1
176
     1
 77
     6
176
     1
 78
     2
176
     1
 67
     7
176
     1
 79
     5
176
     1
170
     0
176
     1
171
     0
176
     1
290
     0
176
     1
 93
        1
176
     1
 44
0.0
176
     1
173
     0
176
     1
  0
VISUALSTYLE
  5
36
102
{ACAD_REACTORS
330
2A
102
}
330
2A
100
AcDbVisualStyle
  2
Brighten
 70
    12
177
     2
291
     1
 71
     2
176
     1
 72
     2
176
     1
 73
     0
176
     1
 90
        0
176
     1
 40
-0.6
176
     1
 41
-30.0
176
     1
 62
     5
 63
     7
421
 16777215
176
     1
 74
     1
176
     1
 91
        4
176
     1
 64
     7
176
     1
 65
   257
176
     1
 75
     1
176
     1
175
     1
176
     1
 42
1.0
176
     1
 92
        8
176
     1
 66
     7
176
     1
 43
1.0
176
     1
 76
     1
176
     1
 77
     6
176
     1
 78
     2
176
     1
 67
     7
176
     1
 79
     5
176
     1
170
     0
176
     1
171
     0
176
     1
290
     0
176
     1
 93
        1
176
     1
 44
50.0
176
     1
173
     0
176
     1
  0
VISUALSTYLE
  5
3A
102
{ACAD_REACTORS
330
2A
102
}
330
2A
100
AcDbVisualStyle
  2
ColorChange
 70
    16
177
     2
291
     1
 71
     2
176
     1
 72
     2
176
     1
 73
     3
176
     1
 90
        0
176
     1
 40
-0.6
176
     1
 41
-30.0
176
     1
 62
     5
 63
     8
421
  8421504
176
     1
 74
     1
176
     1
 91
        4
176
     1
 64
     7
176
     1
 65
   257
176
     1
 75
     1
176
     1
175
     1
176
     1
 42
1.0
176
     1
 92
        8
176
     1
 66
     8
424
  8421504
176
     1
 43
1.0
176
     1
 76
     1
176
     1
 77
     6
176
     1
 78
     2
176
     1
 67
     7
176
     1
 79
     5
176
     1
170
     0
176
     1
171
     0
176
     1
290
     0
176
     1
 93
        1
176
     1
 44
0.0
176
     1
173
     0
176
     1
  0
VISUALSTYLE
  5
34
102
{ACAD_REACTORS
330
2A
102
}
330
2A
100
AcDbVisualStyle
  2
Conceptual
 70
     9
177
     2
291
     0
 71
     3
176
     1
 72
     2
176
     1
 73
     0
176
     1
 90
        0
176
     1
 40
-0.6
176
     1
 41
-30.0
176
     1
 62
     5
 63
     7
421
 16777215
176
     1
 74
     2
176
     1
 91
        2
176
     1
 64
     7
176
     1
 65
   257
176
     1
 75
     1
176
     1
175
     1
176
     1
 42
40.0
176
     1
 92
        8
176
     1
 66
     7
176
     1
 43
1.0
176
     1
 76
     1
176
     1
 77
     6
176
     1
 78
     2
176
     1
 67
     7
176
     1
 79
     3
176
     1
170
     0
176
     1
171
     0
176
     1
290
     0
176
     1
 93
        1
176
     1
 44
0.0
176
     1
173
     0
176
     1
  0
VISUALSTYLE
  5
35
102
{ACAD_REACTORS
330
2A
102
}
330
2A
100
AcDbVisualStyle
  2
Dim
 70
    11
177
     2
291
     1
 71
     2
176
     1
 72
     2
176
     1
 73
     0
176
     1
 90
        0
176
     1
 40
-0.6
176
     1
 41
-30.0
176
     1
 62
     5
 63
     7
421
 16777215
176
     1
 74
     1
176
     1
 91
        4
176
     1
 64
     7
176
     1
 65
   257
176
     1
 75
     1
176
     1
175
     1
176
     1
 42
1.0
176
     1
 92
        8
176
     1
 66
     7
176
     1
 43
1.0
176
     1
 76
     1
176
     1
 77
     6
176
     1
 78
     2
176
     1
 67
     7
176
     1
 79
     5
176
     1
170
     0
176
     1
171
     0
176
     1
290
     0
176
     1
 93
        1
176
     1
 44
-50.0
176
     1
173
     0
176
     1
  0
VISUALSTYLE
  5
39
102
{ACAD_REACTORS
330
2A
102
}
330
2A
100
AcDbVisualStyle
  2
Facepattern
 70
    15
177
     2
291
     1
 71
     2
176
     1
 72
     2
176
     1
 73
     0
176
     1
 90
        0
176
     1
 40
-0.6
176
     1
 41
-30.0
176
     1
 62
     5
 63
     7
421
 16777215
176
     1
 74
     1
176
     1
 91
        4
176
     1
 64
     7
176
     1
 65
   257
176
     1
 75
     1
176
     1
175
     1
176
     1
 42
1.0
176
     1
 92
        8
176
     1
 66
     7
176
     1
 43
1.0
176
     1
 76
     1
176
     1
 77
     6
176
     1
 78
     2
176
     1
 67
     7
176
     1
 79
     5
176
     1
170
     0
176
     1
171
     0
176
     1
290
     0
176
     1
 93
        1
176
     1
 44
0.0
176
     1
173
     0
176
     1
  0
VISUALSTYLE
  5
2B
102
{ACAD_REACTORS
330
2A
102
}
330
2A
100
AcDbVisualStyle
  2
Flat
 70
     0
177
     2
291
     1
 71
     2
176
     1
 72
     1
176
     1
 73
     1
176
     1
 90
        2
176
     1
 40
-0.6
176
     1
 41
30.0
176
     1
 62
     5
 63
     7
421
 16777215
176
     1
 74
     0
176
     1
 91
        4
176
     1
 64
     7
176
     1
 65
   257
176
     1
 75
     1
176
     1
175
     1
176
     1
 42
1.0
176
     1
 92
        8
176
     1
 66
     7
176
     1
 43
1.0
176
     1
 76
     1
176
     1
 77
     6
176
     1
 78
     2
176
     1
 67
     7
176
     1
 79
     5
176
     1
170
     0
176
     1
171
     0
176
     1
290
     0
176
     1
 93
       13
176
     1
 44
0.0
176
     1
173
     0
176
     1
  0
VISUALSTYLE
  5
2C
102
{ACAD_REACTORS
330
2A
102
}
330
2A
100
AcDbVisualStyle
  2
FlatWithEdges
 70
     1
177
     2
291
     1
 71
     2
176
     1
 72
     1
176
     1
 73
     1
176
     1
 90
        2
176
     1
 40
-0.6
176
     1
 41
30.0
176
     1
 62
     5
 63
     7
421
 16777215
176
     1
 74
     1
176
     1
 91
        4
176
     1
 64
     7
176
     1
 65
   257
176
     1
 75
     1
176
     1
175
     1
176
     1
 42
1.0
176
     1
 92
        0
176
     1
 66
   257
176
     1
 43
1.0
176
     1
 76
     1
176
     1
 77
     6
176
     1
 78
     2
176
     1
 67
     7
176
     1
 79
     5
176
     1
170
     0
176
     1
171
     0
176
     1
290
     0
176
     1
 93
       13
176
     1
 44
0.0
176
     1
173
     0
176
     1
  0
VISUALSTYLE
  5
2D
102
{ACAD_REACTORS
330
2A
102
}
330
2A
100
AcDbVisualStyle
  2
Gouraud
 70
     2
177
     2
291
     1
 71
     2
176
     1
 72
     2
176
     1
 73
     1
176
     1
 90
        2
176
     1
 40
-0.6
176
     1
 41
30.0
176
     1
 62
     5
 63
     7
421
 16777215
176
     1
 74
     0
176
     1
 91
        4
176
     1
 64
     7
176
     1
 65
   257
176
     1
 75
     1
176
     1
175
     1
176
     1
 42
1.0
176
     1
 92
        0
176
     1
 66
     7
176
     1
 43
1.0
176
     1
 76
     1
176
     1
 77
     6
176
     1
 78
     2
176
     1
 67
     7
176
     1
 79
     5
176
     1
170
     0
176
     1
171
     0
176
     1
290
     0
176
     1
 93
       13
176
     1
 44
0.0
176
     1
173
     0
176
     1
  0
VISUALSTYLE
  5
2E
102
{ACAD_REACTORS
330
2A
102
}
330
2A
100
AcDbVisualStyle
  2
GouraudWithEdges
 70
     3
177
     2
291
     1
 71
     2
176
     1
 72
     2
176
     1
 73
     1
176
     1
 90
        2
176
     1
 40
-0.6
176
     1
 41
30.0
176
     1
 62
     5
 63
     7
421
 16777215
176
     1
 74
     1
176
     1
 91
        4
176
     1
 64
     7
176
     1
 65
   257
176
     1
 75
     1
176
     1
175
     1
176
     1
 42
1.0
176
     1
 92
        0
176
     1
 66
   257
176
     1
 43
1.0
176
     1
 76
     1
176
     1
 77
     6
176
     1
 78
     2
176
     1
 67
     7
176
     1
 79
     5
176
     1
170
     0
176
     1
171
     0
176
     1
290
     0
176
     1
 93
       13
176
     1
 44
0.0
176
     1
173
     0
176
     1
  0
VISUALSTYLE
  5
38
102
{ACAD_REACTORS
330
2A
102
}
330
2A
100
AcDbVisualStyle
  2
Linepattern
 70
    14
177
     2
291
     1
 71
     2
176
     1
 72
     2
176
     1
 73
     0
176
     1
 90
        0
176
     1
 40
-0.6
176
     1
 41
-30.0
176
     1
 62
     5
 63
     7
421
 16777215
176
     1
 74
     1
176
     1
 91
        4
176
     1
 64
     7
176
     1
 65
   257
176
     1
 75
     7
176
     1
175
     7
176
     1
 42
1.0
176
     1
 92
        8
176
     1
 66
     7
176
     1
 43
1.0
176
     1
 76
     1
176
     1
 77
     6
176
     1
 78
     2
176
     1
 67
     7
176
     1
 79
     5
176
     1
170
     0
176
     1
171
     0
176
     1
290
     0
176
     1
 93
        1
176
     1
 44
0.0
176
     1
173
     0
176
     1
  0
VISUALSTYLE
  5
33
102
{ACAD_REACTORS
330
2A
102
}
330
2A
100
AcDbVisualStyle
  2
Realistic
 70
     8
177
     2
291
     0
 71
     2
176
     1
 72
     2
176
     1
 73
     0
176
     1
 90
        0
176
     1
 40
-0.6
176
     1
 41
-30.0
176
     1
 62
     5
 63
     7
421
 16777215
176
     1
 74
     1
176
     1
 91
        0
176
     1
 64
     7
176
     1
 65
   257
176
     1
 75
     1
176
     1
175
     1
176
     1
 42
1.0
176
     1
 92
        8
176
     1
 66
     8
424
  7895160
176
     1
 43
1.0
176
     1
 76
     1
176
     1
 77
     6
176
     1
 78
     2
176
     1
 67
     7
176
     1
 79
     5
176
     1
170
     0
176
     1
171
     0
176
     1
290
     0
176
     1
 93
       13
176
     1
 44
0.0
176
     1
173
     0
176
     1
  0
VISUALSTYLE
  5
37
102
{ACAD_REACTORS
330
2A
102
}
330
2A
100
AcDbVisualStyle
  2
Thicken
 70
    13
177
     2
291
     1
 71
     2
176
     1
 72
     2
176
     1
 73
     0
176
     1
 90
        0
176
     1
 40
-0.6
176
     1
 41
-30.0
176
     1
 62
     5
 63
     7
421
 16777215
176
     1
 74
     1
176
     1
 91
        4
176
     1
 64
     7
176
     1
 65
   257
176
     1
 75
     1
176
     1
175
     1
176
     1
 42
1.0
176
     1
 92
       12
176
     1
 66
     7
176
     1
 43
1.0
176
     1
 76
     1
176
     1
 77
     6
176
     1
 78
     2
176
     1
 67
     7
176
     1
 79
     5
176
     1
170
     0
176
     1
171
     0
176
     1
290
     0
176
     1
 93
        1
176
     1
 44
0.0
176
     1
173
     0
176
     1
  0
ENDSEC
  0
EOF
