  0
SECTION
  2
HEADER
  9
$ACADVER
  1
AC1024
  9
$ACADMAINTVER
 70
     6
  9
$DWGCODEPAGE
  3
UNDEFINED
  9
$INSBASE
 10
0.0
 20
0.0
 30
0.0
  9
$EXTMIN
 10
1.000000000000000E+20
 20
1.000000000000000E+20
 30
1.000000000000000E+20
  9
$EXTMAX
 10
-1.000000000000000E+20
 20
-1.000000000000000E+20
 30
-1.000000000000000E+20
  9
$LIMMIN
 10
0.0
 20
0.0
  9
$LIMMAX
 10
12.0
 20
9.0
  9
$ORTHOMODE
 70
     0
  9
$REGENMODE
 70
     1
  9
$FILLMODE
 70
     1
  9
$QTEXTMODE
 70
     0
  9
$MIRRTEXT
 70
     1
  9
$LTSCALE
 40
1.0
  9
$ATTMODE
 70
     1
  9
$TEXTSIZE
 40
0.2
  9
$TRACEWID
 40
0.05
  9
$TEXTSTYLE
  7
Standard
  9
$CLAYER
  8
0
  9
$CELTYPE
  6
ByLayer
  9
$CECOLOR
 62
   256
  9
$CELTSCALE
 40
1.0
  9
$DISPSILH
 70
     0
  9
$DIMSCALE
 40
1.0
  9
$DIMASZ
 40
0.18
  9
$DIMEXO
 40
0.0625
  9
$DIMDLI
 40
0.38
  9
$DIMRND
 40
0.0
  9
$DIMDLE
 40
0.0
  9
$DIMEXE
 40
0.18
  9
$DIMTP
 40
0.0
  9
$DIMTM
 40
0.0
  9
$DIMTXT
 40
0.18
  9
$DIMCEN
 40
0.09
  9
$DIMTSZ
 40
0.0
  9
$DIMTOL
 70
     0
  9
$DIMLIM
 70
     0
  9
$DIMTIH
 70
     1
  9
$DIMTOH
 70
     1
  9
$DIMSE1
 70
     0
  9
$DIMSE2
 70
     0
  9
$DIMTAD
 70
     0
  9
$DIMZIN
 70
     0
  9
$DIMBLK
  1

  9
$DIMASO
 70
     1
  9
$DIMSHO
 70
     1
  9
$DIMPOST
  1

  9
$DIMAPOST
  1

  9
$DIMALT
 70
     0
  9
$DIMALTD
 70
     2
  9
$DIMALTF
 40
25.4
  9
$DIMLFAC
 40
1.0
  9
$DIMTOFL
 70
     0
  9
$DIMTVP
 40
0.0
  9
$DIMTIX
 70
     0
  9
$DIMSOXD
 70
     0
  9
$DIMSAH
 70
     0
  9
$DIMBLK1
  1

  9
$DIMBLK2
  1

  9
$DIMSTYLE
  2
Standard
  9
$DIMCLRD
 70
     0
  9
$DIMCLRE
 70
     0
  9
$DIMCLRT
 70
     0
  9
$DIMTFAC
 40
1.0
  9
$DIMGAP
 40
0.09
  9
$DIMJUST
 70
     0
  9
$DIMSD1
 70
     0
  9
$DIMSD2
 70
     0
  9
$DIMTOLJ
 70
     1
  9
$DIMTZIN
 70
     0
  9
$DIMALTZ
 70
     0
  9
$DIMALTTZ
 70
     0
  9
$DIMUPT
 70
     0
  9
$DIMDEC
 70
     4
  9
$DIMTDEC
 70
     4
  9
$DIMALTU
 70
     2
  9
$DIMALTTD
 70
     2
  9
$DIMTXSTY
  7
Standard
  9
$DIMAUNIT
 70
     0
  9
$DIMADEC
 70
     0
  9
$DIMALTRND
 40
0.0
  9
$DIMAZIN
 70
     0
  9
$DIMDSEP
 70
    46
  9
$DIMATFIT
 70
     3
  9
$DIMFRAC
 70
     0
  9
$DIMLDRBLK
  1

  9
$DIMLUNIT
 70
     2
  9
$DIMLWD
 70
    -2
  9
$DIMLWE
 70
    -2
  9
$DIMTMOVE
 70
     0
  9
$DIMFXL
 40
1.0
  9
$DIMFXLON
 70
     0
  9
$DIMJOGANG
 40
0.7853981633974483
  9
$DIMTFILL
 70
     0
  9
$DIMTFILLCLR
 70
     0
  9
$DIMARCSYM
 70
     0
  9
$DIMLTYPE
  6

  9
$DIMLTEX1
  6

  9
$DIMLTEX2
  6

  9
$DIMTXTDIRECTION
 70
     0
  9
$LUNITS
 70
     2
  9
$LUPREC
 70
     4
  9
$SKETCHINC
 40
0.1
  9
$FILLETRAD
 40
0.5
  9
$AUNITS
 70
     0
  9
$AUPREC
 70
     0
  9
$MENU
  1
.
  9
$ELEVATION
 40
0.0
  9
$PELEVATION
 40
0.0
  9
$THICKNESS
 40
0.0
  9
$LIMCHECK
 70
     0
  9
$CHAMFERA
 40
0.5
  9
$CHAMFERB
 40
0.5
  9
$CHAMFERC
 40
1.0
  9
$CHAMFERD
 40
0.0
  9
$SKPOLY
 70
     0
  9
$TDCREATE
 40
2457917.612847211
  9
$TDUCREATE
 40
2457917.237847222
  9
$TDUPDATE
 40
2457917.612847211
  9
$TDUUPDATE
 40
2457917.237847222
  9
$TDINDWG
 40
0.0000000116
  9
$TDUSRTIMER
 40
0.0000000116
  9
$USRTIMER
 70
     1
  9
$ANGBASE
 50
0.0
  9
$ANGDIR
 70
     0
  9
$PDMODE
 70
     0
  9
$PDSIZE
 40
0.0
  9
$PLINEWID
 40
0.0
  9
$SPLFRAME
 70
     0
  9
$SPLINETYPE
 70
     6
  9
$SPLINESEGS
 70
     8
  9
$HANDSEED
  5
150
  9
$SURFTAB1
 70
     6
  9
$SURFTAB2
 70
     6
  9
$SURFTYPE
 70
     6
  9
$SURFU
 70
     6
  9
$SURFV
 70
     6
  9
$UCSBASE
  2

  9
$UCSNAME
  2

  9
$UCSORG
 10
0.0
 20
0.0
 30
0.0
  9
$UCSXDIR
 10
1.0
 20
0.0
 30
0.0
  9
$UCSYDIR
 10
0.0
 20
1.0
 30
0.0
  9
$UCSORTHOREF
  2

  9
$UCSORTHOVIEW
 70
     0
  9
$UCSORGTOP
 10
0.0
 20
0.0
 30
0.0
  9
$UCSORGBOTTOM
 10
0.0
 20
0.0
 30
0.0
  9
$UCSORGLEFT
 10
0.0
 20
0.0
 30
0.0
  9
$UCSORGRIGHT
 10
0.0
 20
0.0
 30
0.0
  9
$UCSORGFRONT
 10
0.0
 20
0.0
 30
0.0
  9
$UCSORGBACK
 10
0.0
 20
0.0
 30
0.0
  9
$PUCSBASE
  2

  9
$PUCSNAME
  2

  9
$PUCSORG
 10
0.0
 20
0.0
 30
0.0
  9
$PUCSXDIR
 10
1.0
 20
0.0
 30
0.0
  9
$PUCSYDIR
 10
0.0
 20
1.0
 30
0.0
  9
$PUCSORTHOREF
  2

  9
$PUCSORTHOVIEW
 70
     0
  9
$PUCSORGTOP
 10
0.0
 20
0.0
 30
0.0
  9
$PUCSORGBOTTOM
 10
0.0
 20
0.0
 30
0.0
  9
$PUCSORGLEFT
 10
0.0
 20
0.0
 30
0.0
  9
$PUCSORGRIGHT
 10
0.0
 20
0.0
 30
0.0
  9
$PUCSORGFRONT
 10
0.0
 20
0.0
 30
0.0
  9
$PUCSORGBACK
 10
0.0
 20
0.0
 30
0.0
  9
$USERI1
 70
     0
  9
$USERI2
 70
     0
  9
$USERI3
 70
     0
  9
$USERI4
 70
     0
  9
$USERI5
 70
     0
  9
$USERR1
 40
0.0
  9
$USERR2
 40
0.0
  9
$USERR3
 40
0.0
  9
$USERR4
 40
0.0
  9
$USERR5
 40
0.0
  9
$WORLDVIEW
 70
     1
  9
$SHADEDGE
 70
     3
  9
$SHADEDIF
 70
    70
  9
$TILEMODE
 70
     1
  9
$MAXACTVP
 70
    64
  9
$PINSBASE
 10
0.0
 20
0.0
 30
0.0
  9
$PLIMCHECK
 70
     0
  9
$PEXTMIN
 10
1.000000000000000E+20
 20
1.000000000000000E+20
 30
1.000000000000000E+20
  9
$PEXTMAX
 10
-1.000000000000000E+20
 20
-1.000000000000000E+20
 30
-1.000000000000000E+20
  9
$PLIMMIN
 10
0.0
 20
0.0
  9
$PLIMMAX
 10
12.0
 20
9.0
  9
$UNITMODE
 70
     0
  9
$VISRETAIN
 70
     1
  9
$PLINEGEN
 70
     0
  9
$PSLTSCALE
 70
     1
  9
$TREEDEPTH
 70
  3020
  9
$CMLSTYLE
  2
Standard
  9
$CMLJUST
 70
     0
  9
$CMLSCALE
 40
1.0
  9
$PROXYGRAPHICS
 70
     1
  9
$MEASUREMENT
 70
     0
  9
$CELWEIGHT
370
    -1
  9
$ENDCAPS
280
     0
  9
$JOINSTYLE
280
     0
  9
$LWDISPLAY
290
     1
  9
$INSUNITS
 70
     1
  9
$HYPERLINKBASE
  1

  9
$STYLESHEET
  1

  9
$XEDIT
290
     1
  9
$CEPSNTYPE
380
     0
  9
$PSTYLEMODE
290
     1
  9
$FINGERPRINTGUID
  2
{FE973C0E-4C2D-74C8-36EA-431175160DAF}
  9
$VERSIONGUID
  2
{FAEB1C32-E019-11D5-929B-00C0DF256EC4}
  9
$EXTNAMES
290
     1
  9
$PSVPSCALE
 40
0.0
  9
$OLESTARTUP
290
     0
  9
$SORTENTS
280
   127
  9
$INDEXCTL
280
     0
  9
$HIDETEXT
280
     1
  9
$XCLIPFRAME
280
     2
  9
$HALOGAP
280
     0
  9
$OBSCOLOR
 70
   257
  9
$OBSLTYPE
280
     0
  9
$INTERSECTIONDISPLAY
280
     0
  9
$INTERSECTIONCOLOR
 70
   257
  9
$DIMASSOC
280
     2
  9
$PROJECTNAME
  1

  9
$CAMERADISPLAY
290
     0
  9
$LENSLENGTH
 40
50.0
  9
$CAMERAHEIGHT
 40
0.0
  9
$STEPSPERSEC
 40
2.0
  9
$STEPSIZE
 40
6.0
  9
$3DDWFPREC
 40
2.0
  9
$PSOLWIDTH
 40
0.25
  9
$PSOLHEIGHT
 40
4.0
  9
$LOFTANG1
 40
1.570796326794897
  9
$LOFTANG2
 40
1.570796326794897
  9
$LOFTMAG1
 40
0.0
  9
$LOFTMAG2
 40
0.0
  9
$LOFTPARAM
 70
     7
  9
$LOFTNORMALS
280
     1
  9
$LATITUDE
 40
37.795
  9
$LONGITUDE
 40
-122.394
  9
$NORTHDIRECTION
 40
0.0
  9
$TIMEZONE
 70
 -8000
  9
$LIGHTGLYPHDISPLAY
280
     1
  9
$TILEMODELIGHTSYNCH
280
     1
  9
$CMATERIAL
347
3C
  9
$SOLIDHIST
280
     1
  9
$SHOWHIST
280
     1
  9
$DWFFRAME
280
     2
  9
$DGNFRAME
280
     2
  9
$REALWORLDSCALE
290
     1
  9
$INTERFERECOLOR
 62
   256
  9
$CSHADOW
280
     0
  9
$SHADOWPLANELOCATION
 40
0.0
  0
ENDSEC
  0
SECTION
  2
CLASSES
  0
CLASS
  1
ACDBDICTIONARYWDFLT
  2
AcDbDictionaryWithDefault
  3
ObjectDBX Classes
 90
        0
 91
        4
280
     0
281
     0
  0
CLASS
  1
VISUALSTYLE
  2
AcDbVisualStyle
  3
ObjectDBX Classes
 90
     4095
 91
        4
280
     0
281
     0
  0
CLASS
  1
MATERIAL
  2
AcDbMaterial
  3
ObjectDBX Classes
 90
     1153
 91
        4
280
     0
281
     0
  0
CLASS
  1
SUN
  2
AcDbSun
  3
SCENEOE
 90
     1024
 91
        4
280
     0
281
     0
  0
ENDSEC
  0
SECTION
  2
TABLES
  0
TABLE
  2
VPORT
  5
8
330
0
100
AcDbSymbolTable
 70
     1
  0
VPORT
  5
29
330
8
100
AcDbSymbolTableRecord
100
AcDbViewportTableRecord
  2
*Active
 70
     0
 10
0.0
 20
0.0
 11
1.0
 21
1.0
 12
0.0
 22
0.0
 13
0.0
 23
0.0
 14
0.5
 24
0.5
 15
0.5
 25
0.5
 16
0.0
 26
0.0
 36
1.0
 17
91.00082462281999
 27
-128.4993055234307
 37
0.0
 40
256.9986110468615
 41
0.7081814508812795
 42
50.0
 43
0.0
 44
0.0
 50
0.0
 51
0.0
 71
     0
 72
   100
 73
     1
 74
     3
 75
     0
 76
     0
 77
     0
 78
     0
281
     0
 65
     1
110
0.0
120
0.0
130
0.0
111
1.0
121
0.0
131
0.0
112
0.0
122
1.0
132
0.0
 79
     0
146
0.0
 60
     3
 61
     5
292
     1
282
     1
141
0.0
142
0.0
 63
   250
361
3F
  0
ENDTAB
  0
TABLE
  2
LTYPE
  5
5
330
0
100
AcDbSymbolTable
 70
     1
  0
LTYPE
  5
14
330
5
100
AcDbSymbolTableRecord
100
AcDbLinetypeTableRecord
  2
ByBlock
 70
     0
  3

 72
    65
 73
     0
 40
0.0
  0
LTYPE
  5
15
330
5
100
AcDbSymbolTableRecord
100
AcDbLinetypeTableRecord
  2
ByLayer
 70
     0
  3

 72
    65
 73
     0
 40
0.0
  0
LTYPE
  5
16
330
5
100
AcDbSymbolTableRecord
100
AcDbLinetypeTableRecord
  2
Continuous
 70
     0
  3
Solid line
 72
    65
 73
     0
 40
0.0
  0
ENDTAB
  0
TABLE
  2
LAYER
  5
2
330
0
100
AcDbSymbolTable
 70
     2
  0
LAYER
  5
10
330
2
100
AcDbSymbolTableRecord
100
AcDbLayerTableRecord
  2
0
 70
     0
 62
     7
  6
Continuous
370
    -3
390
F
347
3E
  0
LAYER
  5
40
330
2
100
AcDbSymbolTableRecord
100
AcDbLayerTableRecord
  2
_U+30EC_U+30A4_U+30E4_U+30FC 1
 70
     0
 62
     7
  6
Continuous
370
    -3
390
F
347
3E
  0
ENDTAB
  0
TABLE
  2
STYLE
  5
3
330
0
100
AcDbSymbolTable
 70
     1
  0
STYLE
  5
11
330
3
100
AcDbSymbolTableRecord
100
AcDbTextStyleTableRecord
  2
Standard
 70
     0
 40
0.0
 41
1.0
 50
0.0
 71
     0
 42
0.2
  3
txt
  4

  0
ENDTAB
  0
TABLE
  2
VIEW
  5
6
330
0
100
AcDbSymbolTable
 70
     0
  0
ENDTAB
  0
TABLE
  2
UCS
  5
7
330
0
100
AcDbSymbolTable
 70
     0
  0
ENDTAB
  0
TABLE
  2
APPID
  5
9
330
0
100
AcDbSymbolTable
 70
     1
  0
APPID
  5
12
330
9
100
AcDbSymbolTableRecord
100
AcDbRegAppTableRecord
  2
ACAD
 70
     0
  0
ENDTAB
  0
TABLE
  2
DIMSTYLE
  5
A
330
0
100
AcDbSymbolTable
 70
     1
100
AcDbDimStyleTable
  0
DIMSTYLE
105
27
330
A
100
AcDbSymbolTableRecord
100
AcDbDimStyleTableRecord
  2
Standard
 70
     0
178
     0
340
11
  0
ENDTAB
  0
TABLE
  2
BLOCK_RECORD
  5
1
330
0
100
AcDbSymbolTable
 70
     7
  0
BLOCK_RECORD
  5
1F
330
1
100
AcDbSymbolTableRecord
100
AcDbBlockTableRecord
  2
*Model_Space
340
22
 70
     0
280
     1
281
     0
  0
BLOCK_RECORD
  5
1B
330
1
100
AcDbSymbolTableRecord
100
AcDbBlockTableRecord
  2
*Paper_Space
340
1E
 70
     0
280
     1
281
     0
  0
BLOCK_RECORD
  5
23
330
1
100
AcDbSymbolTableRecord
100
AcDbBlockTableRecord
  2
*Paper_Space0
340
26
 70
     0
280
     1
281
     0
  0
BLOCK_RECORD
  5
CD
330
1
100
AcDbSymbolTableRecord
100
AcDbBlockTableRecord
  2
block 2
340
0
102
{BLKREFS
331
CE
102
}
 70
     0
280
     1
281
     0
  0
BLOCK_RECORD
  5
E6
330
1
100
AcDbSymbolTableRecord
100
AcDbBlockTableRecord
  2
block 3
340
0
102
{BLKREFS
331
E7
102
}
 70
     0
280
     1
281
     0
  0
BLOCK_RECORD
  5
104
330
1
100
AcDbSymbolTableRecord
100
AcDbBlockTableRecord
  2
block 4
340
0
102
{BLKREFS
331
105
102
}
 70
     0
280
     1
281
     0
  0
BLOCK_RECORD
  5
128
330
1
100
AcDbSymbolTableRecord
100
AcDbBlockTableRecord
  2
block 5
340
0
102
{BLKREFS
331
129
102
}
 70
     0
280
     1
281
     0
  0
BLOCK_RECORD
  5
138
330
1
100
AcDbSymbolTableRecord
100
AcDbBlockTableRecord
  2
block 6
340
0
102
{BLKREFS
331
139
102
}
 70
     0
280
     1
281
     0
  0
BLOCK_RECORD
  5
146
330
1
100
AcDbSymbolTableRecord
100
AcDbBlockTableRecord
  2
block 7
340
0
102
{BLKREFS
331
147
102
}
 70
     0
280
     1
281
     0
  0
ENDTAB
  0
ENDSEC
  0
SECTION
  2
BLOCKS
  0
BLOCK
  5
20
330
1F
100
AcDbEntity
  8
0
100
AcDbBlockBegin
  2
*Model_Space
 70
     0
 10
0.0
 20
0.0
 30
0.0
  3
*Model_Space
  1

  0
ENDBLK
  5
21
330
1F
100
AcDbEntity
  8
0
100
AcDbBlockEnd
  0
BLOCK
  5
1C
330
1B
100
AcDbEntity
 67
     1
  8
0
100
AcDbBlockBegin
  2
*Paper_Space
 70
     0
 10
0.0
 20
0.0
 30
0.0
  3
*Paper_Space
  1

  0
ENDBLK
  5
1D
330
1B
100
AcDbEntity
 67
     1
  8
0
100
AcDbBlockEnd
  0
BLOCK
  5
24
330
23
100
AcDbEntity
  8
0
100
AcDbBlockBegin
  2
*Paper_Space0
 70
     0
 10
0.0
 20
0.0
 30
0.0
  3
*Paper_Space0
  1

  0
ENDBLK
  5
25
330
23
100
AcDbEntity
  8
0
100
AcDbBlockEnd
  0
BLOCK
  5
CF
330
CD
100
AcDbEntity
  8
0
100
AcDbBlockBegin
  2
block 2
 70
     0
 10
0.0
 20
0.0
 30
0.0
  3
block 2
  1

  0
SPLINE
  5
D1
330
CD
100
AcDbEntity
  8
_U+30EC_U+30A4_U+30E4_U+30FC 1
370
     0
100
AcDbSpline
210
0.0
220
0.0
230
1.0
 70
    11
 71
     3
 72
    26
 73
    22
 74
     0
 42
0.0000000001
 43
0.0000000001
 12
1.0
 22
0.0
 32
0.0
 13
1.0
 23
0.0
 33
0.0
 40
0.0
 40
0.0
 40
0.0
 40
0.0
 40
1.0
 40
1.0
 40
1.0
 40
2.0
 40
2.0
 40
2.0
 40
3.0
 40
3.0
 40
3.0
 40
4.0
 40
4.0
 40
4.0
 40
5.0
 40
5.0
 40
5.0
 40
6.0
 40
6.0
 40
6.0
 40
7.0
 40
7.0
 40
7.0
 40
7.0
 10
84.56882593371891
 20
-141.5548393743335
 30
0.0
 10
84.56882593371891
 20
-141.5548393743335
 30
0.0
 10
84.56882593371891
 20
-140.4503417617624
 30
0.0
 10
84.56882593371891
 20
-140.4503417617624
 30
0.0
 10
84.56882593371891
 20
-140.4503417617624
 30
0.0
 10
84.21604815602933
 20
-140.4503417617624
 30
0.0
 10
84.21604815602933
 20
-140.4503417617624
 30
0.0
 10
84.21604815602933
 20
-140.4503417617624
 30
0.0
 10
84.21604815602933
 20
-140.3022026558967
 30
0.0
 10
84.21604815602933
 20
-140.3022026558967
 30
0.0
 10
84.57106524578433
 20
-140.2877332548586
 30
0.0
 10
84.62084687554618
 20
-140.1244357288578
 30
0.0
 10
84.65236949923622
 20
-140.010403068296
 30
0.0
 10
84.65236949923622
 20
-140.010403068296
 30
0.0
 10
84.80843232471804
 20
-140.010403068296
 30
0.0
 10
84.80843232471804
 20
-140.010403068296
 30
0.0
 10
84.80843232471804
 20
-140.010403068296
 30
0.0
 10
84.80843232471804
 20
-141.5548393743335
 30
0.0
 10
84.80843232471804
 20
-141.5548393743335
 30
0.0
 10
84.80843232471804
 20
-141.5548393743335
 30
0.0
 10
84.56882593371891
 20
-141.5548393743335
 30
0.0
 10
84.56882593371891
 20
-141.5548393743335
 30
0.0
  0
HATCH
  5
D2
330
CD
100
AcDbEntity
  8
_U+30EC_U+30A4_U+30E4_U+30FC 1
 62
   179
420
  2234388
100
AcDbHatch
 10
0.0
 20
0.0
 30
0.0
210
0.0
220
0.0
230
1.0
  2
SOLID
 70
     1
 71
     0
 91
        1
 92
        1
 93
        1
 72
     4
 94
        3
 73
     0
 74
     1
 95
       26
 96
       22
 40
0.0
 40
0.0
 40
0.0
 40
0.0
 40
1.0
 40
1.0
 40
1.0
 40
2.0
 40
2.0
 40
2.0
 40
3.0
 40
3.0
 40
3.0
 40
4.0
 40
4.0
 40
4.0
 40
5.0
 40
5.0
 40
5.0
 40
6.0
 40
6.0
 40
6.0
 40
7.0
 40
7.0
 40
7.0
 40
7.0
 10
84.56882593371891
 20
-141.5548393743335
 10
84.56882593371891
 20
-141.5548393743335
 10
84.56882593371891
 20
-140.4503417617624
 10
84.56882593371891
 20
-140.4503417617624
 10
84.56882593371891
 20
-140.4503417617624
 10
84.21604815602933
 20
-140.4503417617624
 10
84.21604815602933
 20
-140.4503417617624
 10
84.21604815602933
 20
-140.4503417617624
 10
84.21604815602933
 20
-140.3022026558967
 10
84.21604815602933
 20
-140.3022026558967
 10
84.57106524578433
 20
-140.2877332548586
 10
84.62084687554618
 20
-140.1244357288578
 10
84.65236949923622
 20
-140.010403068296
 10
84.65236949923622
 20
-140.010403068296
 10
84.80843232471804
 20
-140.010403068296
 10
84.80843232471804
 20
-140.010403068296
 10
84.80843232471804
 20
-140.010403068296
 10
84.80843232471804
 20
-141.5548393743335
 10
84.80843232471804
 20
-141.5548393743335
 10
84.80843232471804
 20
-141.5548393743335
 10
84.56882593371891
 20
-141.5548393743335
 10
84.56882593371891
 20
-141.5548393743335
 97
        0
 97
        0
 75
     2
 76
     1
 98
        0
  0
SPLINE
  5
D3
330
CD
100
AcDbEntity
  8
_U+30EC_U+30A4_U+30E4_U+30FC 1
370
     0
100
AcDbSpline
210
0.0
220
0.0
230
1.0
 70
    11
 71
     3
 72
    29
 73
    25
 74
     0
 42
0.0000000001
 43
0.0000000001
 12
1.0
 22
0.0
 32
0.0
 13
1.0
 23
0.0
 33
0.0
 40
0.0
 40
0.0
 40
0.0
 40
0.0
 40
1.0
 40
1.0
 40
1.0
 40
2.0
 40
2.0
 40
2.0
 40
3.0
 40
3.0
 40
3.0
 40
4.0
 40
4.0
 40
4.0
 40
5.0
 40
5.0
 40
5.0
 40
6.0
 40
6.0
 40
6.0
 40
7.0
 40
7.0
 40
7.0
 40
8.0
 40
8.0
 40
8.0
 40
8.0
 10
86.30360376531647
 20
-141.3770724472946
 30
0.0
 10
86.18836532133486
 20
-141.5865342527978
 30
0.0
 10
86.00301918422842
 20
-141.6051377684182
 30
0.0
 10
85.8786512372109
 20
-141.6051377684182
 30
0.0
 10
85.70674097249693
 20
-141.6051377684182
 30
0.0
 10
85.5553290259202
 20
-141.5589734889158
 30
0.0
 10
85.45352645433107
 20
-141.3770724472946
 30
0.0
 10
85.34276663448028
 20
-141.1820800428295
 30
0.0
 10
85.32244057111731
 20
-140.9457464925414
 30
0.0
 10
85.32244057111731
 20
-140.7824489665405
 30
0.0
 10
85.32244057111731
 20
-140.6384439752571
 30
0.0
 10
85.34052732241487
 20
-140.3869520048338
 30
0.0
 10
85.45352645433107
 20
-140.1878254857864
 30
0.0
 10
85.56893715308694
 20
-139.9849093617052
 30
0.0
 10
85.74067516302664
 20
-139.961827221954
 30
0.0
 10
85.8786512372109
 20
-139.961827221954
 30
0.0
 10
86.04814993508519
 20
-139.961827221954
 30
0.0
 10
86.20197344850159
 20
-140.0059244441652
 30
0.0
 10
86.30360376531647
 20
-140.1878254857864
 30
0.0
 10
86.40988496103643
 20
-140.3807508329604
 30
0.0
 10
86.43486190330448
 20
-140.6088161540839
 30
0.0
 10
86.43486190330448
 20
-140.7824489665405
 30
0.0
 10
86.43486190330448
 20
-140.954014721706
 30
0.0
 10
86.41212427310184
 20
-141.1841471001206
 30
0.0
 10
86.30360376531647
 20
-141.3770724472946
 30
0.0
  0
SPLINE
  5
D4
330
CD
100
AcDbEntity
  8
_U+30EC_U+30A4_U+30E4_U+30FC 1
370
     0
100
AcDbSpline
210
0.0
220
0.0
230
1.0
 70
    11
 71
     3
 72
    17
 73
    13
 74
     0
 42
0.0000000001
 43
0.0000000001
 12
1.0
 22
0.0
 32
0.0
 13
1.0
 23
0.0
 33
0.0
 40
0.0
 40
0.0
 40
0.0
 40
0.0
 40
1.0
 40
1.0
 40
1.0
 40
2.0
 40
2.0
 40
2.0
 40
3.0
 40
3.0
 40
3.0
 40
4.0
 40
4.0
 40
4.0
 40
4.0
 10
85.8786512372109
 20
-140.1540635500309
 30
0.0
 10
85.6118285918783
 20
-140.1540635500309
 30
0.0
 10
85.56204696211644
 20
-140.4379394180155
 30
0.0
 10
85.56204696211644
 20
-140.7824489665405
 30
0.0
 10
85.56204696211644
 20
-141.1021538275717
 30
0.0
 10
85.60045977677697
 20
-141.4108343830501
 30
0.0
 10
85.8786512372109
 20
-141.4108343830501
 30
0.0
 10
86.14306231570382
 20
-141.4108343830501
 30
0.0
 10
86.1950832575311
 20
-141.1297145914537
 30
0.0
 10
86.1950832575311
 20
-140.7824489665405
 30
0.0
 10
86.1950832575311
 20
-140.4627441055093
 30
0.0
 10
86.15443113080515
 20
-140.1540635500309
 30
0.0
 10
85.8786512372109
 20
-140.1540635500309
 30
0.0
  0
HATCH
  5
D5
330
CD
100
AcDbEntity
  8
_U+30EC_U+30A4_U+30E4_U+30FC 1
 62
   179
420
  2234388
100
AcDbHatch
 10
0.0
 20
0.0
 30
0.0
210
0.0
220
0.0
230
1.0
  2
SOLID
 70
     1
 71
     0
 91
        2
 92
        1
 93
        1
 72
     4
 94
        3
 73
     0
 74
     1
 95
       29
 96
       25
 40
0.0
 40
0.0
 40
0.0
 40
0.0
 40
1.0
 40
1.0
 40
1.0
 40
2.0
 40
2.0
 40
2.0
 40
3.0
 40
3.0
 40
3.0
 40
4.0
 40
4.0
 40
4.0
 40
5.0
 40
5.0
 40
5.0
 40
6.0
 40
6.0
 40
6.0
 40
7.0
 40
7.0
 40
7.0
 40
8.0
 40
8.0
 40
8.0
 40
8.0
 10
86.30360376531647
 20
-141.3770724472946
 10
86.18836532133486
 20
-141.5865342527978
 10
86.00301918422842
 20
-141.6051377684182
 10
85.8786512372109
 20
-141.6051377684182
 10
85.70674097249693
 20
-141.6051377684182
 10
85.5553290259202
 20
-141.5589734889158
 10
85.45352645433107
 20
-141.3770724472946
 10
85.34276663448028
 20
-141.1820800428295
 10
85.32244057111731
 20
-140.9457464925414
 10
85.32244057111731
 20
-140.7824489665405
 10
85.32244057111731
 20
-140.6384439752571
 10
85.34052732241487
 20
-140.3869520048338
 10
85.45352645433107
 20
-140.1878254857864
 10
85.56893715308694
 20
-139.9849093617052
 10
85.74067516302664
 20
-139.961827221954
 10
85.8786512372109
 20
-139.961827221954
 10
86.04814993508519
 20
-139.961827221954
 10
86.20197344850159
 20
-140.0059244441652
 10
86.30360376531647
 20
-140.1878254857864
 10
86.40988496103643
 20
-140.3807508329604
 10
86.43486190330448
 20
-140.6088161540839
 10
86.43486190330448
 20
-140.7824489665405
 10
86.43486190330448
 20
-140.954014721706
 10
86.41212427310184
 20
-141.1841471001206
 10
86.30360376531647
 20
-141.3770724472946
 97
        0
 97
        0
 92
        1
 93
        1
 72
     4
 94
        3
 73
     0
 74
     1
 95
       17
 96
       13
 40
0.0
 40
0.0
 40
0.0
 40
0.0
 40
1.0
 40
1.0
 40
1.0
 40
2.0
 40
2.0
 40
2.0
 40
3.0
 40
3.0
 40
3.0
 40
4.0
 40
4.0
 40
4.0
 40
4.0
 10
85.8786512372109
 20
-140.1540635500309
 10
85.6118285918783
 20
-140.1540635500309
 10
85.56204696211644
 20
-140.4379394180155
 10
85.56204696211644
 20
-140.7824489665405
 10
85.56204696211644
 20
-141.1021538275717
 10
85.60045977677697
 20
-141.4108343830501
 10
85.8786512372109
 20
-141.4108343830501
 10
86.14306231570382
 20
-141.4108343830501
 10
86.1950832575311
 20
-141.1297145914537
 10
86.1950832575311
 20
-140.7824489665405
 10
86.1950832575311
 20
-140.4627441055093
 10
86.15443113080515
 20
-140.1540635500309
 10
85.8786512372109
 20
-140.1540635500309
 97
        0
 97
        0
 75
     2
 76
     1
 98
        0
  0
ENDBLK
  5
D0
330
CD
100
AcDbEntity
  8
0
100
AcDbBlockEnd
  0
BLOCK
  5
E8
330
E6
100
AcDbEntity
  8
0
100
AcDbBlockBegin
  2
block 3
 70
     0
 10
0.0
 20
0.0
 30
0.0
  3
block 3
  1

  0
SPLINE
  5
EA
330
E6
100
AcDbEntity
  8
_U+30EC_U+30A4_U+30E4_U+30FC 1
370
     0
100
AcDbSpline
210
0.0
220
0.0
230
1.0
 70
    11
 71
     3
 72
    29
 73
    25
 74
     0
 42
0.0000000001
 43
0.0000000001
 12
1.0
 22
0.0
 32
0.0
 13
1.0
 23
0.0
 33
0.0
 40
0.0
 40
0.0
 40
0.0
 40
0.0
 40
1.0
 40
1.0
 40
1.0
 40
2.0
 40
2.0
 40
2.0
 40
3.0
 40
3.0
 40
3.0
 40
4.0
 40
4.0
 40
4.0
 40
5.0
 40
5.0
 40
5.0
 40
6.0
 40
6.0
 40
6.0
 40
7.0
 40
7.0
 40
7.0
 40
8.0
 40
8.0
 40
8.0
 40
8.0
 10
110.3384846729362
 20
-122.2078721482675
 30
0.0
 10
110.5479464784394
 20
-122.3232828470233
 30
0.0
 10
110.5668945036083
 20
-122.5086289841298
 30
0.0
 10
110.5668945036083
 20
-122.6329969311473
 30
0.0
 10
110.5668945036083
 20
-122.8045626863127
 30
0.0
 10
110.5203857145574
 20
-122.9561468876637
 30
0.0
 10
110.3384846729362
 20
-123.0577772044786
 30
0.0
 10
110.1438367780196
 20
-123.1687092791037
 30
0.0
 10
109.9068142086344
 20
-123.1890353424666
 30
0.0
 10
109.7442057017306
 20
-123.1890353424666
 30
0.0
 10
109.6002007104472
 20
-123.1890353424666
 30
0.0
 10
109.3483642304754
 20
-123.1711208459433
 30
0.0
 10
109.1495822209765
 20
-123.0577772044786
 30
0.0
 10
108.9466660968953
 20
-122.9427110152713
 30
0.0
 10
108.9232394475956
 20
-122.7708007505573
 30
0.0
 10
108.9232394475956
 20
-122.6329969311473
 30
0.0
 10
108.9232394475956
 20
-122.4631537237245
 30
0.0
 10
108.9676811793553
 20
-122.3095024650823
 30
0.0
 10
109.1495822209765
 20
-122.2078721482675
 30
0.0
 10
109.342163058602
 20
-122.1014186977733
 30
0.0
 10
109.570572889274
 20
-122.0766140102795
 30
0.0
 10
109.7442057017306
 20
-122.0766140102795
 30
0.0
 10
109.9154269473475
 20
-122.0766140102795
 30
0.0
 10
110.1459038353107
 20
-122.0993516404821
 30
0.0
 10
110.3384846729362
 20
-122.2078721482675
 30
0.0
  0
SPLINE
  5
EB
330
E6
100
AcDbEntity
  8
_U+30EC_U+30A4_U+30E4_U+30FC 1
370
     0
100
AcDbSpline
210
0.0
220
0.0
230
1.0
 70
    11
 71
     3
 72
    17
 73
    13
 74
     0
 42
0.0000000001
 43
0.0000000001
 12
1.0
 22
0.0
 32
0.0
 13
1.0
 23
0.0
 33
0.0
 40
0.0
 40
0.0
 40
0.0
 40
0.0
 40
1.0
 40
1.0
 40
1.0
 40
2.0
 40
2.0
 40
2.0
 40
3.0
 40
3.0
 40
3.0
 40
4.0
 40
4.0
 40
4.0
 40
4.0
 10
109.115820285221
 20
-122.6329969311473
 30
0.0
 10
109.115820285221
 20
-122.8996473217056
 30
0.0
 10
109.3993516436571
 20
-122.9492566966932
 30
0.0
 10
109.7442057017306
 20
-122.9492566966932
 30
0.0
 10
110.0635660532133
 20
-122.9492566966932
 30
0.0
 10
110.3722466086917
 20
-122.911016136807
 30
0.0
 10
110.3722466086917
 20
-122.6329969311473
 30
0.0
 10
110.3722466086917
 20
-122.3684135978801
 30
0.0
 10
110.0911268170953
 20
-122.3163926560529
 30
0.0
 10
109.7442057017306
 20
-122.3163926560529
 30
0.0
 10
109.4245008406994
 20
-122.3163926560529
 30
0.0
 10
109.115820285221
 20
-122.3570447827788
 30
0.0
 10
109.115820285221
 20
-122.6329969311473
 30
0.0
  0
HATCH
  5
EC
330
E6
100
AcDbEntity
  8
_U+30EC_U+30A4_U+30E4_U+30FC 1
 62
   179
420
  2234388
100
AcDbHatch
 10
0.0
 20
0.0
 30
0.0
210
0.0
220
0.0
230
1.0
  2
SOLID
 70
     1
 71
     0
 91
        2
 92
        1
 93
        1
 72
     4
 94
        3
 73
     0
 74
     1
 95
       29
 96
       25
 40
0.0
 40
0.0
 40
0.0
 40
0.0
 40
1.0
 40
1.0
 40
1.0
 40
2.0
 40
2.0
 40
2.0
 40
3.0
 40
3.0
 40
3.0
 40
4.0
 40
4.0
 40
4.0
 40
5.0
 40
5.0
 40
5.0
 40
6.0
 40
6.0
 40
6.0
 40
7.0
 40
7.0
 40
7.0
 40
8.0
 40
8.0
 40
8.0
 40
8.0
 10
110.3384846729362
 20
-122.2078721482675
 10
110.5479464784394
 20
-122.3232828470233
 10
110.5668945036083
 20
-122.5086289841298
 10
110.5668945036083
 20
-122.6329969311473
 10
110.5668945036083
 20
-122.8045626863127
 10
110.5203857145574
 20
-122.9561468876637
 10
110.3384846729362
 20
-123.0577772044786
 10
110.1438367780196
 20
-123.1687092791037
 10
109.9068142086344
 20
-123.1890353424666
 10
109.7442057017306
 20
-123.1890353424666
 10
109.6002007104472
 20
-123.1890353424666
 10
109.3483642304754
 20
-123.1711208459433
 10
109.1495822209765
 20
-123.0577772044786
 10
108.9466660968953
 20
-122.9427110152713
 10
108.9232394475956
 20
-122.7708007505573
 10
108.9232394475956
 20
-122.6329969311473
 10
108.9232394475956
 20
-122.4631537237245
 10
108.9676811793553
 20
-122.3095024650823
 10
109.1495822209765
 20
-122.2078721482675
 10
109.342163058602
 20
-122.1014186977733
 10
109.570572889274
 20
-122.0766140102795
 10
109.7442057017306
 20
-122.0766140102795
 10
109.9154269473475
 20
-122.0766140102795
 10
110.1459038353107
 20
-122.0993516404821
 10
110.3384846729362
 20
-122.2078721482675
 97
        0
 97
        0
 92
        1
 93
        1
 72
     4
 94
        3
 73
     0
 74
     1
 95
       17
 96
       13
 40
0.0
 40
0.0
 40
0.0
 40
0.0
 40
1.0
 40
1.0
 40
1.0
 40
2.0
 40
2.0
 40
2.0
 40
3.0
 40
3.0
 40
3.0
 40
4.0
 40
4.0
 40
4.0
 40
4.0
 10
109.115820285221
 20
-122.6329969311473
 10
109.115820285221
 20
-122.8996473217056
 10
109.3993516436571
 20
-122.9492566966932
 10
109.7442057017306
 20
-122.9492566966932
 10
110.0635660532133
 20
-122.9492566966932
 10
110.3722466086917
 20
-122.911016136807
 10
110.3722466086917
 20
-122.6329969311473
 10
110.3722466086917
 20
-122.3684135978801
 10
110.0911268170953
 20
-122.3163926560529
 10
109.7442057017306
 20
-122.3163926560529
 10
109.4245008406994
 20
-122.3163926560529
 10
109.115820285221
 20
-122.3570447827788
 10
109.115820285221
 20
-122.6329969311473
 97
        0
 97
        0
 75
     2
 76
     1
 98
        0
  0
POLYLINE
  5
ED
330
E6
100
AcDbEntity
  8
_U+30EC_U+30A4_U+30E4_U+30FC 1
370
     0
100
AcDb2dPolyline
 66
     1
 10
0.0
 20
0.0
 30
0.0
  0
VERTEX
  5
EE
330
ED
100
AcDbEntity
  8
_U+30EC_U+30A4_U+30E4_U+30FC 1
370
     0
100
AcDbVertex
100
AcDb2dVertex
 10
110.5162515999751
 20
-121.8454481032192
 30
0.0
  0
VERTEX
  5
EF
330
ED
100
AcDbEntity
  8
_U+30EC_U+30A4_U+30E4_U+30FC 1
370
     0
100
AcDbVertex
100
AcDb2dVertex
 10
110.2644151200033
 20
-121.8454481032192
 30
0.0
  0
VERTEX
  5
F0
330
ED
100
AcDbEntity
  8
_U+30EC_U+30A4_U+30E4_U+30FC 1
370
     0
100
AcDbVertex
100
AcDb2dVertex
 10
110.2644151200033
 20
-121.5763861458212
 30
0.0
  0
VERTEX
  5
F1
330
ED
100
AcDbEntity
  8
_U+30EC_U+30A4_U+30E4_U+30FC 1
370
     0
100
AcDbVertex
100
AcDb2dVertex
 10
110.5162515999751
 20
-121.5763861458212
 30
0.0
  0
VERTEX
  5
F2
330
ED
100
AcDbEntity
  8
_U+30EC_U+30A4_U+30E4_U+30FC 1
370
     0
100
AcDbVertex
100
AcDb2dVertex
 10
110.5162515999751
 20
-121.8454481032192
 30
0.0
  0
SEQEND
  5
F3
330
ED
100
AcDbEntity
  8
_U+30EC_U+30A4_U+30E4_U+30FC 1
370
     0
  0
HATCH
  5
F4
330
E6
100
AcDbEntity
  8
_U+30EC_U+30A4_U+30E4_U+30FC 1
 62
   179
420
  2234388
100
AcDbHatch
 10
0.0
 20
0.0
 30
0.0
210
0.0
220
0.0
230
1.0
  2
SOLID
 70
     1
 71
     0
 91
        1
 92
        1
 93
        4
 72
     1
 10
110.5162515999751
 20
-121.8454481032192
 11
110.2644151200033
 21
-121.8454481032192
 72
     1
 10
110.2644151200033
 20
-121.8454481032192
 11
110.2644151200033
 21
-121.5763861458212
 72
     1
 10
110.2644151200033
 20
-121.5763861458212
 11
110.5162515999751
 21
-121.5763861458212
 72
     1
 10
110.5162515999751
 20
-121.5763861458212
 11
110.5162515999751
 21
-121.8454481032192
 97
        0
 75
     2
 76
     1
 98
        0
  0
SPLINE
  5
F5
330
E6
100
AcDbEntity
  8
_U+30EC_U+30A4_U+30E4_U+30FC 1
370
     0
100
AcDbSpline
210
0.0
220
0.0
230
1.0
 70
    11
 71
     3
 72
    32
 73
    28
 74
     0
 42
0.0000000001
 43
0.0000000001
 12
1.0
 22
0.0
 32
0.0
 13
1.0
 23
0.0
 33
0.0
 40
0.0
 40
0.0
 40
0.0
 40
0.0
 40
1.0
 40
1.0
 40
1.0
 40
2.0
 40
2.0
 40
2.0
 40
3.0
 40
3.0
 40
3.0
 40
4.0
 40
4.0
 40
4.0
 40
5.0
 40
5.0
 40
5.0
 40
6.0
 40
6.0
 40
6.0
 40
7.0
 40
7.0
 40
7.0
 40
8.0
 40
8.0
 40
8.0
 40
9.0
 40
9.0
 40
9.0
 40
9.0
 10
110.5668945036083
 20
-120.8343125782984
 30
0.0
 10
110.5668945036083
 20
-121.0196587154048
 30
0.0
 10
110.4973035748062
 20
-121.2818304818323
 30
0.0
 10
110.1651963700282
 20
-121.3224826085583
 30
0.0
 10
110.1651963700282
 20
-121.3224826085583
 30
0.0
 10
110.1651963700282
 20
-121.0944172874347
 30
0.0
 10
110.1651963700282
 20
-121.0944172874347
 30
0.0
 10
110.2244520123744
 20
-121.0830484723334
 30
0.0
 10
110.3722466086917
 20
-121.0489420270294
 30
0.0
 10
110.3722466086917
 20
-120.8319010114587
 30
0.0
 10
110.3722466086917
 20
-120.5201198700436
 30
0.0
 10
110.0425509707533
 20
-120.4794677433176
 30
0.0
 10
109.8372232798324
 20
-120.4656873613766
 30
0.0
 10
109.9174940046387
 20
-120.5628390540607
 30
0.0
 10
109.9746825896938
 20
-120.6351860592509
 30
0.0
 10
109.9746825896938
 20
-120.8298339541675
 30
0.0
 10
109.9746825896938
 20
-121.0220702822445
 30
0.0
 10
109.8689181582967
 20
-121.3452202387609
 30
0.0
 10
109.4627414005857
 20
-121.3452202387609
 30
0.0
 10
109.1433810491031
 20
-121.3452202387609
 30
0.0
 10
108.9232394475956
 20
-121.132657847321
 30
0.0
 10
108.9232394475956
 20
-120.7936604515724
 30
0.0
 10
108.9232394475956
 20
-120.2441677216751
 30
0.0
 10
109.4775553111723
 20
-120.2327989065737
 30
0.0
 10
109.6911512312578
 20
-120.2327989065737
 30
0.0
 10
109.921628119221
 20
-120.2327989065737
 30
0.0
 10
110.5668945036083
 20
-120.2531249699367
 30
0.0
 10
110.5668945036083
 20
-120.8343125782984
 30
0.0
  0
SPLINE
  5
F6
330
E6
100
AcDbEntity
  8
_U+30EC_U+30A4_U+30E4_U+30FC 1
370
     0
100
AcDbSpline
210
0.0
220
0.0
230
1.0
 70
    11
 71
     3
 72
    17
 73
    13
 74
     0
 42
0.0000000001
 43
0.0000000001
 12
1.0
 22
0.0
 32
0.0
 13
1.0
 23
0.0
 33
0.0
 40
0.0
 40
0.0
 40
0.0
 40
0.0
 40
1.0
 40
1.0
 40
1.0
 40
2.0
 40
2.0
 40
2.0
 40
3.0
 40
3.0
 40
3.0
 40
4.0
 40
4.0
 40
4.0
 40
4.0
 10
109.115820285221
 20
-120.7912488847328
 30
0.0
 10
109.115820285221
 20
-120.9180283985899
 30
0.0
 10
109.1730088702762
 20
-121.1054415929875
 30
0.0
 10
109.4586072860034
 20
-121.1054415929875
 30
0.0
 10
109.6849500593843
 20
-121.1054415929875
 30
0.0
 10
109.7800346947772
 20
-120.9562689584762
 30
0.0
 10
109.7800346947772
 20
-120.8115749480957
 30
0.0
 10
109.7800346947772
 20
-120.5314886851449
 30
0.0
 10
109.570572889274
 20
-120.4904920488704
 30
0.0
 10
109.4541286618726
 20
-120.4904920488704
 30
0.0
 10
109.2787733016734
 20
-120.4904920488704
 30
0.0
 10
109.115820285221
 20
-120.5924668752338
 30
0.0
 10
109.115820285221
 20
-120.7912488847328
 30
0.0
  0
HATCH
  5
F7
330
E6
100
AcDbEntity
  8
_U+30EC_U+30A4_U+30E4_U+30FC 1
 62
   179
420
  2234388
100
AcDbHatch
 10
0.0
 20
0.0
 30
0.0
210
0.0
220
0.0
230
1.0
  2
SOLID
 70
     1
 71
     0
 91
        2
 92
        1
 93
        1
 72
     4
 94
        3
 73
     0
 74
     1
 95
       32
 96
       28
 40
0.0
 40
0.0
 40
0.0
 40
0.0
 40
1.0
 40
1.0
 40
1.0
 40
2.0
 40
2.0
 40
2.0
 40
3.0
 40
3.0
 40
3.0
 40
4.0
 40
4.0
 40
4.0
 40
5.0
 40
5.0
 40
5.0
 40
6.0
 40
6.0
 40
6.0
 40
7.0
 40
7.0
 40
7.0
 40
8.0
 40
8.0
 40
8.0
 40
9.0
 40
9.0
 40
9.0
 40
9.0
 10
110.5668945036083
 20
-120.8343125782984
 10
110.5668945036083
 20
-121.0196587154048
 10
110.4973035748062
 20
-121.2818304818323
 10
110.1651963700282
 20
-121.3224826085583
 10
110.1651963700282
 20
-121.3224826085583
 10
110.1651963700282
 20
-121.0944172874347
 10
110.1651963700282
 20
-121.0944172874347
 10
110.2244520123744
 20
-121.0830484723334
 10
110.3722466086917
 20
-121.0489420270294
 10
110.3722466086917
 20
-120.8319010114587
 10
110.3722466086917
 20
-120.5201198700436
 10
110.0425509707533
 20
-120.4794677433176
 10
109.8372232798324
 20
-120.4656873613766
 10
109.9174940046387
 20
-120.5628390540607
 10
109.9746825896938
 20
-120.6351860592509
 10
109.9746825896938
 20
-120.8298339541675
 10
109.9746825896938
 20
-121.0220702822445
 10
109.8689181582967
 20
-121.3452202387609
 10
109.4627414005857
 20
-121.3452202387609
 10
109.1433810491031
 20
-121.3452202387609
 10
108.9232394475956
 20
-121.132657847321
 10
108.9232394475956
 20
-120.7936604515724
 10
108.9232394475956
 20
-120.2441677216751
 10
109.4775553111723
 20
-120.2327989065737
 10
109.6911512312578
 20
-120.2327989065737
 10
109.921628119221
 20
-120.2327989065737
 10
110.5668945036083
 20
-120.2531249699367
 10
110.5668945036083
 20
-120.8343125782984
 97
        0
 97
        0
 92
        1
 93
        1
 72
     4
 94
        3
 73
     0
 74
     1
 95
       17
 96
       13
 40
0.0
 40
0.0
 40
0.0
 40
0.0
 40
1.0
 40
1.0
 40
1.0
 40
2.0
 40
2.0
 40
2.0
 40
3.0
 40
3.0
 40
3.0
 40
4.0
 40
4.0
 40
4.0
 40
4.0
 10
109.115820285221
 20
-120.7912488847328
 10
109.115820285221
 20
-120.9180283985899
 10
109.1730088702762
 20
-121.1054415929875
 10
109.4586072860034
 20
-121.1054415929875
 10
109.6849500593843
 20
-121.1054415929875
 10
109.7800346947772
 20
-120.9562689584762
 10
109.7800346947772
 20
-120.8115749480957
 10
109.7800346947772
 20
-120.5314886851449
 10
109.570572889274
 20
-120.4904920488704
 10
109.4541286618726
 20
-120.4904920488704
 10
109.2787733016734
 20
-120.4904920488704
 10
109.115820285221
 20
-120.5924668752338
 10
109.115820285221
 20
-120.7912488847328
 97
        0
 97
        0
 75
     2
 76
     1
 98
        0
  0
ENDBLK
  5
E9
330
E6
100
AcDbEntity
  8
0
100
AcDbBlockEnd
  0
BLOCK
  5
106
330
104
100
AcDbEntity
  8
0
100
AcDbBlockBegin
  2
block 4
 70
     0
 10
0.0
 20
0.0
 30
0.0
  3
block 4
  1

  0
POLYLINE
  5
108
330
104
100
AcDbEntity
  8
_U+30EC_U+30A4_U+30E4_U+30FC 1
370
     0
100
AcDb2dPolyline
 66
     1
 10
0.0
 20
0.0
 30
0.0
  0
VERTEX
  5
109
330
108
100
AcDbEntity
  8
_U+30EC_U+30A4_U+30E4_U+30FC 1
370
     0
100
AcDbVertex
100
AcDb2dVertex
 10
87.97585311385673
 20
-116.3076293654543
 30
0.0
  0
VERTEX
  5
10A
330
108
100
AcDbEntity
  8
_U+30EC_U+30A4_U+30E4_U+30FC 1
370
     0
100
AcDbVertex
100
AcDb2dVertex
 10
87.97585311385673
 20
-116.654550480819
 30
0.0
  0
VERTEX
  5
10B
330
108
100
AcDbEntity
  8
_U+30EC_U+30A4_U+30E4_U+30FC 1
370
     0
100
AcDbVertex
100
AcDb2dVertex
 10
87.74296465905384
 20
-116.654550480819
 30
0.0
  0
VERTEX
  5
10C
330
108
100
AcDbEntity
  8
_U+30EC_U+30A4_U+30E4_U+30FC 1
370
     0
100
AcDbVertex
100
AcDb2dVertex
 10
87.74296465905384
 20
-116.3076293654543
 30
0.0
  0
VERTEX
  5
10D
330
108
100
AcDbEntity
  8
_U+30EC_U+30A4_U+30E4_U+30FC 1
370
     0
100
AcDbVertex
100
AcDb2dVertex
 10
87.0418877278055
 20
-116.3076293654543
 30
0.0
  0
VERTEX
  5
10E
330
108
100
AcDbEntity
  8
_U+30EC_U+30A4_U+30E4_U+30FC 1
370
     0
100
AcDbVertex
100
AcDb2dVertex
 10
87.0418877278055
 20
-116.0833536493646
 30
0.0
  0
VERTEX
  5
10F
330
108
100
AcDbEntity
  8
_U+30EC_U+30A4_U+30E4_U+30FC 1
370
     0
100
AcDbVertex
100
AcDb2dVertex
 10
87.76776934654764
 20
-115.1102864295558
 30
0.0
  0
VERTEX
  5
110
330
108
100
AcDbEntity
  8
_U+30EC_U+30A4_U+30E4_U+30FC 1
370
     0
100
AcDbVertex
100
AcDb2dVertex
 10
87.97585311385673
 20
-115.1102864295558
 30
0.0
  0
VERTEX
  5
111
330
108
100
AcDbEntity
  8
_U+30EC_U+30A4_U+30E4_U+30FC 1
370
     0
100
AcDbVertex
100
AcDb2dVertex
 10
87.97585311385673
 20
-116.1086751011812
 30
0.0
  0
VERTEX
  5
112
330
108
100
AcDbEntity
  8
_U+30EC_U+30A4_U+30E4_U+30FC 1
370
     0
100
AcDbVertex
100
AcDb2dVertex
 10
88.1973727535583
 20
-116.1086751011812
 30
0.0
  0
VERTEX
  5
113
330
108
100
AcDbEntity
  8
_U+30EC_U+30A4_U+30E4_U+30FC 1
370
     0
100
AcDbVertex
100
AcDb2dVertex
 10
88.1973727535583
 20
-116.3076293654543
 30
0.0
  0
VERTEX
  5
114
330
108
100
AcDbEntity
  8
_U+30EC_U+30A4_U+30E4_U+30FC 1
370
     0
100
AcDbVertex
100
AcDb2dVertex
 10
87.97585311385673
 20
-116.3076293654543
 30
0.0
  0
SEQEND
  5
115
330
108
100
AcDbEntity
  8
_U+30EC_U+30A4_U+30E4_U+30FC 1
370
     0
  0
POLYLINE
  5
116
330
104
100
AcDbEntity
  8
_U+30EC_U+30A4_U+30E4_U+30FC 1
370
     0
100
AcDb2dPolyline
 66
     1
 10
0.0
 20
0.0
 30
0.0
  0
VERTEX
  5
117
330
116
100
AcDbEntity
  8
_U+30EC_U+30A4_U+30E4_U+30FC 1
370
     0
100
AcDbVertex
100
AcDb2dVertex
 10
87.74296465905384
 20
-115.4529011755639
 30
0.0
  0
VERTEX
  5
118
330
116
100
AcDbEntity
  8
_U+30EC_U+30A4_U+30E4_U+30FC 1
370
     0
100
AcDbVertex
100
AcDb2dVertex
 10
87.25445011924542
 20
-116.1086751011812
 30
0.0
  0
VERTEX
  5
119
330
116
100
AcDbEntity
  8
_U+30EC_U+30A4_U+30E4_U+30FC 1
370
     0
100
AcDbVertex
100
AcDb2dVertex
 10
87.74296465905384
 20
-116.1086751011812
 30
0.0
  0
VERTEX
  5
11A
330
116
100
AcDbEntity
  8
_U+30EC_U+30A4_U+30E4_U+30FC 1
370
     0
100
AcDbVertex
100
AcDb2dVertex
 10
87.74296465905384
 20
-115.4529011755639
 30
0.0
  0
SEQEND
  5
11B
330
116
100
AcDbEntity
  8
_U+30EC_U+30A4_U+30E4_U+30FC 1
370
     0
  0
HATCH
  5
11C
330
104
100
AcDbEntity
  8
_U+30EC_U+30A4_U+30E4_U+30FC 1
 62
   179
420
  2234388
100
AcDbHatch
 10
0.0
 20
0.0
 30
0.0
210
0.0
220
0.0
230
1.0
  2
SOLID
 70
     1
 71
     0
 91
        2
 92
        1
 93
       11
 72
     1
 10
87.97585311385673
 20
-116.3076293654543
 11
87.97585311385673
 21
-116.654550480819
 72
     1
 10
87.97585311385673
 20
-116.654550480819
 11
87.74296465905384
 21
-116.654550480819
 72
     1
 10
87.74296465905384
 20
-116.654550480819
 11
87.74296465905384
 21
-116.3076293654543
 72
     1
 10
87.74296465905384
 20
-116.3076293654543
 11
87.0418877278055
 21
-116.3076293654543
 72
     1
 10
87.0418877278055
 20
-116.3076293654543
 11
87.0418877278055
 21
-116.0833536493646
 72
     1
 10
87.0418877278055
 20
-116.0833536493646
 11
87.76776934654764
 21
-115.1102864295558
 72
     1
 10
87.76776934654764
 20
-115.1102864295558
 11
87.97585311385673
 21
-115.1102864295558
 72
     1
 10
87.97585311385673
 20
-115.1102864295558
 11
87.97585311385673
 21
-116.1086751011812
 72
     1
 10
87.97585311385673
 20
-116.1086751011812
 11
88.1973727535583
 21
-116.1086751011812
 72
     1
 10
88.1973727535583
 20
-116.1086751011812
 11
88.1973727535583
 21
-116.3076293654543
 72
     1
 10
88.1973727535583
 20
-116.3076293654543
 11
87.97585311385673
 21
-116.3076293654543
 97
        0
 92
        1
 93
        3
 72
     1
 10
87.74296465905384
 20
-115.4529011755639
 11
87.25445011924542
 21
-116.1086751011812
 72
     1
 10
87.25445011924542
 20
-116.1086751011812
 11
87.74296465905384
 21
-116.1086751011812
 72
     1
 10
87.74296465905384
 20
-116.1086751011812
 11
87.74296465905384
 21
-115.4529011755639
 97
        0
 75
     2
 76
     1
 98
        0
  0
SPLINE
  5
11D
330
104
100
AcDbEntity
  8
_U+30EC_U+30A4_U+30E4_U+30FC 1
370
     0
100
AcDbSpline
210
0.0
220
0.0
230
1.0
 70
    11
 71
     3
 72
    29
 73
    25
 74
     0
 42
0.0000000001
 43
0.0000000001
 12
1.0
 22
0.0
 32
0.0
 13
1.0
 23
0.0
 33
0.0
 40
0.0
 40
0.0
 40
0.0
 40
0.0
 40
1.0
 40
1.0
 40
1.0
 40
2.0
 40
2.0
 40
2.0
 40
3.0
 40
3.0
 40
3.0
 40
4.0
 40
4.0
 40
4.0
 40
5.0
 40
5.0
 40
5.0
 40
6.0
 40
6.0
 40
6.0
 40
7.0
 40
7.0
 40
7.0
 40
8.0
 40
8.0
 40
8.0
 40
8.0
 10
89.30359291387202
 20
-116.4767835537801
 30
0.0
 10
89.18818221511616
 20
-116.6862453592833
 30
0.0
 10
89.00283607800971
 20
-116.7053656392264
 30
0.0
 10
88.87846813099219
 20
-116.7053656392264
 30
0.0
 10
88.70690237582676
 20
-116.7053656392264
 30
0.0
 10
88.55531817447576
 20
-116.6588568501756
 30
0.0
 10
88.45368785766088
 20
-116.4767835537801
 30
0.0
 10
88.34275578303584
 20
-116.2821356588635
 30
0.0
 10
88.32242971967287
 20
-116.0452853442526
 30
0.0
 10
88.32242971967287
 20
-115.8823323278003
 30
0.0
 10
88.32242971967287
 20
-115.7384995912911
 30
0.0
 10
88.3406887257447
 20
-115.4868353660936
 30
0.0
 10
88.45368785766088
 20
-115.2878811018204
 30
0.0
 10
88.56875404686824
 20
-115.0847927229649
 30
0.0
 10
88.7406643115822
 20
-115.0615383284395
 30
0.0
 10
88.87846813099219
 20
-115.0615383284395
 30
0.0
 10
89.048311338415
 20
-115.0615383284395
 30
0.0
 10
89.20196259705715
 20
-115.1059800601992
 30
0.0
 10
89.30359291387202
 20
-115.2878811018204
 30
0.0
 10
89.41004636436624
 20
-115.4804619394459
 30
0.0
 10
89.43485105186004
 20
-115.7088717701179
 30
0.0
 10
89.43485105186004
 20
-115.8823323278003
 30
0.0
 10
89.43485105186004
 20
-116.0537258281914
 30
0.0
 10
89.4121134216574
 20
-116.2843749709289
 30
0.0
 10
89.30359291387202
 20
-116.4767835537801
 30
0.0
  0
SPLINE
  5
11E
330
104
100
AcDbEntity
  8
_U+30EC_U+30A4_U+30E4_U+30FC 1
370
     0
100
AcDbSpline
210
0.0
220
0.0
230
1.0
 70
    11
 71
     3
 72
    17
 73
    13
 74
     0
 42
0.0000000001
 43
0.0000000001
 12
1.0
 22
0.0
 32
0.0
 13
1.0
 23
0.0
 33
0.0
 40
0.0
 40
0.0
 40
0.0
 40
0.0
 40
1.0
 40
1.0
 40
1.0
 40
2.0
 40
2.0
 40
2.0
 40
3.0
 40
3.0
 40
3.0
 40
4.0
 40
4.0
 40
4.0
 40
4.0
 10
88.87846813099219
 20
-115.254119166065
 30
0.0
 10
88.61181774043385
 20
-115.254119166065
 30
0.0
 10
88.56220836544625
 20
-115.537650524501
 30
0.0
 10
88.56220836544625
 20
-115.8823323278003
 30
0.0
 10
88.56220836544625
 20
-116.2018649340572
 30
0.0
 10
88.60044892533253
 20
-116.5107177443098
 30
0.0
 10
88.87846813099219
 20
-116.5107177443098
 30
0.0
 10
89.14305146425939
 20
-116.5107177443098
 30
0.0
 10
89.19507240608665
 20
-116.2292534431649
 30
0.0
 10
89.19507240608665
 20
-115.8823323278003
 30
0.0
 10
89.19507240608665
 20
-115.5629719763176
 30
0.0
 10
89.1544202793607
 20
-115.254119166065
 30
0.0
 10
88.87846813099219
 20
-115.254119166065
 30
0.0
  0
HATCH
  5
11F
330
104
100
AcDbEntity
  8
_U+30EC_U+30A4_U+30E4_U+30FC 1
 62
   179
420
  2234388
100
AcDbHatch
 10
0.0
 20
0.0
 30
0.0
210
0.0
220
0.0
230
1.0
  2
SOLID
 70
     1
 71
     0
 91
        2
 92
        1
 93
        1
 72
     4
 94
        3
 73
     0
 74
     1
 95
       29
 96
       25
 40
0.0
 40
0.0
 40
0.0
 40
0.0
 40
1.0
 40
1.0
 40
1.0
 40
2.0
 40
2.0
 40
2.0
 40
3.0
 40
3.0
 40
3.0
 40
4.0
 40
4.0
 40
4.0
 40
5.0
 40
5.0
 40
5.0
 40
6.0
 40
6.0
 40
6.0
 40
7.0
 40
7.0
 40
7.0
 40
8.0
 40
8.0
 40
8.0
 40
8.0
 10
89.30359291387202
 20
-116.4767835537801
 10
89.18818221511616
 20
-116.6862453592833
 10
89.00283607800971
 20
-116.7053656392264
 10
88.87846813099219
 20
-116.7053656392264
 10
88.70690237582676
 20
-116.7053656392264
 10
88.55531817447576
 20
-116.6588568501756
 10
88.45368785766088
 20
-116.4767835537801
 10
88.34275578303584
 20
-116.2821356588635
 10
88.32242971967287
 20
-116.0452853442526
 10
88.32242971967287
 20
-115.8823323278003
 10
88.32242971967287
 20
-115.7384995912911
 10
88.3406887257447
 20
-115.4868353660936
 10
88.45368785766088
 20
-115.2878811018204
 10
88.56875404686824
 20
-115.0847927229649
 10
88.7406643115822
 20
-115.0615383284395
 10
88.87846813099219
 20
-115.0615383284395
 10
89.048311338415
 20
-115.0615383284395
 10
89.20196259705715
 20
-115.1059800601992
 10
89.30359291387202
 20
-115.2878811018204
 10
89.41004636436624
 20
-115.4804619394459
 10
89.43485105186004
 20
-115.7088717701179
 10
89.43485105186004
 20
-115.8823323278003
 10
89.43485105186004
 20
-116.0537258281914
 10
89.4121134216574
 20
-116.2843749709289
 10
89.30359291387202
 20
-116.4767835537801
 97
        0
 97
        0
 92
        1
 93
        1
 72
     4
 94
        3
 73
     0
 74
     1
 95
       17
 96
       13
 40
0.0
 40
0.0
 40
0.0
 40
0.0
 40
1.0
 40
1.0
 40
1.0
 40
2.0
 40
2.0
 40
2.0
 40
3.0
 40
3.0
 40
3.0
 40
4.0
 40
4.0
 40
4.0
 40
4.0
 10
88.87846813099219
 20
-115.254119166065
 10
88.61181774043385
 20
-115.254119166065
 10
88.56220836544625
 20
-115.537650524501
 10
88.56220836544625
 20
-115.8823323278003
 10
88.56220836544625
 20
-116.2018649340572
 10
88.60044892533253
 20
-116.5107177443098
 10
88.87846813099219
 20
-116.5107177443098
 10
89.14305146425939
 20
-116.5107177443098
 10
89.19507240608665
 20
-116.2292534431649
 10
89.19507240608665
 20
-115.8823323278003
 10
89.19507240608665
 20
-115.5629719763176
 10
89.1544202793607
 20
-115.254119166065
 10
88.87846813099219
 20
-115.254119166065
 97
        0
 97
        0
 75
     2
 76
     1
 98
        0
  0
ENDBLK
  5
107
330
104
100
AcDbEntity
  8
0
100
AcDbBlockEnd
  0
BLOCK
  5
12A
330
128
100
AcDbEntity
  8
0
100
AcDbBlockBegin
  2
block 5
 70
     0
 10
0.0
 20
0.0
 30
0.0
  3
block 5
  1

  0
SPLINE
  5
12C
330
128
100
AcDbEntity
  8
_U+30EC_U+30A4_U+30E4_U+30FC 1
370
     0
100
AcDbSpline
210
0.0
220
0.0
230
1.0
 70
    11
 71
     3
 72
    26
 73
    22
 74
     0
 42
0.0000000001
 43
0.0000000001
 12
1.0
 22
0.0
 32
0.0
 13
1.0
 23
0.0
 33
0.0
 40
0.0
 40
0.0
 40
0.0
 40
0.0
 40
1.0
 40
1.0
 40
1.0
 40
2.0
 40
2.0
 40
2.0
 40
3.0
 40
3.0
 40
3.0
 40
4.0
 40
4.0
 40
4.0
 40
5.0
 40
5.0
 40
5.0
 40
6.0
 40
6.0
 40
6.0
 40
7.0
 40
7.0
 40
7.0
 40
7.0
 10
73.56880830409044
 20
-141.5548393743335
 30
0.0
 10
73.56880830409044
 20
-141.5548393743335
 30
0.0
 10
73.56880830409044
 20
-140.4503417617624
 30
0.0
 10
73.56880830409044
 20
-140.4503417617624
 30
0.0
 10
73.56880830409044
 20
-140.4503417617624
 30
0.0
 10
73.21603052640086
 20
-140.4503417617624
 30
0.0
 10
73.21603052640086
 20
-140.4503417617624
 30
0.0
 10
73.21603052640086
 20
-140.4503417617624
 30
0.0
 10
73.21603052640086
 20
-140.3022026558967
 30
0.0
 10
73.21603052640086
 20
-140.3022026558967
 30
0.0
 10
73.57104761615585
 20
-140.2877332548586
 30
0.0
 10
73.62082924591772
 20
-140.1244357288578
 30
0.0
 10
73.65252412438201
 20
-140.010403068296
 30
0.0
 10
73.65252412438201
 20
-140.010403068296
 30
0.0
 10
73.80841469508957
 20
-140.010403068296
 30
0.0
 10
73.80841469508957
 20
-140.010403068296
 30
0.0
 10
73.80841469508957
 20
-140.010403068296
 30
0.0
 10
73.80841469508957
 20
-141.5548393743335
 30
0.0
 10
73.80841469508957
 20
-141.5548393743335
 30
0.0
 10
73.80841469508957
 20
-141.5548393743335
 30
0.0
 10
73.56880830409044
 20
-141.5548393743335
 30
0.0
 10
73.56880830409044
 20
-141.5548393743335
 30
0.0
  0
HATCH
  5
12D
330
128
100
AcDbEntity
  8
_U+30EC_U+30A4_U+30E4_U+30FC 1
 62
   179
420
  2234388
100
AcDbHatch
 10
0.0
 20
0.0
 30
0.0
210
0.0
220
0.0
230
1.0
  2
SOLID
 70
     1
 71
     0
 91
        1
 92
        1
 93
        1
 72
     4
 94
        3
 73
     0
 74
     1
 95
       26
 96
       22
 40
0.0
 40
0.0
 40
0.0
 40
0.0
 40
1.0
 40
1.0
 40
1.0
 40
2.0
 40
2.0
 40
2.0
 40
3.0
 40
3.0
 40
3.0
 40
4.0
 40
4.0
 40
4.0
 40
5.0
 40
5.0
 40
5.0
 40
6.0
 40
6.0
 40
6.0
 40
7.0
 40
7.0
 40
7.0
 40
7.0
 10
73.56880830409044
 20
-141.5548393743335
 10
73.56880830409044
 20
-141.5548393743335
 10
73.56880830409044
 20
-140.4503417617624
 10
73.56880830409044
 20
-140.4503417617624
 10
73.56880830409044
 20
-140.4503417617624
 10
73.21603052640086
 20
-140.4503417617624
 10
73.21603052640086
 20
-140.4503417617624
 10
73.21603052640086
 20
-140.4503417617624
 10
73.21603052640086
 20
-140.3022026558967
 10
73.21603052640086
 20
-140.3022026558967
 10
73.57104761615585
 20
-140.2877332548586
 10
73.62082924591772
 20
-140.1244357288578
 10
73.65252412438201
 20
-140.010403068296
 10
73.65252412438201
 20
-140.010403068296
 10
73.80841469508957
 20
-140.010403068296
 10
73.80841469508957
 20
-140.010403068296
 10
73.80841469508957
 20
-140.010403068296
 10
73.80841469508957
 20
-141.5548393743335
 10
73.80841469508957
 20
-141.5548393743335
 10
73.80841469508957
 20
-141.5548393743335
 10
73.56880830409044
 20
-141.5548393743335
 10
73.56880830409044
 20
-141.5548393743335
 97
        0
 97
        0
 75
     2
 76
     1
 98
        0
  0
SPLINE
  5
12E
330
128
100
AcDbEntity
  8
_U+30EC_U+30A4_U+30E4_U+30FC 1
370
     0
100
AcDbSpline
210
0.0
220
0.0
230
1.0
 70
    11
 71
     3
 72
    44
 73
    40
 74
     0
 42
0.0000000001
 43
0.0000000001
 12
1.0
 22
0.0
 32
0.0
 13
1.0
 23
0.0
 33
0.0
 40
0.0
 40
0.0
 40
0.0
 40
0.0
 40
1.0
 40
1.0
 40
1.0
 40
2.0
 40
2.0
 40
2.0
 40
3.0
 40
3.0
 40
3.0
 40
4.0
 40
4.0
 40
4.0
 40
5.0
 40
5.0
 40
5.0
 40
6.0
 40
6.0
 40
6.0
 40
7.0
 40
7.0
 40
7.0
 40
8.0
 40
8.0
 40
8.0
 40
9.0
 40
9.0
 40
9.0
 40
10.0
 40
10.0
 40
10.0
 40
11.0
 40
11.0
 40
11.0
 40
12.0
 40
12.0
 40
12.0
 40
13.0
 40
13.0
 40
13.0
 40
13.0
 10
74.9780246123319
 20
-140.9726182373263
 30
0.0
 10
74.745136157529
 20
-141.1317816487448
 30
0.0
 10
74.64574515277954
 20
-141.2055066921292
 30
0.0
 10
74.59372421095226
 20
-141.3495116834126
 30
0.0
 10
74.59372421095226
 20
-141.3495116834126
 30
0.0
 10
75.4257147706401
 20
-141.3495116834126
 30
0.0
 10
75.4257147706401
 20
-141.3495116834126
 30
0.0
 10
75.4257147706401
 20
-141.3495116834126
 30
0.0
 10
75.4257147706401
 20
-141.5548393743335
 30
0.0
 10
75.4257147706401
 20
-141.5548393743335
 30
0.0
 10
75.4257147706401
 20
-141.5548393743335
 30
0.0
 10
74.32690156561966
 20
-141.5548393743335
 30
0.0
 10
74.32690156561966
 20
-141.5548393743335
 30
0.0
 10
74.36083575614938
 20
-141.1972384629646
 30
0.0
 10
74.43094344927421
 20
-141.1186902859009
 30
0.0
 10
74.84246010498731
 20
-140.8203450168783
 30
0.0
 10
75.11600068651614
 20
-140.6219075169279
 30
0.0
 10
75.18610837964097
 20
-140.5536946263199
 30
0.0
 10
75.18610837964097
 20
-140.416579826007
 30
0.0
 10
75.18610837964097
 20
-140.2980685413144
 30
0.0
 10
75.10911049554564
 20
-140.1671549128749
 30
0.0
 10
74.8989596709454
 20
-140.1671549128749
 30
0.0
 10
74.62094046528574
 20
-140.1671549128749
 30
0.0
 10
74.61181096224983
 20
-140.3972872912896
 30
0.0
 10
74.60733233811901
 20
-140.513731518691
 30
0.0
 10
74.60733233811901
 20
-140.513731518691
 30
0.0
 10
74.36772594711988
 20
-140.513731518691
 30
0.0
 10
74.36772594711988
 20
-140.513731518691
 30
0.0
 10
74.37668319538153
 20
-140.3869520048338
 30
0.0
 10
74.38805201048285
 20
-140.2746418920147
 30
0.0
 10
74.47383488806557
 20
-140.1561306073221
 30
0.0
 10
74.59148489888686
 20
-139.9955891577094
 30
0.0
 10
74.79043916316003
 20
-139.961827221954
 30
0.0
 10
74.91480711017755
 20
-139.961827221954
 30
0.0
 10
75.21091306713477
 20
-139.961827221954
 30
0.0
 10
75.43243270683634
 20
-140.1457953208663
 30
0.0
 10
75.43243270683634
 20
-140.4186468832981
 30
0.0
 10
75.43243270683634
 20
-140.6474012235187
 30
0.0
 10
75.30823701459309
 20
-140.7466199734939
 30
0.0
 10
74.9780246123319
 20
-140.9726182373263
 30
0.0
  0
HATCH
  5
12F
330
128
100
AcDbEntity
  8
_U+30EC_U+30A4_U+30E4_U+30FC 1
 62
   179
420
  2234388
100
AcDbHatch
 10
0.0
 20
0.0
 30
0.0
210
0.0
220
0.0
230
1.0
  2
SOLID
 70
     1
 71
     0
 91
        1
 92
        1
 93
        1
 72
     4
 94
        3
 73
     0
 74
     1
 95
       44
 96
       40
 40
0.0
 40
0.0
 40
0.0
 40
0.0
 40
1.0
 40
1.0
 40
1.0
 40
2.0
 40
2.0
 40
2.0
 40
3.0
 40
3.0
 40
3.0
 40
4.0
 40
4.0
 40
4.0
 40
5.0
 40
5.0
 40
5.0
 40
6.0
 40
6.0
 40
6.0
 40
7.0
 40
7.0
 40
7.0
 40
8.0
 40
8.0
 40
8.0
 40
9.0
 40
9.0
 40
9.0
 40
10.0
 40
10.0
 40
10.0
 40
11.0
 40
11.0
 40
11.0
 40
12.0
 40
12.0
 40
12.0
 40
13.0
 40
13.0
 40
13.0
 40
13.0
 10
74.9780246123319
 20
-140.9726182373263
 10
74.745136157529
 20
-141.1317816487448
 10
74.64574515277954
 20
-141.2055066921292
 10
74.59372421095226
 20
-141.3495116834126
 10
74.59372421095226
 20
-141.3495116834126
 10
75.4257147706401
 20
-141.3495116834126
 10
75.4257147706401
 20
-141.3495116834126
 10
75.4257147706401
 20
-141.3495116834126
 10
75.4257147706401
 20
-141.5548393743335
 10
75.4257147706401
 20
-141.5548393743335
 10
75.4257147706401
 20
-141.5548393743335
 10
74.32690156561966
 20
-141.5548393743335
 10
74.32690156561966
 20
-141.5548393743335
 10
74.36083575614938
 20
-141.1972384629646
 10
74.43094344927421
 20
-141.1186902859009
 10
74.84246010498731
 20
-140.8203450168783
 10
75.11600068651614
 20
-140.6219075169279
 10
75.18610837964097
 20
-140.5536946263199
 10
75.18610837964097
 20
-140.416579826007
 10
75.18610837964097
 20
-140.2980685413144
 10
75.10911049554564
 20
-140.1671549128749
 10
74.8989596709454
 20
-140.1671549128749
 10
74.62094046528574
 20
-140.1671549128749
 10
74.61181096224983
 20
-140.3972872912896
 10
74.60733233811901
 20
-140.513731518691
 10
74.60733233811901
 20
-140.513731518691
 10
74.36772594711988
 20
-140.513731518691
 10
74.36772594711988
 20
-140.513731518691
 10
74.37668319538153
 20
-140.3869520048338
 10
74.38805201048285
 20
-140.2746418920147
 10
74.47383488806557
 20
-140.1561306073221
 10
74.59148489888686
 20
-139.9955891577094
 10
74.79043916316003
 20
-139.961827221954
 10
74.91480711017755
 20
-139.961827221954
 10
75.21091306713477
 20
-139.961827221954
 10
75.43243270683634
 20
-140.1457953208663
 10
75.43243270683634
 20
-140.4186468832981
 10
75.43243270683634
 20
-140.6474012235187
 10
75.30823701459309
 20
-140.7466199734939
 10
74.9780246123319
 20
-140.9726182373263
 97
        0
 97
        0
 75
     2
 76
     1
 98
        0
  0
ENDBLK
  5
12B
330
128
100
AcDbEntity
  8
0
100
AcDbBlockEnd
  0
BLOCK
  5
13A
330
138
100
AcDbEntity
  8
0
100
AcDbBlockBegin
  2
block 6
 70
     0
 10
0.0
 20
0.0
 30
0.0
  3
block 6
  1

  0
SPLINE
  5
13C
330
138
100
AcDbEntity
  8
_U+30EC_U+30A4_U+30E4_U+30FC 1
370
     0
100
AcDbSpline
210
0.0
220
0.0
230
1.0
 70
    11
 71
     3
 72
    62
 73
    58
 74
     0
 42
0.0000000001
 43
0.0000000001
 12
1.0
 22
0.0
 32
0.0
 13
1.0
 23
0.0
 33
0.0
 40
0.0
 40
0.0
 40
0.0
 40
0.0
 40
1.0
 40
1.0
 40
1.0
 40
2.0
 40
2.0
 40
2.0
 40
3.0
 40
3.0
 40
3.0
 40
4.0
 40
4.0
 40
4.0
 40
5.0
 40
5.0
 40
5.0
 40
6.0
 40
6.0
 40
6.0
 40
7.0
 40
7.0
 40
7.0
 40
8.0
 40
8.0
 40
8.0
 40
9.0
 40
9.0
 40
9.0
 40
10.0
 40
10.0
 40
10.0
 40
11.0
 40
11.0
 40
11.0
 40
12.0
 40
12.0
 40
12.0
 40
13.0
 40
13.0
 40
13.0
 40
14.0
 40
14.0
 40
14.0
 40
15.0
 40
15.0
 40
15.0
 40
16.0
 40
16.0
 40
16.0
 40
17.0
 40
17.0
 40
17.0
 40
18.0
 40
18.0
 40
18.0
 40
19.0
 40
19.0
 40
19.0
 40
19.0
 10
110.5672390131568
 20
-136.7093125743296
 30
0.0
 10
110.5672390131568
 20
-136.8109428911445
 30
0.0
 10
110.5462239306968
 20
-137.0438313459474
 30
0.0
 10
110.3601887744933
 20
-137.1771565412265
 30
0.0
 10
110.2478786616742
 20
-137.2563937373873
 30
0.0
 10
110.148659911699
 20
-137.2608723615181
 30
0.0
 10
110.0639105627618
 20
-137.265350985649
 30
0.0
 10
110.0639105627618
 20
-137.265350985649
 30
0.0
 10
110.0639105627618
 20
-137.0303954735549
 30
0.0
 10
110.0639105627618
 20
-137.0303954735549
 30
0.0
 10
110.1379801156947
 20
-137.0279839067152
 30
0.0
 10
110.3725911182402
 20
-137.0166150916139
 30
0.0
 10
110.3725911182402
 20
-136.7137911984605
 30
0.0
 10
110.3725911182402
 20
-136.5666856212403
 30
0.0
 10
110.3030001894381
 20
-136.4040771143365
 30
0.0
 10
110.0745903587661
 20
-136.4040771143365
 30
0.0
 10
109.9581461313646
 20
-136.4040771143365
 30
0.0
 10
109.9095702850226
 20
-136.4447292410624
 30
0.0
 10
109.8778754065583
 20
-136.4788356863664
 30
0.0
 10
109.8038058536254
 20
-136.5577283729786
 30
0.0
 10
109.79105900033
 20
-136.6820963199962
 30
0.0
 10
109.79105900033
 20
-136.7410074527939
 30
0.0
 10
109.79105900033
 20
-136.7613335161569
 30
0.0
 10
109.7931260576212
 20
-136.7995740760432
 30
0.0
 10
109.7972601722035
 20
-136.8292018972163
 30
0.0
 10
109.7972601722035
 20
-136.8292018972163
 30
0.0
 10
109.6026122772869
 20
-136.8292018972163
 30
0.0
 10
109.6026122772869
 20
-136.8292018972163
 30
0.0
 10
109.6091579587088
 20
-136.7885497704904
 30
0.0
 10
109.611225016
 20
-136.7430745100851
 30
0.0
 10
109.611225016
 20
-136.7365288286631
 30
0.0
 10
109.611225016
 20
-136.666248880764
 30
0.0
 10
109.5898654239914
 20
-136.4536864893241
 30
0.0
 10
109.3531873641548
 20
-136.4536864893241
 30
0.0
 10
109.1754204371159
 20
-136.4536864893241
 30
0.0
 10
109.1202989093519
 20
-136.5939018755737
 30
0.0
 10
109.1202989093519
 20
-136.7113796316208
 30
0.0
 10
109.1202989093519
 20
-136.9942219709598
 30
0.0
 10
109.3531873641548
 20
-137.0031792192214
 30
0.0
 10
109.424845350248
 20
-137.0076578433523
 30
0.0
 10
109.424845350248
 20
-137.0076578433523
 30
0.0
 10
109.424845350248
 20
-137.224698858923
 30
0.0
 10
109.424845350248
 20
-137.224698858923
 30
0.0
 10
109.3001328936819
 20
-137.2157416106614
 30
0.0
 10
108.9235839571441
 20
-137.1864582990367
 30
0.0
 10
108.9235839571441
 20
-136.6979437592283
 30
0.0
 10
108.9235839571441
 20
-136.4581651134549
 30
0.0
 10
109.0507079805498
 20
-136.2004719711582
 30
0.0
 10
109.3466416827328
 20
-136.2004719711582
 30
0.0
 10
109.5330213484848
 20
-136.2004719711582
 30
0.0
 10
109.6153591305823
 20
-136.3024467975216
 30
0.0
 10
109.6766818302197
 20
-136.4085557384673
 30
0.0
 10
109.7042425941017
 20
-136.3430989242476
 30
0.0
 10
109.784513318908
 20
-136.1484510293309
 30
0.0
 10
110.0618435054707
 20
-136.1484510293309
 30
0.0
 10
110.4001518821222
 20
-136.1484510293309
 30
0.0
 10
110.5672390131568
 20
-136.4130343625981
 30
0.0
 10
110.5672390131568
 20
-136.7093125743296
 30
0.0
  0
HATCH
  5
13D
330
138
100
AcDbEntity
  8
_U+30EC_U+30A4_U+30E4_U+30FC 1
 62
   179
420
  2234388
100
AcDbHatch
 10
0.0
 20
0.0
 30
0.0
210
0.0
220
0.0
230
1.0
  2
SOLID
 70
     1
 71
     0
 91
        1
 92
        1
 93
        1
 72
     4
 94
        3
 73
     0
 74
     1
 95
       62
 96
       58
 40
0.0
 40
0.0
 40
0.0
 40
0.0
 40
1.0
 40
1.0
 40
1.0
 40
2.0
 40
2.0
 40
2.0
 40
3.0
 40
3.0
 40
3.0
 40
4.0
 40
4.0
 40
4.0
 40
5.0
 40
5.0
 40
5.0
 40
6.0
 40
6.0
 40
6.0
 40
7.0
 40
7.0
 40
7.0
 40
8.0
 40
8.0
 40
8.0
 40
9.0
 40
9.0
 40
9.0
 40
10.0
 40
10.0
 40
10.0
 40
11.0
 40
11.0
 40
11.0
 40
12.0
 40
12.0
 40
12.0
 40
13.0
 40
13.0
 40
13.0
 40
14.0
 40
14.0
 40
14.0
 40
15.0
 40
15.0
 40
15.0
 40
16.0
 40
16.0
 40
16.0
 40
17.0
 40
17.0
 40
17.0
 40
18.0
 40
18.0
 40
18.0
 40
19.0
 40
19.0
 40
19.0
 40
19.0
 10
110.5672390131568
 20
-136.7093125743296
 10
110.5672390131568
 20
-136.8109428911445
 10
110.5462239306968
 20
-137.0438313459474
 10
110.3601887744933
 20
-137.1771565412265
 10
110.2478786616742
 20
-137.2563937373873
 10
110.148659911699
 20
-137.2608723615181
 10
110.0639105627618
 20
-137.265350985649
 10
110.0639105627618
 20
-137.265350985649
 10
110.0639105627618
 20
-137.0303954735549
 10
110.0639105627618
 20
-137.0303954735549
 10
110.1379801156947
 20
-137.0279839067152
 10
110.3725911182402
 20
-137.0166150916139
 10
110.3725911182402
 20
-136.7137911984605
 10
110.3725911182402
 20
-136.5666856212403
 10
110.3030001894381
 20
-136.4040771143365
 10
110.0745903587661
 20
-136.4040771143365
 10
109.9581461313646
 20
-136.4040771143365
 10
109.9095702850226
 20
-136.4447292410624
 10
109.8778754065583
 20
-136.4788356863664
 10
109.8038058536254
 20
-136.5577283729786
 10
109.79105900033
 20
-136.6820963199962
 10
109.79105900033
 20
-136.7410074527939
 10
109.79105900033
 20
-136.7613335161569
 10
109.7931260576212
 20
-136.7995740760432
 10
109.7972601722035
 20
-136.8292018972163
 10
109.7972601722035
 20
-136.8292018972163
 10
109.6026122772869
 20
-136.8292018972163
 10
109.6026122772869
 20
-136.8292018972163
 10
109.6091579587088
 20
-136.7885497704904
 10
109.611225016
 20
-136.7430745100851
 10
109.611225016
 20
-136.7365288286631
 10
109.611225016
 20
-136.666248880764
 10
109.5898654239914
 20
-136.4536864893241
 10
109.3531873641548
 20
-136.4536864893241
 10
109.1754204371159
 20
-136.4536864893241
 10
109.1202989093519
 20
-136.5939018755737
 10
109.1202989093519
 20
-136.7113796316208
 10
109.1202989093519
 20
-136.9942219709598
 10
109.3531873641548
 20
-137.0031792192214
 10
109.424845350248
 20
-137.0076578433523
 10
109.424845350248
 20
-137.0076578433523
 10
109.424845350248
 20
-137.224698858923
 10
109.424845350248
 20
-137.224698858923
 10
109.3001328936819
 20
-137.2157416106614
 10
108.9235839571441
 20
-137.1864582990367
 10
108.9235839571441
 20
-136.6979437592283
 10
108.9235839571441
 20
-136.4581651134549
 10
109.0507079805498
 20
-136.2004719711582
 10
109.3466416827328
 20
-136.2004719711582
 10
109.5330213484848
 20
-136.2004719711582
 10
109.6153591305823
 20
-136.3024467975216
 10
109.6766818302197
 20
-136.4085557384673
 10
109.7042425941017
 20
-136.3430989242476
 10
109.784513318908
 20
-136.1484510293309
 10
110.0618435054707
 20
-136.1484510293309
 10
110.4001518821222
 20
-136.1484510293309
 10
110.5672390131568
 20
-136.4130343625981
 10
110.5672390131568
 20
-136.7093125743296
 97
        0
 97
        0
 75
     2
 76
     1
 98
        0
  0
ENDBLK
  5
13B
330
138
100
AcDbEntity
  8
0
100
AcDbBlockEnd
  0
BLOCK
  5
148
330
146
100
AcDbEntity
  8
0
100
AcDbBlockBegin
  2
block 7
 70
     0
 10
0.0
 20
0.0
 30
0.0
  3
block 7
  1

  0
SPLINE
  5
14A
330
146
100
AcDbEntity
  8
_U+30EC_U+30A4_U+30E4_U+30FC 1
370
     0
100
AcDbSpline
210
0.0
220
0.0
230
1.0
 70
    11
 71
     3
 72
    26
 73
    22
 74
     0
 42
0.0000000001
 43
0.0000000001
 12
1.0
 22
0.0
 32
0.0
 13
1.0
 23
0.0
 33
0.0
 40
0.0
 40
0.0
 40
0.0
 40
0.0
 40
1.0
 40
1.0
 40
1.0
 40
2.0
 40
2.0
 40
2.0
 40
3.0
 40
3.0
 40
3.0
 40
4.0
 40
4.0
 40
4.0
 40
5.0
 40
5.0
 40
5.0
 40
6.0
 40
6.0
 40
6.0
 40
7.0
 40
7.0
 40
7.0
 40
7.0
 10
110.5165961095236
 20
-129.3815944772032
 30
0.0
 10
110.5165961095236
 20
-129.3815944772032
 30
0.0
 10
109.4124430065011
 20
-129.3815944772032
 30
0.0
 10
109.4124430065011
 20
-129.3815944772032
 30
0.0
 10
109.4124430065011
 20
-129.3815944772032
 30
0.0
 10
109.4124430065011
 20
-129.7340277453443
 30
0.0
 10
109.4124430065011
 20
-129.7340277453443
 30
0.0
 10
109.4124430065011
 20
-129.7340277453443
 30
0.0
 10
109.2643039006353
 20
-129.7340277453443
 30
0.0
 10
109.2643039006353
 20
-129.7340277453443
 30
0.0
 10
109.2494899900487
 20
-129.3791829103635
 30
0.0
 10
109.0865369735964
 20
-129.3295735353759
 30
0.0
 10
108.9721598034861
 20
-129.2978786569116
 30
0.0
 10
108.9721598034861
 20
-129.2978786569116
 30
0.0
 10
108.9721598034861
 20
-129.1418158314298
 30
0.0
 10
108.9721598034861
 20
-129.1418158314298
 30
0.0
 10
108.9721598034861
 20
-129.1418158314298
 30
0.0
 10
110.5165961095236
 20
-129.1418158314298
 30
0.0
 10
110.5165961095236
 20
-129.1418158314298
 30
0.0
 10
110.5165961095236
 20
-129.1418158314298
 30
0.0
 10
110.5165961095236
 20
-129.3815944772032
 30
0.0
 10
110.5165961095236
 20
-129.3815944772032
 30
0.0
  0
HATCH
  5
14B
330
146
100
AcDbEntity
  8
_U+30EC_U+30A4_U+30E4_U+30FC 1
 62
   179
420
  2234388
100
AcDbHatch
 10
0.0
 20
0.0
 30
0.0
210
0.0
220
0.0
230
1.0
  2
SOLID
 70
     1
 71
     0
 91
        1
 92
        1
 93
        1
 72
     4
 94
        3
 73
     0
 74
     1
 95
       26
 96
       22
 40
0.0
 40
0.0
 40
0.0
 40
0.0
 40
1.0
 40
1.0
 40
1.0
 40
2.0
 40
2.0
 40
2.0
 40
3.0
 40
3.0
 40
3.0
 40
4.0
 40
4.0
 40
4.0
 40
5.0
 40
5.0
 40
5.0
 40
6.0
 40
6.0
 40
6.0
 40
7.0
 40
7.0
 40
7.0
 40
7.0
 10
110.5165961095236
 20
-129.3815944772032
 10
110.5165961095236
 20
-129.3815944772032
 10
109.4124430065011
 20
-129.3815944772032
 10
109.4124430065011
 20
-129.3815944772032
 10
109.4124430065011
 20
-129.3815944772032
 10
109.4124430065011
 20
-129.7340277453443
 10
109.4124430065011
 20
-129.7340277453443
 10
109.4124430065011
 20
-129.7340277453443
 10
109.2643039006353
 20
-129.7340277453443
 10
109.2643039006353
 20
-129.7340277453443
 10
109.2494899900487
 20
-129.3791829103635
 10
109.0865369735964
 20
-129.3295735353759
 10
108.9721598034861
 20
-129.2978786569116
 10
108.9721598034861
 20
-129.2978786569116
 10
108.9721598034861
 20
-129.1418158314298
 10
108.9721598034861
 20
-129.1418158314298
 10
108.9721598034861
 20
-129.1418158314298
 10
110.5165961095236
 20
-129.1418158314298
 10
110.5165961095236
 20
-129.1418158314298
 10
110.5165961095236
 20
-129.1418158314298
 10
110.5165961095236
 20
-129.3815944772032
 10
110.5165961095236
 20
-129.3815944772032
 97
        0
 97
        0
 75
     2
 76
     1
 98
        0
  0
SPLINE
  5
14C
330
146
100
AcDbEntity
  8
_U+30EC_U+30A4_U+30E4_U+30FC 1
370
     0
100
AcDbSpline
210
0.0
220
0.0
230
1.0
 70
    11
 71
     3
 72
    62
 73
    58
 74
     0
 42
0.0000000001
 43
0.0000000001
 12
1.0
 22
0.0
 32
0.0
 13
1.0
 23
0.0
 33
0.0
 40
0.0
 40
0.0
 40
0.0
 40
0.0
 40
1.0
 40
1.0
 40
1.0
 40
2.0
 40
2.0
 40
2.0
 40
3.0
 40
3.0
 40
3.0
 40
4.0
 40
4.0
 40
4.0
 40
5.0
 40
5.0
 40
5.0
 40
6.0
 40
6.0
 40
6.0
 40
7.0
 40
7.0
 40
7.0
 40
8.0
 40
8.0
 40
8.0
 40
9.0
 40
9.0
 40
9.0
 40
10.0
 40
10.0
 40
10.0
 40
11.0
 40
11.0
 40
11.0
 40
12.0
 40
12.0
 40
12.0
 40
13.0
 40
13.0
 40
13.0
 40
14.0
 40
14.0
 40
14.0
 40
15.0
 40
15.0
 40
15.0
 40
16.0
 40
16.0
 40
16.0
 40
17.0
 40
17.0
 40
17.0
 40
18.0
 40
18.0
 40
18.0
 40
19.0
 40
19.0
 40
19.0
 40
19.0
 10
110.5672390131568
 20
-128.0807264219729
 30
0.0
 10
110.5672390131568
 20
-128.1823567387877
 30
0.0
 10
110.5462239306968
 20
-128.4152451935906
 30
0.0
 10
110.3601887744933
 20
-128.5485703888698
 30
0.0
 10
110.2478786616742
 20
-128.6278075850306
 30
0.0
 10
110.148659911699
 20
-128.6322862091614
 30
0.0
 10
110.0639105627618
 20
-128.6367648332922
 30
0.0
 10
110.0639105627618
 20
-128.6367648332922
 30
0.0
 10
110.0639105627618
 20
-128.4018093211982
 30
0.0
 10
110.0639105627618
 20
-128.4018093211982
 30
0.0
 10
110.1379801156947
 20
-128.3993977543585
 30
0.0
 10
110.3725911182402
 20
-128.3880289392572
 30
0.0
 10
110.3725911182402
 20
-128.0852050461037
 30
0.0
 10
110.3725911182402
 20
-127.9380994688835
 30
0.0
 10
110.3030001894381
 20
-127.7754909619797
 30
0.0
 10
110.0745903587661
 20
-127.7754909619797
 30
0.0
 10
109.9581461313646
 20
-127.7754909619797
 30
0.0
 10
109.9095702850226
 20
-127.8161430887057
 30
0.0
 10
109.8778754065583
 20
-127.8502495340097
 30
0.0
 10
109.8038058536254
 20
-127.9291422206219
 30
0.0
 10
109.79105900033
 20
-128.0535101676394
 30
0.0
 10
109.79105900033
 20
-128.1124213004372
 30
0.0
 10
109.79105900033
 20
-128.1327473638001
 30
0.0
 10
109.7931260576212
 20
-128.1709879236864
 30
0.0
 10
109.7972601722035
 20
-128.2006157448596
 30
0.0
 10
109.7972601722035
 20
-128.2006157448596
 30
0.0
 10
109.6026122772869
 20
-128.2006157448596
 30
0.0
 10
109.6026122772869
 20
-128.2006157448596
 30
0.0
 10
109.6091579587088
 20
-128.1599636181336
 30
0.0
 10
109.611225016
 20
-128.1144883577283
 30
0.0
 10
109.611225016
 20
-128.1079426763064
 30
0.0
 10
109.611225016
 20
-128.0376627284073
 30
0.0
 10
109.5898654239914
 20
-127.8251003369673
 30
0.0
 10
109.3531873641548
 20
-127.8251003369673
 30
0.0
 10
109.1754204371159
 20
-127.8251003369673
 30
0.0
 10
109.1202989093519
 20
-127.965315723217
 30
0.0
 10
109.1202989093519
 20
-128.082793479264
 30
0.0
 10
109.1202989093519
 20
-128.365635818603
 30
0.0
 10
109.3531873641548
 20
-128.3745930668647
 30
0.0
 10
109.424845350248
 20
-128.3790716909955
 30
0.0
 10
109.424845350248
 20
-128.3790716909955
 30
0.0
 10
109.424845350248
 20
-128.5961127065663
 30
0.0
 10
109.424845350248
 20
-128.5961127065663
 30
0.0
 10
109.3001328936819
 20
-128.5871554583046
 30
0.0
 10
108.9235839571441
 20
-128.55787214668
 30
0.0
 10
108.9235839571441
 20
-128.0693576068716
 30
0.0
 10
108.9235839571441
 20
-127.8295789610982
 30
0.0
 10
109.0507079805498
 20
-127.5718858188015
 30
0.0
 10
109.3466416827328
 20
-127.5718858188015
 30
0.0
 10
109.5330213484848
 20
-127.5718858188015
 30
0.0
 10
109.6153591305823
 20
-127.6738606451649
 30
0.0
 10
109.6766818302197
 20
-127.7799695861106
 30
0.0
 10
109.7042425941017
 20
-127.7145127718908
 30
0.0
 10
109.784513318908
 20
-127.5198648769742
 30
0.0
 10
110.0618435054707
 20
-127.5198648769742
 30
0.0
 10
110.4001518821222
 20
-127.5198648769742
 30
0.0
 10
110.5672390131568
 20
-127.7844482102414
 30
0.0
 10
110.5672390131568
 20
-128.0807264219729
 30
0.0
  0
HATCH
  5
14D
330
146
100
AcDbEntity
  8
_U+30EC_U+30A4_U+30E4_U+30FC 1
 62
   179
420
  2234388
100
AcDbHatch
 10
0.0
 20
0.0
 30
0.0
210
0.0
220
0.0
230
1.0
  2
SOLID
 70
     1
 71
     0
 91
        1
 92
        1
 93
        1
 72
     4
 94
        3
 73
     0
 74
     1
 95
       62
 96
       58
 40
0.0
 40
0.0
 40
0.0
 40
0.0
 40
1.0
 40
1.0
 40
1.0
 40
2.0
 40
2.0
 40
2.0
 40
3.0
 40
3.0
 40
3.0
 40
4.0
 40
4.0
 40
4.0
 40
5.0
 40
5.0
 40
5.0
 40
6.0
 40
6.0
 40
6.0
 40
7.0
 40
7.0
 40
7.0
 40
8.0
 40
8.0
 40
8.0
 40
9.0
 40
9.0
 40
9.0
 40
10.0
 40
10.0
 40
10.0
 40
11.0
 40
11.0
 40
11.0
 40
12.0
 40
12.0
 40
12.0
 40
13.0
 40
13.0
 40
13.0
 40
14.0
 40
14.0
 40
14.0
 40
15.0
 40
15.0
 40
15.0
 40
16.0
 40
16.0
 40
16.0
 40
17.0
 40
17.0
 40
17.0
 40
18.0
 40
18.0
 40
18.0
 40
19.0
 40
19.0
 40
19.0
 40
19.0
 10
110.5672390131568
 20
-128.0807264219729
 10
110.5672390131568
 20
-128.1823567387877
 10
110.5462239306968
 20
-128.4152451935906
 10
110.3601887744933
 20
-128.5485703888698
 10
110.2478786616742
 20
-128.6278075850306
 10
110.148659911699
 20
-128.6322862091614
 10
110.0639105627618
 20
-128.6367648332922
 10
110.0639105627618
 20
-128.6367648332922
 10
110.0639105627618
 20
-128.4018093211982
 10
110.0639105627618
 20
-128.4018093211982
 10
110.1379801156947
 20
-128.3993977543585
 10
110.3725911182402
 20
-128.3880289392572
 10
110.3725911182402
 20
-128.0852050461037
 10
110.3725911182402
 20
-127.9380994688835
 10
110.3030001894381
 20
-127.7754909619797
 10
110.0745903587661
 20
-127.7754909619797
 10
109.9581461313646
 20
-127.7754909619797
 10
109.9095702850226
 20
-127.8161430887057
 10
109.8778754065583
 20
-127.8502495340097
 10
109.8038058536254
 20
-127.9291422206219
 10
109.79105900033
 20
-128.0535101676394
 10
109.79105900033
 20
-128.1124213004372
 10
109.79105900033
 20
-128.1327473638001
 10
109.7931260576212
 20
-128.1709879236864
 10
109.7972601722035
 20
-128.2006157448596
 10
109.7972601722035
 20
-128.2006157448596
 10
109.6026122772869
 20
-128.2006157448596
 10
109.6026122772869
 20
-128.2006157448596
 10
109.6091579587088
 20
-128.1599636181336
 10
109.611225016
 20
-128.1144883577283
 10
109.611225016
 20
-128.1079426763064
 10
109.611225016
 20
-128.0376627284073
 10
109.5898654239914
 20
-127.8251003369673
 10
109.3531873641548
 20
-127.8251003369673
 10
109.1754204371159
 20
-127.8251003369673
 10
109.1202989093519
 20
-127.965315723217
 10
109.1202989093519
 20
-128.082793479264
 10
109.1202989093519
 20
-128.365635818603
 10
109.3531873641548
 20
-128.3745930668647
 10
109.424845350248
 20
-128.3790716909955
 10
109.424845350248
 20
-128.3790716909955
 10
109.424845350248
 20
-128.5961127065663
 10
109.424845350248
 20
-128.5961127065663
 10
109.3001328936819
 20
-128.5871554583046
 10
108.9235839571441
 20
-128.55787214668
 10
108.9235839571441
 20
-128.0693576068716
 10
108.9235839571441
 20
-127.8295789610982
 10
109.0507079805498
 20
-127.5718858188015
 10
109.3466416827328
 20
-127.5718858188015
 10
109.5330213484848
 20
-127.5718858188015
 10
109.6153591305823
 20
-127.6738606451649
 10
109.6766818302197
 20
-127.7799695861106
 10
109.7042425941017
 20
-127.7145127718908
 10
109.784513318908
 20
-127.5198648769742
 10
110.0618435054707
 20
-127.5198648769742
 10
110.4001518821222
 20
-127.5198648769742
 10
110.5672390131568
 20
-127.7844482102414
 10
110.5672390131568
 20
-128.0807264219729
 97
        0
 97
        0
 75
     2
 76
     1
 98
        0
  0
ENDBLK
  5
149
330
146
100
AcDbEntity
  8
0
100
AcDbBlockEnd
  0
ENDSEC
  0
SECTION
  2
ENTITIES
  0
POLYLINE
  5
41
330
1F
100
AcDbEntity
  8
_U+30EC_U+30A4_U+30E4_U+30FC 1
370
     0
100
AcDb2dPolyline
 66
     1
 10
0.0
 20
0.0
 30
0.0
  0
VERTEX
  5
42
330
41
100
AcDbEntity
  8
_U+30EC_U+30A4_U+30E4_U+30FC 1
370
     0
100
AcDbVertex
100
AcDb2dVertex
 10
68.24976298102571
 20
-122.2001055250056
 30
0.0
  0
VERTEX
  5
43
330
41
100
AcDbEntity
  8
_U+30EC_U+30A4_U+30E4_U+30FC 1
370
     0
100
AcDbVertex
100
AcDb2dVertex
 10
80.24971045265931
 20
-122.2001055250056
 30
0.0
  0
VERTEX
  5
44
330
41
100
AcDbEntity
  8
_U+30EC_U+30A4_U+30E4_U+30FC 1
370
     0
100
AcDbVertex
100
AcDb2dVertex
 10
80.24971045265931
 20
-138.1999888543388
 30
0.0
  0
VERTEX
  5
45
330
41
100
AcDbEntity
  8
_U+30EC_U+30A4_U+30E4_U+30FC 1
370
     0
100
AcDbVertex
100
AcDb2dVertex
 10
90.24944325310044
 20
-138.1999888543388
 30
0.0
  0
VERTEX
  5
46
330
41
100
AcDbEntity
  8
_U+30EC_U+30A4_U+30E4_U+30FC 1
370
     0
100
AcDbVertex
100
AcDb2dVertex
 10
90.24944325310044
 20
-135.2000019106444
 30
0.0
  0
VERTEX
  5
47
330
41
100
AcDbEntity
  8
_U+30EC_U+30A4_U+30E4_U+30FC 1
370
     0
100
AcDbVertex
100
AcDb2dVertex
 10
89.24967105638453
 20
-135.2000019106444
 30
0.0
  0
VERTEX
  5
48
330
41
100
AcDbEntity
  8
_U+30EC_U+30A4_U+30E4_U+30FC 1
370
     0
100
AcDbVertex
100
AcDb2dVertex
 10
89.24967105638453
 20
-137.2002519101444
 30
0.0
  0
VERTEX
  5
49
330
41
100
AcDbEntity
  8
_U+30EC_U+30A4_U+30E4_U+30FC 1
370
     0
100
AcDbVertex
100
AcDb2dVertex
 10
81.1495759852574
 20
-137.2002519101444
 30
0.0
  0
VERTEX
  5
4A
330
41
100
AcDbEntity
  8
_U+30EC_U+30A4_U+30E4_U+30FC 1
370
     0
100
AcDbVertex
100
AcDb2dVertex
 10
81.1495759852574
 20
-122.2001055250056
 30
0.0
  0
VERTEX
  5
4B
330
41
100
AcDbEntity
  8
_U+30EC_U+30A4_U+30E4_U+30FC 1
370
     0
100
AcDbVertex
100
AcDb2dVertex
 10
96.25012497593717
 20
-122.2001055250056
 30
0.0
  0
VERTEX
  5
4C
330
41
100
AcDbEntity
  8
_U+30EC_U+30A4_U+30E4_U+30FC 1
370
     0
100
AcDbVertex
100
AcDb2dVertex
 10
96.94946919327965
 20
-121.750208025118
 30
0.0
  0
VERTEX
  5
4D
330
41
100
AcDbEntity
  8
_U+30EC_U+30A4_U+30E4_U+30FC 1
370
     0
100
AcDbVertex
100
AcDb2dVertex
 10
97.64952139764205
 20
-122.2001055250056
 30
0.0
  0
VERTEX
  5
4E
330
41
100
AcDbEntity
  8
_U+30EC_U+30A4_U+30E4_U+30FC 1
370
     0
100
AcDbVertex
100
AcDb2dVertex
 10
98.34953832422758
 20
-121.750208025118
 30
0.0
  0
VERTEX
  5
4F
330
41
100
AcDbEntity
  8
_U+30EC_U+30A4_U+30E4_U+30FC 1
370
     0
100
AcDbVertex
100
AcDb2dVertex
 10
99.04959052858997
 20
-122.2001055250056
 30
0.0
  0
VERTEX
  5
50
330
41
100
AcDbEntity
  8
_U+30EC_U+30A4_U+30E4_U+30FC 1
370
     0
100
AcDbVertex
100
AcDb2dVertex
 10
99.74964273295238
 20
-121.750208025118
 30
0.0
  0
VERTEX
  5
51
330
41
100
AcDbEntity
  8
_U+30EC_U+30A4_U+30E4_U+30FC 1
370
     0
100
AcDbVertex
100
AcDb2dVertex
 10
100.4496949373148
 20
-122.2001055250056
 30
0.0
  0
VERTEX
  5
52
330
41
100
AcDbEntity
  8
_U+30EC_U+30A4_U+30E4_U+30FC 1
370
     0
100
AcDbVertex
100
AcDb2dVertex
 10
101.1497118639003
 20
-121.750208025118
 30
0.0
  0
VERTEX
  5
53
330
41
100
AcDbEntity
  8
_U+30EC_U+30A4_U+30E4_U+30FC 1
370
     0
100
AcDbVertex
100
AcDb2dVertex
 10
101.8497666412044
 20
-122.2001055250056
 30
0.0
  0
VERTEX
  5
54
330
41
100
AcDbEntity
  8
_U+30EC_U+30A4_U+30E4_U+30FC 1
370
     0
100
AcDbVertex
100
AcDb2dVertex
 10
102.5498162726251
 20
-121.750208025118
 30
0.0
  0
VERTEX
  5
55
330
41
100
AcDbEntity
  8
_U+30EC_U+30A4_U+30E4_U+30FC 1
370
     0
100
AcDbVertex
100
AcDb2dVertex
 10
103.2498684769875
 20
-122.2001055250056
 30
0.0
  0
VERTEX
  5
56
330
41
100
AcDbEntity
  8
_U+30EC_U+30A4_U+30E4_U+30FC 1
370
     0
100
AcDbVertex
100
AcDb2dVertex
 10
108.2500700160884
 20
-122.2001055250056
 30
0.0
  0
VERTEX
  5
57
330
41
100
AcDbEntity
  8
_U+30EC_U+30A4_U+30E4_U+30FC 1
370
     0
100
AcDbVertex
100
AcDb2dVertex
 10
108.2500700160884
 20
-121.3002752474529
 30
0.0
  0
VERTEX
  5
58
330
41
100
AcDbEntity
  8
_U+30EC_U+30A4_U+30E4_U+30FC 1
370
     0
100
AcDbVertex
100
AcDb2dVertex
 10
68.24976298102571
 20
-121.3002752474529
 30
0.0
  0
VERTEX
  5
59
330
41
100
AcDbEntity
  8
_U+30EC_U+30A4_U+30E4_U+30FC 1
370
     0
100
AcDbVertex
100
AcDb2dVertex
 10
68.24976298102571
 20
-122.2001055250056
 30
0.0
  0
SEQEND
  5
5B
330
41
100
AcDbEntity
  8
_U+30EC_U+30A4_U+30E4_U+30FC 1
370
     0
  0
HATCH
  5
5A
330
1F
100
AcDbEntity
  8
_U+30EC_U+30A4_U+30E4_U+30FC 1
 62
   253
420
 11711154
100
AcDbHatch
 10
0.0
 20
0.0
 30
0.0
210
0.0
220
0.0
230
1.0
  2
SOLID
 70
     1
 71
     0
 91
        1
 92
        1
 93
       23
 72
     1
 10
68.24976298102571
 20
-122.2001055250056
 11
80.24971045265931
 21
-122.2001055250056
 72
     1
 10
80.24971045265931
 20
-122.2001055250056
 11
80.24971045265931
 21
-138.1999888543388
 72
     1
 10
80.24971045265931
 20
-138.1999888543388
 11
90.24944325310044
 21
-138.1999888543388
 72
     1
 10
90.24944325310044
 20
-138.1999888543388
 11
90.24944325310044
 21
-135.2000019106444
 72
     1
 10
90.24944325310044
 20
-135.2000019106444
 11
89.24967105638453
 21
-135.2000019106444
 72
     1
 10
89.24967105638453
 20
-135.2000019106444
 11
89.24967105638453
 21
-137.2002519101444
 72
     1
 10
89.24967105638453
 20
-137.2002519101444
 11
81.1495759852574
 21
-137.2002519101444
 72
     1
 10
81.1495759852574
 20
-137.2002519101444
 11
81.1495759852574
 21
-122.2001055250056
 72
     1
 10
81.1495759852574
 20
-122.2001055250056
 11
96.25012497593717
 21
-122.2001055250056
 72
     1
 10
96.25012497593717
 20
-122.2001055250056
 11
96.94946919327965
 21
-121.750208025118
 72
     1
 10
96.94946919327965
 20
-121.750208025118
 11
97.64952139764205
 21
-122.2001055250056
 72
     1
 10
97.64952139764205
 20
-122.2001055250056
 11
98.34953832422758
 21
-121.750208025118
 72
     1
 10
98.34953832422758
 20
-121.750208025118
 11
99.04959052858997
 21
-122.2001055250056
 72
     1
 10
99.04959052858997
 20
-122.2001055250056
 11
99.74964273295238
 21
-121.750208025118
 72
     1
 10
99.74964273295238
 20
-121.750208025118
 11
100.4496949373148
 21
-122.2001055250056
 72
     1
 10
100.4496949373148
 20
-122.2001055250056
 11
101.1497118639003
 21
-121.750208025118
 72
     1
 10
101.1497118639003
 20
-121.750208025118
 11
101.8497666412044
 21
-122.2001055250056
 72
     1
 10
101.8497666412044
 20
-122.2001055250056
 11
102.5498162726251
 21
-121.750208025118
 72
     1
 10
102.5498162726251
 20
-121.750208025118
 11
103.2498684769875
 21
-122.2001055250056
 72
     1
 10
103.2498684769875
 20
-122.2001055250056
 11
108.2500700160884
 21
-122.2001055250056
 72
     1
 10
108.2500700160884
 20
-122.2001055250056
 11
108.2500700160884
 21
-121.3002752474529
 72
     1
 10
108.2500700160884
 20
-121.3002752474529
 11
68.24976298102571
 21
-121.3002752474529
 72
     1
 10
68.24976298102571
 20
-121.3002752474529
 11
68.24976298102571
 21
-122.2001055250056
 97
        0
 75
     2
 76
     1
 98
        0
  0
POLYLINE
  5
5C
330
1F
100
AcDbEntity
  8
_U+30EC_U+30A4_U+30E4_U+30FC 1
 62
   179
420
  2234388
370
    25
100
AcDb2dPolyline
 66
     1
 10
0.0
 20
0.0
 30
0.0
  0
VERTEX
  5
5D
330
5C
100
AcDbEntity
  8
_U+30EC_U+30A4_U+30E4_U+30FC 1
 62
   179
420
  2234388
370
    25
100
AcDbVertex
100
AcDb2dVertex
 10
80.24971045265931
 20
-138.1999888543388
 30
0.0
  0
VERTEX
  5
5E
330
5C
100
AcDbEntity
  8
_U+30EC_U+30A4_U+30E4_U+30FC 1
 62
   179
420
  2234388
370
    25
100
AcDbVertex
100
AcDb2dVertex
 10
90.24944325310044
 20
-138.1999888543388
 30
0.0
  0
SEQEND
  5
5F
330
5C
100
AcDbEntity
  8
_U+30EC_U+30A4_U+30E4_U+30FC 1
 62
   179
420
  2234388
370
    25
  0
POLYLINE
  5
60
330
1F
100
AcDbEntity
  8
_U+30EC_U+30A4_U+30E4_U+30FC 1
 62
   179
420
  2234388
370
    25
100
AcDb2dPolyline
 66
     1
 10
0.0
 20
0.0
 30
0.0
  0
VERTEX
  5
61
330
60
100
AcDbEntity
  8
_U+30EC_U+30A4_U+30E4_U+30FC 1
 62
   179
420
  2234388
370
    25
100
AcDbVertex
100
AcDb2dVertex
 10
68.24976298102571
 20
-121.3002752474529
 30
0.0
  0
VERTEX
  5
62
330
60
100
AcDbEntity
  8
_U+30EC_U+30A4_U+30E4_U+30FC 1
 62
   179
420
  2234388
370
    25
100
AcDbVertex
100
AcDb2dVertex
 10
108.2500700160884
 20
-121.3002752474529
 30
0.0
  0
SEQEND
  5
63
330
60
100
AcDbEntity
  8
_U+30EC_U+30A4_U+30E4_U+30FC 1
 62
   179
420
  2234388
370
    25
  0
POLYLINE
  5
64
330
1F
100
AcDbEntity
  8
_U+30EC_U+30A4_U+30E4_U+30FC 1
 62
   179
420
  2234388
370
    25
100
AcDb2dPolyline
 66
     1
 10
0.0
 20
0.0
 30
0.0
  0
VERTEX
  5
65
330
64
100
AcDbEntity
  8
_U+30EC_U+30A4_U+30E4_U+30FC 1
 62
   179
420
  2234388
370
    25
100
AcDbVertex
100
AcDb2dVertex
 10
89.24967105638453
 20
-135.2000019106444
 30
0.0
  0
VERTEX
  5
66
330
64
100
AcDbEntity
  8
_U+30EC_U+30A4_U+30E4_U+30FC 1
 62
   179
420
  2234388
370
    25
100
AcDbVertex
100
AcDb2dVertex
 10
90.24944325310044
 20
-135.2000019106444
 30
0.0
  0
SEQEND
  5
67
330
64
100
AcDbEntity
  8
_U+30EC_U+30A4_U+30E4_U+30FC 1
 62
   179
420
  2234388
370
    25
  0
POLYLINE
  5
68
330
1F
100
AcDbEntity
  8
_U+30EC_U+30A4_U+30E4_U+30FC 1
 62
   179
420
  2234388
370
    25
100
AcDb2dPolyline
 66
     1
 10
0.0
 20
0.0
 30
0.0
  0
VERTEX
  5
69
330
68
100
AcDbEntity
  8
_U+30EC_U+30A4_U+30E4_U+30FC 1
 62
   179
420
  2234388
370
    25
100
AcDbVertex
100
AcDb2dVertex
 10
90.24944325310044
 20
-138.1999888543388
 30
0.0
  0
VERTEX
  5
6A
330
68
100
AcDbEntity
  8
_U+30EC_U+30A4_U+30E4_U+30FC 1
 62
   179
420
  2234388
370
    25
100
AcDbVertex
100
AcDb2dVertex
 10
90.24944325310044
 20
-135.2000019106444
 30
0.0
  0
SEQEND
  5
6B
330
68
100
AcDbEntity
  8
_U+30EC_U+30A4_U+30E4_U+30FC 1
 62
   179
420
  2234388
370
    25
  0
POLYLINE
  5
6C
330
1F
100
AcDbEntity
  8
_U+30EC_U+30A4_U+30E4_U+30FC 1
 62
   179
420
  2234388
370
    25
100
AcDb2dPolyline
 66
     1
 10
0.0
 20
0.0
 30
0.0
  0
VERTEX
  5
6D
330
6C
100
AcDbEntity
  8
_U+30EC_U+30A4_U+30E4_U+30FC 1
 62
   179
420
  2234388
370
    25
100
AcDbVertex
100
AcDb2dVertex
 10
68.24976298102571
 20
-122.2001055250056
 30
0.0
  0
VERTEX
  5
6E
330
6C
100
AcDbEntity
  8
_U+30EC_U+30A4_U+30E4_U+30FC 1
 62
   179
420
  2234388
370
    25
100
AcDbVertex
100
AcDb2dVertex
 10
68.24976298102571
 20
-121.3002752474529
 30
0.0
  0
SEQEND
  5
6F
330
6C
100
AcDbEntity
  8
_U+30EC_U+30A4_U+30E4_U+30FC 1
 62
   179
420
  2234388
370
    25
  0
POLYLINE
  5
70
330
1F
100
AcDbEntity
  8
_U+30EC_U+30A4_U+30E4_U+30FC 1
 62
   179
420
  2234388
370
    25
100
AcDb2dPolyline
 66
     1
 10
0.0
 20
0.0
 30
0.0
  0
VERTEX
  5
71
330
70
100
AcDbEntity
  8
_U+30EC_U+30A4_U+30E4_U+30FC 1
 62
   179
420
  2234388
370
    25
100
AcDbVertex
100
AcDb2dVertex
 10
80.24971045265931
 20
-138.1999888543388
 30
0.0
  0
VERTEX
  5
72
330
70
100
AcDbEntity
  8
_U+30EC_U+30A4_U+30E4_U+30FC 1
 62
   179
420
  2234388
370
    25
100
AcDbVertex
100
AcDb2dVertex
 10
80.24971045265931
 20
-122.2001055250056
 30
0.0
  0
SEQEND
  5
73
330
70
100
AcDbEntity
  8
_U+30EC_U+30A4_U+30E4_U+30FC 1
 62
   179
420
  2234388
370
    25
  0
POLYLINE
  5
74
330
1F
100
AcDbEntity
  8
_U+30EC_U+30A4_U+30E4_U+30FC 1
 62
   179
420
  2234388
370
    25
100
AcDb2dPolyline
 66
     1
 10
0.0
 20
0.0
 30
0.0
  0
VERTEX
  5
75
330
74
100
AcDbEntity
  8
_U+30EC_U+30A4_U+30E4_U+30FC 1
 62
   179
420
  2234388
370
    25
100
AcDbVertex
100
AcDb2dVertex
 10
68.24976298102571
 20
-122.2001055250056
 30
0.0
  0
VERTEX
  5
76
330
74
100
AcDbEntity
  8
_U+30EC_U+30A4_U+30E4_U+30FC 1
 62
   179
420
  2234388
370
    25
100
AcDbVertex
100
AcDb2dVertex
 10
80.24971045265931
 20
-122.2001055250056
 30
0.0
  0
SEQEND
  5
77
330
74
100
AcDbEntity
  8
_U+30EC_U+30A4_U+30E4_U+30FC 1
 62
   179
420
  2234388
370
    25
  0
POLYLINE
  5
78
330
1F
100
AcDbEntity
  8
_U+30EC_U+30A4_U+30E4_U+30FC 1
 62
   179
420
  2234388
370
    25
100
AcDb2dPolyline
 66
     1
 10
0.0
 20
0.0
 30
0.0
  0
VERTEX
  5
79
330
78
100
AcDbEntity
  8
_U+30EC_U+30A4_U+30E4_U+30FC 1
 62
   179
420
  2234388
370
    25
100
AcDbVertex
100
AcDb2dVertex
 10
108.2500700160884
 20
-122.2001055250056
 30
0.0
  0
VERTEX
  5
7A
330
78
100
AcDbEntity
  8
_U+30EC_U+30A4_U+30E4_U+30FC 1
 62
   179
420
  2234388
370
    25
100
AcDbVertex
100
AcDb2dVertex
 10
108.2500700160884
 20
-121.3002752474529
 30
0.0
  0
SEQEND
  5
7B
330
78
100
AcDbEntity
  8
_U+30EC_U+30A4_U+30E4_U+30FC 1
 62
   179
420
  2234388
370
    25
  0
POLYLINE
  5
7C
330
1F
100
AcDbEntity
  8
_U+30EC_U+30A4_U+30E4_U+30FC 1
 62
   179
420
  2234388
370
    25
100
AcDb2dPolyline
 66
     1
 10
0.0
 20
0.0
 30
0.0
  0
VERTEX
  5
7D
330
7C
100
AcDbEntity
  8
_U+30EC_U+30A4_U+30E4_U+30FC 1
 62
   179
420
  2234388
370
    25
100
AcDbVertex
100
AcDb2dVertex
 10
81.1495759852574
 20
-122.2001055250056
 30
0.0
  0
VERTEX
  5
7E
330
7C
100
AcDbEntity
  8
_U+30EC_U+30A4_U+30E4_U+30FC 1
 62
   179
420
  2234388
370
    25
100
AcDbVertex
100
AcDb2dVertex
 10
96.25012497593717
 20
-122.2001055250056
 30
0.0
  0
SEQEND
  5
7F
330
7C
100
AcDbEntity
  8
_U+30EC_U+30A4_U+30E4_U+30FC 1
 62
   179
420
  2234388
370
    25
  0
POLYLINE
  5
80
330
1F
100
AcDbEntity
  8
_U+30EC_U+30A4_U+30E4_U+30FC 1
 62
   179
420
  2234388
370
    25
100
AcDb2dPolyline
 66
     1
 10
0.0
 20
0.0
 30
0.0
  0
VERTEX
  5
81
330
80
100
AcDbEntity
  8
_U+30EC_U+30A4_U+30E4_U+30FC 1
 62
   179
420
  2234388
370
    25
100
AcDbVertex
100
AcDb2dVertex
 10
101.8497666412044
 20
-122.2001055250056
 30
0.0
  0
VERTEX
  5
82
330
80
100
AcDbEntity
  8
_U+30EC_U+30A4_U+30E4_U+30FC 1
 62
   179
420
  2234388
370
    25
100
AcDbVertex
100
AcDb2dVertex
 10
102.5498162726251
 20
-121.750208025118
 30
0.0
  0
SEQEND
  5
83
330
80
100
AcDbEntity
  8
_U+30EC_U+30A4_U+30E4_U+30FC 1
 62
   179
420
  2234388
370
    25
  0
POLYLINE
  5
84
330
1F
100
AcDbEntity
  8
_U+30EC_U+30A4_U+30E4_U+30FC 1
 62
   179
420
  2234388
370
    25
100
AcDb2dPolyline
 66
     1
 10
0.0
 20
0.0
 30
0.0
  0
VERTEX
  5
85
330
84
100
AcDbEntity
  8
_U+30EC_U+30A4_U+30E4_U+30FC 1
 62
   179
420
  2234388
370
    25
100
AcDbVertex
100
AcDb2dVertex
 10
103.2498684769875
 20
-122.2001055250056
 30
0.0
  0
VERTEX
  5
86
330
84
100
AcDbEntity
  8
_U+30EC_U+30A4_U+30E4_U+30FC 1
 62
   179
420
  2234388
370
    25
100
AcDbVertex
100
AcDb2dVertex
 10
102.5498162726251
 20
-121.750208025118
 30
0.0
  0
SEQEND
  5
87
330
84
100
AcDbEntity
  8
_U+30EC_U+30A4_U+30E4_U+30FC 1
 62
   179
420
  2234388
370
    25
  0
POLYLINE
  5
88
330
1F
100
AcDbEntity
  8
_U+30EC_U+30A4_U+30E4_U+30FC 1
 62
   179
420
  2234388
370
    25
100
AcDb2dPolyline
 66
     1
 10
0.0
 20
0.0
 30
0.0
  0
VERTEX
  5
89
330
88
100
AcDbEntity
  8
_U+30EC_U+30A4_U+30E4_U+30FC 1
 62
   179
420
  2234388
370
    25
100
AcDbVertex
100
AcDb2dVertex
 10
101.8497666412044
 20
-122.2001055250056
 30
0.0
  0
VERTEX
  5
8A
330
88
100
AcDbEntity
  8
_U+30EC_U+30A4_U+30E4_U+30FC 1
 62
   179
420
  2234388
370
    25
100
AcDbVertex
100
AcDb2dVertex
 10
101.1497118639003
 20
-121.750208025118
 30
0.0
  0
SEQEND
  5
8B
330
88
100
AcDbEntity
  8
_U+30EC_U+30A4_U+30E4_U+30FC 1
 62
   179
420
  2234388
370
    25
  0
POLYLINE
  5
8C
330
1F
100
AcDbEntity
  8
_U+30EC_U+30A4_U+30E4_U+30FC 1
 62
   179
420
  2234388
370
    25
100
AcDb2dPolyline
 66
     1
 10
0.0
 20
0.0
 30
0.0
  0
VERTEX
  5
8D
330
8C
100
AcDbEntity
  8
_U+30EC_U+30A4_U+30E4_U+30FC 1
 62
   179
420
  2234388
370
    25
100
AcDbVertex
100
AcDb2dVertex
 10
100.4496949373148
 20
-122.2001055250056
 30
0.0
  0
VERTEX
  5
8E
330
8C
100
AcDbEntity
  8
_U+30EC_U+30A4_U+30E4_U+30FC 1
 62
   179
420
  2234388
370
    25
100
AcDbVertex
100
AcDb2dVertex
 10
101.1497118639003
 20
-121.750208025118
 30
0.0
  0
SEQEND
  5
8F
330
8C
100
AcDbEntity
  8
_U+30EC_U+30A4_U+30E4_U+30FC 1
 62
   179
420
  2234388
370
    25
  0
POLYLINE
  5
90
330
1F
100
AcDbEntity
  8
_U+30EC_U+30A4_U+30E4_U+30FC 1
 62
   179
420
  2234388
370
    25
100
AcDb2dPolyline
 66
     1
 10
0.0
 20
0.0
 30
0.0
  0
VERTEX
  5
91
330
90
100
AcDbEntity
  8
_U+30EC_U+30A4_U+30E4_U+30FC 1
 62
   179
420
  2234388
370
    25
100
AcDbVertex
100
AcDb2dVertex
 10
99.04959052858997
 20
-122.2001055250056
 30
0.0
  0
VERTEX
  5
92
330
90
100
AcDbEntity
  8
_U+30EC_U+30A4_U+30E4_U+30FC 1
 62
   179
420
  2234388
370
    25
100
AcDbVertex
100
AcDb2dVertex
 10
99.74964273295238
 20
-121.750208025118
 30
0.0
  0
SEQEND
  5
93
330
90
100
AcDbEntity
  8
_U+30EC_U+30A4_U+30E4_U+30FC 1
 62
   179
420
  2234388
370
    25
  0
POLYLINE
  5
94
330
1F
100
AcDbEntity
  8
_U+30EC_U+30A4_U+30E4_U+30FC 1
 62
   179
420
  2234388
370
    25
100
AcDb2dPolyline
 66
     1
 10
0.0
 20
0.0
 30
0.0
  0
VERTEX
  5
95
330
94
100
AcDbEntity
  8
_U+30EC_U+30A4_U+30E4_U+30FC 1
 62
   179
420
  2234388
370
    25
100
AcDbVertex
100
AcDb2dVertex
 10
100.4496949373148
 20
-122.2001055250056
 30
0.0
  0
VERTEX
  5
96
330
94
100
AcDbEntity
  8
_U+30EC_U+30A4_U+30E4_U+30FC 1
 62
   179
420
  2234388
370
    25
100
AcDbVertex
100
AcDb2dVertex
 10
99.74964273295238
 20
-121.750208025118
 30
0.0
  0
SEQEND
  5
97
330
94
100
AcDbEntity
  8
_U+30EC_U+30A4_U+30E4_U+30FC 1
 62
   179
420
  2234388
370
    25
  0
POLYLINE
  5
98
330
1F
100
AcDbEntity
  8
_U+30EC_U+30A4_U+30E4_U+30FC 1
 62
   179
420
  2234388
370
    25
100
AcDb2dPolyline
 66
     1
 10
0.0
 20
0.0
 30
0.0
  0
VERTEX
  5
99
330
98
100
AcDbEntity
  8
_U+30EC_U+30A4_U+30E4_U+30FC 1
 62
   179
420
  2234388
370
    25
100
AcDbVertex
100
AcDb2dVertex
 10
99.04959052858997
 20
-122.2001055250056
 30
0.0
  0
VERTEX
  5
9A
330
98
100
AcDbEntity
  8
_U+30EC_U+30A4_U+30E4_U+30FC 1
 62
   179
420
  2234388
370
    25
100
AcDbVertex
100
AcDb2dVertex
 10
98.34953832422758
 20
-121.750208025118
 30
0.0
  0
SEQEND
  5
9B
330
98
100
AcDbEntity
  8
_U+30EC_U+30A4_U+30E4_U+30FC 1
 62
   179
420
  2234388
370
    25
  0
POLYLINE
  5
9C
330
1F
100
AcDbEntity
  8
_U+30EC_U+30A4_U+30E4_U+30FC 1
 62
   179
420
  2234388
370
    25
100
AcDb2dPolyline
 66
     1
 10
0.0
 20
0.0
 30
0.0
  0
VERTEX
  5
9D
330
9C
100
AcDbEntity
  8
_U+30EC_U+30A4_U+30E4_U+30FC 1
 62
   179
420
  2234388
370
    25
100
AcDbVertex
100
AcDb2dVertex
 10
97.64952139764205
 20
-122.2001055250056
 30
0.0
  0
VERTEX
  5
9E
330
9C
100
AcDbEntity
  8
_U+30EC_U+30A4_U+30E4_U+30FC 1
 62
   179
420
  2234388
370
    25
100
AcDbVertex
100
AcDb2dVertex
 10
98.34953832422758
 20
-121.750208025118
 30
0.0
  0
SEQEND
  5
9F
330
9C
100
AcDbEntity
  8
_U+30EC_U+30A4_U+30E4_U+30FC 1
 62
   179
420
  2234388
370
    25
  0
POLYLINE
  5
A0
330
1F
100
AcDbEntity
  8
_U+30EC_U+30A4_U+30E4_U+30FC 1
 62
   179
420
  2234388
370
    25
100
AcDb2dPolyline
 66
     1
 10
0.0
 20
0.0
 30
0.0
  0
VERTEX
  5
A1
330
A0
100
AcDbEntity
  8
_U+30EC_U+30A4_U+30E4_U+30FC 1
 62
   179
420
  2234388
370
    25
100
AcDbVertex
100
AcDb2dVertex
 10
97.64952139764205
 20
-122.2001055250056
 30
0.0
  0
VERTEX
  5
A2
330
A0
100
AcDbEntity
  8
_U+30EC_U+30A4_U+30E4_U+30FC 1
 62
   179
420
  2234388
370
    25
100
AcDbVertex
100
AcDb2dVertex
 10
96.94946919327965
 20
-121.750208025118
 30
0.0
  0
SEQEND
  5
A3
330
A0
100
AcDbEntity
  8
_U+30EC_U+30A4_U+30E4_U+30FC 1
 62
   179
420
  2234388
370
    25
  0
POLYLINE
  5
A4
330
1F
100
AcDbEntity
  8
_U+30EC_U+30A4_U+30E4_U+30FC 1
 62
   179
420
  2234388
370
    25
100
AcDb2dPolyline
 66
     1
 10
0.0
 20
0.0
 30
0.0
  0
VERTEX
  5
A5
330
A4
100
AcDbEntity
  8
_U+30EC_U+30A4_U+30E4_U+30FC 1
 62
   179
420
  2234388
370
    25
100
AcDbVertex
100
AcDb2dVertex
 10
96.25012497593717
 20
-122.2001055250056
 30
0.0
  0
VERTEX
  5
A6
330
A4
100
AcDbEntity
  8
_U+30EC_U+30A4_U+30E4_U+30FC 1
 62
   179
420
  2234388
370
    25
100
AcDbVertex
100
AcDb2dVertex
 10
96.94946919327965
 20
-121.750208025118
 30
0.0
  0
SEQEND
  5
A7
330
A4
100
AcDbEntity
  8
_U+30EC_U+30A4_U+30E4_U+30FC 1
 62
   179
420
  2234388
370
    25
  0
POLYLINE
  5
A8
330
1F
100
AcDbEntity
  8
_U+30EC_U+30A4_U+30E4_U+30FC 1
 62
   179
420
  2234388
370
    25
100
AcDb2dPolyline
 66
     1
 10
0.0
 20
0.0
 30
0.0
  0
VERTEX
  5
A9
330
A8
100
AcDbEntity
  8
_U+30EC_U+30A4_U+30E4_U+30FC 1
 62
   179
420
  2234388
370
    25
100
AcDbVertex
100
AcDb2dVertex
 10
103.2498684769875
 20
-122.2001055250056
 30
0.0
  0
VERTEX
  5
AA
330
A8
100
AcDbEntity
  8
_U+30EC_U+30A4_U+30E4_U+30FC 1
 62
   179
420
  2234388
370
    25
100
AcDbVertex
100
AcDb2dVertex
 10
108.2500700160884
 20
-122.2001055250056
 30
0.0
  0
SEQEND
  5
AB
330
A8
100
AcDbEntity
  8
_U+30EC_U+30A4_U+30E4_U+30FC 1
 62
   179
420
  2234388
370
    25
  0
POLYLINE
  5
AC
330
1F
100
AcDbEntity
  8
_U+30EC_U+30A4_U+30E4_U+30FC 1
 62
   179
420
  2234388
370
    25
100
AcDb2dPolyline
 66
     1
 10
0.0
 20
0.0
 30
0.0
  0
VERTEX
  5
AD
330
AC
100
AcDbEntity
  8
_U+30EC_U+30A4_U+30E4_U+30FC 1
 62
   179
420
  2234388
370
    25
100
AcDbVertex
100
AcDb2dVertex
 10
89.24967105638453
 20
-137.2002519101444
 30
0.0
  0
VERTEX
  5
AE
330
AC
100
AcDbEntity
  8
_U+30EC_U+30A4_U+30E4_U+30FC 1
 62
   179
420
  2234388
370
    25
100
AcDbVertex
100
AcDb2dVertex
 10
89.24967105638453
 20
-135.2000019106444
 30
0.0
  0
SEQEND
  5
AF
330
AC
100
AcDbEntity
  8
_U+30EC_U+30A4_U+30E4_U+30FC 1
 62
   179
420
  2234388
370
    25
  0
POLYLINE
  5
B0
330
1F
100
AcDbEntity
  8
_U+30EC_U+30A4_U+30E4_U+30FC 1
 62
   179
420
  2234388
370
    25
100
AcDb2dPolyline
 66
     1
 10
0.0
 20
0.0
 30
0.0
  0
VERTEX
  5
B1
330
B0
100
AcDbEntity
  8
_U+30EC_U+30A4_U+30E4_U+30FC 1
 62
   179
420
  2234388
370
    25
100
AcDbVertex
100
AcDb2dVertex
 10
81.1495759852574
 20
-137.2002519101444
 30
0.0
  0
VERTEX
  5
B2
330
B0
100
AcDbEntity
  8
_U+30EC_U+30A4_U+30E4_U+30FC 1
 62
   179
420
  2234388
370
    25
100
AcDbVertex
100
AcDb2dVertex
 10
89.24967105638453
 20
-137.2002519101444
 30
0.0
  0
SEQEND
  5
B3
330
B0
100
AcDbEntity
  8
_U+30EC_U+30A4_U+30E4_U+30FC 1
 62
   179
420
  2234388
370
    25
  0
POLYLINE
  5
B4
330
1F
100
AcDbEntity
  8
_U+30EC_U+30A4_U+30E4_U+30FC 1
 62
   179
420
  2234388
370
    25
100
AcDb2dPolyline
 66
     1
 10
0.0
 20
0.0
 30
0.0
  0
VERTEX
  5
B5
330
B4
100
AcDbEntity
  8
_U+30EC_U+30A4_U+30E4_U+30FC 1
 62
   179
420
  2234388
370
    25
100
AcDbVertex
100
AcDb2dVertex
 10
81.1495759852574
 20
-137.2002519101444
 30
0.0
  0
VERTEX
  5
B6
330
B4
100
AcDbEntity
  8
_U+30EC_U+30A4_U+30E4_U+30FC 1
 62
   179
420
  2234388
370
    25
100
AcDbVertex
100
AcDb2dVertex
 10
81.1495759852574
 20
-122.2001055250056
 30
0.0
  0
SEQEND
  5
B7
330
B4
100
AcDbEntity
  8
_U+30EC_U+30A4_U+30E4_U+30FC 1
 62
   179
420
  2234388
370
    25
  0
SPLINE
  5
B8
330
1F
100
AcDbEntity
  8
_U+30EC_U+30A4_U+30E4_U+30FC 1
 62
   179
420
  2234388
370
     9
100
AcDbSpline
210
0.0
220
0.0
230
1.0
 70
    11
 71
     3
 72
    17
 73
    13
 74
     0
 42
0.0000000001
 43
0.0000000001
 12
1.0
 22
0.0
 32
0.0
 13
1.0
 23
0.0
 33
0.0
 40
0.0
 40
0.0
 40
0.0
 40
0.0
 40
1.0
 40
1.0
 40
1.0
 40
2.0
 40
2.0
 40
2.0
 40
3.0
 40
3.0
 40
3.0
 40
4.0
 40
4.0
 40
4.0
 40
4.0
 10
80.34961711677715
 20
-142.2004535755612
 30
0.0
 10
80.34961711677715
 20
-142.1453144089081
 30
0.0
 10
80.30481434014239
 20
-142.1005469089195
 30
0.0
 10
80.24971045265931
 20
-142.1005469089195
 30
0.0
 10
80.19457128739937
 20
-142.1005469089195
 30
0.0
 10
80.14980378854149
 20
-142.1453144089081
 30
0.0
 10
80.14980378854149
 20
-142.2004535755612
 30
0.0
 10
80.14980378854149
 20
-142.2555574644361
 30
0.0
 10
80.19457128739937
 20
-142.3003602422028
 30
0.0
 10
80.24971045265931
 20
-142.3003602422028
 30
0.0
 10
80.30481434014239
 20
-142.3003602422028
 30
0.0
 10
80.34961711677715
 20
-142.2555574644361
 30
0.0
 10
80.34961711677715
 20
-142.2004535755612
 30
0.0
  0
SPLINE
  5
B9
330
1F
100
AcDbEntity
  8
_U+30EC_U+30A4_U+30E4_U+30FC 1
 62
   179
420
  2234388
370
     9
100
AcDbSpline
210
0.0
220
0.0
230
1.0
 70
    11
 71
     3
 72
    17
 73
    13
 74
     0
 42
0.0000000001
 43
0.0000000001
 12
1.0
 22
0.0
 32
0.0
 13
1.0
 23
0.0
 33
0.0
 40
0.0
 40
0.0
 40
0.0
 40
0.0
 40
1.0
 40
1.0
 40
1.0
 40
2.0
 40
2.0
 40
2.0
 40
3.0
 40
3.0
 40
3.0
 40
4.0
 40
4.0
 40
4.0
 40
4.0
 10
90.35005547275583
 20
-142.2004535755612
 30
0.0
 10
90.35005547275583
 20
-142.1453144089081
 30
0.0
 10
90.30525269612106
 20
-142.1005469089195
 30
0.0
 10
90.24944325310044
 20
-142.1005469089195
 30
0.0
 10
90.1943040878405
 20
-142.1005469089195
 30
0.0
 10
90.14953886635163
 20
-142.1453144089081
 30
0.0
 10
90.14953886635163
 20
-142.2004535755612
 30
0.0
 10
90.14953886635163
 20
-142.2555574644361
 30
0.0
 10
90.1943040878405
 20
-142.3003602422028
 30
0.0
 10
90.24944325310044
 20
-142.3003602422028
 30
0.0
 10
90.30525269612106
 20
-142.3003602422028
 30
0.0
 10
90.35005547275583
 20
-142.2555574644361
 30
0.0
 10
90.35005547275583
 20
-142.2004535755612
 30
0.0
  0
SPLINE
  5
BA
330
1F
100
AcDbEntity
  8
_U+30EC_U+30A4_U+30E4_U+30FC 1
 62
   179
420
  2234388
370
     9
100
AcDbSpline
210
0.0
220
0.0
230
1.0
 70
    11
 71
     3
 72
    17
 73
    13
 74
     0
 42
0.0000000001
 43
0.0000000001
 12
1.0
 22
0.0
 32
0.0
 13
1.0
 23
0.0
 33
0.0
 40
0.0
 40
0.0
 40
0.0
 40
0.0
 40
1.0
 40
1.0
 40
1.0
 40
2.0
 40
2.0
 40
2.0
 40
3.0
 40
3.0
 40
3.0
 40
4.0
 40
4.0
 40
4.0
 40
4.0
 10
68.34966964514355
 20
-142.2004535755612
 30
0.0
 10
68.34966964514355
 20
-142.1453144089081
 30
0.0
 10
68.30486686850878
 20
-142.1005469089195
 30
0.0
 10
68.24976298102571
 20
-142.1005469089195
 30
0.0
 10
68.19462381576575
 20
-142.1005469089195
 30
0.0
 10
68.14985631690787
 20
-142.1453144089081
 30
0.0
 10
68.14985631690787
 20
-142.2004535755612
 30
0.0
 10
68.14985631690787
 20
-142.2555574644361
 30
0.0
 10
68.19462381576575
 20
-142.3003602422028
 30
0.0
 10
68.24976298102571
 20
-142.3003602422028
 30
0.0
 10
68.30486686850878
 20
-142.3003602422028
 30
0.0
 10
68.34966964514355
 20
-142.2555574644361
 30
0.0
 10
68.34966964514355
 20
-142.2004535755612
 30
0.0
  0
SPLINE
  5
BB
330
1F
100
AcDbEntity
  8
_U+30EC_U+30A4_U+30E4_U+30FC 1
 62
   179
420
  2234388
370
     9
100
AcDbSpline
210
0.0
220
0.0
230
1.0
 70
    11
 71
     3
 72
    17
 73
    13
 74
     0
 42
0.0000000001
 43
0.0000000001
 12
1.0
 22
0.0
 32
0.0
 13
1.0
 23
0.0
 33
0.0
 40
0.0
 40
0.0
 40
0.0
 40
0.0
 40
1.0
 40
1.0
 40
1.0
 40
2.0
 40
2.0
 40
2.0
 40
3.0
 40
3.0
 40
3.0
 40
4.0
 40
4.0
 40
4.0
 40
4.0
 10
68.34966964514355
 20
-117.2998105262305
 30
0.0
 10
68.34966964514355
 20
-117.2447066373555
 30
0.0
 10
68.30486686850878
 20
-117.1999038595888
 30
0.0
 10
68.24976298102571
 20
-117.1999038595888
 30
0.0
 10
68.19462381576575
 20
-117.1999038595888
 30
0.0
 10
68.14985631690787
 20
-117.2447066373555
 30
0.0
 10
68.14985631690787
 20
-117.2998105262305
 30
0.0
 10
68.14985631690787
 20
-117.3552671928835
 30
0.0
 10
68.19462381576575
 20
-117.4000699706499
 30
0.0
 10
68.24976298102571
 20
-117.4000699706499
 30
0.0
 10
68.30486686850878
 20
-117.4000699706499
 30
0.0
 10
68.34966964514355
 20
-117.3552671928835
 30
0.0
 10
68.34966964514355
 20
-117.2998105262305
 30
0.0
  0
SPLINE
  5
BC
330
1F
100
AcDbEntity
  8
_U+30EC_U+30A4_U+30E4_U+30FC 1
 62
   179
420
  2234388
370
     9
100
AcDbSpline
210
0.0
220
0.0
230
1.0
 70
    11
 71
     3
 72
    17
 73
    13
 74
     0
 42
0.0000000001
 43
0.0000000001
 12
1.0
 22
0.0
 32
0.0
 13
1.0
 23
0.0
 33
0.0
 40
0.0
 40
0.0
 40
0.0
 40
0.0
 40
1.0
 40
1.0
 40
1.0
 40
2.0
 40
2.0
 40
2.0
 40
3.0
 40
3.0
 40
3.0
 40
4.0
 40
4.0
 40
4.0
 40
4.0
 10
108.3499766802063
 20
-117.2998105262305
 30
0.0
 10
108.3499766802063
 20
-117.2447066373555
 30
0.0
 10
108.3051739035715
 20
-117.1999038595888
 30
0.0
 10
108.2500700160884
 20
-117.1999038595888
 30
0.0
 10
108.1942605730678
 20
-117.1999038595888
 30
0.0
 10
108.149457796433
 20
-117.2447066373555
 30
0.0
 10
108.149457796433
 20
-117.2998105262305
 30
0.0
 10
108.149457796433
 20
-117.3552671928835
 30
0.0
 10
108.1942605730678
 20
-117.4000699706499
 30
0.0
 10
108.2500700160884
 20
-117.4000699706499
 30
0.0
 10
108.3051739035715
 20
-117.4000699706499
 30
0.0
 10
108.3499766802063
 20
-117.3552671928835
 30
0.0
 10
108.3499766802063
 20
-117.2998105262305
 30
0.0
  0
SPLINE
  5
BD
330
1F
100
AcDbEntity
  8
_U+30EC_U+30A4_U+30E4_U+30FC 1
 62
   179
420
  2234388
370
     9
100
AcDbSpline
210
0.0
220
0.0
230
1.0
 70
    11
 71
     3
 72
    17
 73
    13
 74
     0
 42
0.0000000001
 43
0.0000000001
 12
1.0
 22
0.0
 32
0.0
 13
1.0
 23
0.0
 33
0.0
 40
0.0
 40
0.0
 40
0.0
 40
0.0
 40
1.0
 40
1.0
 40
1.0
 40
2.0
 40
2.0
 40
2.0
 40
3.0
 40
3.0
 40
3.0
 40
4.0
 40
4.0
 40
4.0
 40
4.0
 10
112.3500885225993
 20
-121.3002752474529
 30
0.0
 10
112.3500885225993
 20
-121.2451360807998
 30
0.0
 10
112.3052857459646
 20
-121.2003685808109
 30
0.0
 10
112.2501818584815
 20
-121.2003685808109
 30
0.0
 10
112.1950426932216
 20
-121.2003685808109
 30
0.0
 10
112.1502751943637
 20
-121.2451360807998
 30
0.0
 10
112.1502751943637
 20
-121.3002752474529
 30
0.0
 10
112.1502751943637
 20
-121.3553791363278
 30
0.0
 10
112.1950426932216
 20
-121.4001819140945
 30
0.0
 10
112.2501818584815
 20
-121.4001819140945
 30
0.0
 10
112.3052857459646
 20
-121.4001819140945
 30
0.0
 10
112.3500885225993
 20
-121.3553791363278
 30
0.0
 10
112.3500885225993
 20
-121.3002752474529
 30
0.0
  0
SPLINE
  5
BE
330
1F
100
AcDbEntity
  8
_U+30EC_U+30A4_U+30E4_U+30FC 1
 62
   179
420
  2234388
370
     9
100
AcDbSpline
210
0.0
220
0.0
230
1.0
 70
    11
 71
     3
 72
    17
 73
    13
 74
     0
 42
0.0000000001
 43
0.0000000001
 12
1.0
 22
0.0
 32
0.0
 13
1.0
 23
0.0
 33
0.0
 40
0.0
 40
0.0
 40
0.0
 40
0.0
 40
1.0
 40
1.0
 40
1.0
 40
2.0
 40
2.0
 40
2.0
 40
3.0
 40
3.0
 40
3.0
 40
4.0
 40
4.0
 40
4.0
 40
4.0
 10
112.3500885225993
 20
-122.2001055250056
 30
0.0
 10
112.3500885225993
 20
-122.1450016361304
 30
0.0
 10
112.3052857459646
 20
-122.100198858364
 30
0.0
 10
112.2501818584815
 20
-122.100198858364
 30
0.0
 10
112.1950426932216
 20
-122.100198858364
 30
0.0
 10
112.1502751943637
 20
-122.1450016361304
 30
0.0
 10
112.1502751943637
 20
-122.2001055250056
 30
0.0
 10
112.1502751943637
 20
-122.2552446916584
 30
0.0
 10
112.1950426932216
 20
-122.3000121916473
 30
0.0
 10
112.2501818584815
 20
-122.3000121916473
 30
0.0
 10
112.3052857459646
 20
-122.3000121916473
 30
0.0
 10
112.3500885225993
 20
-122.2552446916584
 30
0.0
 10
112.3500885225993
 20
-122.2001055250056
 30
0.0
  0
SPLINE
  5
BF
330
1F
100
AcDbEntity
  8
_U+30EC_U+30A4_U+30E4_U+30FC 1
 62
   179
420
  2234388
370
     9
100
AcDbSpline
210
0.0
220
0.0
230
1.0
 70
    11
 71
     3
 72
    17
 73
    13
 74
     0
 42
0.0000000001
 43
0.0000000001
 12
1.0
 22
0.0
 32
0.0
 13
1.0
 23
0.0
 33
0.0
 40
0.0
 40
0.0
 40
0.0
 40
0.0
 40
1.0
 40
1.0
 40
1.0
 40
2.0
 40
2.0
 40
2.0
 40
3.0
 40
3.0
 40
3.0
 40
4.0
 40
4.0
 40
4.0
 40
4.0
 10
112.3500885225993
 20
-135.2000019106444
 30
0.0
 10
112.3500885225993
 20
-135.1448980217695
 30
0.0
 10
112.3052857459646
 20
-135.1000952440028
 30
0.0
 10
112.2501818584815
 20
-135.1000952440028
 30
0.0
 10
112.1950426932216
 20
-135.1000952440028
 30
0.0
 10
112.1502751943637
 20
-135.1448980217695
 30
0.0
 10
112.1502751943637
 20
-135.2000019106444
 30
0.0
 10
112.1502751943637
 20
-135.2558113550749
 30
0.0
 10
112.1950426932216
 20
-135.3006141328416
 30
0.0
 10
112.2501818584815
 20
-135.3006141328416
 30
0.0
 10
112.3052857459646
 20
-135.3006141328416
 30
0.0
 10
112.3500885225993
 20
-135.2558113550749
 30
0.0
 10
112.3500885225993
 20
-135.2000019106444
 30
0.0
  0
SPLINE
  5
C0
330
1F
100
AcDbEntity
  8
_U+30EC_U+30A4_U+30E4_U+30FC 1
 62
   179
420
  2234388
370
     9
100
AcDbSpline
210
0.0
220
0.0
230
1.0
 70
    11
 71
     3
 72
    17
 73
    13
 74
     0
 42
0.0000000001
 43
0.0000000001
 12
1.0
 22
0.0
 32
0.0
 13
1.0
 23
0.0
 33
0.0
 40
0.0
 40
0.0
 40
0.0
 40
0.0
 40
1.0
 40
1.0
 40
1.0
 40
2.0
 40
2.0
 40
2.0
 40
3.0
 40
3.0
 40
3.0
 40
4.0
 40
4.0
 40
4.0
 40
4.0
 10
112.3500885225993
 20
-138.1999888543388
 30
0.0
 10
112.3500885225993
 20
-138.1448849654638
 30
0.0
 10
112.3052857459646
 20
-138.1000821876971
 30
0.0
 10
112.2501818584815
 20
-138.1000821876971
 30
0.0
 10
112.1950426932216
 20
-138.1000821876971
 30
0.0
 10
112.1502751943637
 20
-138.1448849654638
 30
0.0
 10
112.1502751943637
 20
-138.1999888543388
 30
0.0
 10
112.1502751943637
 20
-138.2558335765474
 30
0.0
 10
112.1950426932216
 20
-138.3006010765359
 30
0.0
 10
112.2501818584815
 20
-138.3006010765359
 30
0.0
 10
112.3052857459646
 20
-138.3006010765359
 30
0.0
 10
112.3500885225993
 20
-138.2558335765474
 30
0.0
 10
112.3500885225993
 20
-138.1999888543388
 30
0.0
  0
POLYLINE
  5
C1
330
1F
100
AcDbEntity
  8
_U+30EC_U+30A4_U+30E4_U+30FC 1
 62
   179
420
  2234388
370
     9
100
AcDb2dPolyline
 66
     1
 10
0.0
 20
0.0
 30
0.0
  0
VERTEX
  5
C2
330
C1
100
AcDbEntity
  8
_U+30EC_U+30A4_U+30E4_U+30FC 1
 62
   179
420
  2234388
370
     9
100
AcDbVertex
100
AcDb2dVertex
 10
80.24971045265931
 20
-142.2004535755612
 30
0.0
  0
VERTEX
  5
C3
330
C1
100
AcDbEntity
  8
_U+30EC_U+30A4_U+30E4_U+30FC 1
 62
   179
420
  2234388
370
     9
100
AcDbVertex
100
AcDb2dVertex
 10
90.24944325310044
 20
-142.2004535755612
 30
0.0
  0
SEQEND
  5
C4
330
C1
100
AcDbEntity
  8
_U+30EC_U+30A4_U+30E4_U+30FC 1
 62
   179
420
  2234388
370
     9
  0
POLYLINE
  5
C5
330
1F
100
AcDbEntity
  8
_U+30EC_U+30A4_U+30E4_U+30FC 1
 62
   179
420
  2234388
370
     9
100
AcDb2dPolyline
 66
     1
 10
0.0
 20
0.0
 30
0.0
  0
VERTEX
  5
C6
330
C5
100
AcDbEntity
  8
_U+30EC_U+30A4_U+30E4_U+30FC 1
 62
   179
420
  2234388
370
     9
100
AcDbVertex
100
AcDb2dVertex
 10
80.24971045265931
 20
-140.7404121870368
 30
0.0
  0
VERTEX
  5
C7
330
C5
100
AcDbEntity
  8
_U+30EC_U+30A4_U+30E4_U+30FC 1
 62
   179
420
  2234388
370
     9
100
AcDbVertex
100
AcDb2dVertex
 10
80.24971045265931
 20
-143.2002257975331
 30
0.0
  0
SEQEND
  5
C8
330
C5
100
AcDbEntity
  8
_U+30EC_U+30A4_U+30E4_U+30FC 1
 62
   179
420
  2234388
370
     9
  0
POLYLINE
  5
C9
330
1F
100
AcDbEntity
  8
_U+30EC_U+30A4_U+30E4_U+30FC 1
 62
   179
420
  2234388
370
     9
100
AcDb2dPolyline
 66
     1
 10
0.0
 20
0.0
 30
0.0
  0
VERTEX
  5
CA
330
C9
100
AcDbEntity
  8
_U+30EC_U+30A4_U+30E4_U+30FC 1
 62
   179
420
  2234388
370
     9
100
AcDbVertex
100
AcDb2dVertex
 10
90.24944325310044
 20
-140.7404121870368
 30
0.0
  0
VERTEX
  5
CB
330
C9
100
AcDbEntity
  8
_U+30EC_U+30A4_U+30E4_U+30FC 1
 62
   179
420
  2234388
370
     9
100
AcDbVertex
100
AcDb2dVertex
 10
90.24944325310044
 20
-143.2002257975331
 30
0.0
  0
SEQEND
  5
CC
330
C9
100
AcDbEntity
  8
_U+30EC_U+30A4_U+30E4_U+30FC 1
 62
   179
420
  2234388
370
     9
  0
INSERT
  5
CE
330
1F
100
AcDbEntity
  8
_U+30EC_U+30A4_U+30E4_U+30FC 1
100
AcDbBlockReference
  2
block 2
 10
0.0
 20
0.0
 30
0.0
  0
POLYLINE
  5
D6
330
1F
100
AcDbEntity
  8
_U+30EC_U+30A4_U+30E4_U+30FC 1
 62
   179
420
  2234388
370
     9
100
AcDb2dPolyline
 66
     1
 10
0.0
 20
0.0
 30
0.0
  0
VERTEX
  5
D7
330
D6
100
AcDbEntity
  8
_U+30EC_U+30A4_U+30E4_U+30FC 1
 62
   179
420
  2234388
370
     9
100
AcDbVertex
100
AcDb2dVertex
 10
112.2501818584815
 20
-121.3002752474529
 30
0.0
  0
VERTEX
  5
D8
330
D6
100
AcDbEntity
  8
_U+30EC_U+30A4_U+30E4_U+30FC 1
 62
   179
420
  2234388
370
     9
100
AcDbVertex
100
AcDb2dVertex
 10
112.2501818584815
 20
-116.042369415434
 30
0.0
  0
SEQEND
  5
D9
330
D6
100
AcDbEntity
  8
_U+30EC_U+30A4_U+30E4_U+30FC 1
 62
   179
420
  2234388
370
     9
  0
POLYLINE
  5
DA
330
1F
100
AcDbEntity
  8
_U+30EC_U+30A4_U+30E4_U+30FC 1
 62
   179
420
  2234388
370
     9
100
AcDb2dPolyline
 66
     1
 10
0.0
 20
0.0
 30
0.0
  0
VERTEX
  5
DB
330
DA
100
AcDbEntity
  8
_U+30EC_U+30A4_U+30E4_U+30FC 1
 62
   179
420
  2234388
370
     9
100
AcDbVertex
100
AcDb2dVertex
 10
112.2501818584815
 20
-121.3002752474529
 30
0.0
  0
VERTEX
  5
DC
330
DA
100
AcDbEntity
  8
_U+30EC_U+30A4_U+30E4_U+30FC 1
 62
   179
420
  2234388
370
     9
100
AcDbVertex
100
AcDb2dVertex
 10
112.2501818584815
 20
-122.2001055250056
 30
0.0
  0
SEQEND
  5
DD
330
DA
100
AcDbEntity
  8
_U+30EC_U+30A4_U+30E4_U+30FC 1
 62
   179
420
  2234388
370
     9
  0
POLYLINE
  5
DE
330
1F
100
AcDbEntity
  8
_U+30EC_U+30A4_U+30E4_U+30FC 1
 62
   179
420
  2234388
370
     9
100
AcDb2dPolyline
 66
     1
 10
0.0
 20
0.0
 30
0.0
  0
VERTEX
  5
DF
330
DE
100
AcDbEntity
  8
_U+30EC_U+30A4_U+30E4_U+30FC 1
 62
   179
420
  2234388
370
     9
100
AcDbVertex
100
AcDb2dVertex
 10
110.7901405068414
 20
-121.3002752474529
 30
0.0
  0
VERTEX
  5
E0
330
DE
100
AcDbEntity
  8
_U+30EC_U+30A4_U+30E4_U+30FC 1
 62
   179
420
  2234388
370
     9
100
AcDbVertex
100
AcDb2dVertex
 10
113.2499187774205
 20
-121.3002752474529
 30
0.0
  0
SEQEND
  5
E1
330
DE
100
AcDbEntity
  8
_U+30EC_U+30A4_U+30E4_U+30FC 1
 62
   179
420
  2234388
370
     9
  0
POLYLINE
  5
E2
330
1F
100
AcDbEntity
  8
_U+30EC_U+30A4_U+30E4_U+30FC 1
 62
   179
420
  2234388
370
     9
100
AcDb2dPolyline
 66
     1
 10
0.0
 20
0.0
 30
0.0
  0
VERTEX
  5
E3
330
E2
100
AcDbEntity
  8
_U+30EC_U+30A4_U+30E4_U+30FC 1
 62
   179
420
  2234388
370
     9
100
AcDbVertex
100
AcDb2dVertex
 10
110.7901405068414
 20
-122.2001055250056
 30
0.0
  0
VERTEX
  5
E4
330
E2
100
AcDbEntity
  8
_U+30EC_U+30A4_U+30E4_U+30FC 1
 62
   179
420
  2234388
370
     9
100
AcDbVertex
100
AcDb2dVertex
 10
113.2499187774205
 20
-122.2001055250056
 30
0.0
  0
SEQEND
  5
E5
330
E2
100
AcDbEntity
  8
_U+30EC_U+30A4_U+30E4_U+30FC 1
 62
   179
420
  2234388
370
     9
  0
INSERT
  5
E7
330
1F
100
AcDbEntity
  8
_U+30EC_U+30A4_U+30E4_U+30FC 1
100
AcDbBlockReference
  2
block 3
 10
0.0
 20
0.0
 30
0.0
  0
POLYLINE
  5
F8
330
1F
100
AcDbEntity
  8
_U+30EC_U+30A4_U+30E4_U+30FC 1
 62
   179
420
  2234388
370
     9
100
AcDb2dPolyline
 66
     1
 10
0.0
 20
0.0
 30
0.0
  0
VERTEX
  5
F9
330
F8
100
AcDbEntity
  8
_U+30EC_U+30A4_U+30E4_U+30FC 1
 62
   179
420
  2234388
370
     9
100
AcDbVertex
100
AcDb2dVertex
 10
68.24976298102571
 20
-117.2998105262305
 30
0.0
  0
VERTEX
  5
FA
330
F8
100
AcDbEntity
  8
_U+30EC_U+30A4_U+30E4_U+30FC 1
 62
   179
420
  2234388
370
     9
100
AcDbVertex
100
AcDb2dVertex
 10
108.2500700160884
 20
-117.2998105262305
 30
0.0
  0
SEQEND
  5
FB
330
F8
100
AcDbEntity
  8
_U+30EC_U+30A4_U+30E4_U+30FC 1
 62
   179
420
  2234388
370
     9
  0
POLYLINE
  5
FC
330
1F
100
AcDbEntity
  8
_U+30EC_U+30A4_U+30E4_U+30FC 1
 62
   179
420
  2234388
370
     9
100
AcDb2dPolyline
 66
     1
 10
0.0
 20
0.0
 30
0.0
  0
VERTEX
  5
FD
330
FC
100
AcDbEntity
  8
_U+30EC_U+30A4_U+30E4_U+30FC 1
 62
   179
420
  2234388
370
     9
100
AcDbVertex
100
AcDb2dVertex
 10
68.24976298102571
 20
-118.7598519147545
 30
0.0
  0
VERTEX
  5
FE
330
FC
100
AcDbEntity
  8
_U+30EC_U+30A4_U+30E4_U+30FC 1
 62
   179
420
  2234388
370
     9
100
AcDbVertex
100
AcDb2dVertex
 10
68.24976298102571
 20
-116.3000383042583
 30
0.0
  0
SEQEND
  5
FF
330
FC
100
AcDbEntity
  8
_U+30EC_U+30A4_U+30E4_U+30FC 1
 62
   179
420
  2234388
370
     9
  0
POLYLINE
  5
100
330
1F
100
AcDbEntity
  8
_U+30EC_U+30A4_U+30E4_U+30FC 1
 62
   179
420
  2234388
370
     9
100
AcDb2dPolyline
 66
     1
 10
0.0
 20
0.0
 30
0.0
  0
VERTEX
  5
101
330
100
100
AcDbEntity
  8
_U+30EC_U+30A4_U+30E4_U+30FC 1
 62
   179
420
  2234388
370
     9
100
AcDbVertex
100
AcDb2dVertex
 10
108.2500700160884
 20
-118.7598519147545
 30
0.0
  0
VERTEX
  5
102
330
100
100
AcDbEntity
  8
_U+30EC_U+30A4_U+30E4_U+30FC 1
 62
   179
420
  2234388
370
     9
100
AcDbVertex
100
AcDb2dVertex
 10
108.2500700160884
 20
-116.3000383042583
 30
0.0
  0
SEQEND
  5
103
330
100
100
AcDbEntity
  8
_U+30EC_U+30A4_U+30E4_U+30FC 1
 62
   179
420
  2234388
370
     9
  0
INSERT
  5
105
330
1F
100
AcDbEntity
  8
_U+30EC_U+30A4_U+30E4_U+30FC 1
100
AcDbBlockReference
  2
block 4
 10
0.0
 20
0.0
 30
0.0
  0
POLYLINE
  5
120
330
1F
100
AcDbEntity
  8
_U+30EC_U+30A4_U+30E4_U+30FC 1
 62
   179
420
  2234388
370
     9
100
AcDb2dPolyline
 66
     1
 10
0.0
 20
0.0
 30
0.0
  0
VERTEX
  5
121
330
120
100
AcDbEntity
  8
_U+30EC_U+30A4_U+30E4_U+30FC 1
 62
   179
420
  2234388
370
     9
100
AcDbVertex
100
AcDb2dVertex
 10
68.24976298102571
 20
-142.2004535755612
 30
0.0
  0
VERTEX
  5
122
330
120
100
AcDbEntity
  8
_U+30EC_U+30A4_U+30E4_U+30FC 1
 62
   179
420
  2234388
370
     9
100
AcDbVertex
100
AcDb2dVertex
 10
80.24971045265931
 20
-142.2004535755612
 30
0.0
  0
SEQEND
  5
123
330
120
100
AcDbEntity
  8
_U+30EC_U+30A4_U+30E4_U+30FC 1
 62
   179
420
  2234388
370
     9
  0
POLYLINE
  5
124
330
1F
100
AcDbEntity
  8
_U+30EC_U+30A4_U+30E4_U+30FC 1
 62
   179
420
  2234388
370
     9
100
AcDb2dPolyline
 66
     1
 10
0.0
 20
0.0
 30
0.0
  0
VERTEX
  5
125
330
124
100
AcDbEntity
  8
_U+30EC_U+30A4_U+30E4_U+30FC 1
 62
   179
420
  2234388
370
     9
100
AcDbVertex
100
AcDb2dVertex
 10
68.24976298102571
 20
-124.7398585799263
 30
0.0
  0
VERTEX
  5
126
330
124
100
AcDbEntity
  8
_U+30EC_U+30A4_U+30E4_U+30FC 1
 62
   179
420
  2234388
370
     9
100
AcDbVertex
100
AcDb2dVertex
 10
68.24976298102571
 20
-143.2002257975331
 30
0.0
  0
SEQEND
  5
127
330
124
100
AcDbEntity
  8
_U+30EC_U+30A4_U+30E4_U+30FC 1
 62
   179
420
  2234388
370
     9
  0
INSERT
  5
129
330
1F
100
AcDbEntity
  8
_U+30EC_U+30A4_U+30E4_U+30FC 1
100
AcDbBlockReference
  2
block 5
 10
0.0
 20
0.0
 30
0.0
  0
POLYLINE
  5
130
330
1F
100
AcDbEntity
  8
_U+30EC_U+30A4_U+30E4_U+30FC 1
 62
   179
420
  2234388
370
     9
100
AcDb2dPolyline
 66
     1
 10
0.0
 20
0.0
 30
0.0
  0
VERTEX
  5
131
330
130
100
AcDbEntity
  8
_U+30EC_U+30A4_U+30E4_U+30FC 1
 62
   179
420
  2234388
370
     9
100
AcDbVertex
100
AcDb2dVertex
 10
112.2501818584815
 20
-138.1999888543388
 30
0.0
  0
VERTEX
  5
132
330
130
100
AcDbEntity
  8
_U+30EC_U+30A4_U+30E4_U+30FC 1
 62
   179
420
  2234388
370
     9
100
AcDbVertex
100
AcDb2dVertex
 10
112.2501818584815
 20
-135.2000019106444
 30
0.0
  0
SEQEND
  5
133
330
130
100
AcDbEntity
  8
_U+30EC_U+30A4_U+30E4_U+30FC 1
 62
   179
420
  2234388
370
     9
  0
POLYLINE
  5
134
330
1F
100
AcDbEntity
  8
_U+30EC_U+30A4_U+30E4_U+30FC 1
 62
   179
420
  2234388
370
     9
100
AcDb2dPolyline
 66
     1
 10
0.0
 20
0.0
 30
0.0
  0
VERTEX
  5
135
330
134
100
AcDbEntity
  8
_U+30EC_U+30A4_U+30E4_U+30FC 1
 62
   179
420
  2234388
370
     9
100
AcDbVertex
100
AcDb2dVertex
 10
92.78986652162217
 20
-138.1999888543388
 30
0.0
  0
VERTEX
  5
136
330
134
100
AcDbEntity
  8
_U+30EC_U+30A4_U+30E4_U+30FC 1
 62
   179
420
  2234388
370
     9
100
AcDbVertex
100
AcDb2dVertex
 10
113.2499187774205
 20
-138.1999888543388
 30
0.0
  0
SEQEND
  5
137
330
134
100
AcDbEntity
  8
_U+30EC_U+30A4_U+30E4_U+30FC 1
 62
   179
420
  2234388
370
     9
  0
INSERT
  5
139
330
1F
100
AcDbEntity
  8
_U+30EC_U+30A4_U+30E4_U+30FC 1
100
AcDbBlockReference
  2
block 6
 10
0.0
 20
0.0
 30
0.0
  0
POLYLINE
  5
13E
330
1F
100
AcDbEntity
  8
_U+30EC_U+30A4_U+30E4_U+30FC 1
 62
   179
420
  2234388
370
     9
100
AcDb2dPolyline
 66
     1
 10
0.0
 20
0.0
 30
0.0
  0
VERTEX
  5
13F
330
13E
100
AcDbEntity
  8
_U+30EC_U+30A4_U+30E4_U+30FC 1
 62
   179
420
  2234388
370
     9
100
AcDbVertex
100
AcDb2dVertex
 10
112.2501818584815
 20
-135.2000019106444
 30
0.0
  0
VERTEX
  5
140
330
13E
100
AcDbEntity
  8
_U+30EC_U+30A4_U+30E4_U+30FC 1
 62
   179
420
  2234388
370
     9
100
AcDbVertex
100
AcDb2dVertex
 10
112.2501818584815
 20
-122.2001055250056
 30
0.0
  0
SEQEND
  5
141
330
13E
100
AcDbEntity
  8
_U+30EC_U+30A4_U+30E4_U+30FC 1
 62
   179
420
  2234388
370
     9
  0
POLYLINE
  5
142
330
1F
100
AcDbEntity
  8
_U+30EC_U+30A4_U+30E4_U+30FC 1
 62
   179
420
  2234388
370
     9
100
AcDb2dPolyline
 66
     1
 10
0.0
 20
0.0
 30
0.0
  0
VERTEX
  5
143
330
142
100
AcDbEntity
  8
_U+30EC_U+30A4_U+30E4_U+30FC 1
 62
   179
420
  2234388
370
     9
100
AcDbVertex
100
AcDb2dVertex
 10
92.78986652162217
 20
-135.2000019106444
 30
0.0
  0
VERTEX
  5
144
330
142
100
AcDbEntity
  8
_U+30EC_U+30A4_U+30E4_U+30FC 1
 62
   179
420
  2234388
370
     9
100
AcDbVertex
100
AcDb2dVertex
 10
113.2499187774205
 20
-135.2000019106444
 30
0.0
  0
SEQEND
  5
145
330
142
100
AcDbEntity
  8
_U+30EC_U+30A4_U+30E4_U+30FC 1
 62
   179
420
  2234388
370
     9
  0
INSERT
  5
147
330
1F
100
AcDbEntity
  8
_U+30EC_U+30A4_U+30E4_U+30FC 1
100
AcDbBlockReference
  2
block 7
 10
0.0
 20
0.0
 30
0.0
  0
ENDSEC
  0
SECTION
  2
OBJECTS
  0
DICTIONARY
  5
C
330
0
100
AcDbDictionary
281
     1
  3
ACAD_GROUP
350
D
  3
ACAD_LAYOUT
350
1A
  3
ACAD_MATERIAL
350
3B
  3
ACAD_MLEADERSTYLE
350
14F
  3
ACAD_MLINESTYLE
350
17
  3
ACAD_PLOTSETTINGS
350
19
  3
ACAD_PLOTSTYLENAME
350
E
  3
ACAD_TABLESTYLE
350
14E
  3
ACAD_VISUALSTYLE
350
2A
  0
SUN
  5
3F
330
29
100
AcDbSun
 90
        1
290
     0
 63
     7
421
 16777215
 40
1.0
291
     1
 91
  2455826
 92
 54000000
292
     0
 70
     2
 71
   256
280
     1
  0
DICTIONARY
  5
D
102
{ACAD_REACTORS
330
C
102
}
330
C
100
AcDbDictionary
281
     1
  0
DICTIONARY
  5
1A
102
{ACAD_REACTORS
330
C
102
}
330
C
100
AcDbDictionary
281
     1
  3
Layout1
350
1E
  3
Layout2
350
26
  3
Model
350
22
  0
DICTIONARY
  5
3B
102
{ACAD_REACTORS
330
C
102
}
330
C
100
AcDbDictionary
281
     1
  3
ByBlock
350
3D
  3
ByLayer
350
3C
  3
Global
350
3E
  0
DICTIONARY
  5
14F
102
{ACAD_REACTORS
330
C
102
}
330
C
100
AcDbDictionary
281
     1
  0
DICTIONARY
  5
17
102
{ACAD_REACTORS
330
C
102
}
330
C
100
AcDbDictionary
281
     1
  3
Standard
350
18
  0
DICTIONARY
  5
19
102
{ACAD_REACTORS
330
C
102
}
330
C
100
AcDbDictionary
281
     1
  0
ACDBDICTIONARYWDFLT
  5
E
102
{ACAD_REACTORS
330
C
102
}
330
C
100
AcDbDictionary
281
     1
  3
Normal
350
F
100
AcDbDictionaryWithDefault
340
F
  0
DICTIONARY
  5
14E
102
{ACAD_REACTORS
330
C
102
}
330
C
100
AcDbDictionary
281
     1
  0
DICTIONARY
  5
2A
102
{ACAD_REACTORS
330
C
102
}
330
C
100
AcDbDictionary
281
     1
  3
2dWireframe
350
2F
  3
3D Hidden
350
31
  3
3dWireframe
350
30
  3
Basic
350
32
  3
Brighten
350
36
  3
ColorChange
350
3A
  3
Conceptual
350
34
  3
Dim
350
35
  3
Facepattern
350
39
  3
Flat
350
2B
  3
FlatWithEdges
350
2C
  3
Gouraud
350
2D
  3
GouraudWithEdges
350
2E
  3
Linepattern
350
38
  3
Realistic
350
33
  3
Thicken
350
37
  0
LAYOUT
  5
1E
102
{ACAD_REACTORS
330
1A
102
}
330
1A
100
AcDbPlotSettings
  1

  2
none_device
  4

  6

 40
0.0
 41
0.0
 42
0.0
 43
0.0
 44
0.0
 45
0.0
 46
0.0
 47
0.0
 48
0.0
 49
0.0
140
0.0
141
0.0
142
1.0
143
1.0
 70
   688
 72
     0
 73
     0
 74
     5
  7

 75
    16
 76
     0
 77
     2
 78
   300
147
1.0
148
0.0
149
0.0
100
AcDbLayout
  1
Layout1
 70
     1
 71
     1
 10
0.0
 20
0.0
 11
12.0
 21
9.0
 12
0.0
 22
0.0
 32
0.0
 14
1.000000000000000E+20
 24
1.000000000000000E+20
 34
1.000000000000000E+20
 15
-1.000000000000000E+20
 25
-1.000000000000000E+20
 35
-1.000000000000000E+20
146
0.0
 13
0.0
 23
0.0
 33
0.0
 16
1.0
 26
0.0
 36
0.0
 17
0.0
 27
1.0
 37
0.0
 76
     0
330
1B
  0
LAYOUT
  5
26
102
{ACAD_REACTORS
330
1A
102
}
330
1A
100
AcDbPlotSettings
  1

  2
none_device
  4

  6

 40
0.0
 41
0.0
 42
0.0
 43
0.0
 44
0.0
 45
0.0
 46
0.0
 47
0.0
 48
0.0
 49
0.0
140
0.0
141
0.0
142
1.0
143
1.0
 70
   688
 72
     0
 73
     0
 74
     5
  7

 75
    16
 76
     0
 77
     2
 78
   300
147
1.0
148
0.0
149
0.0
100
AcDbLayout
  1
Layout2
 70
     1
 71
     2
 10
0.0
 20
0.0
 11
0.0
 21
0.0
 12
0.0
 22
0.0
 32
0.0
 14
0.0
 24
0.0
 34
0.0
 15
0.0
 25
0.0
 35
0.0
146
0.0
 13
0.0
 23
0.0
 33
0.0
 16
1.0
 26
0.0
 36
0.0
 17
0.0
 27
1.0
 37
0.0
 76
     0
330
23
  0
LAYOUT
  5
22
102
{ACAD_REACTORS
330
1A
102
}
330
1A
100
AcDbPlotSettings
  1

  2
none_device
  4

  6

 40
0.0
 41
0.0
 42
0.0
 43
0.0
 44
0.0
 45
0.0
 46
0.0
 47
0.0
 48
0.0
 49
0.0
140
0.0
141
0.0
142
1.0
143
1.0
 70
  1712
 72
     0
 73
     0
 74
     0
  7

 75
     0
 76
     0
 77
     2
 78
   300
147
1.0
148
0.0
149
0.0
100
AcDbLayout
  1
Model
 70
     1
 71
     0
 10
0.0
 20
0.0
 11
12.0
 21
9.0
 12
0.0
 22
0.0
 32
0.0
 14
1.000000000000000E+20
 24
1.000000000000000E+20
 34
1.000000000000000E+20
 15
-1.000000000000000E+20
 25
-1.000000000000000E+20
 35
-1.000000000000000E+20
146
0.0
 13
0.0
 23
0.0
 33
0.0
 16
1.0
 26
0.0
 36
0.0
 17
0.0
 27
1.0
 37
0.0
 76
     0
330
1F
331
29
  0
MATERIAL
  5
3D
102
{ACAD_REACTORS
330
3B
102
}
330
3B
100
AcDbMaterial
  1
ByBlock
 72
     1
 94
      127
  0
MATERIAL
  5
3C
102
{ACAD_REACTORS
330
3B
102
}
330
3B
100
AcDbMaterial
  1
ByLayer
 72
     1
 94
      127
  0
MATERIAL
  5
3E
102
{ACAD_REACTORS
330
3B
102
}
330
3B
100
AcDbMaterial
  1
Global
 72
     1
 94
      127
  0
MLINESTYLE
  5
18
102
{ACAD_REACTORS
330
17
102
}
330
17
100
AcDbMlineStyle
  2
Standard
 70
     0
  3

 62
   256
 51
90.0
 52
90.0
 71
     2
 49
0.5
 62
   256
  6
BYLAYER
 49
-0.5
 62
   256
  6
BYLAYER
  0
ACDBPLACEHOLDER
  5
F
102
{ACAD_REACTORS
330
E
102
}
330
E
  0
VISUALSTYLE
  5
2F
102
{ACAD_REACTORS
330
2A
102
}
330
2A
100
AcDbVisualStyle
  2
2dWireframe
 70
     4
177
     2
291
     0
 71
     0
176
     1
 72
     2
176
     1
 73
     0
176
     1
 90
        0
176
     1
 40
-0.6
176
     1
 41
-30.0
176
     1
 62
     5
 63
     7
421
 16777215
176
     1
 74
     1
176
     1
 91
        4
176
     1
 64
     7
176
     1
 65
   257
176
     1
 75
     1
176
     1
175
     1
176
     1
 42
1.0
176
     1
 92
        0
176
     1
 66
   257
176
     1
 43
1.0
176
     1
 76
     1
176
     1
 77
     6
176
     1
 78
     2
176
     1
 67
     7
176
     1
 79
     5
176
     1
170
     0
176
     1
171
     0
176
     1
290
     0
176
     1
 93
        1
176
     1
 44
0.0
176
     1
173
     0
176
     1
  0
VISUALSTYLE
  5
31
102
{ACAD_REACTORS
330
2A
102
}
330
2A
100
AcDbVisualStyle
  2
3D Hidden
 70
     6
177
     2
291
     0
 71
     1
176
     1
 72
     2
176
     1
 73
     2
176
     1
 90
        0
176
     1
 40
-0.6
176
     1
 41
-30.0
176
     1
 62
     5
 63
     7
421
 16777215
176
     1
 74
     2
176
     1
 91
        2
176
     1
 64
     7
176
     1
 65
   257
176
     1
 75
     2
176
     1
175
     1
176
     1
 42
40.0
176
     1
 92
        0
176
     1
 66
   257
176
     1
 43
1.0
176
     1
 76
     1
176
     1
 77
     6
176
     1
 78
     2
176
     1
 67
     7
176
     1
 79
     3
176
     1
170
     0
176
     1
171
     0
176
     1
290
     0
176
     1
 93
        1
176
     1
 44
0.0
176
     1
173
     0
176
     1
  0
VISUALSTYLE
  5
30
102
{ACAD_REACTORS
330
2A
102
}
330
2A
100
AcDbVisualStyle
  2
3dWireframe
 70
     5
177
     2
291
     0
 71
     0
176
     1
 72
     2
176
     1
 73
     0
176
     1
 90
        0
176
     1
 40
-0.6
176
     1
 41
-30.0
176
     1
 62
     5
 63
     7
421
 16777215
176
     1
 74
     1
176
     1
 91
        4
176
     1
 64
     7
176
     1
 65
   257
176
     1
 75
     1
176
     1
175
     1
176
     1
 42
1.0
176
     1
 92
        0
176
     1
 66
   257
176
     1
 43
1.0
176
     1
 76
     1
176
     1
 77
     6
176
     1
 78
     2
176
     1
 67
     7
176
     1
 79
     5
176
     1
170
     0
176
     1
171
     0
176
     1
290
     0
176
     1
 93
        1
176
     1
 44
0.0
176
     1
173
     0
176
     1
  0
VISUALSTYLE
  5
32
102
{ACAD_REACTORS
330
2A
102
}
330
2A
100
AcDbVisualStyle
  2
Basic
 70
     7
177
     2
291
     1
 71
     1
176
     1
 72
     0
176
     1
 73
     1
176
     1
 90
        0
176
     1
 40
-0.6
176
     1
 41
-30.0
176
     1
 62
     5
 63
     7
421
 16777215
176
     1
 74
     0
176
     1
 91
        4
176
     1
 64
     7
176
     1
 65
   257
176
     1
 75
     1
176
     1
175
     1
176
     1
 42
1.0
176
     1
 92
        8
176
     1
 66
     7
176
     1
 43
1.0
176
     1
 76
     1
176
     1
 77
     6
176
     1
 78
     2
176
     1
 67
     7
176
     1
 79
     5
176
     1
170
     0
176
     1
171
     0
176
     1
290
     0
176
     1
 93
        1
176
     1
 44
0.0
176
     1
173
     0
176
     1
  0
VISUALSTYLE
  5
36
102
{ACAD_REACTORS
330
2A
102
}
330
2A
100
AcDbVisualStyle
  2
Brighten
 70
    12
177
     2
291
     1
 71
     2
176
     1
 72
     2
176
     1
 73
     0
176
     1
 90
        0
176
     1
 40
-0.6
176
     1
 41
-30.0
176
     1
 62
     5
 63
     7
421
 16777215
176
     1
 74
     1
176
     1
 91
        4
176
     1
 64
     7
176
     1
 65
   257
176
     1
 75
     1
176
     1
175
     1
176
     1
 42
1.0
176
     1
 92
        8
176
     1
 66
     7
176
     1
 43
1.0
176
     1
 76
     1
176
     1
 77
     6
176
     1
 78
     2
176
     1
 67
     7
176
     1
 79
     5
176
     1
170
     0
176
     1
171
     0
176
     1
290
     0
176
     1
 93
        1
176
     1
 44
50.0
176
     1
173
     0
176
     1
  0
VISUALSTYLE
  5
3A
102
{ACAD_REACTORS
330
2A
102
}
330
2A
100
AcDbVisualStyle
  2
ColorChange
 70
    16
177
     2
291
     1
 71
     2
176
     1
 72
     2
176
     1
 73
     3
176
     1
 90
        0
176
     1
 40
-0.6
176
     1
 41
-30.0
176
     1
 62
     5
 63
     8
421
  8421504
176
     1
 74
     1
176
     1
 91
        4
176
     1
 64
     7
176
     1
 65
   257
176
     1
 75
     1
176
     1
175
     1
176
     1
 42
1.0
176
     1
 92
        8
176
     1
 66
     8
424
  8421504
176
     1
 43
1.0
176
     1
 76
     1
176
     1
 77
     6
176
     1
 78
     2
176
     1
 67
     7
176
     1
 79
     5
176
     1
170
     0
176
     1
171
     0
176
     1
290
     0
176
     1
 93
        1
176
     1
 44
0.0
176
     1
173
     0
176
     1
  0
VISUALSTYLE
  5
34
102
{ACAD_REACTORS
330
2A
102
}
330
2A
100
AcDbVisualStyle
  2
Conceptual
 70
     9
177
     2
291
     0
 71
     3
176
     1
 72
     2
176
     1
 73
     0
176
     1
 90
        0
176
     1
 40
-0.6
176
     1
 41
-30.0
176
     1
 62
     5
 63
     7
421
 16777215
176
     1
 74
     2
176
     1
 91
        2
176
     1
 64
     7
176
     1
 65
   257
176
     1
 75
     1
176
     1
175
     1
176
     1
 42
40.0
176
     1
 92
        8
176
     1
 66
     7
176
     1
 43
1.0
176
     1
 76
     1
176
     1
 77
     6
176
     1
 78
     2
176
     1
 67
     7
176
     1
 79
     3
176
     1
170
     0
176
     1
171
     0
176
     1
290
     0
176
     1
 93
        1
176
     1
 44
0.0
176
     1
173
     0
176
     1
  0
VISUALSTYLE
  5
35
102
{ACAD_REACTORS
330
2A
102
}
330
2A
100
AcDbVisualStyle
  2
Dim
 70
    11
177
     2
291
     1
 71
     2
176
     1
 72
     2
176
     1
 73
     0
176
     1
 90
        0
176
     1
 40
-0.6
176
     1
 41
-30.0
176
     1
 62
     5
 63
     7
421
 16777215
176
     1
 74
     1
176
     1
 91
        4
176
     1
 64
     7
176
     1
 65
   257
176
     1
 75
     1
176
     1
175
     1
176
     1
 42
1.0
176
     1
 92
        8
176
     1
 66
     7
176
     1
 43
1.0
176
     1
 76
     1
176
     1
 77
     6
176
     1
 78
     2
176
     1
 67
     7
176
     1
 79
     5
176
     1
170
     0
176
     1
171
     0
176
     1
290
     0
176
     1
 93
        1
176
     1
 44
-50.0
176
     1
173
     0
176
     1
  0
VISUALSTYLE
  5
39
102
{ACAD_REACTORS
330
2A
102
}
330
2A
100
AcDbVisualStyle
  2
Facepattern
 70
    15
177
     2
291
     1
 71
     2
176
     1
 72
     2
176
     1
 73
     0
176
     1
 90
        0
176
     1
 40
-0.6
176
     1
 41
-30.0
176
     1
 62
     5
 63
     7
421
 16777215
176
     1
 74
     1
176
     1
 91
        4
176
     1
 64
     7
176
     1
 65
   257
176
     1
 75
     1
176
     1
175
     1
176
     1
 42
1.0
176
     1
 92
        8
176
     1
 66
     7
176
     1
 43
1.0
176
     1
 76
     1
176
     1
 77
     6
176
     1
 78
     2
176
     1
 67
     7
176
     1
 79
     5
176
     1
170
     0
176
     1
171
     0
176
     1
290
     0
176
     1
 93
        1
176
     1
 44
0.0
176
     1
173
     0
176
     1
  0
VISUALSTYLE
  5
2B
102
{ACAD_REACTORS
330
2A
102
}
330
2A
100
AcDbVisualStyle
  2
Flat
 70
     0
177
     2
291
     1
 71
     2
176
     1
 72
     1
176
     1
 73
     1
176
     1
 90
        2
176
     1
 40
-0.6
176
     1
 41
30.0
176
     1
 62
     5
 63
     7
421
 16777215
176
     1
 74
     0
176
     1
 91
        4
176
     1
 64
     7
176
     1
 65
   257
176
     1
 75
     1
176
     1
175
     1
176
     1
 42
1.0
176
     1
 92
        8
176
     1
 66
     7
176
     1
 43
1.0
176
     1
 76
     1
176
     1
 77
     6
176
     1
 78
     2
176
     1
 67
     7
176
     1
 79
     5
176
     1
170
     0
176
     1
171
     0
176
     1
290
     0
176
     1
 93
       13
176
     1
 44
0.0
176
     1
173
     0
176
     1
  0
VISUALSTYLE
  5
2C
102
{ACAD_REACTORS
330
2A
102
}
330
2A
100
AcDbVisualStyle
  2
FlatWithEdges
 70
     1
177
     2
291
     1
 71
     2
176
     1
 72
     1
176
     1
 73
     1
176
     1
 90
        2
176
     1
 40
-0.6
176
     1
 41
30.0
176
     1
 62
     5
 63
     7
421
 16777215
176
     1
 74
     1
176
     1
 91
        4
176
     1
 64
     7
176
     1
 65
   257
176
     1
 75
     1
176
     1
175
     1
176
     1
 42
1.0
176
     1
 92
        0
176
     1
 66
   257
176
     1
 43
1.0
176
     1
 76
     1
176
     1
 77
     6
176
     1
 78
     2
176
     1
 67
     7
176
     1
 79
     5
176
     1
170
     0
176
     1
171
     0
176
     1
290
     0
176
     1
 93
       13
176
     1
 44
0.0
176
     1
173
     0
176
     1
  0
VISUALSTYLE
  5
2D
102
{ACAD_REACTORS
330
2A
102
}
330
2A
100
AcDbVisualStyle
  2
Gouraud
 70
     2
177
     2
291
     1
 71
     2
176
     1
 72
     2
176
     1
 73
     1
176
     1
 90
        2
176
     1
 40
-0.6
176
     1
 41
30.0
176
     1
 62
     5
 63
     7
421
 16777215
176
     1
 74
     0
176
     1
 91
        4
176
     1
 64
     7
176
     1
 65
   257
176
     1
 75
     1
176
     1
175
     1
176
     1
 42
1.0
176
     1
 92
        0
176
     1
 66
     7
176
     1
 43
1.0
176
     1
 76
     1
176
     1
 77
     6
176
     1
 78
     2
176
     1
 67
     7
176
     1
 79
     5
176
     1
170
     0
176
     1
171
     0
176
     1
290
     0
176
     1
 93
       13
176
     1
 44
0.0
176
     1
173
     0
176
     1
  0
VISUALSTYLE
  5
2E
102
{ACAD_REACTORS
330
2A
102
}
330
2A
100
AcDbVisualStyle
  2
GouraudWithEdges
 70
     3
177
     2
291
     1
 71
     2
176
     1
 72
     2
176
     1
 73
     1
176
     1
 90
        2
176
     1
 40
-0.6
176
     1
 41
30.0
176
     1
 62
     5
 63
     7
421
 16777215
176
     1
 74
     1
176
     1
 91
        4
176
     1
 64
     7
176
     1
 65
   257
176
     1
 75
     1
176
     1
175
     1
176
     1
 42
1.0
176
     1
 92
        0
176
     1
 66
   257
176
     1
 43
1.0
176
     1
 76
     1
176
     1
 77
     6
176
     1
 78
     2
176
     1
 67
     7
176
     1
 79
     5
176
     1
170
     0
176
     1
171
     0
176
     1
290
     0
176
     1
 93
       13
176
     1
 44
0.0
176
     1
173
     0
176
     1
  0
VISUALSTYLE
  5
38
102
{ACAD_REACTORS
330
2A
102
}
330
2A
100
AcDbVisualStyle
  2
Linepattern
 70
    14
177
     2
291
     1
 71
     2
176
     1
 72
     2
176
     1
 73
     0
176
     1
 90
        0
176
     1
 40
-0.6
176
     1
 41
-30.0
176
     1
 62
     5
 63
     7
421
 16777215
176
     1
 74
     1
176
     1
 91
        4
176
     1
 64
     7
176
     1
 65
   257
176
     1
 75
     7
176
     1
175
     7
176
     1
 42
1.0
176
     1
 92
        8
176
     1
 66
     7
176
     1
 43
1.0
176
     1
 76
     1
176
     1
 77
     6
176
     1
 78
     2
176
     1
 67
     7
176
     1
 79
     5
176
     1
170
     0
176
     1
171
     0
176
     1
290
     0
176
     1
 93
        1
176
     1
 44
0.0
176
     1
173
     0
176
     1
  0
VISUALSTYLE
  5
33
102
{ACAD_REACTORS
330
2A
102
}
330
2A
100
AcDbVisualStyle
  2
Realistic
 70
     8
177
     2
291
     0
 71
     2
176
     1
 72
     2
176
     1
 73
     0
176
     1
 90
        0
176
     1
 40
-0.6
176
     1
 41
-30.0
176
     1
 62
     5
 63
     7
421
 16777215
176
     1
 74
     1
176
     1
 91
        0
176
     1
 64
     7
176
     1
 65
   257
176
     1
 75
     1
176
     1
175
     1
176
     1
 42
1.0
176
     1
 92
        8
176
     1
 66
     8
424
  7895160
176
     1
 43
1.0
176
     1
 76
     1
176
     1
 77
     6
176
     1
 78
     2
176
     1
 67
     7
176
     1
 79
     5
176
     1
170
     0
176
     1
171
     0
176
     1
290
     0
176
     1
 93
       13
176
     1
 44
0.0
176
     1
173
     0
176
     1
  0
VISUALSTYLE
  5
37
102
{ACAD_REACTORS
330
2A
102
}
330
2A
100
AcDbVisualStyle
  2
Thicken
 70
    13
177
     2
291
     1
 71
     2
176
     1
 72
     2
176
     1
 73
     0
176
     1
 90
        0
176
     1
 40
-0.6
176
     1
 41
-30.0
176
     1
 62
     5
 63
     7
421
 16777215
176
     1
 74
     1
176
     1
 91
        4
176
     1
 64
     7
176
     1
 65
   257
176
     1
 75
     1
176
     1
175
     1
176
     1
 42
1.0
176
     1
 92
       12
176
     1
 66
     7
176
     1
 43
1.0
176
     1
 76
     1
176
     1
 77
     6
176
     1
 78
     2
176
     1
 67
     7
176
     1
 79
     5
176
     1
170
     0
176
     1
171
     0
176
     1
290
     0
176
     1
 93
        1
176
     1
 44
0.0
176
     1
173
     0
176
     1
  0
ENDSEC
  0
EOF
