  0
SECTION
  2
HEADER
  9
$ACADVER
  1
AC1024
  9
$ACADMAINTVER
 70
     6
  9
$DWGCODEPAGE
  3
UNDEFINED
  9
$INSBASE
 10
0.0
 20
0.0
 30
0.0
  9
$EXTMIN
 10
1.000000000000000E+20
 20
1.000000000000000E+20
 30
1.000000000000000E+20
  9
$EXTMAX
 10
-1.000000000000000E+20
 20
-1.000000000000000E+20
 30
-1.000000000000000E+20
  9
$LIMMIN
 10
0.0
 20
0.0
  9
$LIMMAX
 10
12.0
 20
9.0
  9
$ORTHOMODE
 70
     0
  9
$REGENMODE
 70
     1
  9
$FILLMODE
 70
     1
  9
$QTEXTMODE
 70
     0
  9
$MIRRTEXT
 70
     1
  9
$LTSCALE
 40
1.0
  9
$ATTMODE
 70
     1
  9
$TEXTSIZE
 40
0.2
  9
$TRACEWID
 40
0.05
  9
$TEXTSTYLE
  7
Standard
  9
$CLAYER
  8
0
  9
$CELTYPE
  6
ByLayer
  9
$CECOLOR
 62
   256
  9
$CELTSCALE
 40
1.0
  9
$DISPSILH
 70
     0
  9
$DIMSCALE
 40
1.0
  9
$DIMASZ
 40
0.18
  9
$DIMEXO
 40
0.0625
  9
$DIMDLI
 40
0.38
  9
$DIMRND
 40
0.0
  9
$DIMDLE
 40
0.0
  9
$DIMEXE
 40
0.18
  9
$DIMTP
 40
0.0
  9
$DIMTM
 40
0.0
  9
$DIMTXT
 40
0.18
  9
$DIMCEN
 40
0.09
  9
$DIMTSZ
 40
0.0
  9
$DIMTOL
 70
     0
  9
$DIMLIM
 70
     0
  9
$DIMTIH
 70
     1
  9
$DIMTOH
 70
     1
  9
$DIMSE1
 70
     0
  9
$DIMSE2
 70
     0
  9
$DIMTAD
 70
     0
  9
$DIMZIN
 70
     0
  9
$DIMBLK
  1

  9
$DIMASO
 70
     1
  9
$DIMSHO
 70
     1
  9
$DIMPOST
  1

  9
$DIMAPOST
  1

  9
$DIMALT
 70
     0
  9
$DIMALTD
 70
     2
  9
$DIMALTF
 40
25.4
  9
$DIMLFAC
 40
1.0
  9
$DIMTOFL
 70
     0
  9
$DIMTVP
 40
0.0
  9
$DIMTIX
 70
     0
  9
$DIMSOXD
 70
     0
  9
$DIMSAH
 70
     0
  9
$DIMBLK1
  1

  9
$DIMBLK2
  1

  9
$DIMSTYLE
  2
Standard
  9
$DIMCLRD
 70
     0
  9
$DIMCLRE
 70
     0
  9
$DIMCLRT
 70
     0
  9
$DIMTFAC
 40
1.0
  9
$DIMGAP
 40
0.09
  9
$DIMJUST
 70
     0
  9
$DIMSD1
 70
     0
  9
$DIMSD2
 70
     0
  9
$DIMTOLJ
 70
     1
  9
$DIMTZIN
 70
     0
  9
$DIMALTZ
 70
     0
  9
$DIMALTTZ
 70
     0
  9
$DIMUPT
 70
     0
  9
$DIMDEC
 70
     4
  9
$DIMTDEC
 70
     4
  9
$DIMALTU
 70
     2
  9
$DIMALTTD
 70
     2
  9
$DIMTXSTY
  7
Standard
  9
$DIMAUNIT
 70
     0
  9
$DIMADEC
 70
     0
  9
$DIMALTRND
 40
0.0
  9
$DIMAZIN
 70
     0
  9
$DIMDSEP
 70
    46
  9
$DIMATFIT
 70
     3
  9
$DIMFRAC
 70
     0
  9
$DIMLDRBLK
  1

  9
$DIMLUNIT
 70
     2
  9
$DIMLWD
 70
    -2
  9
$DIMLWE
 70
    -2
  9
$DIMTMOVE
 70
     0
  9
$DIMFXL
 40
1.0
  9
$DIMFXLON
 70
     0
  9
$DIMJOGANG
 40
0.7853981633974483
  9
$DIMTFILL
 70
     0
  9
$DIMTFILLCLR
 70
     0
  9
$DIMARCSYM
 70
     0
  9
$DIMLTYPE
  6

  9
$DIMLTEX1
  6

  9
$DIMLTEX2
  6

  9
$DIMTXTDIRECTION
 70
     0
  9
$LUNITS
 70
     2
  9
$LUPREC
 70
     4
  9
$SKETCHINC
 40
0.1
  9
$FILLETRAD
 40
0.5
  9
$AUNITS
 70
     0
  9
$AUPREC
 70
     0
  9
$MENU
  1
.
  9
$ELEVATION
 40
0.0
  9
$PELEVATION
 40
0.0
  9
$THICKNESS
 40
0.0
  9
$LIMCHECK
 70
     0
  9
$CHAMFERA
 40
0.5
  9
$CHAMFERB
 40
0.5
  9
$CHAMFERC
 40
1.0
  9
$CHAMFERD
 40
0.0
  9
$SKPOLY
 70
     0
  9
$TDCREATE
 40
2457917.612835636
  9
$TDUCREATE
 40
2457917.237835648
  9
$TDUPDATE
 40
2457917.612835636
  9
$TDUUPDATE
 40
2457917.237835648
  9
$TDINDWG
 40
0.0000000116
  9
$TDUSRTIMER
 40
0.0000000116
  9
$USRTIMER
 70
     1
  9
$ANGBASE
 50
0.0
  9
$ANGDIR
 70
     0
  9
$PDMODE
 70
     0
  9
$PDSIZE
 40
0.0
  9
$PLINEWID
 40
0.0
  9
$SPLFRAME
 70
     0
  9
$SPLINETYPE
 70
     6
  9
$SPLINESEGS
 70
     8
  9
$HANDSEED
  5
151
  9
$SURFTAB1
 70
     6
  9
$SURFTAB2
 70
     6
  9
$SURFTYPE
 70
     6
  9
$SURFU
 70
     6
  9
$SURFV
 70
     6
  9
$UCSBASE
  2

  9
$UCSNAME
  2

  9
$UCSORG
 10
0.0
 20
0.0
 30
0.0
  9
$UCSXDIR
 10
1.0
 20
0.0
 30
0.0
  9
$UCSYDIR
 10
0.0
 20
1.0
 30
0.0
  9
$UCSORTHOREF
  2

  9
$UCSORTHOVIEW
 70
     0
  9
$UCSORGTOP
 10
0.0
 20
0.0
 30
0.0
  9
$UCSORGBOTTOM
 10
0.0
 20
0.0
 30
0.0
  9
$UCSORGLEFT
 10
0.0
 20
0.0
 30
0.0
  9
$UCSORGRIGHT
 10
0.0
 20
0.0
 30
0.0
  9
$UCSORGFRONT
 10
0.0
 20
0.0
 30
0.0
  9
$UCSORGBACK
 10
0.0
 20
0.0
 30
0.0
  9
$PUCSBASE
  2

  9
$PUCSNAME
  2

  9
$PUCSORG
 10
0.0
 20
0.0
 30
0.0
  9
$PUCSXDIR
 10
1.0
 20
0.0
 30
0.0
  9
$PUCSYDIR
 10
0.0
 20
1.0
 30
0.0
  9
$PUCSORTHOREF
  2

  9
$PUCSORTHOVIEW
 70
     0
  9
$PUCSORGTOP
 10
0.0
 20
0.0
 30
0.0
  9
$PUCSORGBOTTOM
 10
0.0
 20
0.0
 30
0.0
  9
$PUCSORGLEFT
 10
0.0
 20
0.0
 30
0.0
  9
$PUCSORGRIGHT
 10
0.0
 20
0.0
 30
0.0
  9
$PUCSORGFRONT
 10
0.0
 20
0.0
 30
0.0
  9
$PUCSORGBACK
 10
0.0
 20
0.0
 30
0.0
  9
$USERI1
 70
     0
  9
$USERI2
 70
     0
  9
$USERI3
 70
     0
  9
$USERI4
 70
     0
  9
$USERI5
 70
     0
  9
$USERR1
 40
0.0
  9
$USERR2
 40
0.0
  9
$USERR3
 40
0.0
  9
$USERR4
 40
0.0
  9
$USERR5
 40
0.0
  9
$WORLDVIEW
 70
     1
  9
$SHADEDGE
 70
     3
  9
$SHADEDIF
 70
    70
  9
$TILEMODE
 70
     1
  9
$MAXACTVP
 70
    64
  9
$PINSBASE
 10
0.0
 20
0.0
 30
0.0
  9
$PLIMCHECK
 70
     0
  9
$PEXTMIN
 10
1.000000000000000E+20
 20
1.000000000000000E+20
 30
1.000000000000000E+20
  9
$PEXTMAX
 10
-1.000000000000000E+20
 20
-1.000000000000000E+20
 30
-1.000000000000000E+20
  9
$PLIMMIN
 10
0.0
 20
0.0
  9
$PLIMMAX
 10
12.0
 20
9.0
  9
$UNITMODE
 70
     0
  9
$VISRETAIN
 70
     1
  9
$PLINEGEN
 70
     0
  9
$PSLTSCALE
 70
     1
  9
$TREEDEPTH
 70
  3020
  9
$CMLSTYLE
  2
Standard
  9
$CMLJUST
 70
     0
  9
$CMLSCALE
 40
1.0
  9
$PROXYGRAPHICS
 70
     1
  9
$MEASUREMENT
 70
     0
  9
$CELWEIGHT
370
    -1
  9
$ENDCAPS
280
     0
  9
$JOINSTYLE
280
     0
  9
$LWDISPLAY
290
     1
  9
$INSUNITS
 70
     1
  9
$HYPERLINKBASE
  1

  9
$STYLESHEET
  1

  9
$XEDIT
290
     1
  9
$CEPSNTYPE
380
     0
  9
$PSTYLEMODE
290
     1
  9
$FINGERPRINTGUID
  2
{5D4816B3-CCB2-6434-04BE-CF2210D08C50}
  9
$VERSIONGUID
  2
{FAEB1C32-E019-11D5-929B-00C0DF256EC4}
  9
$EXTNAMES
290
     1
  9
$PSVPSCALE
 40
0.0
  9
$OLESTARTUP
290
     0
  9
$SORTENTS
280
   127
  9
$INDEXCTL
280
     0
  9
$HIDETEXT
280
     1
  9
$XCLIPFRAME
280
     2
  9
$HALOGAP
280
     0
  9
$OBSCOLOR
 70
   257
  9
$OBSLTYPE
280
     0
  9
$INTERSECTIONDISPLAY
280
     0
  9
$INTERSECTIONCOLOR
 70
   257
  9
$DIMASSOC
280
     2
  9
$PROJECTNAME
  1

  9
$CAMERADISPLAY
290
     0
  9
$LENSLENGTH
 40
50.0
  9
$CAMERAHEIGHT
 40
0.0
  9
$STEPSPERSEC
 40
2.0
  9
$STEPSIZE
 40
6.0
  9
$3DDWFPREC
 40
2.0
  9
$PSOLWIDTH
 40
0.25
  9
$PSOLHEIGHT
 40
4.0
  9
$LOFTANG1
 40
1.570796326794897
  9
$LOFTANG2
 40
1.570796326794897
  9
$LOFTMAG1
 40
0.0
  9
$LOFTMAG2
 40
0.0
  9
$LOFTPARAM
 70
     7
  9
$LOFTNORMALS
280
     1
  9
$LATITUDE
 40
37.795
  9
$LONGITUDE
 40
-122.394
  9
$NORTHDIRECTION
 40
0.0
  9
$TIMEZONE
 70
 -8000
  9
$LIGHTGLYPHDISPLAY
280
     1
  9
$TILEMODELIGHTSYNCH
280
     1
  9
$CMATERIAL
347
3C
  9
$SOLIDHIST
280
     1
  9
$SHOWHIST
280
     1
  9
$DWFFRAME
280
     2
  9
$DGNFRAME
280
     2
  9
$REALWORLDSCALE
290
     1
  9
$INTERFERECOLOR
 62
   256
  9
$CSHADOW
280
     0
  9
$SHADOWPLANELOCATION
 40
0.0
  0
ENDSEC
  0
SECTION
  2
CLASSES
  0
CLASS
  1
ACDBDICTIONARYWDFLT
  2
AcDbDictionaryWithDefault
  3
ObjectDBX Classes
 90
        0
 91
        4
280
     0
281
     0
  0
CLASS
  1
VISUALSTYLE
  2
AcDbVisualStyle
  3
ObjectDBX Classes
 90
     4095
 91
        4
280
     0
281
     0
  0
CLASS
  1
MATERIAL
  2
AcDbMaterial
  3
ObjectDBX Classes
 90
     1153
 91
        4
280
     0
281
     0
  0
CLASS
  1
SUN
  2
AcDbSun
  3
SCENEOE
 90
     1024
 91
        4
280
     0
281
     0
  0
ENDSEC
  0
SECTION
  2
TABLES
  0
TABLE
  2
VPORT
  5
8
330
0
100
AcDbSymbolTable
 70
     1
  0
VPORT
  5
29
330
8
100
AcDbSymbolTableRecord
100
AcDbViewportTableRecord
  2
*Active
 70
     0
 10
0.0
 20
0.0
 11
1.0
 21
1.0
 12
0.0
 22
0.0
 13
0.0
 23
0.0
 14
0.5
 24
0.5
 15
0.5
 25
0.5
 16
0.0
 26
0.0
 36
1.0
 17
91.00082462281999
 27
-128.4993055234307
 37
0.0
 40
256.9986110468615
 41
0.7081814508812795
 42
50.0
 43
0.0
 44
0.0
 50
0.0
 51
0.0
 71
     0
 72
   100
 73
     1
 74
     3
 75
     0
 76
     0
 77
     0
 78
     0
281
     0
 65
     1
110
0.0
120
0.0
130
0.0
111
1.0
121
0.0
131
0.0
112
0.0
122
1.0
132
0.0
 79
     0
146
0.0
 60
     3
 61
     5
292
     1
282
     1
141
0.0
142
0.0
 63
   250
361
3F
  0
ENDTAB
  0
TABLE
  2
LTYPE
  5
5
330
0
100
AcDbSymbolTable
 70
     1
  0
LTYPE
  5
14
330
5
100
AcDbSymbolTableRecord
100
AcDbLinetypeTableRecord
  2
ByBlock
 70
     0
  3

 72
    65
 73
     0
 40
0.0
  0
LTYPE
  5
15
330
5
100
AcDbSymbolTableRecord
100
AcDbLinetypeTableRecord
  2
ByLayer
 70
     0
  3

 72
    65
 73
     0
 40
0.0
  0
LTYPE
  5
16
330
5
100
AcDbSymbolTableRecord
100
AcDbLinetypeTableRecord
  2
Continuous
 70
     0
  3
Solid line
 72
    65
 73
     0
 40
0.0
  0
ENDTAB
  0
TABLE
  2
LAYER
  5
2
330
0
100
AcDbSymbolTable
 70
     2
  0
LAYER
  5
10
330
2
100
AcDbSymbolTableRecord
100
AcDbLayerTableRecord
  2
0
 70
     0
 62
     7
  6
Continuous
370
    -3
390
F
347
3E
  0
LAYER
  5
40
330
2
100
AcDbSymbolTableRecord
100
AcDbLayerTableRecord
  2
_U+30EC_U+30A4_U+30E4_U+30FC 1
 70
     0
 62
     7
  6
Continuous
370
    -3
390
F
347
3E
  0
ENDTAB
  0
TABLE
  2
STYLE
  5
3
330
0
100
AcDbSymbolTable
 70
     1
  0
STYLE
  5
11
330
3
100
AcDbSymbolTableRecord
100
AcDbTextStyleTableRecord
  2
Standard
 70
     0
 40
0.0
 41
1.0
 50
0.0
 71
     0
 42
0.2
  3
txt
  4

  0
ENDTAB
  0
TABLE
  2
VIEW
  5
6
330
0
100
AcDbSymbolTable
 70
     0
  0
ENDTAB
  0
TABLE
  2
UCS
  5
7
330
0
100
AcDbSymbolTable
 70
     0
  0
ENDTAB
  0
TABLE
  2
APPID
  5
9
330
0
100
AcDbSymbolTable
 70
     1
  0
APPID
  5
12
330
9
100
AcDbSymbolTableRecord
100
AcDbRegAppTableRecord
  2
ACAD
 70
     0
  0
ENDTAB
  0
TABLE
  2
DIMSTYLE
  5
A
330
0
100
AcDbSymbolTable
 70
     1
100
AcDbDimStyleTable
  0
DIMSTYLE
105
27
330
A
100
AcDbSymbolTableRecord
100
AcDbDimStyleTableRecord
  2
Standard
 70
     0
178
     0
340
11
  0
ENDTAB
  0
TABLE
  2
BLOCK_RECORD
  5
1
330
0
100
AcDbSymbolTable
 70
     7
  0
BLOCK_RECORD
  5
1F
330
1
100
AcDbSymbolTableRecord
100
AcDbBlockTableRecord
  2
*Model_Space
340
22
 70
     0
280
     1
281
     0
  0
BLOCK_RECORD
  5
1B
330
1
100
AcDbSymbolTableRecord
100
AcDbBlockTableRecord
  2
*Paper_Space
340
1E
 70
     0
280
     1
281
     0
  0
BLOCK_RECORD
  5
23
330
1
100
AcDbSymbolTableRecord
100
AcDbBlockTableRecord
  2
*Paper_Space0
340
26
 70
     0
280
     1
281
     0
  0
BLOCK_RECORD
  5
CD
330
1
100
AcDbSymbolTableRecord
100
AcDbBlockTableRecord
  2
block 2
340
0
102
{BLKREFS
331
CE
102
}
 70
     0
280
     1
281
     0
  0
BLOCK_RECORD
  5
E6
330
1
100
AcDbSymbolTableRecord
100
AcDbBlockTableRecord
  2
block 3
340
0
102
{BLKREFS
331
E7
102
}
 70
     0
280
     1
281
     0
  0
BLOCK_RECORD
  5
104
330
1
100
AcDbSymbolTableRecord
100
AcDbBlockTableRecord
  2
block 4
340
0
102
{BLKREFS
331
105
102
}
 70
     0
280
     1
281
     0
  0
BLOCK_RECORD
  5
128
330
1
100
AcDbSymbolTableRecord
100
AcDbBlockTableRecord
  2
block 5
340
0
102
{BLKREFS
331
129
102
}
 70
     0
280
     1
281
     0
  0
BLOCK_RECORD
  5
138
330
1
100
AcDbSymbolTableRecord
100
AcDbBlockTableRecord
  2
block 6
340
0
102
{BLKREFS
331
139
102
}
 70
     0
280
     1
281
     0
  0
BLOCK_RECORD
  5
149
330
1
100
AcDbSymbolTableRecord
100
AcDbBlockTableRecord
  2
block 7
340
0
102
{BLKREFS
331
14A
102
}
 70
     0
280
     1
281
     0
  0
ENDTAB
  0
ENDSEC
  0
SECTION
  2
BLOCKS
  0
BLOCK
  5
20
330
1F
100
AcDbEntity
  8
0
100
AcDbBlockBegin
  2
*Model_Space
 70
     0
 10
0.0
 20
0.0
 30
0.0
  3
*Model_Space
  1

  0
ENDBLK
  5
21
330
1F
100
AcDbEntity
  8
0
100
AcDbBlockEnd
  0
BLOCK
  5
1C
330
1B
100
AcDbEntity
 67
     1
  8
0
100
AcDbBlockBegin
  2
*Paper_Space
 70
     0
 10
0.0
 20
0.0
 30
0.0
  3
*Paper_Space
  1

  0
ENDBLK
  5
1D
330
1B
100
AcDbEntity
 67
     1
  8
0
100
AcDbBlockEnd
  0
BLOCK
  5
24
330
23
100
AcDbEntity
  8
0
100
AcDbBlockBegin
  2
*Paper_Space0
 70
     0
 10
0.0
 20
0.0
 30
0.0
  3
*Paper_Space0
  1

  0
ENDBLK
  5
25
330
23
100
AcDbEntity
  8
0
100
AcDbBlockEnd
  0
BLOCK
  5
CF
330
CD
100
AcDbEntity
  8
0
100
AcDbBlockBegin
  2
block 2
 70
     0
 10
0.0
 20
0.0
 30
0.0
  3
block 2
  1

  0
SPLINE
  5
D1
330
CD
100
AcDbEntity
  8
_U+30EC_U+30A4_U+30E4_U+30FC 1
370
     0
100
AcDbSpline
210
0.0
220
0.0
230
1.0
 70
    11
 71
     3
 72
    26
 73
    22
 74
     0
 42
0.0000000001
 43
0.0000000001
 12
1.0
 22
0.0
 32
0.0
 13
1.0
 23
0.0
 33
0.0
 40
0.0
 40
0.0
 40
0.0
 40
0.0
 40
1.0
 40
1.0
 40
1.0
 40
2.0
 40
2.0
 40
2.0
 40
3.0
 40
3.0
 40
3.0
 40
4.0
 40
4.0
 40
4.0
 40
5.0
 40
5.0
 40
5.0
 40
6.0
 40
6.0
 40
6.0
 40
7.0
 40
7.0
 40
7.0
 40
7.0
 10
84.5991427739891
 20
-140.1437282635752
 30
0.0
 10
84.5991427739891
 20
-140.1437282635752
 30
0.0
 10
84.5991427739891
 20
-139.0392306510041
 30
0.0
 10
84.5991427739891
 20
-139.0392306510041
 30
0.0
 10
84.5991427739891
 20
-139.0392306510041
 30
0.0
 10
84.24636499629952
 20
-139.0392306510041
 30
0.0
 10
84.24636499629952
 20
-139.0392306510041
 30
0.0
 10
84.24636499629952
 20
-139.0392306510041
 30
0.0
 10
84.24636499629952
 20
-138.8914360546869
 30
0.0
 10
84.24636499629952
 20
-138.8914360546869
 30
0.0
 10
84.60138208605451
 20
-138.8766221441003
 30
0.0
 10
84.65116371581638
 20
-138.713669127648
 30
0.0
 10
84.68268633950642
 20
-138.5992919575377
 30
0.0
 10
84.68268633950642
 20
-138.5992919575377
 30
0.0
 10
84.83874916498823
 20
-138.5992919575377
 30
0.0
 10
84.83874916498823
 20
-138.5992919575377
 30
0.0
 10
84.83874916498823
 20
-138.5992919575377
 30
0.0
 10
84.83874916498823
 20
-140.1437282635752
 30
0.0
 10
84.83874916498823
 20
-140.1437282635752
 30
0.0
 10
84.83874916498823
 20
-140.1437282635752
 30
0.0
 10
84.5991427739891
 20
-140.1437282635752
 30
0.0
 10
84.5991427739891
 20
-140.1437282635752
 30
0.0
  0
HATCH
  5
D2
330
CD
100
AcDbEntity
  8
_U+30EC_U+30A4_U+30E4_U+30FC 1
 62
   179
420
  2234388
100
AcDbHatch
 10
0.0
 20
0.0
 30
0.0
210
0.0
220
0.0
230
1.0
  2
SOLID
 70
     1
 71
     0
 91
        1
 92
        1
 93
        1
 72
     4
 94
        3
 73
     0
 74
     1
 95
       26
 96
       22
 40
0.0
 40
0.0
 40
0.0
 40
0.0
 40
1.0
 40
1.0
 40
1.0
 40
2.0
 40
2.0
 40
2.0
 40
3.0
 40
3.0
 40
3.0
 40
4.0
 40
4.0
 40
4.0
 40
5.0
 40
5.0
 40
5.0
 40
6.0
 40
6.0
 40
6.0
 40
7.0
 40
7.0
 40
7.0
 40
7.0
 10
84.5991427739891
 20
-140.1437282635752
 10
84.5991427739891
 20
-140.1437282635752
 10
84.5991427739891
 20
-139.0392306510041
 10
84.5991427739891
 20
-139.0392306510041
 10
84.5991427739891
 20
-139.0392306510041
 10
84.24636499629952
 20
-139.0392306510041
 10
84.24636499629952
 20
-139.0392306510041
 10
84.24636499629952
 20
-139.0392306510041
 10
84.24636499629952
 20
-138.8914360546869
 10
84.24636499629952
 20
-138.8914360546869
 10
84.60138208605451
 20
-138.8766221441003
 10
84.65116371581638
 20
-138.713669127648
 10
84.68268633950642
 20
-138.5992919575377
 10
84.68268633950642
 20
-138.5992919575377
 10
84.83874916498823
 20
-138.5992919575377
 10
84.83874916498823
 20
-138.5992919575377
 10
84.83874916498823
 20
-138.5992919575377
 10
84.83874916498823
 20
-140.1437282635752
 10
84.83874916498823
 20
-140.1437282635752
 10
84.83874916498823
 20
-140.1437282635752
 10
84.5991427739891
 20
-140.1437282635752
 10
84.5991427739891
 20
-140.1437282635752
 97
        0
 97
        0
 75
     2
 76
     1
 98
        0
  0
SPLINE
  5
D3
330
CD
100
AcDbEntity
  8
_U+30EC_U+30A4_U+30E4_U+30FC 1
370
     0
100
AcDbSpline
210
0.0
220
0.0
230
1.0
 70
    11
 71
     3
 72
    29
 73
    25
 74
     0
 42
0.0000000001
 43
0.0000000001
 12
1.0
 22
0.0
 32
0.0
 13
1.0
 23
0.0
 33
0.0
 40
0.0
 40
0.0
 40
0.0
 40
0.0
 40
1.0
 40
1.0
 40
1.0
 40
2.0
 40
2.0
 40
2.0
 40
3.0
 40
3.0
 40
3.0
 40
4.0
 40
4.0
 40
4.0
 40
5.0
 40
5.0
 40
5.0
 40
6.0
 40
6.0
 40
6.0
 40
7.0
 40
7.0
 40
7.0
 40
8.0
 40
8.0
 40
8.0
 40
8.0
 10
86.33392060558667
 20
-139.9659613365363
 30
0.0
 10
86.21868216160506
 20
-140.1754231420395
 30
0.0
 10
86.03333602449861
 20
-140.1943711672083
 30
0.0
 10
85.90896807748109
 20
-140.1943711672083
 30
0.0
 10
85.73705781276713
 20
-140.1943711672083
 30
0.0
 10
85.5856458661904
 20
-140.1478623781575
 30
0.0
 10
85.48384329460127
 20
-139.9659613365363
 30
0.0
 10
85.37308347475049
 20
-139.7713134416197
 30
0.0
 10
85.35275741138751
 20
-139.5342908722345
 30
0.0
 10
85.35275741138751
 20
-139.3713378557822
 30
0.0
 10
85.35275741138751
 20
-139.2276773740473
 30
0.0
 10
85.37084416268507
 20
-138.9758408940755
 30
0.0
 10
85.48384329460127
 20
-138.7770588845766
 30
0.0
 10
85.59925399335714
 20
-138.5737982509468
 30
0.0
 10
85.77099200329684
 20
-138.5507161111957
 30
0.0
 10
85.90896807748109
 20
-138.5507161111957
 30
0.0
 10
86.07846677535538
 20
-138.5507161111957
 30
0.0
 10
86.2322902887718
 20
-138.5951578429554
 30
0.0
 10
86.33392060558667
 20
-138.7770588845766
 30
0.0
 10
86.44020180130661
 20
-138.969639722202
 30
0.0
 10
86.46517874357468
 20
-139.1980495528741
 30
0.0
 10
86.46517874357468
 20
-139.3713378557822
 30
0.0
 10
86.46517874357468
 20
-139.5429036109476
 30
0.0
 10
86.44244111337203
 20
-139.7733804989108
 30
0.0
 10
86.33392060558667
 20
-139.9659613365363
 30
0.0
  0
SPLINE
  5
D4
330
CD
100
AcDbEntity
  8
_U+30EC_U+30A4_U+30E4_U+30FC 1
370
     0
100
AcDbSpline
210
0.0
220
0.0
230
1.0
 70
    11
 71
     3
 72
    17
 73
    13
 74
     0
 42
0.0000000001
 43
0.0000000001
 12
1.0
 22
0.0
 32
0.0
 13
1.0
 23
0.0
 33
0.0
 40
0.0
 40
0.0
 40
0.0
 40
0.0
 40
1.0
 40
1.0
 40
1.0
 40
2.0
 40
2.0
 40
2.0
 40
3.0
 40
3.0
 40
3.0
 40
4.0
 40
4.0
 40
4.0
 40
4.0
 10
85.90896807748109
 20
-138.7432969488211
 30
0.0
 10
85.6421454321485
 20
-138.7432969488211
 30
0.0
 10
85.59236380238663
 20
-139.0268283072572
 30
0.0
 10
85.59236380238663
 20
-139.3713378557822
 30
0.0
 10
85.59236380238663
 20
-139.6910427168134
 30
0.0
 10
85.63077661704718
 20
-139.9997232722917
 30
0.0
 10
85.90896807748109
 20
-139.9997232722917
 30
0.0
 10
86.17337915597402
 20
-139.9997232722917
 30
0.0
 10
86.2254000978013
 20
-139.7182589711468
 30
0.0
 10
86.2254000978013
 20
-139.3713378557822
 30
0.0
 10
86.2254000978013
 20
-139.0519775042995
 30
0.0
 10
86.18474797107534
 20
-138.7432969488211
 30
0.0
 10
85.90896807748109
 20
-138.7432969488211
 30
0.0
  0
HATCH
  5
D5
330
CD
100
AcDbEntity
  8
_U+30EC_U+30A4_U+30E4_U+30FC 1
 62
   179
420
  2234388
100
AcDbHatch
 10
0.0
 20
0.0
 30
0.0
210
0.0
220
0.0
230
1.0
  2
SOLID
 70
     1
 71
     0
 91
        2
 92
        1
 93
        1
 72
     4
 94
        3
 73
     0
 74
     1
 95
       29
 96
       25
 40
0.0
 40
0.0
 40
0.0
 40
0.0
 40
1.0
 40
1.0
 40
1.0
 40
2.0
 40
2.0
 40
2.0
 40
3.0
 40
3.0
 40
3.0
 40
4.0
 40
4.0
 40
4.0
 40
5.0
 40
5.0
 40
5.0
 40
6.0
 40
6.0
 40
6.0
 40
7.0
 40
7.0
 40
7.0
 40
8.0
 40
8.0
 40
8.0
 40
8.0
 10
86.33392060558667
 20
-139.9659613365363
 10
86.21868216160506
 20
-140.1754231420395
 10
86.03333602449861
 20
-140.1943711672083
 10
85.90896807748109
 20
-140.1943711672083
 10
85.73705781276713
 20
-140.1943711672083
 10
85.5856458661904
 20
-140.1478623781575
 10
85.48384329460127
 20
-139.9659613365363
 10
85.37308347475049
 20
-139.7713134416197
 10
85.35275741138751
 20
-139.5342908722345
 10
85.35275741138751
 20
-139.3713378557822
 10
85.35275741138751
 20
-139.2276773740473
 10
85.37084416268507
 20
-138.9758408940755
 10
85.48384329460127
 20
-138.7770588845766
 10
85.59925399335714
 20
-138.5737982509468
 10
85.77099200329684
 20
-138.5507161111957
 10
85.90896807748109
 20
-138.5507161111957
 10
86.07846677535538
 20
-138.5507161111957
 10
86.2322902887718
 20
-138.5951578429554
 10
86.33392060558667
 20
-138.7770588845766
 10
86.44020180130661
 20
-138.969639722202
 10
86.46517874357468
 20
-139.1980495528741
 10
86.46517874357468
 20
-139.3713378557822
 10
86.46517874357468
 20
-139.5429036109476
 10
86.44244111337203
 20
-139.7733804989108
 10
86.33392060558667
 20
-139.9659613365363
 97
        0
 97
        0
 92
        1
 93
        1
 72
     4
 94
        3
 73
     0
 74
     1
 95
       17
 96
       13
 40
0.0
 40
0.0
 40
0.0
 40
0.0
 40
1.0
 40
1.0
 40
1.0
 40
2.0
 40
2.0
 40
2.0
 40
3.0
 40
3.0
 40
3.0
 40
4.0
 40
4.0
 40
4.0
 40
4.0
 10
85.90896807748109
 20
-138.7432969488211
 10
85.6421454321485
 20
-138.7432969488211
 10
85.59236380238663
 20
-139.0268283072572
 10
85.59236380238663
 20
-139.3713378557822
 10
85.59236380238663
 20
-139.6910427168134
 10
85.63077661704718
 20
-139.9997232722917
 10
85.90896807748109
 20
-139.9997232722917
 10
86.17337915597402
 20
-139.9997232722917
 10
86.2254000978013
 20
-139.7182589711468
 10
86.2254000978013
 20
-139.3713378557822
 10
86.2254000978013
 20
-139.0519775042995
 10
86.18474797107534
 20
-138.7432969488211
 10
85.90896807748109
 20
-138.7432969488211
 97
        0
 97
        0
 75
     2
 76
     1
 98
        0
  0
ENDBLK
  5
D0
330
CD
100
AcDbEntity
  8
0
100
AcDbBlockEnd
  0
BLOCK
  5
E8
330
E6
100
AcDbEntity
  8
0
100
AcDbBlockBegin
  2
block 3
 70
     0
 10
0.0
 20
0.0
 30
0.0
  3
block 3
  1

  0
SPLINE
  5
EA
330
E6
100
AcDbEntity
  8
_U+30EC_U+30A4_U+30E4_U+30FC 1
370
     0
100
AcDbSpline
210
0.0
220
0.0
230
1.0
 70
    11
 71
     3
 72
    29
 73
    25
 74
     0
 42
0.0000000001
 43
0.0000000001
 12
1.0
 22
0.0
 32
0.0
 13
1.0
 23
0.0
 33
0.0
 40
0.0
 40
0.0
 40
0.0
 40
0.0
 40
1.0
 40
1.0
 40
1.0
 40
2.0
 40
2.0
 40
2.0
 40
3.0
 40
3.0
 40
3.0
 40
4.0
 40
4.0
 40
4.0
 40
5.0
 40
5.0
 40
5.0
 40
6.0
 40
6.0
 40
6.0
 40
7.0
 40
7.0
 40
7.0
 40
8.0
 40
8.0
 40
8.0
 40
8.0
 10
110.3688015132064
 20
-123.9138834325632
 30
0.0
 10
110.5782633187096
 20
-124.0292941313191
 30
0.0
 10
110.5972113438785
 20
-124.2146402684255
 30
0.0
 10
110.5972113438785
 20
-124.339008215443
 30
0.0
 10
110.5972113438785
 20
-124.5105739706085
 30
0.0
 10
110.5507025548276
 20
-124.6621581719595
 30
0.0
 10
110.3688015132064
 20
-124.7637884887743
 30
0.0
 10
110.1741536182898
 20
-124.8747205633994
 30
0.0
 10
109.9371310489046
 20
-124.8950466267624
 30
0.0
 10
109.7745225420008
 20
-124.8950466267624
 30
0.0
 10
109.6305175507174
 20
-124.8950466267624
 30
0.0
 10
109.3786810707456
 20
-124.8771321302391
 30
0.0
 10
109.1798990612467
 20
-124.7637884887743
 30
0.0
 10
108.9769829371655
 20
-124.648722299567
 30
0.0
 10
108.9535562878658
 20
-124.476812034853
 30
0.0
 10
108.9535562878658
 20
-124.339008215443
 30
0.0
 10
108.9535562878658
 20
-124.1691650080202
 30
0.0
 10
108.9979980196255
 20
-124.0155137493781
 30
0.0
 10
109.1798990612467
 20
-123.9138834325632
 30
0.0
 10
109.3724798988722
 20
-123.807429982069
 30
0.0
 10
109.6008897295442
 20
-123.7826252945752
 30
0.0
 10
109.7745225420008
 20
-123.7826252945752
 30
0.0
 10
109.9457437876177
 20
-123.7826252945752
 30
0.0
 10
110.176220675581
 20
-123.8053629247778
 30
0.0
 10
110.3688015132064
 20
-123.9138834325632
 30
0.0
  0
SPLINE
  5
EB
330
E6
100
AcDbEntity
  8
_U+30EC_U+30A4_U+30E4_U+30FC 1
370
     0
100
AcDbSpline
210
0.0
220
0.0
230
1.0
 70
    11
 71
     3
 72
    17
 73
    13
 74
     0
 42
0.0000000001
 43
0.0000000001
 12
1.0
 22
0.0
 32
0.0
 13
1.0
 23
0.0
 33
0.0
 40
0.0
 40
0.0
 40
0.0
 40
0.0
 40
1.0
 40
1.0
 40
1.0
 40
2.0
 40
2.0
 40
2.0
 40
3.0
 40
3.0
 40
3.0
 40
4.0
 40
4.0
 40
4.0
 40
4.0
 10
109.1461371254913
 20
-124.339008215443
 30
0.0
 10
109.1461371254913
 20
-124.6056586060014
 30
0.0
 10
109.4296684839273
 20
-124.655267980989
 30
0.0
 10
109.7745225420008
 20
-124.655267980989
 30
0.0
 10
110.0938828934835
 20
-124.655267980989
 30
0.0
 10
110.4025634489619
 20
-124.6170274211027
 30
0.0
 10
110.4025634489619
 20
-124.339008215443
 30
0.0
 10
110.4025634489619
 20
-124.0744248821758
 30
0.0
 10
110.1214436573655
 20
-124.0224039403486
 30
0.0
 10
109.7745225420008
 20
-124.0224039403486
 30
0.0
 10
109.4548176809696
 20
-124.0224039403486
 30
0.0
 10
109.1461371254913
 20
-124.0630560670745
 30
0.0
 10
109.1461371254913
 20
-124.339008215443
 30
0.0
  0
HATCH
  5
EC
330
E6
100
AcDbEntity
  8
_U+30EC_U+30A4_U+30E4_U+30FC 1
 62
   179
420
  2234388
100
AcDbHatch
 10
0.0
 20
0.0
 30
0.0
210
0.0
220
0.0
230
1.0
  2
SOLID
 70
     1
 71
     0
 91
        2
 92
        1
 93
        1
 72
     4
 94
        3
 73
     0
 74
     1
 95
       29
 96
       25
 40
0.0
 40
0.0
 40
0.0
 40
0.0
 40
1.0
 40
1.0
 40
1.0
 40
2.0
 40
2.0
 40
2.0
 40
3.0
 40
3.0
 40
3.0
 40
4.0
 40
4.0
 40
4.0
 40
5.0
 40
5.0
 40
5.0
 40
6.0
 40
6.0
 40
6.0
 40
7.0
 40
7.0
 40
7.0
 40
8.0
 40
8.0
 40
8.0
 40
8.0
 10
110.3688015132064
 20
-123.9138834325632
 10
110.5782633187096
 20
-124.0292941313191
 10
110.5972113438785
 20
-124.2146402684255
 10
110.5972113438785
 20
-124.339008215443
 10
110.5972113438785
 20
-124.5105739706085
 10
110.5507025548276
 20
-124.6621581719595
 10
110.3688015132064
 20
-124.7637884887743
 10
110.1741536182898
 20
-124.8747205633994
 10
109.9371310489046
 20
-124.8950466267624
 10
109.7745225420008
 20
-124.8950466267624
 10
109.6305175507174
 20
-124.8950466267624
 10
109.3786810707456
 20
-124.8771321302391
 10
109.1798990612467
 20
-124.7637884887743
 10
108.9769829371655
 20
-124.648722299567
 10
108.9535562878658
 20
-124.476812034853
 10
108.9535562878658
 20
-124.339008215443
 10
108.9535562878658
 20
-124.1691650080202
 10
108.9979980196255
 20
-124.0155137493781
 10
109.1798990612467
 20
-123.9138834325632
 10
109.3724798988722
 20
-123.807429982069
 10
109.6008897295442
 20
-123.7826252945752
 10
109.7745225420008
 20
-123.7826252945752
 10
109.9457437876177
 20
-123.7826252945752
 10
110.176220675581
 20
-123.8053629247778
 10
110.3688015132064
 20
-123.9138834325632
 97
        0
 97
        0
 92
        1
 93
        1
 72
     4
 94
        3
 73
     0
 74
     1
 95
       17
 96
       13
 40
0.0
 40
0.0
 40
0.0
 40
0.0
 40
1.0
 40
1.0
 40
1.0
 40
2.0
 40
2.0
 40
2.0
 40
3.0
 40
3.0
 40
3.0
 40
4.0
 40
4.0
 40
4.0
 40
4.0
 10
109.1461371254913
 20
-124.339008215443
 10
109.1461371254913
 20
-124.6056586060014
 10
109.4296684839273
 20
-124.655267980989
 10
109.7745225420008
 20
-124.655267980989
 10
110.0938828934835
 20
-124.655267980989
 10
110.4025634489619
 20
-124.6170274211027
 10
110.4025634489619
 20
-124.339008215443
 10
110.4025634489619
 20
-124.0744248821758
 10
110.1214436573655
 20
-124.0224039403486
 10
109.7745225420008
 20
-124.0224039403486
 10
109.4548176809696
 20
-124.0224039403486
 10
109.1461371254913
 20
-124.0630560670745
 10
109.1461371254913
 20
-124.339008215443
 97
        0
 97
        0
 75
     2
 76
     1
 98
        0
  0
POLYLINE
  5
ED
330
E6
100
AcDbEntity
  8
_U+30EC_U+30A4_U+30E4_U+30FC 1
370
     0
100
AcDb2dPolyline
 66
     1
 10
0.0
 20
0.0
 30
0.0
  0
VERTEX
  5
EE
330
ED
100
AcDbEntity
  8
_U+30EC_U+30A4_U+30E4_U+30FC 1
370
     0
100
AcDbVertex
100
AcDb2dVertex
 10
110.5465684402453
 20
-123.5514593875149
 30
0.0
  0
VERTEX
  5
EF
330
ED
100
AcDbEntity
  8
_U+30EC_U+30A4_U+30E4_U+30FC 1
370
     0
100
AcDbVertex
100
AcDb2dVertex
 10
110.2947319602735
 20
-123.5514593875149
 30
0.0
  0
VERTEX
  5
F0
330
ED
100
AcDbEntity
  8
_U+30EC_U+30A4_U+30E4_U+30FC 1
370
     0
100
AcDbVertex
100
AcDb2dVertex
 10
110.2947319602735
 20
-123.2823974301169
 30
0.0
  0
VERTEX
  5
F1
330
ED
100
AcDbEntity
  8
_U+30EC_U+30A4_U+30E4_U+30FC 1
370
     0
100
AcDbVertex
100
AcDb2dVertex
 10
110.5465684402453
 20
-123.2823974301169
 30
0.0
  0
VERTEX
  5
F2
330
ED
100
AcDbEntity
  8
_U+30EC_U+30A4_U+30E4_U+30FC 1
370
     0
100
AcDbVertex
100
AcDb2dVertex
 10
110.5465684402453
 20
-123.5514593875149
 30
0.0
  0
SEQEND
  5
F3
330
ED
100
AcDbEntity
  8
_U+30EC_U+30A4_U+30E4_U+30FC 1
370
     0
  0
HATCH
  5
F4
330
E6
100
AcDbEntity
  8
_U+30EC_U+30A4_U+30E4_U+30FC 1
 62
   179
420
  2234388
100
AcDbHatch
 10
0.0
 20
0.0
 30
0.0
210
0.0
220
0.0
230
1.0
  2
SOLID
 70
     1
 71
     0
 91
        1
 92
        1
 93
        4
 72
     1
 10
110.5465684402453
 20
-123.5514593875149
 11
110.2947319602735
 21
-123.5514593875149
 72
     1
 10
110.2947319602735
 20
-123.5514593875149
 11
110.2947319602735
 21
-123.2823974301169
 72
     1
 10
110.2947319602735
 20
-123.2823974301169
 11
110.5465684402453
 21
-123.2823974301169
 72
     1
 10
110.5465684402453
 20
-123.2823974301169
 11
110.5465684402453
 21
-123.5514593875149
 97
        0
 75
     2
 76
     1
 98
        0
  0
SPLINE
  5
F5
330
E6
100
AcDbEntity
  8
_U+30EC_U+30A4_U+30E4_U+30FC 1
370
     0
100
AcDbSpline
210
0.0
220
0.0
230
1.0
 70
    11
 71
     3
 72
    32
 73
    28
 74
     0
 42
0.0000000001
 43
0.0000000001
 12
1.0
 22
0.0
 32
0.0
 13
1.0
 23
0.0
 33
0.0
 40
0.0
 40
0.0
 40
0.0
 40
0.0
 40
1.0
 40
1.0
 40
1.0
 40
2.0
 40
2.0
 40
2.0
 40
3.0
 40
3.0
 40
3.0
 40
4.0
 40
4.0
 40
4.0
 40
5.0
 40
5.0
 40
5.0
 40
6.0
 40
6.0
 40
6.0
 40
7.0
 40
7.0
 40
7.0
 40
8.0
 40
8.0
 40
8.0
 40
9.0
 40
9.0
 40
9.0
 40
9.0
 10
110.5972113438785
 20
-122.5403238625941
 30
0.0
 10
110.5972113438785
 20
-122.7256699997005
 30
0.0
 10
110.5276204150764
 20
-122.987841766128
 30
0.0
 10
110.1955132102983
 20
-123.028493892854
 30
0.0
 10
110.1955132102983
 20
-123.028493892854
 30
0.0
 10
110.1955132102983
 20
-122.8004285717304
 30
0.0
 10
110.1955132102983
 20
-122.8004285717304
 30
0.0
 10
110.2547688526446
 20
-122.7890597566291
 30
0.0
 10
110.4025634489619
 20
-122.7549533113252
 30
0.0
 10
110.4025634489619
 20
-122.5379122957544
 30
0.0
 10
110.4025634489619
 20
-122.2261311543393
 30
0.0
 10
110.0728678110235
 20
-122.1854790276134
 30
0.0
 10
109.8675401201026
 20
-122.1716986456724
 30
0.0
 10
109.9478108449089
 20
-122.2688503383564
 30
0.0
 10
110.004999429964
 20
-122.3411973435467
 30
0.0
 10
110.004999429964
 20
-122.5358452384633
 30
0.0
 10
110.004999429964
 20
-122.7280815665402
 30
0.0
 10
109.8992349985669
 20
-123.0512315230566
 30
0.0
 10
109.4930582408559
 20
-123.0512315230566
 30
0.0
 10
109.1736978893732
 20
-123.0512315230566
 30
0.0
 10
108.9535562878658
 20
-122.8386691316167
 30
0.0
 10
108.9535562878658
 20
-122.4996717358681
 30
0.0
 10
108.9535562878658
 20
-121.9501790059708
 30
0.0
 10
109.5078721514425
 20
-121.9388101908695
 30
0.0
 10
109.721468071528
 20
-121.9388101908695
 30
0.0
 10
109.9519449594912
 20
-121.9388101908695
 30
0.0
 10
110.5972113438785
 20
-121.9591362542324
 30
0.0
 10
110.5972113438785
 20
-122.5403238625941
 30
0.0
  0
SPLINE
  5
F6
330
E6
100
AcDbEntity
  8
_U+30EC_U+30A4_U+30E4_U+30FC 1
370
     0
100
AcDbSpline
210
0.0
220
0.0
230
1.0
 70
    11
 71
     3
 72
    17
 73
    13
 74
     0
 42
0.0000000001
 43
0.0000000001
 12
1.0
 22
0.0
 32
0.0
 13
1.0
 23
0.0
 33
0.0
 40
0.0
 40
0.0
 40
0.0
 40
0.0
 40
1.0
 40
1.0
 40
1.0
 40
2.0
 40
2.0
 40
2.0
 40
3.0
 40
3.0
 40
3.0
 40
4.0
 40
4.0
 40
4.0
 40
4.0
 10
109.1461371254913
 20
-122.4972601690285
 30
0.0
 10
109.1461371254913
 20
-122.6240396828857
 30
0.0
 10
109.2033257105464
 20
-122.8114528772833
 30
0.0
 10
109.4889241262736
 20
-122.8114528772833
 30
0.0
 10
109.7152668996545
 20
-122.8114528772833
 30
0.0
 10
109.8103515350474
 20
-122.6622802427719
 30
0.0
 10
109.8103515350474
 20
-122.5175862323914
 30
0.0
 10
109.8103515350474
 20
-122.2374999694406
 30
0.0
 10
109.6008897295442
 20
-122.1965033331662
 30
0.0
 10
109.4844455021428
 20
-122.1965033331662
 30
0.0
 10
109.3090901419436
 20
-122.1965033331662
 30
0.0
 10
109.1461371254913
 20
-122.2984781595296
 30
0.0
 10
109.1461371254913
 20
-122.4972601690285
 30
0.0
  0
HATCH
  5
F7
330
E6
100
AcDbEntity
  8
_U+30EC_U+30A4_U+30E4_U+30FC 1
 62
   179
420
  2234388
100
AcDbHatch
 10
0.0
 20
0.0
 30
0.0
210
0.0
220
0.0
230
1.0
  2
SOLID
 70
     1
 71
     0
 91
        2
 92
        1
 93
        1
 72
     4
 94
        3
 73
     0
 74
     1
 95
       32
 96
       28
 40
0.0
 40
0.0
 40
0.0
 40
0.0
 40
1.0
 40
1.0
 40
1.0
 40
2.0
 40
2.0
 40
2.0
 40
3.0
 40
3.0
 40
3.0
 40
4.0
 40
4.0
 40
4.0
 40
5.0
 40
5.0
 40
5.0
 40
6.0
 40
6.0
 40
6.0
 40
7.0
 40
7.0
 40
7.0
 40
8.0
 40
8.0
 40
8.0
 40
9.0
 40
9.0
 40
9.0
 40
9.0
 10
110.5972113438785
 20
-122.5403238625941
 10
110.5972113438785
 20
-122.7256699997005
 10
110.5276204150764
 20
-122.987841766128
 10
110.1955132102983
 20
-123.028493892854
 10
110.1955132102983
 20
-123.028493892854
 10
110.1955132102983
 20
-122.8004285717304
 10
110.1955132102983
 20
-122.8004285717304
 10
110.2547688526446
 20
-122.7890597566291
 10
110.4025634489619
 20
-122.7549533113252
 10
110.4025634489619
 20
-122.5379122957544
 10
110.4025634489619
 20
-122.2261311543393
 10
110.0728678110235
 20
-122.1854790276134
 10
109.8675401201026
 20
-122.1716986456724
 10
109.9478108449089
 20
-122.2688503383564
 10
110.004999429964
 20
-122.3411973435467
 10
110.004999429964
 20
-122.5358452384633
 10
110.004999429964
 20
-122.7280815665402
 10
109.8992349985669
 20
-123.0512315230566
 10
109.4930582408559
 20
-123.0512315230566
 10
109.1736978893732
 20
-123.0512315230566
 10
108.9535562878658
 20
-122.8386691316167
 10
108.9535562878658
 20
-122.4996717358681
 10
108.9535562878658
 20
-121.9501790059708
 10
109.5078721514425
 20
-121.9388101908695
 10
109.721468071528
 20
-121.9388101908695
 10
109.9519449594912
 20
-121.9388101908695
 10
110.5972113438785
 20
-121.9591362542324
 10
110.5972113438785
 20
-122.5403238625941
 97
        0
 97
        0
 92
        1
 93
        1
 72
     4
 94
        3
 73
     0
 74
     1
 95
       17
 96
       13
 40
0.0
 40
0.0
 40
0.0
 40
0.0
 40
1.0
 40
1.0
 40
1.0
 40
2.0
 40
2.0
 40
2.0
 40
3.0
 40
3.0
 40
3.0
 40
4.0
 40
4.0
 40
4.0
 40
4.0
 10
109.1461371254913
 20
-122.4972601690285
 10
109.1461371254913
 20
-122.6240396828857
 10
109.2033257105464
 20
-122.8114528772833
 10
109.4889241262736
 20
-122.8114528772833
 10
109.7152668996545
 20
-122.8114528772833
 10
109.8103515350474
 20
-122.6622802427719
 10
109.8103515350474
 20
-122.5175862323914
 10
109.8103515350474
 20
-122.2374999694406
 10
109.6008897295442
 20
-122.1965033331662
 10
109.4844455021428
 20
-122.1965033331662
 10
109.3090901419436
 20
-122.1965033331662
 10
109.1461371254913
 20
-122.2984781595296
 10
109.1461371254913
 20
-122.4972601690285
 97
        0
 97
        0
 75
     2
 76
     1
 98
        0
  0
ENDBLK
  5
E9
330
E6
100
AcDbEntity
  8
0
100
AcDbBlockEnd
  0
BLOCK
  5
106
330
104
100
AcDbEntity
  8
0
100
AcDbBlockBegin
  2
block 4
 70
     0
 10
0.0
 20
0.0
 30
0.0
  3
block 4
  1

  0
POLYLINE
  5
108
330
104
100
AcDbEntity
  8
_U+30EC_U+30A4_U+30E4_U+30FC 1
370
     0
100
AcDb2dPolyline
 66
     1
 10
0.0
 20
0.0
 30
0.0
  0
VERTEX
  5
109
330
108
100
AcDbEntity
  8
_U+30EC_U+30A4_U+30E4_U+30FC 1
370
     0
100
AcDbVertex
100
AcDb2dVertex
 10
88.00616995412693
 20
-117.8965074032516
 30
0.0
  0
VERTEX
  5
10A
330
108
100
AcDbEntity
  8
_U+30EC_U+30A4_U+30E4_U+30FC 1
370
     0
100
AcDbVertex
100
AcDb2dVertex
 10
88.00616995412693
 20
-118.2434285186162
 30
0.0
  0
VERTEX
  5
10B
330
108
100
AcDbEntity
  8
_U+30EC_U+30A4_U+30E4_U+30FC 1
370
     0
100
AcDbVertex
100
AcDb2dVertex
 10
87.77328149932404
 20
-118.2434285186162
 30
0.0
  0
VERTEX
  5
10C
330
108
100
AcDbEntity
  8
_U+30EC_U+30A4_U+30E4_U+30FC 1
370
     0
100
AcDbVertex
100
AcDb2dVertex
 10
87.77328149932404
 20
-117.8965074032516
 30
0.0
  0
VERTEX
  5
10D
330
108
100
AcDbEntity
  8
_U+30EC_U+30A4_U+30E4_U+30FC 1
370
     0
100
AcDbVertex
100
AcDb2dVertex
 10
87.0722045680757
 20
-117.8965074032516
 30
0.0
  0
VERTEX
  5
10E
330
108
100
AcDbEntity
  8
_U+30EC_U+30A4_U+30E4_U+30FC 1
370
     0
100
AcDbVertex
100
AcDb2dVertex
 10
87.0722045680757
 20
-117.6722316871618
 30
0.0
  0
VERTEX
  5
10F
330
108
100
AcDbEntity
  8
_U+30EC_U+30A4_U+30E4_U+30FC 1
370
     0
100
AcDbVertex
100
AcDb2dVertex
 10
87.79808618681784
 20
-116.699164467353
 30
0.0
  0
VERTEX
  5
110
330
108
100
AcDbEntity
  8
_U+30EC_U+30A4_U+30E4_U+30FC 1
370
     0
100
AcDbVertex
100
AcDb2dVertex
 10
88.00616995412693
 20
-116.699164467353
 30
0.0
  0
VERTEX
  5
111
330
108
100
AcDbEntity
  8
_U+30EC_U+30A4_U+30E4_U+30FC 1
370
     0
100
AcDbVertex
100
AcDb2dVertex
 10
88.00616995412693
 20
-117.6975531389784
 30
0.0
  0
VERTEX
  5
112
330
108
100
AcDbEntity
  8
_U+30EC_U+30A4_U+30E4_U+30FC 1
370
     0
100
AcDbVertex
100
AcDb2dVertex
 10
88.2276895938285
 20
-117.6975531389784
 30
0.0
  0
VERTEX
  5
113
330
108
100
AcDbEntity
  8
_U+30EC_U+30A4_U+30E4_U+30FC 1
370
     0
100
AcDbVertex
100
AcDb2dVertex
 10
88.2276895938285
 20
-117.8965074032516
 30
0.0
  0
VERTEX
  5
114
330
108
100
AcDbEntity
  8
_U+30EC_U+30A4_U+30E4_U+30FC 1
370
     0
100
AcDbVertex
100
AcDb2dVertex
 10
88.00616995412693
 20
-117.8965074032516
 30
0.0
  0
SEQEND
  5
115
330
108
100
AcDbEntity
  8
_U+30EC_U+30A4_U+30E4_U+30FC 1
370
     0
  0
POLYLINE
  5
116
330
104
100
AcDbEntity
  8
_U+30EC_U+30A4_U+30E4_U+30FC 1
370
     0
100
AcDb2dPolyline
 66
     1
 10
0.0
 20
0.0
 30
0.0
  0
VERTEX
  5
117
330
116
100
AcDbEntity
  8
_U+30EC_U+30A4_U+30E4_U+30FC 1
370
     0
100
AcDbVertex
100
AcDb2dVertex
 10
87.77328149932404
 20
-117.0417792133611
 30
0.0
  0
VERTEX
  5
118
330
116
100
AcDbEntity
  8
_U+30EC_U+30A4_U+30E4_U+30FC 1
370
     0
100
AcDbVertex
100
AcDb2dVertex
 10
87.28476695951562
 20
-117.6975531389784
 30
0.0
  0
VERTEX
  5
119
330
116
100
AcDbEntity
  8
_U+30EC_U+30A4_U+30E4_U+30FC 1
370
     0
100
AcDbVertex
100
AcDb2dVertex
 10
87.77328149932404
 20
-117.6975531389784
 30
0.0
  0
VERTEX
  5
11A
330
116
100
AcDbEntity
  8
_U+30EC_U+30A4_U+30E4_U+30FC 1
370
     0
100
AcDbVertex
100
AcDb2dVertex
 10
87.77328149932404
 20
-117.0417792133611
 30
0.0
  0
SEQEND
  5
11B
330
116
100
AcDbEntity
  8
_U+30EC_U+30A4_U+30E4_U+30FC 1
370
     0
  0
HATCH
  5
11C
330
104
100
AcDbEntity
  8
_U+30EC_U+30A4_U+30E4_U+30FC 1
 62
   179
420
  2234388
100
AcDbHatch
 10
0.0
 20
0.0
 30
0.0
210
0.0
220
0.0
230
1.0
  2
SOLID
 70
     1
 71
     0
 91
        2
 92
        1
 93
       11
 72
     1
 10
88.00616995412693
 20
-117.8965074032516
 11
88.00616995412693
 21
-118.2434285186162
 72
     1
 10
88.00616995412693
 20
-118.2434285186162
 11
87.77328149932404
 21
-118.2434285186162
 72
     1
 10
87.77328149932404
 20
-118.2434285186162
 11
87.77328149932404
 21
-117.8965074032516
 72
     1
 10
87.77328149932404
 20
-117.8965074032516
 11
87.0722045680757
 21
-117.8965074032516
 72
     1
 10
87.0722045680757
 20
-117.8965074032516
 11
87.0722045680757
 21
-117.6722316871618
 72
     1
 10
87.0722045680757
 20
-117.6722316871618
 11
87.79808618681784
 21
-116.699164467353
 72
     1
 10
87.79808618681784
 20
-116.699164467353
 11
88.00616995412693
 21
-116.699164467353
 72
     1
 10
88.00616995412693
 20
-116.699164467353
 11
88.00616995412693
 21
-117.6975531389784
 72
     1
 10
88.00616995412693
 20
-117.6975531389784
 11
88.2276895938285
 21
-117.6975531389784
 72
     1
 10
88.2276895938285
 20
-117.6975531389784
 11
88.2276895938285
 21
-117.8965074032516
 72
     1
 10
88.2276895938285
 20
-117.8965074032516
 11
88.00616995412693
 21
-117.8965074032516
 97
        0
 92
        1
 93
        3
 72
     1
 10
87.77328149932404
 20
-117.0417792133611
 11
87.28476695951562
 21
-117.6975531389784
 72
     1
 10
87.28476695951562
 20
-117.6975531389784
 11
87.77328149932404
 21
-117.6975531389784
 72
     1
 10
87.77328149932404
 20
-117.6975531389784
 11
87.77328149932404
 21
-117.0417792133611
 97
        0
 75
     2
 76
     1
 98
        0
  0
SPLINE
  5
11D
330
104
100
AcDbEntity
  8
_U+30EC_U+30A4_U+30E4_U+30FC 1
370
     0
100
AcDbSpline
210
0.0
220
0.0
230
1.0
 70
    11
 71
     3
 72
    29
 73
    25
 74
     0
 42
0.0000000001
 43
0.0000000001
 12
1.0
 22
0.0
 32
0.0
 13
1.0
 23
0.0
 33
0.0
 40
0.0
 40
0.0
 40
0.0
 40
0.0
 40
1.0
 40
1.0
 40
1.0
 40
2.0
 40
2.0
 40
2.0
 40
3.0
 40
3.0
 40
3.0
 40
4.0
 40
4.0
 40
4.0
 40
5.0
 40
5.0
 40
5.0
 40
6.0
 40
6.0
 40
6.0
 40
7.0
 40
7.0
 40
7.0
 40
8.0
 40
8.0
 40
8.0
 40
8.0
 10
89.33390975414223
 20
-118.0656615915773
 30
0.0
 10
89.21849905538635
 20
-118.2751233970805
 30
0.0
 10
89.03315291827991
 20
-118.2942436770237
 30
0.0
 10
88.90878497126239
 20
-118.2942436770237
 30
0.0
 10
88.73721921609695
 20
-118.2942436770237
 30
0.0
 10
88.58563501474596
 20
-118.2477348879728
 30
0.0
 10
88.48400469793108
 20
-118.0656615915773
 30
0.0
 10
88.37307262330604
 20
-117.8710136966607
 30
0.0
 10
88.35274655994307
 20
-117.6341633820498
 30
0.0
 10
88.35274655994307
 20
-117.4712103655975
 30
0.0
 10
88.35274655994307
 20
-117.3273776290883
 30
0.0
 10
88.37100556601489
 20
-117.0757134038908
 30
0.0
 10
88.48400469793108
 20
-116.8767591396176
 30
0.0
 10
88.59907088713842
 20
-116.6736707607621
 30
0.0
 10
88.7709811518524
 20
-116.6504163662367
 30
0.0
 10
88.90878497126239
 20
-116.6504163662367
 30
0.0
 10
89.07862817868521
 20
-116.6504163662367
 30
0.0
 10
89.23227943732735
 20
-116.6948580979964
 30
0.0
 10
89.33390975414223
 20
-116.8767591396176
 30
0.0
 10
89.44036320463644
 20
-117.0693399772431
 30
0.0
 10
89.46516789213024
 20
-117.2977498079152
 30
0.0
 10
89.46516789213024
 20
-117.4712103655975
 30
0.0
 10
89.46516789213024
 20
-117.6426038659887
 30
0.0
 10
89.4424302619276
 20
-117.8732530087261
 30
0.0
 10
89.33390975414223
 20
-118.0656615915773
 30
0.0
  0
SPLINE
  5
11E
330
104
100
AcDbEntity
  8
_U+30EC_U+30A4_U+30E4_U+30FC 1
370
     0
100
AcDbSpline
210
0.0
220
0.0
230
1.0
 70
    11
 71
     3
 72
    17
 73
    13
 74
     0
 42
0.0000000001
 43
0.0000000001
 12
1.0
 22
0.0
 32
0.0
 13
1.0
 23
0.0
 33
0.0
 40
0.0
 40
0.0
 40
0.0
 40
0.0
 40
1.0
 40
1.0
 40
1.0
 40
2.0
 40
2.0
 40
2.0
 40
3.0
 40
3.0
 40
3.0
 40
4.0
 40
4.0
 40
4.0
 40
4.0
 10
88.90878497126239
 20
-116.8429972038622
 30
0.0
 10
88.64213458070405
 20
-116.8429972038622
 30
0.0
 10
88.59252520571646
 20
-117.1265285622982
 30
0.0
 10
88.59252520571646
 20
-117.4712103655975
 30
0.0
 10
88.59252520571646
 20
-117.7907429718544
 30
0.0
 10
88.63076576560273
 20
-118.099595782107
 30
0.0
 10
88.90878497126239
 20
-118.099595782107
 30
0.0
 10
89.17336830452957
 20
-118.099595782107
 30
0.0
 10
89.22538924635685
 20
-117.8181314809621
 30
0.0
 10
89.22538924635685
 20
-117.4712103655975
 30
0.0
 10
89.22538924635685
 20
-117.1518500141148
 30
0.0
 10
89.18473711963091
 20
-116.8429972038622
 30
0.0
 10
88.90878497126239
 20
-116.8429972038622
 30
0.0
  0
HATCH
  5
11F
330
104
100
AcDbEntity
  8
_U+30EC_U+30A4_U+30E4_U+30FC 1
 62
   179
420
  2234388
100
AcDbHatch
 10
0.0
 20
0.0
 30
0.0
210
0.0
220
0.0
230
1.0
  2
SOLID
 70
     1
 71
     0
 91
        2
 92
        1
 93
        1
 72
     4
 94
        3
 73
     0
 74
     1
 95
       29
 96
       25
 40
0.0
 40
0.0
 40
0.0
 40
0.0
 40
1.0
 40
1.0
 40
1.0
 40
2.0
 40
2.0
 40
2.0
 40
3.0
 40
3.0
 40
3.0
 40
4.0
 40
4.0
 40
4.0
 40
5.0
 40
5.0
 40
5.0
 40
6.0
 40
6.0
 40
6.0
 40
7.0
 40
7.0
 40
7.0
 40
8.0
 40
8.0
 40
8.0
 40
8.0
 10
89.33390975414223
 20
-118.0656615915773
 10
89.21849905538635
 20
-118.2751233970805
 10
89.03315291827991
 20
-118.2942436770237
 10
88.90878497126239
 20
-118.2942436770237
 10
88.73721921609695
 20
-118.2942436770237
 10
88.58563501474596
 20
-118.2477348879728
 10
88.48400469793108
 20
-118.0656615915773
 10
88.37307262330604
 20
-117.8710136966607
 10
88.35274655994307
 20
-117.6341633820498
 10
88.35274655994307
 20
-117.4712103655975
 10
88.35274655994307
 20
-117.3273776290883
 10
88.37100556601489
 20
-117.0757134038908
 10
88.48400469793108
 20
-116.8767591396176
 10
88.59907088713842
 20
-116.6736707607621
 10
88.7709811518524
 20
-116.6504163662367
 10
88.90878497126239
 20
-116.6504163662367
 10
89.07862817868521
 20
-116.6504163662367
 10
89.23227943732735
 20
-116.6948580979964
 10
89.33390975414223
 20
-116.8767591396176
 10
89.44036320463644
 20
-117.0693399772431
 10
89.46516789213024
 20
-117.2977498079152
 10
89.46516789213024
 20
-117.4712103655975
 10
89.46516789213024
 20
-117.6426038659887
 10
89.4424302619276
 20
-117.8732530087261
 10
89.33390975414223
 20
-118.0656615915773
 97
        0
 97
        0
 92
        1
 93
        1
 72
     4
 94
        3
 73
     0
 74
     1
 95
       17
 96
       13
 40
0.0
 40
0.0
 40
0.0
 40
0.0
 40
1.0
 40
1.0
 40
1.0
 40
2.0
 40
2.0
 40
2.0
 40
3.0
 40
3.0
 40
3.0
 40
4.0
 40
4.0
 40
4.0
 40
4.0
 10
88.90878497126239
 20
-116.8429972038622
 10
88.64213458070405
 20
-116.8429972038622
 10
88.59252520571646
 20
-117.1265285622982
 10
88.59252520571646
 20
-117.4712103655975
 10
88.59252520571646
 20
-117.7907429718544
 10
88.63076576560273
 20
-118.099595782107
 10
88.90878497126239
 20
-118.099595782107
 10
89.17336830452957
 20
-118.099595782107
 10
89.22538924635685
 20
-117.8181314809621
 10
89.22538924635685
 20
-117.4712103655975
 10
89.22538924635685
 20
-117.1518500141148
 10
89.18473711963091
 20
-116.8429972038622
 10
88.90878497126239
 20
-116.8429972038622
 97
        0
 97
        0
 75
     2
 76
     1
 98
        0
  0
ENDBLK
  5
107
330
104
100
AcDbEntity
  8
0
100
AcDbBlockEnd
  0
BLOCK
  5
12A
330
128
100
AcDbEntity
  8
0
100
AcDbBlockBegin
  2
block 5
 70
     0
 10
0.0
 20
0.0
 30
0.0
  3
block 5
  1

  0
SPLINE
  5
12C
330
128
100
AcDbEntity
  8
_U+30EC_U+30A4_U+30E4_U+30FC 1
370
     0
100
AcDbSpline
210
0.0
220
0.0
230
1.0
 70
    11
 71
     3
 72
    26
 73
    22
 74
     0
 42
0.0000000001
 43
0.0000000001
 12
1.0
 22
0.0
 32
0.0
 13
1.0
 23
0.0
 33
0.0
 40
0.0
 40
0.0
 40
0.0
 40
0.0
 40
1.0
 40
1.0
 40
1.0
 40
2.0
 40
2.0
 40
2.0
 40
3.0
 40
3.0
 40
3.0
 40
4.0
 40
4.0
 40
4.0
 40
5.0
 40
5.0
 40
5.0
 40
6.0
 40
6.0
 40
6.0
 40
7.0
 40
7.0
 40
7.0
 40
7.0
 10
73.59912514436064
 20
-140.1437282635752
 30
0.0
 10
73.59912514436064
 20
-140.1437282635752
 30
0.0
 10
73.59912514436064
 20
-139.0392306510041
 30
0.0
 10
73.59912514436064
 20
-139.0392306510041
 30
0.0
 10
73.59912514436064
 20
-139.0392306510041
 30
0.0
 10
73.24634736667106
 20
-139.0392306510041
 30
0.0
 10
73.24634736667106
 20
-139.0392306510041
 30
0.0
 10
73.24634736667106
 20
-139.0392306510041
 30
0.0
 10
73.24634736667106
 20
-138.8914360546869
 30
0.0
 10
73.24634736667106
 20
-138.8914360546869
 30
0.0
 10
73.60136445642605
 20
-138.8766221441003
 30
0.0
 10
73.65114608618791
 20
-138.713669127648
 30
0.0
 10
73.68284096465221
 20
-138.5992919575377
 30
0.0
 10
73.68284096465221
 20
-138.5992919575377
 30
0.0
 10
73.83873153535977
 20
-138.5992919575377
 30
0.0
 10
73.83873153535977
 20
-138.5992919575377
 30
0.0
 10
73.83873153535977
 20
-138.5992919575377
 30
0.0
 10
73.83873153535977
 20
-140.1437282635752
 30
0.0
 10
73.83873153535977
 20
-140.1437282635752
 30
0.0
 10
73.83873153535977
 20
-140.1437282635752
 30
0.0
 10
73.59912514436064
 20
-140.1437282635752
 30
0.0
 10
73.59912514436064
 20
-140.1437282635752
 30
0.0
  0
HATCH
  5
12D
330
128
100
AcDbEntity
  8
_U+30EC_U+30A4_U+30E4_U+30FC 1
 62
   179
420
  2234388
100
AcDbHatch
 10
0.0
 20
0.0
 30
0.0
210
0.0
220
0.0
230
1.0
  2
SOLID
 70
     1
 71
     0
 91
        1
 92
        1
 93
        1
 72
     4
 94
        3
 73
     0
 74
     1
 95
       26
 96
       22
 40
0.0
 40
0.0
 40
0.0
 40
0.0
 40
1.0
 40
1.0
 40
1.0
 40
2.0
 40
2.0
 40
2.0
 40
3.0
 40
3.0
 40
3.0
 40
4.0
 40
4.0
 40
4.0
 40
5.0
 40
5.0
 40
5.0
 40
6.0
 40
6.0
 40
6.0
 40
7.0
 40
7.0
 40
7.0
 40
7.0
 10
73.59912514436064
 20
-140.1437282635752
 10
73.59912514436064
 20
-140.1437282635752
 10
73.59912514436064
 20
-139.0392306510041
 10
73.59912514436064
 20
-139.0392306510041
 10
73.59912514436064
 20
-139.0392306510041
 10
73.24634736667106
 20
-139.0392306510041
 10
73.24634736667106
 20
-139.0392306510041
 10
73.24634736667106
 20
-139.0392306510041
 10
73.24634736667106
 20
-138.8914360546869
 10
73.24634736667106
 20
-138.8914360546869
 10
73.60136445642605
 20
-138.8766221441003
 10
73.65114608618791
 20
-138.713669127648
 10
73.68284096465221
 20
-138.5992919575377
 10
73.68284096465221
 20
-138.5992919575377
 10
73.83873153535977
 20
-138.5992919575377
 10
73.83873153535977
 20
-138.5992919575377
 10
73.83873153535977
 20
-138.5992919575377
 10
73.83873153535977
 20
-140.1437282635752
 10
73.83873153535977
 20
-140.1437282635752
 10
73.83873153535977
 20
-140.1437282635752
 10
73.59912514436064
 20
-140.1437282635752
 10
73.59912514436064
 20
-140.1437282635752
 97
        0
 97
        0
 75
     2
 76
     1
 98
        0
  0
SPLINE
  5
12E
330
128
100
AcDbEntity
  8
_U+30EC_U+30A4_U+30E4_U+30FC 1
370
     0
100
AcDbSpline
210
0.0
220
0.0
230
1.0
 70
    11
 71
     3
 72
    44
 73
    40
 74
     0
 42
0.0000000001
 43
0.0000000001
 12
1.0
 22
0.0
 32
0.0
 13
1.0
 23
0.0
 33
0.0
 40
0.0
 40
0.0
 40
0.0
 40
0.0
 40
1.0
 40
1.0
 40
1.0
 40
2.0
 40
2.0
 40
2.0
 40
3.0
 40
3.0
 40
3.0
 40
4.0
 40
4.0
 40
4.0
 40
5.0
 40
5.0
 40
5.0
 40
6.0
 40
6.0
 40
6.0
 40
7.0
 40
7.0
 40
7.0
 40
8.0
 40
8.0
 40
8.0
 40
9.0
 40
9.0
 40
9.0
 40
10.0
 40
10.0
 40
10.0
 40
11.0
 40
11.0
 40
11.0
 40
12.0
 40
12.0
 40
12.0
 40
13.0
 40
13.0
 40
13.0
 40
13.0
 10
75.00834145260208
 20
-139.5618516361165
 30
0.0
 10
74.77545299779919
 20
-139.7206705379865
 30
0.0
 10
74.67606199304974
 20
-139.7947400909194
 30
0.0
 10
74.62404105122246
 20
-139.9384005726543
 30
0.0
 10
74.62404105122246
 20
-139.9384005726543
 30
0.0
 10
75.4560316109103
 20
-139.9384005726543
 30
0.0
 10
75.4560316109103
 20
-139.9384005726543
 30
0.0
 10
75.4560316109103
 20
-139.9384005726543
 30
0.0
 10
75.4560316109103
 20
-140.1437282635752
 30
0.0
 10
75.4560316109103
 20
-140.1437282635752
 30
0.0
 10
75.4560316109103
 20
-140.1437282635752
 30
0.0
 10
74.35721840588987
 20
-140.1437282635752
 30
0.0
 10
74.35721840588987
 20
-140.1437282635752
 30
0.0
 10
74.39115259641957
 20
-139.7861273522063
 30
0.0
 10
74.46126028954441
 20
-139.7079236846911
 30
0.0
 10
74.8727769452575
 20
-139.4095784156684
 30
0.0
 10
75.14631752678635
 20
-139.2107964061695
 30
0.0
 10
75.21642521991117
 20
-139.1429280251101
 30
0.0
 10
75.21642521991117
 20
-139.0054687152486
 30
0.0
 10
75.21642521991117
 20
-138.886957430556
 30
0.0
 10
75.13942733581584
 20
-138.7560438021166
 30
0.0
 10
74.9292765112156
 20
-138.7560438021166
 30
0.0
 10
74.65125730555594
 20
-138.7560438021166
 30
0.0
 10
74.64212780252002
 20
-138.9865206900798
 30
0.0
 10
74.6376491783892
 20
-139.1029649174812
 30
0.0
 10
74.6376491783892
 20
-139.1029649174812
 30
0.0
 10
74.39804278739008
 20
-139.1029649174812
 30
0.0
 10
74.39804278739008
 20
-139.1029649174812
 30
0.0
 10
74.40700003565172
 20
-138.9758408940755
 30
0.0
 10
74.41836885075305
 20
-138.8638752908049
 30
0.0
 10
74.50415172833577
 20
-138.7453640061123
 30
0.0
 10
74.62180173915705
 20
-138.5844780469511
 30
0.0
 10
74.82075600343023
 20
-138.5507161111957
 30
0.0
 10
74.94512395044775
 20
-138.5507161111957
 30
0.0
 10
75.24122990740497
 20
-138.5507161111957
 30
0.0
 10
75.46274954710654
 20
-138.734684210108
 30
0.0
 10
75.46274954710654
 20
-139.0075357725398
 30
0.0
 10
75.46274954710654
 20
-139.2359456032119
 30
0.0
 10
75.33855385486328
 20
-139.3355088627356
 30
0.0
 10
75.00834145260208
 20
-139.5618516361165
 30
0.0
  0
HATCH
  5
12F
330
128
100
AcDbEntity
  8
_U+30EC_U+30A4_U+30E4_U+30FC 1
 62
   179
420
  2234388
100
AcDbHatch
 10
0.0
 20
0.0
 30
0.0
210
0.0
220
0.0
230
1.0
  2
SOLID
 70
     1
 71
     0
 91
        1
 92
        1
 93
        1
 72
     4
 94
        3
 73
     0
 74
     1
 95
       44
 96
       40
 40
0.0
 40
0.0
 40
0.0
 40
0.0
 40
1.0
 40
1.0
 40
1.0
 40
2.0
 40
2.0
 40
2.0
 40
3.0
 40
3.0
 40
3.0
 40
4.0
 40
4.0
 40
4.0
 40
5.0
 40
5.0
 40
5.0
 40
6.0
 40
6.0
 40
6.0
 40
7.0
 40
7.0
 40
7.0
 40
8.0
 40
8.0
 40
8.0
 40
9.0
 40
9.0
 40
9.0
 40
10.0
 40
10.0
 40
10.0
 40
11.0
 40
11.0
 40
11.0
 40
12.0
 40
12.0
 40
12.0
 40
13.0
 40
13.0
 40
13.0
 40
13.0
 10
75.00834145260208
 20
-139.5618516361165
 10
74.77545299779919
 20
-139.7206705379865
 10
74.67606199304974
 20
-139.7947400909194
 10
74.62404105122246
 20
-139.9384005726543
 10
74.62404105122246
 20
-139.9384005726543
 10
75.4560316109103
 20
-139.9384005726543
 10
75.4560316109103
 20
-139.9384005726543
 10
75.4560316109103
 20
-139.9384005726543
 10
75.4560316109103
 20
-140.1437282635752
 10
75.4560316109103
 20
-140.1437282635752
 10
75.4560316109103
 20
-140.1437282635752
 10
74.35721840588987
 20
-140.1437282635752
 10
74.35721840588987
 20
-140.1437282635752
 10
74.39115259641957
 20
-139.7861273522063
 10
74.46126028954441
 20
-139.7079236846911
 10
74.8727769452575
 20
-139.4095784156684
 10
75.14631752678635
 20
-139.2107964061695
 10
75.21642521991117
 20
-139.1429280251101
 10
75.21642521991117
 20
-139.0054687152486
 10
75.21642521991117
 20
-138.886957430556
 10
75.13942733581584
 20
-138.7560438021166
 10
74.9292765112156
 20
-138.7560438021166
 10
74.65125730555594
 20
-138.7560438021166
 10
74.64212780252002
 20
-138.9865206900798
 10
74.6376491783892
 20
-139.1029649174812
 10
74.6376491783892
 20
-139.1029649174812
 10
74.39804278739008
 20
-139.1029649174812
 10
74.39804278739008
 20
-139.1029649174812
 10
74.40700003565172
 20
-138.9758408940755
 10
74.41836885075305
 20
-138.8638752908049
 10
74.50415172833577
 20
-138.7453640061123
 10
74.62180173915705
 20
-138.5844780469511
 10
74.82075600343023
 20
-138.5507161111957
 10
74.94512395044775
 20
-138.5507161111957
 10
75.24122990740497
 20
-138.5507161111957
 10
75.46274954710654
 20
-138.734684210108
 10
75.46274954710654
 20
-139.0075357725398
 10
75.46274954710654
 20
-139.2359456032119
 10
75.33855385486328
 20
-139.3355088627356
 10
75.00834145260208
 20
-139.5618516361165
 97
        0
 97
        0
 75
     2
 76
     1
 98
        0
  0
ENDBLK
  5
12B
330
128
100
AcDbEntity
  8
0
100
AcDbBlockEnd
  0
BLOCK
  5
13A
330
138
100
AcDbEntity
  8
0
100
AcDbBlockBegin
  2
block 6
 70
     0
 10
0.0
 20
0.0
 30
0.0
  3
block 6
  1

  0
SPLINE
  5
13C
330
138
100
AcDbEntity
  8
_U+30EC_U+30A4_U+30E4_U+30FC 1
370
     0
100
AcDbSpline
210
0.0
220
0.0
230
1.0
 70
    11
 71
     3
 72
    26
 73
    22
 74
     0
 42
0.0000000001
 43
0.0000000001
 12
1.0
 22
0.0
 32
0.0
 13
1.0
 23
0.0
 33
0.0
 40
0.0
 40
0.0
 40
0.0
 40
0.0
 40
1.0
 40
1.0
 40
1.0
 40
2.0
 40
2.0
 40
2.0
 40
3.0
 40
3.0
 40
3.0
 40
4.0
 40
4.0
 40
4.0
 40
5.0
 40
5.0
 40
5.0
 40
6.0
 40
6.0
 40
6.0
 40
7.0
 40
7.0
 40
7.0
 40
7.0
 10
110.5469129497938
 20
-129.4704779407227
 30
0.0
 10
110.5469129497938
 20
-129.4704779407227
 30
0.0
 10
109.4427598467713
 20
-129.4704779407227
 30
0.0
 10
109.4427598467713
 20
-129.4704779407227
 30
0.0
 10
109.4427598467713
 20
-129.4704779407227
 30
0.0
 10
109.4427598467713
 20
-129.8229112088637
 30
0.0
 10
109.4427598467713
 20
-129.8229112088637
 30
0.0
 10
109.4427598467713
 20
-129.8229112088637
 30
0.0
 10
109.2946207409055
 20
-129.8229112088637
 30
0.0
 10
109.2946207409055
 20
-129.8229112088637
 30
0.0
 10
109.2798068303189
 20
-129.468066373883
 30
0.0
 10
109.1168538138666
 20
-129.4184569988954
 30
0.0
 10
109.0024766437563
 20
-129.3867621204311
 30
0.0
 10
109.0024766437563
 20
-129.3867621204311
 30
0.0
 10
109.0024766437563
 20
-129.2306992949493
 30
0.0
 10
109.0024766437563
 20
-129.2306992949493
 30
0.0
 10
109.0024766437563
 20
-129.2306992949493
 30
0.0
 10
110.5469129497938
 20
-129.2306992949493
 30
0.0
 10
110.5469129497938
 20
-129.2306992949493
 30
0.0
 10
110.5469129497938
 20
-129.2306992949493
 30
0.0
 10
110.5469129497938
 20
-129.4704779407227
 30
0.0
 10
110.5469129497938
 20
-129.4704779407227
 30
0.0
  0
HATCH
  5
13D
330
138
100
AcDbEntity
  8
_U+30EC_U+30A4_U+30E4_U+30FC 1
 62
   179
420
  2234388
100
AcDbHatch
 10
0.0
 20
0.0
 30
0.0
210
0.0
220
0.0
230
1.0
  2
SOLID
 70
     1
 71
     0
 91
        1
 92
        1
 93
        1
 72
     4
 94
        3
 73
     0
 74
     1
 95
       26
 96
       22
 40
0.0
 40
0.0
 40
0.0
 40
0.0
 40
1.0
 40
1.0
 40
1.0
 40
2.0
 40
2.0
 40
2.0
 40
3.0
 40
3.0
 40
3.0
 40
4.0
 40
4.0
 40
4.0
 40
5.0
 40
5.0
 40
5.0
 40
6.0
 40
6.0
 40
6.0
 40
7.0
 40
7.0
 40
7.0
 40
7.0
 10
110.5469129497938
 20
-129.4704779407227
 10
110.5469129497938
 20
-129.4704779407227
 10
109.4427598467713
 20
-129.4704779407227
 10
109.4427598467713
 20
-129.4704779407227
 10
109.4427598467713
 20
-129.4704779407227
 10
109.4427598467713
 20
-129.8229112088637
 10
109.4427598467713
 20
-129.8229112088637
 10
109.4427598467713
 20
-129.8229112088637
 10
109.2946207409055
 20
-129.8229112088637
 10
109.2946207409055
 20
-129.8229112088637
 10
109.2798068303189
 20
-129.468066373883
 10
109.1168538138666
 20
-129.4184569988954
 10
109.0024766437563
 20
-129.3867621204311
 10
109.0024766437563
 20
-129.3867621204311
 10
109.0024766437563
 20
-129.2306992949493
 10
109.0024766437563
 20
-129.2306992949493
 10
109.0024766437563
 20
-129.2306992949493
 10
110.5469129497938
 20
-129.2306992949493
 10
110.5469129497938
 20
-129.2306992949493
 10
110.5469129497938
 20
-129.2306992949493
 10
110.5469129497938
 20
-129.4704779407227
 10
110.5469129497938
 20
-129.4704779407227
 97
        0
 97
        0
 75
     2
 76
     1
 98
        0
  0
SPLINE
  5
13E
330
138
100
AcDbEntity
  8
_U+30EC_U+30A4_U+30E4_U+30FC 1
370
     0
100
AcDbSpline
210
0.0
220
0.0
230
1.0
 70
    11
 71
     3
 72
    29
 73
    25
 74
     0
 42
0.0000000001
 43
0.0000000001
 12
1.0
 22
0.0
 32
0.0
 13
1.0
 23
0.0
 33
0.0
 40
0.0
 40
0.0
 40
0.0
 40
0.0
 40
1.0
 40
1.0
 40
1.0
 40
2.0
 40
2.0
 40
2.0
 40
3.0
 40
3.0
 40
3.0
 40
4.0
 40
4.0
 40
4.0
 40
5.0
 40
5.0
 40
5.0
 40
6.0
 40
6.0
 40
6.0
 40
7.0
 40
7.0
 40
7.0
 40
8.0
 40
8.0
 40
8.0
 40
8.0
 10
110.3691460227549
 20
-127.7355278543508
 30
0.0
 10
110.5786078282581
 20
-127.8509385531067
 30
0.0
 10
110.597555853427
 20
-128.0362846902132
 30
0.0
 10
110.597555853427
 20
-128.1606526372307
 30
0.0
 10
110.597555853427
 20
-128.3322183923961
 30
0.0
 10
110.5510470643761
 20
-128.4838025937471
 30
0.0
 10
110.3691460227549
 20
-128.585432910562
 30
0.0
 10
110.1744981278383
 20
-128.696364985187
 30
0.0
 10
109.9378200680017
 20
-128.71669104855
 30
0.0
 10
109.7748670515494
 20
-128.71669104855
 30
0.0
 10
109.6308620602659
 20
-128.71669104855
 30
0.0
 10
109.3790255802941
 20
-128.6984320424782
 30
0.0
 10
109.1802435707952
 20
-128.585432910562
 30
0.0
 10
108.977327446714
 20
-128.4703667213546
 30
0.0
 10
108.9539007974143
 20
-128.2984564566407
 30
0.0
 10
108.9539007974143
 20
-128.1606526372307
 30
0.0
 10
108.9539007974143
 20
-127.9908094298079
 30
0.0
 10
108.998342529174
 20
-127.8371581711657
 30
0.0
 10
109.1802435707952
 20
-127.7355278543508
 30
0.0
 10
109.3728244084207
 20
-127.6290744038566
 30
0.0
 10
109.6012342390927
 20
-127.6042697163628
 30
0.0
 10
109.7748670515494
 20
-127.6042697163628
 30
0.0
 10
109.9460882971663
 20
-127.6042697163628
 30
0.0
 10
110.1765651851295
 20
-127.6270073465655
 30
0.0
 10
110.3691460227549
 20
-127.7355278543508
 30
0.0
  0
SPLINE
  5
13F
330
138
100
AcDbEntity
  8
_U+30EC_U+30A4_U+30E4_U+30FC 1
370
     0
100
AcDbSpline
210
0.0
220
0.0
230
1.0
 70
    11
 71
     3
 72
    17
 73
    13
 74
     0
 42
0.0000000001
 43
0.0000000001
 12
1.0
 22
0.0
 32
0.0
 13
1.0
 23
0.0
 33
0.0
 40
0.0
 40
0.0
 40
0.0
 40
0.0
 40
1.0
 40
1.0
 40
1.0
 40
2.0
 40
2.0
 40
2.0
 40
3.0
 40
3.0
 40
3.0
 40
4.0
 40
4.0
 40
4.0
 40
4.0
 10
109.1464816350398
 20
-128.1606526372307
 30
0.0
 10
109.1464816350398
 20
-128.427303027789
 30
0.0
 10
109.4300129934758
 20
-128.4769124027766
 30
0.0
 10
109.7748670515494
 20
-128.4769124027766
 30
0.0
 10
110.094227403032
 20
-128.4769124027766
 30
0.0
 10
110.4029079585104
 20
-128.4386718428903
 30
0.0
 10
110.4029079585104
 20
-128.1606526372307
 30
0.0
 10
110.4029079585104
 20
-127.8960693039635
 30
0.0
 10
110.121788166914
 20
-127.8440483621362
 30
0.0
 10
109.7748670515494
 20
-127.8440483621362
 30
0.0
 10
109.4551621905182
 20
-127.8440483621362
 30
0.0
 10
109.1464816350398
 20
-127.8847004888622
 30
0.0
 10
109.1464816350398
 20
-128.1606526372307
 30
0.0
  0
HATCH
  5
140
330
138
100
AcDbEntity
  8
_U+30EC_U+30A4_U+30E4_U+30FC 1
 62
   179
420
  2234388
100
AcDbHatch
 10
0.0
 20
0.0
 30
0.0
210
0.0
220
0.0
230
1.0
  2
SOLID
 70
     1
 71
     0
 91
        2
 92
        1
 93
        1
 72
     4
 94
        3
 73
     0
 74
     1
 95
       29
 96
       25
 40
0.0
 40
0.0
 40
0.0
 40
0.0
 40
1.0
 40
1.0
 40
1.0
 40
2.0
 40
2.0
 40
2.0
 40
3.0
 40
3.0
 40
3.0
 40
4.0
 40
4.0
 40
4.0
 40
5.0
 40
5.0
 40
5.0
 40
6.0
 40
6.0
 40
6.0
 40
7.0
 40
7.0
 40
7.0
 40
8.0
 40
8.0
 40
8.0
 40
8.0
 10
110.3691460227549
 20
-127.7355278543508
 10
110.5786078282581
 20
-127.8509385531067
 10
110.597555853427
 20
-128.0362846902132
 10
110.597555853427
 20
-128.1606526372307
 10
110.597555853427
 20
-128.3322183923961
 10
110.5510470643761
 20
-128.4838025937471
 10
110.3691460227549
 20
-128.585432910562
 10
110.1744981278383
 20
-128.696364985187
 10
109.9378200680017
 20
-128.71669104855
 10
109.7748670515494
 20
-128.71669104855
 10
109.6308620602659
 20
-128.71669104855
 10
109.3790255802941
 20
-128.6984320424782
 10
109.1802435707952
 20
-128.585432910562
 10
108.977327446714
 20
-128.4703667213546
 10
108.9539007974143
 20
-128.2984564566407
 10
108.9539007974143
 20
-128.1606526372307
 10
108.9539007974143
 20
-127.9908094298079
 10
108.998342529174
 20
-127.8371581711657
 10
109.1802435707952
 20
-127.7355278543508
 10
109.3728244084207
 20
-127.6290744038566
 10
109.6012342390927
 20
-127.6042697163628
 10
109.7748670515494
 20
-127.6042697163628
 10
109.9460882971663
 20
-127.6042697163628
 10
110.1765651851295
 20
-127.6270073465655
 10
110.3691460227549
 20
-127.7355278543508
 97
        0
 97
        0
 92
        1
 93
        1
 72
     4
 94
        3
 73
     0
 74
     1
 95
       17
 96
       13
 40
0.0
 40
0.0
 40
0.0
 40
0.0
 40
1.0
 40
1.0
 40
1.0
 40
2.0
 40
2.0
 40
2.0
 40
3.0
 40
3.0
 40
3.0
 40
4.0
 40
4.0
 40
4.0
 40
4.0
 10
109.1464816350398
 20
-128.1606526372307
 10
109.1464816350398
 20
-128.427303027789
 10
109.4300129934758
 20
-128.4769124027766
 10
109.7748670515494
 20
-128.4769124027766
 10
110.094227403032
 20
-128.4769124027766
 10
110.4029079585104
 20
-128.4386718428903
 10
110.4029079585104
 20
-128.1606526372307
 10
110.4029079585104
 20
-127.8960693039635
 10
110.121788166914
 20
-127.8440483621362
 10
109.7748670515494
 20
-127.8440483621362
 10
109.4551621905182
 20
-127.8440483621362
 10
109.1464816350398
 20
-127.8847004888622
 10
109.1464816350398
 20
-128.1606526372307
 97
        0
 97
        0
 75
     2
 76
     1
 98
        0
  0
ENDBLK
  5
13B
330
138
100
AcDbEntity
  8
0
100
AcDbBlockEnd
  0
BLOCK
  5
14B
330
149
100
AcDbEntity
  8
0
100
AcDbBlockBegin
  2
block 7
 70
     0
 10
0.0
 20
0.0
 30
0.0
  3
block 7
  1

  0
SPLINE
  5
14D
330
149
100
AcDbEntity
  8
_U+30EC_U+30A4_U+30E4_U+30FC 1
370
     0
100
AcDbSpline
210
0.0
220
0.0
230
1.0
 70
    11
 71
     3
 72
    62
 73
    58
 74
     0
 42
0.0000000001
 43
0.0000000001
 12
1.0
 22
0.0
 32
0.0
 13
1.0
 23
0.0
 33
0.0
 40
0.0
 40
0.0
 40
0.0
 40
0.0
 40
1.0
 40
1.0
 40
1.0
 40
2.0
 40
2.0
 40
2.0
 40
3.0
 40
3.0
 40
3.0
 40
4.0
 40
4.0
 40
4.0
 40
5.0
 40
5.0
 40
5.0
 40
6.0
 40
6.0
 40
6.0
 40
7.0
 40
7.0
 40
7.0
 40
8.0
 40
8.0
 40
8.0
 40
9.0
 40
9.0
 40
9.0
 40
10.0
 40
10.0
 40
10.0
 40
11.0
 40
11.0
 40
11.0
 40
12.0
 40
12.0
 40
12.0
 40
13.0
 40
13.0
 40
13.0
 40
14.0
 40
14.0
 40
14.0
 40
15.0
 40
15.0
 40
15.0
 40
16.0
 40
16.0
 40
16.0
 40
17.0
 40
17.0
 40
17.0
 40
18.0
 40
18.0
 40
18.0
 40
19.0
 40
19.0
 40
19.0
 40
19.0
 10
110.5972113438785
 20
-135.2982014635713
 30
0.0
 10
110.5972113438785
 20
-135.3998317803862
 30
0.0
 10
110.5761962614185
 20
-135.6327202351891
 30
0.0
 10
110.390161105215
 20
-135.7660454304682
 30
0.0
 10
110.2778509923958
 20
-135.845282626629
 30
0.0
 10
110.1786322424206
 20
-135.8497612507598
 30
0.0
 10
110.0938828934835
 20
-135.8542398748906
 30
0.0
 10
110.0938828934835
 20
-135.8542398748906
 30
0.0
 10
110.0938828934835
 20
-135.6192843627966
 30
0.0
 10
110.0938828934835
 20
-135.6192843627966
 30
0.0
 10
110.1679524464164
 20
-135.6168727959569
 30
0.0
 10
110.4025634489619
 20
-135.6055039808556
 30
0.0
 10
110.4025634489619
 20
-135.3026800877021
 30
0.0
 10
110.4025634489619
 20
-135.155574510482
 30
0.0
 10
110.3329725201598
 20
-134.9929660035781
 30
0.0
 10
110.1045626894878
 20
-134.9929660035781
 30
0.0
 10
109.9881184620863
 20
-134.9929660035781
 30
0.0
 10
109.9395426157443
 20
-135.0336181303041
 30
0.0
 10
109.90784773728
 20
-135.0677245756081
 30
0.0
 10
109.8337781843471
 20
-135.1466172622203
 30
0.0
 10
109.8210313310517
 20
-135.2709852092378
 30
0.0
 10
109.8210313310517
 20
-135.3298963420356
 30
0.0
 10
109.8210313310517
 20
-135.3502224053986
 30
0.0
 10
109.8230983883428
 20
-135.3884629652848
 30
0.0
 10
109.8272325029251
 20
-135.418090786458
 30
0.0
 10
109.8272325029251
 20
-135.418090786458
 30
0.0
 10
109.6325846080085
 20
-135.418090786458
 30
0.0
 10
109.6325846080085
 20
-135.418090786458
 30
0.0
 10
109.6391302894305
 20
-135.377438659732
 30
0.0
 10
109.6411973467217
 20
-135.3319633993267
 30
0.0
 10
109.6411973467217
 20
-135.3254177179048
 30
0.0
 10
109.6411973467217
 20
-135.2551377700057
 30
0.0
 10
109.6198377547131
 20
-135.0425753785657
 30
0.0
 10
109.3831596948764
 20
-135.0425753785657
 30
0.0
 10
109.2053927678376
 20
-135.0425753785657
 30
0.0
 10
109.1502712400736
 20
-135.1827907648154
 30
0.0
 10
109.1502712400736
 20
-135.3002685208624
 30
0.0
 10
109.1502712400736
 20
-135.5831108602015
 30
0.0
 10
109.3831596948764
 20
-135.5920681084631
 30
0.0
 10
109.4548176809696
 20
-135.5965467325939
 30
0.0
 10
109.4548176809696
 20
-135.5965467325939
 30
0.0
 10
109.4548176809696
 20
-135.8135877481647
 30
0.0
 10
109.4548176809696
 20
-135.8135877481647
 30
0.0
 10
109.3301052244036
 20
-135.804630499903
 30
0.0
 10
108.9535562878658
 20
-135.7753471882784
 30
0.0
 10
108.9535562878658
 20
-135.28683264847
 30
0.0
 10
108.9535562878658
 20
-135.0470540026966
 30
0.0
 10
109.0806803112715
 20
-134.7893608603999
 30
0.0
 10
109.3766140134545
 20
-134.7893608603999
 30
0.0
 10
109.5629936792065
 20
-134.7893608603999
 30
0.0
 10
109.645331461304
 20
-134.8913356867633
 30
0.0
 10
109.7066541609414
 20
-134.997444627709
 30
0.0
 10
109.7342149248234
 20
-134.9319878134892
 30
0.0
 10
109.8144856496297
 20
-134.7373399185726
 30
0.0
 10
110.0918158361923
 20
-134.7373399185726
 30
0.0
 10
110.4301242128439
 20
-134.7373399185726
 30
0.0
 10
110.5972113438785
 20
-135.0019232518398
 30
0.0
 10
110.5972113438785
 20
-135.2982014635713
 30
0.0
  0
HATCH
  5
14E
330
149
100
AcDbEntity
  8
_U+30EC_U+30A4_U+30E4_U+30FC 1
 62
   179
420
  2234388
100
AcDbHatch
 10
0.0
 20
0.0
 30
0.0
210
0.0
220
0.0
230
1.0
  2
SOLID
 70
     1
 71
     0
 91
        1
 92
        1
 93
        1
 72
     4
 94
        3
 73
     0
 74
     1
 95
       62
 96
       58
 40
0.0
 40
0.0
 40
0.0
 40
0.0
 40
1.0
 40
1.0
 40
1.0
 40
2.0
 40
2.0
 40
2.0
 40
3.0
 40
3.0
 40
3.0
 40
4.0
 40
4.0
 40
4.0
 40
5.0
 40
5.0
 40
5.0
 40
6.0
 40
6.0
 40
6.0
 40
7.0
 40
7.0
 40
7.0
 40
8.0
 40
8.0
 40
8.0
 40
9.0
 40
9.0
 40
9.0
 40
10.0
 40
10.0
 40
10.0
 40
11.0
 40
11.0
 40
11.0
 40
12.0
 40
12.0
 40
12.0
 40
13.0
 40
13.0
 40
13.0
 40
14.0
 40
14.0
 40
14.0
 40
15.0
 40
15.0
 40
15.0
 40
16.0
 40
16.0
 40
16.0
 40
17.0
 40
17.0
 40
17.0
 40
18.0
 40
18.0
 40
18.0
 40
19.0
 40
19.0
 40
19.0
 40
19.0
 10
110.5972113438785
 20
-135.2982014635713
 10
110.5972113438785
 20
-135.3998317803862
 10
110.5761962614185
 20
-135.6327202351891
 10
110.390161105215
 20
-135.7660454304682
 10
110.2778509923958
 20
-135.845282626629
 10
110.1786322424206
 20
-135.8497612507598
 10
110.0938828934835
 20
-135.8542398748906
 10
110.0938828934835
 20
-135.8542398748906
 10
110.0938828934835
 20
-135.6192843627966
 10
110.0938828934835
 20
-135.6192843627966
 10
110.1679524464164
 20
-135.6168727959569
 10
110.4025634489619
 20
-135.6055039808556
 10
110.4025634489619
 20
-135.3026800877021
 10
110.4025634489619
 20
-135.155574510482
 10
110.3329725201598
 20
-134.9929660035781
 10
110.1045626894878
 20
-134.9929660035781
 10
109.9881184620863
 20
-134.9929660035781
 10
109.9395426157443
 20
-135.0336181303041
 10
109.90784773728
 20
-135.0677245756081
 10
109.8337781843471
 20
-135.1466172622203
 10
109.8210313310517
 20
-135.2709852092378
 10
109.8210313310517
 20
-135.3298963420356
 10
109.8210313310517
 20
-135.3502224053986
 10
109.8230983883428
 20
-135.3884629652848
 10
109.8272325029251
 20
-135.418090786458
 10
109.8272325029251
 20
-135.418090786458
 10
109.6325846080085
 20
-135.418090786458
 10
109.6325846080085
 20
-135.418090786458
 10
109.6391302894305
 20
-135.377438659732
 10
109.6411973467217
 20
-135.3319633993267
 10
109.6411973467217
 20
-135.3254177179048
 10
109.6411973467217
 20
-135.2551377700057
 10
109.6198377547131
 20
-135.0425753785657
 10
109.3831596948764
 20
-135.0425753785657
 10
109.2053927678376
 20
-135.0425753785657
 10
109.1502712400736
 20
-135.1827907648154
 10
109.1502712400736
 20
-135.3002685208624
 10
109.1502712400736
 20
-135.5831108602015
 10
109.3831596948764
 20
-135.5920681084631
 10
109.4548176809696
 20
-135.5965467325939
 10
109.4548176809696
 20
-135.5965467325939
 10
109.4548176809696
 20
-135.8135877481647
 10
109.4548176809696
 20
-135.8135877481647
 10
109.3301052244036
 20
-135.804630499903
 10
108.9535562878658
 20
-135.7753471882784
 10
108.9535562878658
 20
-135.28683264847
 10
108.9535562878658
 20
-135.0470540026966
 10
109.0806803112715
 20
-134.7893608603999
 10
109.3766140134545
 20
-134.7893608603999
 10
109.5629936792065
 20
-134.7893608603999
 10
109.645331461304
 20
-134.8913356867633
 10
109.7066541609414
 20
-134.997444627709
 10
109.7342149248234
 20
-134.9319878134892
 10
109.8144856496297
 20
-134.7373399185726
 10
110.0918158361923
 20
-134.7373399185726
 10
110.4301242128439
 20
-134.7373399185726
 10
110.5972113438785
 20
-135.0019232518398
 10
110.5972113438785
 20
-135.2982014635713
 97
        0
 97
        0
 75
     2
 76
     1
 98
        0
  0
ENDBLK
  5
14C
330
149
100
AcDbEntity
  8
0
100
AcDbBlockEnd
  0
ENDSEC
  0
SECTION
  2
ENTITIES
  0
POLYLINE
  5
41
330
1F
100
AcDbEntity
  8
_U+30EC_U+30A4_U+30E4_U+30FC 1
370
     0
100
AcDb2dPolyline
 66
     1
 10
0.0
 20
0.0
 30
0.0
  0
VERTEX
  5
42
330
41
100
AcDbEntity
  8
_U+30EC_U+30A4_U+30E4_U+30FC 1
370
     0
100
AcDbVertex
100
AcDb2dVertex
 10
68.28041936913249
 20
-123.7889813579416
 30
0.0
  0
VERTEX
  5
43
330
41
100
AcDbEntity
  8
_U+30EC_U+30A4_U+30E4_U+30FC 1
370
     0
100
AcDbVertex
100
AcDb2dVertex
 10
80.2803668407661
 20
-123.7889813579416
 30
0.0
  0
VERTEX
  5
44
330
41
100
AcDbEntity
  8
_U+30EC_U+30A4_U+30E4_U+30FC 1
370
     0
100
AcDbVertex
100
AcDb2dVertex
 10
80.2803668407661
 20
-136.7888777435804
 30
0.0
  0
VERTEX
  5
45
330
41
100
AcDbEntity
  8
_U+30EC_U+30A4_U+30E4_U+30FC 1
370
     0
100
AcDbVertex
100
AcDb2dVertex
 10
90.28027603009161
 20
-136.7888777435804
 30
0.0
  0
VERTEX
  5
46
330
41
100
AcDbEntity
  8
_U+30EC_U+30A4_U+30E4_U+30FC 1
370
     0
100
AcDbVertex
100
AcDb2dVertex
 10
90.28027603009161
 20
-133.7888907998861
 30
0.0
  0
VERTEX
  5
47
330
41
100
AcDbEntity
  8
_U+30EC_U+30A4_U+30E4_U+30FC 1
370
     0
100
AcDbVertex
100
AcDb2dVertex
 10
89.2805038333757
 20
-133.7888907998861
 30
0.0
  0
VERTEX
  5
48
330
41
100
AcDbEntity
  8
_U+30EC_U+30A4_U+30E4_U+30FC 1
370
     0
100
AcDbVertex
100
AcDb2dVertex
 10
89.2805038333757
 20
-135.789140799386
 30
0.0
  0
VERTEX
  5
49
330
41
100
AcDbEntity
  8
_U+30EC_U+30A4_U+30E4_U+30FC 1
370
     0
100
AcDbVertex
100
AcDb2dVertex
 10
81.18023237336418
 20
-135.789140799386
 30
0.0
  0
VERTEX
  5
4A
330
41
100
AcDbEntity
  8
_U+30EC_U+30A4_U+30E4_U+30FC 1
370
     0
100
AcDbVertex
100
AcDb2dVertex
 10
81.18023237336418
 20
-123.7889813579416
 30
0.0
  0
VERTEX
  5
4B
330
41
100
AcDbEntity
  8
_U+30EC_U+30A4_U+30E4_U+30FC 1
370
     0
100
AcDbVertex
100
AcDb2dVertex
 10
96.28007337702402
 20
-123.7889813579416
 30
0.0
  0
VERTEX
  5
4C
330
41
100
AcDbEntity
  8
_U+30EC_U+30A4_U+30E4_U+30FC 1
370
     0
100
AcDbVertex
100
AcDb2dVertex
 10
96.97977280361765
 20
-123.339083858054
 30
0.0
  0
VERTEX
  5
4D
330
41
100
AcDbEntity
  8
_U+30EC_U+30A4_U+30E4_U+30FC 1
370
     0
100
AcDbVertex
100
AcDb2dVertex
 10
97.67982500798006
 20
-123.7889813579416
 30
0.0
  0
VERTEX
  5
4E
330
41
100
AcDbEntity
  8
_U+30EC_U+30A4_U+30E4_U+30FC 1
370
     0
100
AcDbVertex
100
AcDb2dVertex
 10
98.37987721234245
 20
-123.339083858054
 30
0.0
  0
VERTEX
  5
4F
330
41
100
AcDbEntity
  8
_U+30EC_U+30A4_U+30E4_U+30FC 1
370
     0
100
AcDbVertex
100
AcDb2dVertex
 10
99.07989413892798
 20
-123.7889813579416
 30
0.0
  0
VERTEX
  5
50
330
41
100
AcDbEntity
  8
_U+30EC_U+30A4_U+30E4_U+30FC 1
370
     0
100
AcDbVertex
100
AcDb2dVertex
 10
99.77994634329038
 20
-123.339083858054
 30
0.0
  0
VERTEX
  5
51
330
41
100
AcDbEntity
  8
_U+30EC_U+30A4_U+30E4_U+30FC 1
370
     0
100
AcDbVertex
100
AcDb2dVertex
 10
100.4799985476528
 20
-123.7889813579416
 30
0.0
  0
VERTEX
  5
52
330
41
100
AcDbEntity
  8
_U+30EC_U+30A4_U+30E4_U+30FC 1
370
     0
100
AcDbVertex
100
AcDb2dVertex
 10
101.1800507520152
 20
-123.339083858054
 30
0.0
  0
VERTEX
  5
53
330
41
100
AcDbEntity
  8
_U+30EC_U+30A4_U+30E4_U+30FC 1
370
     0
100
AcDbVertex
100
AcDb2dVertex
 10
101.8800676786007
 20
-123.7889813579416
 30
0.0
  0
VERTEX
  5
54
330
41
100
AcDbEntity
  8
_U+30EC_U+30A4_U+30E4_U+30FC 1
370
     0
100
AcDbVertex
100
AcDb2dVertex
 10
102.5794496052024
 20
-123.339083858054
 30
0.0
  0
VERTEX
  5
55
330
41
100
AcDbEntity
  8
_U+30EC_U+30A4_U+30E4_U+30FC 1
370
     0
100
AcDbVertex
100
AcDb2dVertex
 10
103.279466531788
 20
-123.7889813579416
 30
0.0
  0
VERTEX
  5
56
330
41
100
AcDbEntity
  8
_U+30EC_U+30A4_U+30E4_U+30FC 1
370
     0
100
AcDbVertex
100
AcDb2dVertex
 10
108.2797033486657
 20
-123.7889813579416
 30
0.0
  0
VERTEX
  5
57
330
41
100
AcDbEntity
  8
_U+30EC_U+30A4_U+30E4_U+30FC 1
370
     0
100
AcDbVertex
100
AcDb2dVertex
 10
108.2797033486657
 20
-122.8891510803889
 30
0.0
  0
VERTEX
  5
58
330
41
100
AcDbEntity
  8
_U+30EC_U+30A4_U+30E4_U+30FC 1
370
     0
100
AcDbVertex
100
AcDb2dVertex
 10
68.28041936913249
 20
-122.8891510803889
 30
0.0
  0
VERTEX
  5
59
330
41
100
AcDbEntity
  8
_U+30EC_U+30A4_U+30E4_U+30FC 1
370
     0
100
AcDbVertex
100
AcDb2dVertex
 10
68.28041936913249
 20
-123.7889813579416
 30
0.0
  0
SEQEND
  5
5B
330
41
100
AcDbEntity
  8
_U+30EC_U+30A4_U+30E4_U+30FC 1
370
     0
  0
HATCH
  5
5A
330
1F
100
AcDbEntity
  8
_U+30EC_U+30A4_U+30E4_U+30FC 1
 62
   253
420
 11711154
100
AcDbHatch
 10
0.0
 20
0.0
 30
0.0
210
0.0
220
0.0
230
1.0
  2
SOLID
 70
     1
 71
     0
 91
        1
 92
        1
 93
       23
 72
     1
 10
68.28041936913249
 20
-123.7889813579416
 11
80.2803668407661
 21
-123.7889813579416
 72
     1
 10
80.2803668407661
 20
-123.7889813579416
 11
80.2803668407661
 21
-136.7888777435804
 72
     1
 10
80.2803668407661
 20
-136.7888777435804
 11
90.28027603009161
 21
-136.7888777435804
 72
     1
 10
90.28027603009161
 20
-136.7888777435804
 11
90.28027603009161
 21
-133.7888907998861
 72
     1
 10
90.28027603009161
 20
-133.7888907998861
 11
89.2805038333757
 21
-133.7888907998861
 72
     1
 10
89.2805038333757
 20
-133.7888907998861
 11
89.2805038333757
 21
-135.789140799386
 72
     1
 10
89.2805038333757
 20
-135.789140799386
 11
81.18023237336418
 21
-135.789140799386
 72
     1
 10
81.18023237336418
 20
-135.789140799386
 11
81.18023237336418
 21
-123.7889813579416
 72
     1
 10
81.18023237336418
 20
-123.7889813579416
 11
96.28007337702402
 21
-123.7889813579416
 72
     1
 10
96.28007337702402
 20
-123.7889813579416
 11
96.97977280361765
 21
-123.339083858054
 72
     1
 10
96.97977280361765
 20
-123.339083858054
 11
97.67982500798006
 21
-123.7889813579416
 72
     1
 10
97.67982500798006
 20
-123.7889813579416
 11
98.37987721234245
 21
-123.339083858054
 72
     1
 10
98.37987721234245
 20
-123.339083858054
 11
99.07989413892798
 21
-123.7889813579416
 72
     1
 10
99.07989413892798
 20
-123.7889813579416
 11
99.77994634329038
 21
-123.339083858054
 72
     1
 10
99.77994634329038
 20
-123.339083858054
 11
100.4799985476528
 21
-123.7889813579416
 72
     1
 10
100.4799985476528
 20
-123.7889813579416
 11
101.1800507520152
 21
-123.339083858054
 72
     1
 10
101.1800507520152
 20
-123.339083858054
 11
101.8800676786007
 21
-123.7889813579416
 72
     1
 10
101.8800676786007
 20
-123.7889813579416
 11
102.5794496052024
 21
-123.339083858054
 72
     1
 10
102.5794496052024
 20
-123.339083858054
 11
103.279466531788
 21
-123.7889813579416
 72
     1
 10
103.279466531788
 20
-123.7889813579416
 11
108.2797033486657
 21
-123.7889813579416
 72
     1
 10
108.2797033486657
 20
-123.7889813579416
 11
108.2797033486657
 21
-122.8891510803889
 72
     1
 10
108.2797033486657
 20
-122.8891510803889
 11
68.28041936913249
 21
-122.8891510803889
 72
     1
 10
68.28041936913249
 20
-122.8891510803889
 11
68.28041936913249
 21
-123.7889813579416
 97
        0
 75
     2
 76
     1
 98
        0
  0
POLYLINE
  5
5C
330
1F
100
AcDbEntity
  8
_U+30EC_U+30A4_U+30E4_U+30FC 1
 62
   179
420
  2234388
370
    25
100
AcDb2dPolyline
 66
     1
 10
0.0
 20
0.0
 30
0.0
  0
VERTEX
  5
5D
330
5C
100
AcDbEntity
  8
_U+30EC_U+30A4_U+30E4_U+30FC 1
 62
   179
420
  2234388
370
    25
100
AcDbVertex
100
AcDb2dVertex
 10
80.2803668407661
 20
-136.7888777435804
 30
0.0
  0
VERTEX
  5
5E
330
5C
100
AcDbEntity
  8
_U+30EC_U+30A4_U+30E4_U+30FC 1
 62
   179
420
  2234388
370
    25
100
AcDbVertex
100
AcDb2dVertex
 10
90.28027603009161
 20
-136.7888777435804
 30
0.0
  0
SEQEND
  5
5F
330
5C
100
AcDbEntity
  8
_U+30EC_U+30A4_U+30E4_U+30FC 1
 62
   179
420
  2234388
370
    25
  0
POLYLINE
  5
60
330
1F
100
AcDbEntity
  8
_U+30EC_U+30A4_U+30E4_U+30FC 1
 62
   179
420
  2234388
370
    25
100
AcDb2dPolyline
 66
     1
 10
0.0
 20
0.0
 30
0.0
  0
VERTEX
  5
61
330
60
100
AcDbEntity
  8
_U+30EC_U+30A4_U+30E4_U+30FC 1
 62
   179
420
  2234388
370
    25
100
AcDbVertex
100
AcDb2dVertex
 10
68.28041936913249
 20
-122.8891510803889
 30
0.0
  0
VERTEX
  5
62
330
60
100
AcDbEntity
  8
_U+30EC_U+30A4_U+30E4_U+30FC 1
 62
   179
420
  2234388
370
    25
100
AcDbVertex
100
AcDb2dVertex
 10
108.2797033486657
 20
-122.8891510803889
 30
0.0
  0
SEQEND
  5
63
330
60
100
AcDbEntity
  8
_U+30EC_U+30A4_U+30E4_U+30FC 1
 62
   179
420
  2234388
370
    25
  0
POLYLINE
  5
64
330
1F
100
AcDbEntity
  8
_U+30EC_U+30A4_U+30E4_U+30FC 1
 62
   179
420
  2234388
370
    25
100
AcDb2dPolyline
 66
     1
 10
0.0
 20
0.0
 30
0.0
  0
VERTEX
  5
65
330
64
100
AcDbEntity
  8
_U+30EC_U+30A4_U+30E4_U+30FC 1
 62
   179
420
  2234388
370
    25
100
AcDbVertex
100
AcDb2dVertex
 10
89.2805038333757
 20
-133.7888907998861
 30
0.0
  0
VERTEX
  5
66
330
64
100
AcDbEntity
  8
_U+30EC_U+30A4_U+30E4_U+30FC 1
 62
   179
420
  2234388
370
    25
100
AcDbVertex
100
AcDb2dVertex
 10
90.28027603009161
 20
-133.7888907998861
 30
0.0
  0
SEQEND
  5
67
330
64
100
AcDbEntity
  8
_U+30EC_U+30A4_U+30E4_U+30FC 1
 62
   179
420
  2234388
370
    25
  0
POLYLINE
  5
68
330
1F
100
AcDbEntity
  8
_U+30EC_U+30A4_U+30E4_U+30FC 1
 62
   179
420
  2234388
370
    25
100
AcDb2dPolyline
 66
     1
 10
0.0
 20
0.0
 30
0.0
  0
VERTEX
  5
69
330
68
100
AcDbEntity
  8
_U+30EC_U+30A4_U+30E4_U+30FC 1
 62
   179
420
  2234388
370
    25
100
AcDbVertex
100
AcDb2dVertex
 10
90.28027603009161
 20
-136.7888777435804
 30
0.0
  0
VERTEX
  5
6A
330
68
100
AcDbEntity
  8
_U+30EC_U+30A4_U+30E4_U+30FC 1
 62
   179
420
  2234388
370
    25
100
AcDbVertex
100
AcDb2dVertex
 10
90.28027603009161
 20
-133.7888907998861
 30
0.0
  0
SEQEND
  5
6B
330
68
100
AcDbEntity
  8
_U+30EC_U+30A4_U+30E4_U+30FC 1
 62
   179
420
  2234388
370
    25
  0
POLYLINE
  5
6C
330
1F
100
AcDbEntity
  8
_U+30EC_U+30A4_U+30E4_U+30FC 1
 62
   179
420
  2234388
370
    25
100
AcDb2dPolyline
 66
     1
 10
0.0
 20
0.0
 30
0.0
  0
VERTEX
  5
6D
330
6C
100
AcDbEntity
  8
_U+30EC_U+30A4_U+30E4_U+30FC 1
 62
   179
420
  2234388
370
    25
100
AcDbVertex
100
AcDb2dVertex
 10
68.28041936913249
 20
-123.7889813579416
 30
0.0
  0
VERTEX
  5
6E
330
6C
100
AcDbEntity
  8
_U+30EC_U+30A4_U+30E4_U+30FC 1
 62
   179
420
  2234388
370
    25
100
AcDbVertex
100
AcDb2dVertex
 10
68.28041936913249
 20
-122.8891510803889
 30
0.0
  0
SEQEND
  5
6F
330
6C
100
AcDbEntity
  8
_U+30EC_U+30A4_U+30E4_U+30FC 1
 62
   179
420
  2234388
370
    25
  0
POLYLINE
  5
70
330
1F
100
AcDbEntity
  8
_U+30EC_U+30A4_U+30E4_U+30FC 1
 62
   179
420
  2234388
370
    25
100
AcDb2dPolyline
 66
     1
 10
0.0
 20
0.0
 30
0.0
  0
VERTEX
  5
71
330
70
100
AcDbEntity
  8
_U+30EC_U+30A4_U+30E4_U+30FC 1
 62
   179
420
  2234388
370
    25
100
AcDbVertex
100
AcDb2dVertex
 10
80.2803668407661
 20
-136.7888777435804
 30
0.0
  0
VERTEX
  5
72
330
70
100
AcDbEntity
  8
_U+30EC_U+30A4_U+30E4_U+30FC 1
 62
   179
420
  2234388
370
    25
100
AcDbVertex
100
AcDb2dVertex
 10
80.2803668407661
 20
-123.7889813579416
 30
0.0
  0
SEQEND
  5
73
330
70
100
AcDbEntity
  8
_U+30EC_U+30A4_U+30E4_U+30FC 1
 62
   179
420
  2234388
370
    25
  0
POLYLINE
  5
74
330
1F
100
AcDbEntity
  8
_U+30EC_U+30A4_U+30E4_U+30FC 1
 62
   179
420
  2234388
370
    25
100
AcDb2dPolyline
 66
     1
 10
0.0
 20
0.0
 30
0.0
  0
VERTEX
  5
75
330
74
100
AcDbEntity
  8
_U+30EC_U+30A4_U+30E4_U+30FC 1
 62
   179
420
  2234388
370
    25
100
AcDbVertex
100
AcDb2dVertex
 10
68.28041936913249
 20
-123.7889813579416
 30
0.0
  0
VERTEX
  5
76
330
74
100
AcDbEntity
  8
_U+30EC_U+30A4_U+30E4_U+30FC 1
 62
   179
420
  2234388
370
    25
100
AcDbVertex
100
AcDb2dVertex
 10
80.2803668407661
 20
-123.7889813579416
 30
0.0
  0
SEQEND
  5
77
330
74
100
AcDbEntity
  8
_U+30EC_U+30A4_U+30E4_U+30FC 1
 62
   179
420
  2234388
370
    25
  0
POLYLINE
  5
78
330
1F
100
AcDbEntity
  8
_U+30EC_U+30A4_U+30E4_U+30FC 1
 62
   179
420
  2234388
370
    25
100
AcDb2dPolyline
 66
     1
 10
0.0
 20
0.0
 30
0.0
  0
VERTEX
  5
79
330
78
100
AcDbEntity
  8
_U+30EC_U+30A4_U+30E4_U+30FC 1
 62
   179
420
  2234388
370
    25
100
AcDbVertex
100
AcDb2dVertex
 10
81.18023237336418
 20
-135.789140799386
 30
0.0
  0
VERTEX
  5
7A
330
78
100
AcDbEntity
  8
_U+30EC_U+30A4_U+30E4_U+30FC 1
 62
   179
420
  2234388
370
    25
100
AcDbVertex
100
AcDb2dVertex
 10
81.18023237336418
 20
-123.7889813579416
 30
0.0
  0
SEQEND
  5
7B
330
78
100
AcDbEntity
  8
_U+30EC_U+30A4_U+30E4_U+30FC 1
 62
   179
420
  2234388
370
    25
  0
POLYLINE
  5
7C
330
1F
100
AcDbEntity
  8
_U+30EC_U+30A4_U+30E4_U+30FC 1
 62
   179
420
  2234388
370
    25
100
AcDb2dPolyline
 66
     1
 10
0.0
 20
0.0
 30
0.0
  0
VERTEX
  5
7D
330
7C
100
AcDbEntity
  8
_U+30EC_U+30A4_U+30E4_U+30FC 1
 62
   179
420
  2234388
370
    25
100
AcDbVertex
100
AcDb2dVertex
 10
108.2797033486657
 20
-123.7889813579416
 30
0.0
  0
VERTEX
  5
7E
330
7C
100
AcDbEntity
  8
_U+30EC_U+30A4_U+30E4_U+30FC 1
 62
   179
420
  2234388
370
    25
100
AcDbVertex
100
AcDb2dVertex
 10
108.2797033486657
 20
-122.8891510803889
 30
0.0
  0
SEQEND
  5
7F
330
7C
100
AcDbEntity
  8
_U+30EC_U+30A4_U+30E4_U+30FC 1
 62
   179
420
  2234388
370
    25
  0
POLYLINE
  5
80
330
1F
100
AcDbEntity
  8
_U+30EC_U+30A4_U+30E4_U+30FC 1
 62
   179
420
  2234388
370
    25
100
AcDb2dPolyline
 66
     1
 10
0.0
 20
0.0
 30
0.0
  0
VERTEX
  5
81
330
80
100
AcDbEntity
  8
_U+30EC_U+30A4_U+30E4_U+30FC 1
 62
   179
420
  2234388
370
    25
100
AcDbVertex
100
AcDb2dVertex
 10
81.18023237336418
 20
-123.7889813579416
 30
0.0
  0
VERTEX
  5
82
330
80
100
AcDbEntity
  8
_U+30EC_U+30A4_U+30E4_U+30FC 1
 62
   179
420
  2234388
370
    25
100
AcDbVertex
100
AcDb2dVertex
 10
96.28007337702402
 20
-123.7889813579416
 30
0.0
  0
SEQEND
  5
83
330
80
100
AcDbEntity
  8
_U+30EC_U+30A4_U+30E4_U+30FC 1
 62
   179
420
  2234388
370
    25
  0
POLYLINE
  5
84
330
1F
100
AcDbEntity
  8
_U+30EC_U+30A4_U+30E4_U+30FC 1
 62
   179
420
  2234388
370
    25
100
AcDb2dPolyline
 66
     1
 10
0.0
 20
0.0
 30
0.0
  0
VERTEX
  5
85
330
84
100
AcDbEntity
  8
_U+30EC_U+30A4_U+30E4_U+30FC 1
 62
   179
420
  2234388
370
    25
100
AcDbVertex
100
AcDb2dVertex
 10
101.8800676786007
 20
-123.7889813579416
 30
0.0
  0
VERTEX
  5
86
330
84
100
AcDbEntity
  8
_U+30EC_U+30A4_U+30E4_U+30FC 1
 62
   179
420
  2234388
370
    25
100
AcDbVertex
100
AcDb2dVertex
 10
102.5794496052024
 20
-123.339083858054
 30
0.0
  0
SEQEND
  5
87
330
84
100
AcDbEntity
  8
_U+30EC_U+30A4_U+30E4_U+30FC 1
 62
   179
420
  2234388
370
    25
  0
POLYLINE
  5
88
330
1F
100
AcDbEntity
  8
_U+30EC_U+30A4_U+30E4_U+30FC 1
 62
   179
420
  2234388
370
    25
100
AcDb2dPolyline
 66
     1
 10
0.0
 20
0.0
 30
0.0
  0
VERTEX
  5
89
330
88
100
AcDbEntity
  8
_U+30EC_U+30A4_U+30E4_U+30FC 1
 62
   179
420
  2234388
370
    25
100
AcDbVertex
100
AcDb2dVertex
 10
103.279466531788
 20
-123.7889813579416
 30
0.0
  0
VERTEX
  5
8A
330
88
100
AcDbEntity
  8
_U+30EC_U+30A4_U+30E4_U+30FC 1
 62
   179
420
  2234388
370
    25
100
AcDbVertex
100
AcDb2dVertex
 10
102.5794496052024
 20
-123.339083858054
 30
0.0
  0
SEQEND
  5
8B
330
88
100
AcDbEntity
  8
_U+30EC_U+30A4_U+30E4_U+30FC 1
 62
   179
420
  2234388
370
    25
  0
POLYLINE
  5
8C
330
1F
100
AcDbEntity
  8
_U+30EC_U+30A4_U+30E4_U+30FC 1
 62
   179
420
  2234388
370
    25
100
AcDb2dPolyline
 66
     1
 10
0.0
 20
0.0
 30
0.0
  0
VERTEX
  5
8D
330
8C
100
AcDbEntity
  8
_U+30EC_U+30A4_U+30E4_U+30FC 1
 62
   179
420
  2234388
370
    25
100
AcDbVertex
100
AcDb2dVertex
 10
101.8800676786007
 20
-123.7889813579416
 30
0.0
  0
VERTEX
  5
8E
330
8C
100
AcDbEntity
  8
_U+30EC_U+30A4_U+30E4_U+30FC 1
 62
   179
420
  2234388
370
    25
100
AcDbVertex
100
AcDb2dVertex
 10
101.1800507520152
 20
-123.339083858054
 30
0.0
  0
SEQEND
  5
8F
330
8C
100
AcDbEntity
  8
_U+30EC_U+30A4_U+30E4_U+30FC 1
 62
   179
420
  2234388
370
    25
  0
POLYLINE
  5
90
330
1F
100
AcDbEntity
  8
_U+30EC_U+30A4_U+30E4_U+30FC 1
 62
   179
420
  2234388
370
    25
100
AcDb2dPolyline
 66
     1
 10
0.0
 20
0.0
 30
0.0
  0
VERTEX
  5
91
330
90
100
AcDbEntity
  8
_U+30EC_U+30A4_U+30E4_U+30FC 1
 62
   179
420
  2234388
370
    25
100
AcDbVertex
100
AcDb2dVertex
 10
100.4799985476528
 20
-123.7889813579416
 30
0.0
  0
VERTEX
  5
92
330
90
100
AcDbEntity
  8
_U+30EC_U+30A4_U+30E4_U+30FC 1
 62
   179
420
  2234388
370
    25
100
AcDbVertex
100
AcDb2dVertex
 10
101.1800507520152
 20
-123.339083858054
 30
0.0
  0
SEQEND
  5
93
330
90
100
AcDbEntity
  8
_U+30EC_U+30A4_U+30E4_U+30FC 1
 62
   179
420
  2234388
370
    25
  0
POLYLINE
  5
94
330
1F
100
AcDbEntity
  8
_U+30EC_U+30A4_U+30E4_U+30FC 1
 62
   179
420
  2234388
370
    25
100
AcDb2dPolyline
 66
     1
 10
0.0
 20
0.0
 30
0.0
  0
VERTEX
  5
95
330
94
100
AcDbEntity
  8
_U+30EC_U+30A4_U+30E4_U+30FC 1
 62
   179
420
  2234388
370
    25
100
AcDbVertex
100
AcDb2dVertex
 10
99.07989413892798
 20
-123.7889813579416
 30
0.0
  0
VERTEX
  5
96
330
94
100
AcDbEntity
  8
_U+30EC_U+30A4_U+30E4_U+30FC 1
 62
   179
420
  2234388
370
    25
100
AcDbVertex
100
AcDb2dVertex
 10
99.77994634329038
 20
-123.339083858054
 30
0.0
  0
SEQEND
  5
97
330
94
100
AcDbEntity
  8
_U+30EC_U+30A4_U+30E4_U+30FC 1
 62
   179
420
  2234388
370
    25
  0
POLYLINE
  5
98
330
1F
100
AcDbEntity
  8
_U+30EC_U+30A4_U+30E4_U+30FC 1
 62
   179
420
  2234388
370
    25
100
AcDb2dPolyline
 66
     1
 10
0.0
 20
0.0
 30
0.0
  0
VERTEX
  5
99
330
98
100
AcDbEntity
  8
_U+30EC_U+30A4_U+30E4_U+30FC 1
 62
   179
420
  2234388
370
    25
100
AcDbVertex
100
AcDb2dVertex
 10
100.4799985476528
 20
-123.7889813579416
 30
0.0
  0
VERTEX
  5
9A
330
98
100
AcDbEntity
  8
_U+30EC_U+30A4_U+30E4_U+30FC 1
 62
   179
420
  2234388
370
    25
100
AcDbVertex
100
AcDb2dVertex
 10
99.77994634329038
 20
-123.339083858054
 30
0.0
  0
SEQEND
  5
9B
330
98
100
AcDbEntity
  8
_U+30EC_U+30A4_U+30E4_U+30FC 1
 62
   179
420
  2234388
370
    25
  0
POLYLINE
  5
9C
330
1F
100
AcDbEntity
  8
_U+30EC_U+30A4_U+30E4_U+30FC 1
 62
   179
420
  2234388
370
    25
100
AcDb2dPolyline
 66
     1
 10
0.0
 20
0.0
 30
0.0
  0
VERTEX
  5
9D
330
9C
100
AcDbEntity
  8
_U+30EC_U+30A4_U+30E4_U+30FC 1
 62
   179
420
  2234388
370
    25
100
AcDbVertex
100
AcDb2dVertex
 10
99.07989413892798
 20
-123.7889813579416
 30
0.0
  0
VERTEX
  5
9E
330
9C
100
AcDbEntity
  8
_U+30EC_U+30A4_U+30E4_U+30FC 1
 62
   179
420
  2234388
370
    25
100
AcDbVertex
100
AcDb2dVertex
 10
98.37987721234245
 20
-123.339083858054
 30
0.0
  0
SEQEND
  5
9F
330
9C
100
AcDbEntity
  8
_U+30EC_U+30A4_U+30E4_U+30FC 1
 62
   179
420
  2234388
370
    25
  0
POLYLINE
  5
A0
330
1F
100
AcDbEntity
  8
_U+30EC_U+30A4_U+30E4_U+30FC 1
 62
   179
420
  2234388
370
    25
100
AcDb2dPolyline
 66
     1
 10
0.0
 20
0.0
 30
0.0
  0
VERTEX
  5
A1
330
A0
100
AcDbEntity
  8
_U+30EC_U+30A4_U+30E4_U+30FC 1
 62
   179
420
  2234388
370
    25
100
AcDbVertex
100
AcDb2dVertex
 10
97.67982500798006
 20
-123.7889813579416
 30
0.0
  0
VERTEX
  5
A2
330
A0
100
AcDbEntity
  8
_U+30EC_U+30A4_U+30E4_U+30FC 1
 62
   179
420
  2234388
370
    25
100
AcDbVertex
100
AcDb2dVertex
 10
98.37987721234245
 20
-123.339083858054
 30
0.0
  0
SEQEND
  5
A3
330
A0
100
AcDbEntity
  8
_U+30EC_U+30A4_U+30E4_U+30FC 1
 62
   179
420
  2234388
370
    25
  0
POLYLINE
  5
A4
330
1F
100
AcDbEntity
  8
_U+30EC_U+30A4_U+30E4_U+30FC 1
 62
   179
420
  2234388
370
    25
100
AcDb2dPolyline
 66
     1
 10
0.0
 20
0.0
 30
0.0
  0
VERTEX
  5
A5
330
A4
100
AcDbEntity
  8
_U+30EC_U+30A4_U+30E4_U+30FC 1
 62
   179
420
  2234388
370
    25
100
AcDbVertex
100
AcDb2dVertex
 10
97.67982500798006
 20
-123.7889813579416
 30
0.0
  0
VERTEX
  5
A6
330
A4
100
AcDbEntity
  8
_U+30EC_U+30A4_U+30E4_U+30FC 1
 62
   179
420
  2234388
370
    25
100
AcDbVertex
100
AcDb2dVertex
 10
96.97977280361765
 20
-123.339083858054
 30
0.0
  0
SEQEND
  5
A7
330
A4
100
AcDbEntity
  8
_U+30EC_U+30A4_U+30E4_U+30FC 1
 62
   179
420
  2234388
370
    25
  0
POLYLINE
  5
A8
330
1F
100
AcDbEntity
  8
_U+30EC_U+30A4_U+30E4_U+30FC 1
 62
   179
420
  2234388
370
    25
100
AcDb2dPolyline
 66
     1
 10
0.0
 20
0.0
 30
0.0
  0
VERTEX
  5
A9
330
A8
100
AcDbEntity
  8
_U+30EC_U+30A4_U+30E4_U+30FC 1
 62
   179
420
  2234388
370
    25
100
AcDbVertex
100
AcDb2dVertex
 10
96.28007337702402
 20
-123.7889813579416
 30
0.0
  0
VERTEX
  5
AA
330
A8
100
AcDbEntity
  8
_U+30EC_U+30A4_U+30E4_U+30FC 1
 62
   179
420
  2234388
370
    25
100
AcDbVertex
100
AcDb2dVertex
 10
96.97977280361765
 20
-123.339083858054
 30
0.0
  0
SEQEND
  5
AB
330
A8
100
AcDbEntity
  8
_U+30EC_U+30A4_U+30E4_U+30FC 1
 62
   179
420
  2234388
370
    25
  0
POLYLINE
  5
AC
330
1F
100
AcDbEntity
  8
_U+30EC_U+30A4_U+30E4_U+30FC 1
 62
   179
420
  2234388
370
    25
100
AcDb2dPolyline
 66
     1
 10
0.0
 20
0.0
 30
0.0
  0
VERTEX
  5
AD
330
AC
100
AcDbEntity
  8
_U+30EC_U+30A4_U+30E4_U+30FC 1
 62
   179
420
  2234388
370
    25
100
AcDbVertex
100
AcDb2dVertex
 10
103.279466531788
 20
-123.7889813579416
 30
0.0
  0
VERTEX
  5
AE
330
AC
100
AcDbEntity
  8
_U+30EC_U+30A4_U+30E4_U+30FC 1
 62
   179
420
  2234388
370
    25
100
AcDbVertex
100
AcDb2dVertex
 10
108.2797033486657
 20
-123.7889813579416
 30
0.0
  0
SEQEND
  5
AF
330
AC
100
AcDbEntity
  8
_U+30EC_U+30A4_U+30E4_U+30FC 1
 62
   179
420
  2234388
370
    25
  0
POLYLINE
  5
B0
330
1F
100
AcDbEntity
  8
_U+30EC_U+30A4_U+30E4_U+30FC 1
 62
   179
420
  2234388
370
    25
100
AcDb2dPolyline
 66
     1
 10
0.0
 20
0.0
 30
0.0
  0
VERTEX
  5
B1
330
B0
100
AcDbEntity
  8
_U+30EC_U+30A4_U+30E4_U+30FC 1
 62
   179
420
  2234388
370
    25
100
AcDbVertex
100
AcDb2dVertex
 10
81.18023237336418
 20
-135.789140799386
 30
0.0
  0
VERTEX
  5
B2
330
B0
100
AcDbEntity
  8
_U+30EC_U+30A4_U+30E4_U+30FC 1
 62
   179
420
  2234388
370
    25
100
AcDbVertex
100
AcDb2dVertex
 10
89.2805038333757
 20
-135.789140799386
 30
0.0
  0
SEQEND
  5
B3
330
B0
100
AcDbEntity
  8
_U+30EC_U+30A4_U+30E4_U+30FC 1
 62
   179
420
  2234388
370
    25
  0
POLYLINE
  5
B4
330
1F
100
AcDbEntity
  8
_U+30EC_U+30A4_U+30E4_U+30FC 1
 62
   179
420
  2234388
370
    25
100
AcDb2dPolyline
 66
     1
 10
0.0
 20
0.0
 30
0.0
  0
VERTEX
  5
B5
330
B4
100
AcDbEntity
  8
_U+30EC_U+30A4_U+30E4_U+30FC 1
 62
   179
420
  2234388
370
    25
100
AcDbVertex
100
AcDb2dVertex
 10
89.2805038333757
 20
-135.789140799386
 30
0.0
  0
VERTEX
  5
B6
330
B4
100
AcDbEntity
  8
_U+30EC_U+30A4_U+30E4_U+30FC 1
 62
   179
420
  2234388
370
    25
100
AcDbVertex
100
AcDb2dVertex
 10
89.2805038333757
 20
-133.7888907998861
 30
0.0
  0
SEQEND
  5
B7
330
B4
100
AcDbEntity
  8
_U+30EC_U+30A4_U+30E4_U+30FC 1
 62
   179
420
  2234388
370
    25
  0
SPLINE
  5
B8
330
1F
100
AcDbEntity
  8
_U+30EC_U+30A4_U+30E4_U+30FC 1
 62
   179
420
  2234388
370
     9
100
AcDbSpline
210
0.0
220
0.0
230
1.0
 70
    11
 71
     3
 72
    17
 73
    13
 74
     0
 42
0.0000000001
 43
0.0000000001
 12
1.0
 22
0.0
 32
0.0
 13
1.0
 23
0.0
 33
0.0
 40
0.0
 40
0.0
 40
0.0
 40
0.0
 40
1.0
 40
1.0
 40
1.0
 40
2.0
 40
2.0
 40
2.0
 40
3.0
 40
3.0
 40
3.0
 40
4.0
 40
4.0
 40
4.0
 40
4.0
 10
80.38027350488393
 20
-140.7893424648028
 30
0.0
 10
80.38027350488393
 20
-140.7342032981497
 30
0.0
 10
80.33550600602605
 20
-140.6894357981612
 30
0.0
 10
80.2803668407661
 20
-140.6894357981612
 30
0.0
 10
80.22526295328304
 20
-140.6894357981612
 30
0.0
 10
80.18046017664827
 20
-140.7342032981497
 30
0.0
 10
80.18046017664827
 20
-140.7893424648028
 30
0.0
 10
80.18046017664827
 20
-140.8444463536777
 30
0.0
 10
80.22526295328304
 20
-140.8892491314445
 30
0.0
 10
80.2803668407661
 20
-140.8892491314445
 30
0.0
 10
80.33550600602605
 20
-140.8892491314445
 30
0.0
 10
80.38027350488393
 20
-140.8444463536777
 30
0.0
 10
80.38027350488393
 20
-140.7893424648028
 30
0.0
  0
SPLINE
  5
B9
330
1F
100
AcDbEntity
  8
_U+30EC_U+30A4_U+30E4_U+30FC 1
 62
   179
420
  2234388
370
     9
100
AcDbSpline
210
0.0
220
0.0
230
1.0
 70
    11
 71
     3
 72
    17
 73
    13
 74
     0
 42
0.0000000001
 43
0.0000000001
 12
1.0
 22
0.0
 32
0.0
 13
1.0
 23
0.0
 33
0.0
 40
0.0
 40
0.0
 40
0.0
 40
0.0
 40
1.0
 40
1.0
 40
1.0
 40
2.0
 40
2.0
 40
2.0
 40
3.0
 40
3.0
 40
3.0
 40
4.0
 40
4.0
 40
4.0
 40
4.0
 10
90.380888249747
 20
-140.7893424648028
 30
0.0
 10
90.380888249747
 20
-140.7342032981497
 30
0.0
 10
90.33608547311223
 20
-140.6894357981612
 30
0.0
 10
90.28027603009161
 20
-140.6894357981612
 30
0.0
 10
90.22513686483165
 20
-140.6894357981612
 30
0.0
 10
90.18036936597377
 20
-140.7342032981497
 30
0.0
 10
90.18036936597377
 20
-140.7893424648028
 30
0.0
 10
90.18036936597377
 20
-140.8444463536777
 30
0.0
 10
90.22513686483165
 20
-140.8892491314445
 30
0.0
 10
90.28027603009161
 20
-140.8892491314445
 30
0.0
 10
90.33608547311223
 20
-140.8892491314445
 30
0.0
 10
90.380888249747
 20
-140.8444463536777
 30
0.0
 10
90.380888249747
 20
-140.7893424648028
 30
0.0
  0
SPLINE
  5
BA
330
1F
100
AcDbEntity
  8
_U+30EC_U+30A4_U+30E4_U+30FC 1
 62
   179
420
  2234388
370
     9
100
AcDbSpline
210
0.0
220
0.0
230
1.0
 70
    11
 71
     3
 72
    17
 73
    13
 74
     0
 42
0.0000000001
 43
0.0000000001
 12
1.0
 22
0.0
 32
0.0
 13
1.0
 23
0.0
 33
0.0
 40
0.0
 40
0.0
 40
0.0
 40
0.0
 40
1.0
 40
1.0
 40
1.0
 40
2.0
 40
2.0
 40
2.0
 40
3.0
 40
3.0
 40
3.0
 40
4.0
 40
4.0
 40
4.0
 40
4.0
 10
68.38032776068265
 20
-140.7893424648028
 30
0.0
 10
68.38032776068265
 20
-140.7342032981497
 30
0.0
 10
68.33552498291624
 20
-140.6894357981612
 30
0.0
 10
68.28041936913249
 20
-140.6894357981612
 30
0.0
 10
68.22528020387254
 20
-140.6894357981612
 30
0.0
 10
68.18051270501465
 20
-140.7342032981497
 30
0.0
 10
68.18051270501465
 20
-140.7893424648028
 30
0.0
 10
68.18051270501465
 20
-140.8444463536777
 30
0.0
 10
68.22528020387254
 20
-140.8892491314445
 30
0.0
 10
68.28041936913249
 20
-140.8892491314445
 30
0.0
 10
68.33552498291624
 20
-140.8892491314445
 30
0.0
 10
68.38032776068265
 20
-140.8444463536777
 30
0.0
 10
68.38032776068265
 20
-140.7893424648028
 30
0.0
  0
SPLINE
  5
BB
330
1F
100
AcDbEntity
  8
_U+30EC_U+30A4_U+30E4_U+30FC 1
 62
   179
420
  2234388
370
     9
100
AcDbSpline
210
0.0
220
0.0
230
1.0
 70
    11
 71
     3
 72
    17
 73
    13
 74
     0
 42
0.0000000001
 43
0.0000000001
 12
1.0
 22
0.0
 32
0.0
 13
1.0
 23
0.0
 33
0.0
 40
0.0
 40
0.0
 40
0.0
 40
0.0
 40
1.0
 40
1.0
 40
1.0
 40
2.0
 40
2.0
 40
2.0
 40
3.0
 40
3.0
 40
3.0
 40
4.0
 40
4.0
 40
4.0
 40
4.0
 10
68.38032776068265
 20
-118.8886863591668
 30
0.0
 10
68.38032776068265
 20
-118.8335824702916
 30
0.0
 10
68.33552498291624
 20
-118.7887796925252
 30
0.0
 10
68.28041936913249
 20
-118.7887796925252
 30
0.0
 10
68.22528020387254
 20
-118.7887796925252
 30
0.0
 10
68.18051270501465
 20
-118.8335824702916
 30
0.0
 10
68.18051270501465
 20
-118.8886863591668
 30
0.0
 10
68.18051270501465
 20
-118.9444958035972
 30
0.0
 10
68.22528020387254
 20
-118.9892985813636
 30
0.0
 10
68.28041936913249
 20
-118.9892985813636
 30
0.0
 10
68.33552498291624
 20
-118.9892985813636
 30
0.0
 10
68.38032776068265
 20
-118.9444958035972
 30
0.0
 10
68.38032776068265
 20
-118.8886863591668
 30
0.0
  0
SPLINE
  5
BC
330
1F
100
AcDbEntity
  8
_U+30EC_U+30A4_U+30E4_U+30FC 1
 62
   179
420
  2234388
370
     9
100
AcDbSpline
210
0.0
220
0.0
230
1.0
 70
    11
 71
     3
 72
    17
 73
    13
 74
     0
 42
0.0000000001
 43
0.0000000001
 12
1.0
 22
0.0
 32
0.0
 13
1.0
 23
0.0
 33
0.0
 40
0.0
 40
0.0
 40
0.0
 40
0.0
 40
1.0
 40
1.0
 40
1.0
 40
2.0
 40
2.0
 40
2.0
 40
3.0
 40
3.0
 40
3.0
 40
4.0
 40
4.0
 40
4.0
 40
4.0
 10
108.3796100127836
 20
-118.8886863591668
 30
0.0
 10
108.3796100127836
 20
-118.8335824702916
 30
0.0
 10
108.3348072361488
 20
-118.7887796925252
 30
0.0
 10
108.2797033486657
 20
-118.7887796925252
 30
0.0
 10
108.2245641834058
 20
-118.7887796925252
 30
0.0
 10
108.1797966845479
 20
-118.8335824702916
 30
0.0
 10
108.1797966845479
 20
-118.8886863591668
 30
0.0
 10
108.1797966845479
 20
-118.9444958035972
 30
0.0
 10
108.2245641834058
 20
-118.9892985813636
 30
0.0
 10
108.2797033486657
 20
-118.9892985813636
 30
0.0
 10
108.3348072361488
 20
-118.9892985813636
 30
0.0
 10
108.3796100127836
 20
-118.9444958035972
 30
0.0
 10
108.3796100127836
 20
-118.8886863591668
 30
0.0
  0
SPLINE
  5
BD
330
1F
100
AcDbEntity
  8
_U+30EC_U+30A4_U+30E4_U+30FC 1
 62
   179
420
  2234388
370
     9
100
AcDbSpline
210
0.0
220
0.0
230
1.0
 70
    11
 71
     3
 72
    17
 73
    13
 74
     0
 42
0.0000000001
 43
0.0000000001
 12
1.0
 22
0.0
 32
0.0
 13
1.0
 23
0.0
 33
0.0
 40
0.0
 40
0.0
 40
0.0
 40
0.0
 40
1.0
 40
1.0
 40
1.0
 40
2.0
 40
2.0
 40
2.0
 40
3.0
 40
3.0
 40
3.0
 40
4.0
 40
4.0
 40
4.0
 40
4.0
 10
112.3800393551686
 20
-122.8891510803889
 30
0.0
 10
112.3800393551686
 20
-122.8340119137358
 30
0.0
 10
112.3352718563107
 20
-122.7892444137472
 30
0.0
 10
112.27946241329
 20
-122.7892444137472
 30
0.0
 10
112.2243232480301
 20
-122.7892444137472
 30
0.0
 10
112.1795557491722
 20
-122.8340119137358
 30
0.0
 10
112.1795557491722
 20
-122.8891510803889
 30
0.0
 10
112.1795557491722
 20
-122.9442549692638
 30
0.0
 10
112.2243232480301
 20
-122.9890577470305
 30
0.0
 10
112.27946241329
 20
-122.9890577470305
 30
0.0
 10
112.3352718563107
 20
-122.9890577470305
 30
0.0
 10
112.3800393551686
 20
-122.9442549692638
 30
0.0
 10
112.3800393551686
 20
-122.8891510803889
 30
0.0
  0
SPLINE
  5
BE
330
1F
100
AcDbEntity
  8
_U+30EC_U+30A4_U+30E4_U+30FC 1
 62
   179
420
  2234388
370
     9
100
AcDbSpline
210
0.0
220
0.0
230
1.0
 70
    11
 71
     3
 72
    17
 73
    13
 74
     0
 42
0.0000000001
 43
0.0000000001
 12
1.0
 22
0.0
 32
0.0
 13
1.0
 23
0.0
 33
0.0
 40
0.0
 40
0.0
 40
0.0
 40
0.0
 40
1.0
 40
1.0
 40
1.0
 40
2.0
 40
2.0
 40
2.0
 40
3.0
 40
3.0
 40
3.0
 40
4.0
 40
4.0
 40
4.0
 40
4.0
 10
112.3800393551686
 20
-123.7889813579416
 30
0.0
 10
112.3800393551686
 20
-123.7338774690667
 30
0.0
 10
112.3352718563107
 20
-123.6890746913
 30
0.0
 10
112.27946241329
 20
-123.6890746913
 30
0.0
 10
112.2243232480301
 20
-123.6890746913
 30
0.0
 10
112.1795557491722
 20
-123.7338774690667
 30
0.0
 10
112.1795557491722
 20
-123.7889813579416
 30
0.0
 10
112.1795557491722
 20
-123.8441205245947
 30
0.0
 10
112.2243232480301
 20
-123.8889233023611
 30
0.0
 10
112.27946241329
 20
-123.8889233023611
 30
0.0
 10
112.3352718563107
 20
-123.8889233023611
 30
0.0
 10
112.3800393551686
 20
-123.8441205245947
 30
0.0
 10
112.3800393551686
 20
-123.7889813579416
 30
0.0
  0
SPLINE
  5
BF
330
1F
100
AcDbEntity
  8
_U+30EC_U+30A4_U+30E4_U+30FC 1
 62
   179
420
  2234388
370
     9
100
AcDbSpline
210
0.0
220
0.0
230
1.0
 70
    11
 71
     3
 72
    17
 73
    13
 74
     0
 42
0.0000000001
 43
0.0000000001
 12
1.0
 22
0.0
 32
0.0
 13
1.0
 23
0.0
 33
0.0
 40
0.0
 40
0.0
 40
0.0
 40
0.0
 40
1.0
 40
1.0
 40
1.0
 40
2.0
 40
2.0
 40
2.0
 40
3.0
 40
3.0
 40
3.0
 40
4.0
 40
4.0
 40
4.0
 40
4.0
 10
112.3800393551686
 20
-133.7888907998861
 30
0.0
 10
112.3800393551686
 20
-133.7337869110112
 30
0.0
 10
112.3352718563107
 20
-133.6889841332444
 30
0.0
 10
112.27946241329
 20
-133.6889841332444
 30
0.0
 10
112.2243232480301
 20
-133.6889841332444
 30
0.0
 10
112.1795557491722
 20
-133.7337869110112
 30
0.0
 10
112.1795557491722
 20
-133.7888907998861
 30
0.0
 10
112.1795557491722
 20
-133.8447002443165
 30
0.0
 10
112.2243232480301
 20
-133.8895030220832
 30
0.0
 10
112.27946241329
 20
-133.8895030220832
 30
0.0
 10
112.3352718563107
 20
-133.8895030220832
 30
0.0
 10
112.3800393551686
 20
-133.8447002443165
 30
0.0
 10
112.3800393551686
 20
-133.7888907998861
 30
0.0
  0
SPLINE
  5
C0
330
1F
100
AcDbEntity
  8
_U+30EC_U+30A4_U+30E4_U+30FC 1
 62
   179
420
  2234388
370
     9
100
AcDbSpline
210
0.0
220
0.0
230
1.0
 70
    11
 71
     3
 72
    17
 73
    13
 74
     0
 42
0.0000000001
 43
0.0000000001
 12
1.0
 22
0.0
 32
0.0
 13
1.0
 23
0.0
 33
0.0
 40
0.0
 40
0.0
 40
0.0
 40
0.0
 40
1.0
 40
1.0
 40
1.0
 40
2.0
 40
2.0
 40
2.0
 40
3.0
 40
3.0
 40
3.0
 40
4.0
 40
4.0
 40
4.0
 40
4.0
 10
112.3800393551686
 20
-136.7888777435804
 30
0.0
 10
112.3800393551686
 20
-136.7337738547055
 30
0.0
 10
112.3352718563107
 20
-136.6889710769388
 30
0.0
 10
112.27946241329
 20
-136.6889710769388
 30
0.0
 10
112.2243232480301
 20
-136.6889710769388
 30
0.0
 10
112.1795557491722
 20
-136.7337738547055
 30
0.0
 10
112.1795557491722
 20
-136.7888777435804
 30
0.0
 10
112.1795557491722
 20
-136.844722465789
 30
0.0
 10
112.2243232480301
 20
-136.8894899657776
 30
0.0
 10
112.27946241329
 20
-136.8894899657776
 30
0.0
 10
112.3352718563107
 20
-136.8894899657776
 30
0.0
 10
112.3800393551686
 20
-136.844722465789
 30
0.0
 10
112.3800393551686
 20
-136.7888777435804
 30
0.0
  0
POLYLINE
  5
C1
330
1F
100
AcDbEntity
  8
_U+30EC_U+30A4_U+30E4_U+30FC 1
 62
   179
420
  2234388
370
     9
100
AcDb2dPolyline
 66
     1
 10
0.0
 20
0.0
 30
0.0
  0
VERTEX
  5
C2
330
C1
100
AcDbEntity
  8
_U+30EC_U+30A4_U+30E4_U+30FC 1
 62
   179
420
  2234388
370
     9
100
AcDbVertex
100
AcDb2dVertex
 10
80.2803668407661
 20
-140.7893424648028
 30
0.0
  0
VERTEX
  5
C3
330
C1
100
AcDbEntity
  8
_U+30EC_U+30A4_U+30E4_U+30FC 1
 62
   179
420
  2234388
370
     9
100
AcDbVertex
100
AcDb2dVertex
 10
90.28027603009161
 20
-140.7893424648028
 30
0.0
  0
SEQEND
  5
C4
330
C1
100
AcDbEntity
  8
_U+30EC_U+30A4_U+30E4_U+30FC 1
 62
   179
420
  2234388
370
     9
  0
POLYLINE
  5
C5
330
1F
100
AcDbEntity
  8
_U+30EC_U+30A4_U+30E4_U+30FC 1
 62
   179
420
  2234388
370
     9
100
AcDb2dPolyline
 66
     1
 10
0.0
 20
0.0
 30
0.0
  0
VERTEX
  5
C6
330
C5
100
AcDbEntity
  8
_U+30EC_U+30A4_U+30E4_U+30FC 1
 62
   179
420
  2234388
370
     9
100
AcDbVertex
100
AcDb2dVertex
 10
80.2803668407661
 20
-139.3293010762785
 30
0.0
  0
VERTEX
  5
C7
330
C5
100
AcDbEntity
  8
_U+30EC_U+30A4_U+30E4_U+30FC 1
 62
   179
420
  2234388
370
     9
100
AcDbVertex
100
AcDb2dVertex
 10
80.2803668407661
 20
-141.7891146867747
 30
0.0
  0
SEQEND
  5
C8
330
C5
100
AcDbEntity
  8
_U+30EC_U+30A4_U+30E4_U+30FC 1
 62
   179
420
  2234388
370
     9
  0
POLYLINE
  5
C9
330
1F
100
AcDbEntity
  8
_U+30EC_U+30A4_U+30E4_U+30FC 1
 62
   179
420
  2234388
370
     9
100
AcDb2dPolyline
 66
     1
 10
0.0
 20
0.0
 30
0.0
  0
VERTEX
  5
CA
330
C9
100
AcDbEntity
  8
_U+30EC_U+30A4_U+30E4_U+30FC 1
 62
   179
420
  2234388
370
     9
100
AcDbVertex
100
AcDb2dVertex
 10
90.28027603009161
 20
-139.3293010762785
 30
0.0
  0
VERTEX
  5
CB
330
C9
100
AcDbEntity
  8
_U+30EC_U+30A4_U+30E4_U+30FC 1
 62
   179
420
  2234388
370
     9
100
AcDbVertex
100
AcDb2dVertex
 10
90.28027603009161
 20
-141.7891146867747
 30
0.0
  0
SEQEND
  5
CC
330
C9
100
AcDbEntity
  8
_U+30EC_U+30A4_U+30E4_U+30FC 1
 62
   179
420
  2234388
370
     9
  0
INSERT
  5
CE
330
1F
100
AcDbEntity
  8
_U+30EC_U+30A4_U+30E4_U+30FC 1
100
AcDbBlockReference
  2
block 2
 10
0.0
 20
0.0
 30
0.0
  0
POLYLINE
  5
D6
330
1F
100
AcDbEntity
  8
_U+30EC_U+30A4_U+30E4_U+30FC 1
 62
   179
420
  2234388
370
     9
100
AcDb2dPolyline
 66
     1
 10
0.0
 20
0.0
 30
0.0
  0
VERTEX
  5
D7
330
D6
100
AcDbEntity
  8
_U+30EC_U+30A4_U+30E4_U+30FC 1
 62
   179
420
  2234388
370
     9
100
AcDbVertex
100
AcDb2dVertex
 10
112.27946241329
 20
-122.8891510803889
 30
0.0
  0
VERTEX
  5
D8
330
D6
100
AcDbEntity
  8
_U+30EC_U+30A4_U+30E4_U+30FC 1
 62
   179
420
  2234388
370
     9
100
AcDbVertex
100
AcDb2dVertex
 10
112.27946241329
 20
-117.63124524837
 30
0.0
  0
SEQEND
  5
D9
330
D6
100
AcDbEntity
  8
_U+30EC_U+30A4_U+30E4_U+30FC 1
 62
   179
420
  2234388
370
     9
  0
POLYLINE
  5
DA
330
1F
100
AcDbEntity
  8
_U+30EC_U+30A4_U+30E4_U+30FC 1
 62
   179
420
  2234388
370
     9
100
AcDb2dPolyline
 66
     1
 10
0.0
 20
0.0
 30
0.0
  0
VERTEX
  5
DB
330
DA
100
AcDbEntity
  8
_U+30EC_U+30A4_U+30E4_U+30FC 1
 62
   179
420
  2234388
370
     9
100
AcDbVertex
100
AcDb2dVertex
 10
112.27946241329
 20
-122.8891510803889
 30
0.0
  0
VERTEX
  5
DC
330
DA
100
AcDbEntity
  8
_U+30EC_U+30A4_U+30E4_U+30FC 1
 62
   179
420
  2234388
370
     9
100
AcDbVertex
100
AcDb2dVertex
 10
112.27946241329
 20
-123.7889813579416
 30
0.0
  0
SEQEND
  5
DD
330
DA
100
AcDbEntity
  8
_U+30EC_U+30A4_U+30E4_U+30FC 1
 62
   179
420
  2234388
370
     9
  0
POLYLINE
  5
DE
330
1F
100
AcDbEntity
  8
_U+30EC_U+30A4_U+30E4_U+30FC 1
 62
   179
420
  2234388
370
     9
100
AcDb2dPolyline
 66
     1
 10
0.0
 20
0.0
 30
0.0
  0
VERTEX
  5
DF
330
DE
100
AcDbEntity
  8
_U+30EC_U+30A4_U+30E4_U+30FC 1
 62
   179
420
  2234388
370
     9
100
AcDbVertex
100
AcDb2dVertex
 10
110.8194210616499
 20
-122.8891510803889
 30
0.0
  0
VERTEX
  5
E0
330
DE
100
AcDbEntity
  8
_U+30EC_U+30A4_U+30E4_U+30FC 1
 62
   179
420
  2234388
370
     9
100
AcDbVertex
100
AcDb2dVertex
 10
113.2799048877666
 20
-122.8891510803889
 30
0.0
  0
SEQEND
  5
E1
330
DE
100
AcDbEntity
  8
_U+30EC_U+30A4_U+30E4_U+30FC 1
 62
   179
420
  2234388
370
     9
  0
POLYLINE
  5
E2
330
1F
100
AcDbEntity
  8
_U+30EC_U+30A4_U+30E4_U+30FC 1
 62
   179
420
  2234388
370
     9
100
AcDb2dPolyline
 66
     1
 10
0.0
 20
0.0
 30
0.0
  0
VERTEX
  5
E3
330
E2
100
AcDbEntity
  8
_U+30EC_U+30A4_U+30E4_U+30FC 1
 62
   179
420
  2234388
370
     9
100
AcDbVertex
100
AcDb2dVertex
 10
110.8194210616499
 20
-123.7889813579416
 30
0.0
  0
VERTEX
  5
E4
330
E2
100
AcDbEntity
  8
_U+30EC_U+30A4_U+30E4_U+30FC 1
 62
   179
420
  2234388
370
     9
100
AcDbVertex
100
AcDb2dVertex
 10
113.2799048877666
 20
-123.7889813579416
 30
0.0
  0
SEQEND
  5
E5
330
E2
100
AcDbEntity
  8
_U+30EC_U+30A4_U+30E4_U+30FC 1
 62
   179
420
  2234388
370
     9
  0
INSERT
  5
E7
330
1F
100
AcDbEntity
  8
_U+30EC_U+30A4_U+30E4_U+30FC 1
100
AcDbBlockReference
  2
block 3
 10
0.0
 20
0.0
 30
0.0
  0
POLYLINE
  5
F8
330
1F
100
AcDbEntity
  8
_U+30EC_U+30A4_U+30E4_U+30FC 1
 62
   179
420
  2234388
370
     9
100
AcDb2dPolyline
 66
     1
 10
0.0
 20
0.0
 30
0.0
  0
VERTEX
  5
F9
330
F8
100
AcDbEntity
  8
_U+30EC_U+30A4_U+30E4_U+30FC 1
 62
   179
420
  2234388
370
     9
100
AcDbVertex
100
AcDb2dVertex
 10
68.28041936913249
 20
-118.8886863591668
 30
0.0
  0
VERTEX
  5
FA
330
F8
100
AcDbEntity
  8
_U+30EC_U+30A4_U+30E4_U+30FC 1
 62
   179
420
  2234388
370
     9
100
AcDbVertex
100
AcDb2dVertex
 10
108.2797033486657
 20
-118.8886863591668
 30
0.0
  0
SEQEND
  5
FB
330
F8
100
AcDbEntity
  8
_U+30EC_U+30A4_U+30E4_U+30FC 1
 62
   179
420
  2234388
370
     9
  0
POLYLINE
  5
FC
330
1F
100
AcDbEntity
  8
_U+30EC_U+30A4_U+30E4_U+30FC 1
 62
   179
420
  2234388
370
     9
100
AcDb2dPolyline
 66
     1
 10
0.0
 20
0.0
 30
0.0
  0
VERTEX
  5
FD
330
FC
100
AcDbEntity
  8
_U+30EC_U+30A4_U+30E4_U+30FC 1
 62
   179
420
  2234388
370
     9
100
AcDbVertex
100
AcDb2dVertex
 10
68.28041936913249
 20
-120.3487277476905
 30
0.0
  0
VERTEX
  5
FE
330
FC
100
AcDbEntity
  8
_U+30EC_U+30A4_U+30E4_U+30FC 1
 62
   179
420
  2234388
370
     9
100
AcDbVertex
100
AcDb2dVertex
 10
68.28041936913249
 20
-117.8889141371946
 30
0.0
  0
SEQEND
  5
FF
330
FC
100
AcDbEntity
  8
_U+30EC_U+30A4_U+30E4_U+30FC 1
 62
   179
420
  2234388
370
     9
  0
POLYLINE
  5
100
330
1F
100
AcDbEntity
  8
_U+30EC_U+30A4_U+30E4_U+30FC 1
 62
   179
420
  2234388
370
     9
100
AcDb2dPolyline
 66
     1
 10
0.0
 20
0.0
 30
0.0
  0
VERTEX
  5
101
330
100
100
AcDbEntity
  8
_U+30EC_U+30A4_U+30E4_U+30FC 1
 62
   179
420
  2234388
370
     9
100
AcDbVertex
100
AcDb2dVertex
 10
108.2797033486657
 20
-120.3487277476905
 30
0.0
  0
VERTEX
  5
102
330
100
100
AcDbEntity
  8
_U+30EC_U+30A4_U+30E4_U+30FC 1
 62
   179
420
  2234388
370
     9
100
AcDbVertex
100
AcDb2dVertex
 10
108.2797033486657
 20
-117.8889141371946
 30
0.0
  0
SEQEND
  5
103
330
100
100
AcDbEntity
  8
_U+30EC_U+30A4_U+30E4_U+30FC 1
 62
   179
420
  2234388
370
     9
  0
INSERT
  5
105
330
1F
100
AcDbEntity
  8
_U+30EC_U+30A4_U+30E4_U+30FC 1
100
AcDbBlockReference
  2
block 4
 10
0.0
 20
0.0
 30
0.0
  0
POLYLINE
  5
120
330
1F
100
AcDbEntity
  8
_U+30EC_U+30A4_U+30E4_U+30FC 1
 62
   179
420
  2234388
370
     9
100
AcDb2dPolyline
 66
     1
 10
0.0
 20
0.0
 30
0.0
  0
VERTEX
  5
121
330
120
100
AcDbEntity
  8
_U+30EC_U+30A4_U+30E4_U+30FC 1
 62
   179
420
  2234388
370
     9
100
AcDbVertex
100
AcDb2dVertex
 10
68.28041936913249
 20
-140.7893424648028
 30
0.0
  0
VERTEX
  5
122
330
120
100
AcDbEntity
  8
_U+30EC_U+30A4_U+30E4_U+30FC 1
 62
   179
420
  2234388
370
     9
100
AcDbVertex
100
AcDb2dVertex
 10
80.2803668407661
 20
-140.7893424648028
 30
0.0
  0
SEQEND
  5
123
330
120
100
AcDbEntity
  8
_U+30EC_U+30A4_U+30E4_U+30FC 1
 62
   179
420
  2234388
370
     9
  0
POLYLINE
  5
124
330
1F
100
AcDbEntity
  8
_U+30EC_U+30A4_U+30E4_U+30FC 1
 62
   179
420
  2234388
370
     9
100
AcDb2dPolyline
 66
     1
 10
0.0
 20
0.0
 30
0.0
  0
VERTEX
  5
125
330
124
100
AcDbEntity
  8
_U+30EC_U+30A4_U+30E4_U+30FC 1
 62
   179
420
  2234388
370
     9
100
AcDbVertex
100
AcDb2dVertex
 10
68.28041936913249
 20
-126.3287344128623
 30
0.0
  0
VERTEX
  5
126
330
124
100
AcDbEntity
  8
_U+30EC_U+30A4_U+30E4_U+30FC 1
 62
   179
420
  2234388
370
     9
100
AcDbVertex
100
AcDb2dVertex
 10
68.28041936913249
 20
-141.7891146867747
 30
0.0
  0
SEQEND
  5
127
330
124
100
AcDbEntity
  8
_U+30EC_U+30A4_U+30E4_U+30FC 1
 62
   179
420
  2234388
370
     9
  0
INSERT
  5
129
330
1F
100
AcDbEntity
  8
_U+30EC_U+30A4_U+30E4_U+30FC 1
100
AcDbBlockReference
  2
block 5
 10
0.0
 20
0.0
 30
0.0
  0
POLYLINE
  5
130
330
1F
100
AcDbEntity
  8
_U+30EC_U+30A4_U+30E4_U+30FC 1
 62
   179
420
  2234388
370
     9
100
AcDb2dPolyline
 66
     1
 10
0.0
 20
0.0
 30
0.0
  0
VERTEX
  5
131
330
130
100
AcDbEntity
  8
_U+30EC_U+30A4_U+30E4_U+30FC 1
 62
   179
420
  2234388
370
     9
100
AcDbVertex
100
AcDb2dVertex
 10
112.27946241329
 20
-133.7888907998861
 30
0.0
  0
VERTEX
  5
132
330
130
100
AcDbEntity
  8
_U+30EC_U+30A4_U+30E4_U+30FC 1
 62
   179
420
  2234388
370
     9
100
AcDbVertex
100
AcDb2dVertex
 10
112.27946241329
 20
-123.7889813579416
 30
0.0
  0
SEQEND
  5
133
330
130
100
AcDbEntity
  8
_U+30EC_U+30A4_U+30E4_U+30FC 1
 62
   179
420
  2234388
370
     9
  0
POLYLINE
  5
134
330
1F
100
AcDbEntity
  8
_U+30EC_U+30A4_U+30E4_U+30FC 1
 62
   179
420
  2234388
370
     9
100
AcDb2dPolyline
 66
     1
 10
0.0
 20
0.0
 30
0.0
  0
VERTEX
  5
135
330
134
100
AcDbEntity
  8
_U+30EC_U+30A4_U+30E4_U+30FC 1
 62
   179
420
  2234388
370
     9
100
AcDbVertex
100
AcDb2dVertex
 10
92.82052290972895
 20
-133.7888907998861
 30
0.0
  0
VERTEX
  5
136
330
134
100
AcDbEntity
  8
_U+30EC_U+30A4_U+30E4_U+30FC 1
 62
   179
420
  2234388
370
     9
100
AcDbVertex
100
AcDb2dVertex
 10
113.2799048877666
 20
-133.7888907998861
 30
0.0
  0
SEQEND
  5
137
330
134
100
AcDbEntity
  8
_U+30EC_U+30A4_U+30E4_U+30FC 1
 62
   179
420
  2234388
370
     9
  0
INSERT
  5
139
330
1F
100
AcDbEntity
  8
_U+30EC_U+30A4_U+30E4_U+30FC 1
100
AcDbBlockReference
  2
block 6
 10
0.0
 20
0.0
 30
0.0
  0
POLYLINE
  5
141
330
1F
100
AcDbEntity
  8
_U+30EC_U+30A4_U+30E4_U+30FC 1
 62
   179
420
  2234388
370
     9
100
AcDb2dPolyline
 66
     1
 10
0.0
 20
0.0
 30
0.0
  0
VERTEX
  5
142
330
141
100
AcDbEntity
  8
_U+30EC_U+30A4_U+30E4_U+30FC 1
 62
   179
420
  2234388
370
     9
100
AcDbVertex
100
AcDb2dVertex
 10
112.27946241329
 20
-136.7888777435804
 30
0.0
  0
VERTEX
  5
143
330
141
100
AcDbEntity
  8
_U+30EC_U+30A4_U+30E4_U+30FC 1
 62
   179
420
  2234388
370
     9
100
AcDbVertex
100
AcDb2dVertex
 10
112.27946241329
 20
-133.7888907998861
 30
0.0
  0
SEQEND
  5
144
330
141
100
AcDbEntity
  8
_U+30EC_U+30A4_U+30E4_U+30FC 1
 62
   179
420
  2234388
370
     9
  0
POLYLINE
  5
145
330
1F
100
AcDbEntity
  8
_U+30EC_U+30A4_U+30E4_U+30FC 1
 62
   179
420
  2234388
370
     9
100
AcDb2dPolyline
 66
     1
 10
0.0
 20
0.0
 30
0.0
  0
VERTEX
  5
146
330
145
100
AcDbEntity
  8
_U+30EC_U+30A4_U+30E4_U+30FC 1
 62
   179
420
  2234388
370
     9
100
AcDbVertex
100
AcDb2dVertex
 10
92.82052290972895
 20
-136.7888777435804
 30
0.0
  0
VERTEX
  5
147
330
145
100
AcDbEntity
  8
_U+30EC_U+30A4_U+30E4_U+30FC 1
 62
   179
420
  2234388
370
     9
100
AcDbVertex
100
AcDb2dVertex
 10
113.2799048877666
 20
-136.7888777435804
 30
0.0
  0
SEQEND
  5
148
330
145
100
AcDbEntity
  8
_U+30EC_U+30A4_U+30E4_U+30FC 1
 62
   179
420
  2234388
370
     9
  0
INSERT
  5
14A
330
1F
100
AcDbEntity
  8
_U+30EC_U+30A4_U+30E4_U+30FC 1
100
AcDbBlockReference
  2
block 7
 10
0.0
 20
0.0
 30
0.0
  0
ENDSEC
  0
SECTION
  2
OBJECTS
  0
DICTIONARY
  5
C
330
0
100
AcDbDictionary
281
     1
  3
ACAD_GROUP
350
D
  3
ACAD_LAYOUT
350
1A
  3
ACAD_MATERIAL
350
3B
  3
ACAD_MLEADERSTYLE
350
150
  3
ACAD_MLINESTYLE
350
17
  3
ACAD_PLOTSETTINGS
350
19
  3
ACAD_PLOTSTYLENAME
350
E
  3
ACAD_TABLESTYLE
350
14F
  3
ACAD_VISUALSTYLE
350
2A
  0
SUN
  5
3F
330
29
100
AcDbSun
 90
        1
290
     0
 63
     7
421
 16777215
 40
1.0
291
     1
 91
  2455826
 92
 54000000
292
     0
 70
     2
 71
   256
280
     1
  0
DICTIONARY
  5
D
102
{ACAD_REACTORS
330
C
102
}
330
C
100
AcDbDictionary
281
     1
  0
DICTIONARY
  5
1A
102
{ACAD_REACTORS
330
C
102
}
330
C
100
AcDbDictionary
281
     1
  3
Layout1
350
1E
  3
Layout2
350
26
  3
Model
350
22
  0
DICTIONARY
  5
3B
102
{ACAD_REACTORS
330
C
102
}
330
C
100
AcDbDictionary
281
     1
  3
ByBlock
350
3D
  3
ByLayer
350
3C
  3
Global
350
3E
  0
DICTIONARY
  5
150
102
{ACAD_REACTORS
330
C
102
}
330
C
100
AcDbDictionary
281
     1
  0
DICTIONARY
  5
17
102
{ACAD_REACTORS
330
C
102
}
330
C
100
AcDbDictionary
281
     1
  3
Standard
350
18
  0
DICTIONARY
  5
19
102
{ACAD_REACTORS
330
C
102
}
330
C
100
AcDbDictionary
281
     1
  0
ACDBDICTIONARYWDFLT
  5
E
102
{ACAD_REACTORS
330
C
102
}
330
C
100
AcDbDictionary
281
     1
  3
Normal
350
F
100
AcDbDictionaryWithDefault
340
F
  0
DICTIONARY
  5
14F
102
{ACAD_REACTORS
330
C
102
}
330
C
100
AcDbDictionary
281
     1
  0
DICTIONARY
  5
2A
102
{ACAD_REACTORS
330
C
102
}
330
C
100
AcDbDictionary
281
     1
  3
2dWireframe
350
2F
  3
3D Hidden
350
31
  3
3dWireframe
350
30
  3
Basic
350
32
  3
Brighten
350
36
  3
ColorChange
350
3A
  3
Conceptual
350
34
  3
Dim
350
35
  3
Facepattern
350
39
  3
Flat
350
2B
  3
FlatWithEdges
350
2C
  3
Gouraud
350
2D
  3
GouraudWithEdges
350
2E
  3
Linepattern
350
38
  3
Realistic
350
33
  3
Thicken
350
37
  0
LAYOUT
  5
1E
102
{ACAD_REACTORS
330
1A
102
}
330
1A
100
AcDbPlotSettings
  1

  2
none_device
  4

  6

 40
0.0
 41
0.0
 42
0.0
 43
0.0
 44
0.0
 45
0.0
 46
0.0
 47
0.0
 48
0.0
 49
0.0
140
0.0
141
0.0
142
1.0
143
1.0
 70
   688
 72
     0
 73
     0
 74
     5
  7

 75
    16
 76
     0
 77
     2
 78
   300
147
1.0
148
0.0
149
0.0
100
AcDbLayout
  1
Layout1
 70
     1
 71
     1
 10
0.0
 20
0.0
 11
12.0
 21
9.0
 12
0.0
 22
0.0
 32
0.0
 14
1.000000000000000E+20
 24
1.000000000000000E+20
 34
1.000000000000000E+20
 15
-1.000000000000000E+20
 25
-1.000000000000000E+20
 35
-1.000000000000000E+20
146
0.0
 13
0.0
 23
0.0
 33
0.0
 16
1.0
 26
0.0
 36
0.0
 17
0.0
 27
1.0
 37
0.0
 76
     0
330
1B
  0
LAYOUT
  5
26
102
{ACAD_REACTORS
330
1A
102
}
330
1A
100
AcDbPlotSettings
  1

  2
none_device
  4

  6

 40
0.0
 41
0.0
 42
0.0
 43
0.0
 44
0.0
 45
0.0
 46
0.0
 47
0.0
 48
0.0
 49
0.0
140
0.0
141
0.0
142
1.0
143
1.0
 70
   688
 72
     0
 73
     0
 74
     5
  7

 75
    16
 76
     0
 77
     2
 78
   300
147
1.0
148
0.0
149
0.0
100
AcDbLayout
  1
Layout2
 70
     1
 71
     2
 10
0.0
 20
0.0
 11
0.0
 21
0.0
 12
0.0
 22
0.0
 32
0.0
 14
0.0
 24
0.0
 34
0.0
 15
0.0
 25
0.0
 35
0.0
146
0.0
 13
0.0
 23
0.0
 33
0.0
 16
1.0
 26
0.0
 36
0.0
 17
0.0
 27
1.0
 37
0.0
 76
     0
330
23
  0
LAYOUT
  5
22
102
{ACAD_REACTORS
330
1A
102
}
330
1A
100
AcDbPlotSettings
  1

  2
none_device
  4

  6

 40
0.0
 41
0.0
 42
0.0
 43
0.0
 44
0.0
 45
0.0
 46
0.0
 47
0.0
 48
0.0
 49
0.0
140
0.0
141
0.0
142
1.0
143
1.0
 70
  1712
 72
     0
 73
     0
 74
     0
  7

 75
     0
 76
     0
 77
     2
 78
   300
147
1.0
148
0.0
149
0.0
100
AcDbLayout
  1
Model
 70
     1
 71
     0
 10
0.0
 20
0.0
 11
12.0
 21
9.0
 12
0.0
 22
0.0
 32
0.0
 14
1.000000000000000E+20
 24
1.000000000000000E+20
 34
1.000000000000000E+20
 15
-1.000000000000000E+20
 25
-1.000000000000000E+20
 35
-1.000000000000000E+20
146
0.0
 13
0.0
 23
0.0
 33
0.0
 16
1.0
 26
0.0
 36
0.0
 17
0.0
 27
1.0
 37
0.0
 76
     0
330
1F
331
29
  0
MATERIAL
  5
3D
102
{ACAD_REACTORS
330
3B
102
}
330
3B
100
AcDbMaterial
  1
ByBlock
 72
     1
 94
      127
  0
MATERIAL
  5
3C
102
{ACAD_REACTORS
330
3B
102
}
330
3B
100
AcDbMaterial
  1
ByLayer
 72
     1
 94
      127
  0
MATERIAL
  5
3E
102
{ACAD_REACTORS
330
3B
102
}
330
3B
100
AcDbMaterial
  1
Global
 72
     1
 94
      127
  0
MLINESTYLE
  5
18
102
{ACAD_REACTORS
330
17
102
}
330
17
100
AcDbMlineStyle
  2
Standard
 70
     0
  3

 62
   256
 51
90.0
 52
90.0
 71
     2
 49
0.5
 62
   256
  6
BYLAYER
 49
-0.5
 62
   256
  6
BYLAYER
  0
ACDBPLACEHOLDER
  5
F
102
{ACAD_REACTORS
330
E
102
}
330
E
  0
VISUALSTYLE
  5
2F
102
{ACAD_REACTORS
330
2A
102
}
330
2A
100
AcDbVisualStyle
  2
2dWireframe
 70
     4
177
     2
291
     0
 71
     0
176
     1
 72
     2
176
     1
 73
     0
176
     1
 90
        0
176
     1
 40
-0.6
176
     1
 41
-30.0
176
     1
 62
     5
 63
     7
421
 16777215
176
     1
 74
     1
176
     1
 91
        4
176
     1
 64
     7
176
     1
 65
   257
176
     1
 75
     1
176
     1
175
     1
176
     1
 42
1.0
176
     1
 92
        0
176
     1
 66
   257
176
     1
 43
1.0
176
     1
 76
     1
176
     1
 77
     6
176
     1
 78
     2
176
     1
 67
     7
176
     1
 79
     5
176
     1
170
     0
176
     1
171
     0
176
     1
290
     0
176
     1
 93
        1
176
     1
 44
0.0
176
     1
173
     0
176
     1
  0
VISUALSTYLE
  5
31
102
{ACAD_REACTORS
330
2A
102
}
330
2A
100
AcDbVisualStyle
  2
3D Hidden
 70
     6
177
     2
291
     0
 71
     1
176
     1
 72
     2
176
     1
 73
     2
176
     1
 90
        0
176
     1
 40
-0.6
176
     1
 41
-30.0
176
     1
 62
     5
 63
     7
421
 16777215
176
     1
 74
     2
176
     1
 91
        2
176
     1
 64
     7
176
     1
 65
   257
176
     1
 75
     2
176
     1
175
     1
176
     1
 42
40.0
176
     1
 92
        0
176
     1
 66
   257
176
     1
 43
1.0
176
     1
 76
     1
176
     1
 77
     6
176
     1
 78
     2
176
     1
 67
     7
176
     1
 79
     3
176
     1
170
     0
176
     1
171
     0
176
     1
290
     0
176
     1
 93
        1
176
     1
 44
0.0
176
     1
173
     0
176
     1
  0
VISUALSTYLE
  5
30
102
{ACAD_REACTORS
330
2A
102
}
330
2A
100
AcDbVisualStyle
  2
3dWireframe
 70
     5
177
     2
291
     0
 71
     0
176
     1
 72
     2
176
     1
 73
     0
176
     1
 90
        0
176
     1
 40
-0.6
176
     1
 41
-30.0
176
     1
 62
     5
 63
     7
421
 16777215
176
     1
 74
     1
176
     1
 91
        4
176
     1
 64
     7
176
     1
 65
   257
176
     1
 75
     1
176
     1
175
     1
176
     1
 42
1.0
176
     1
 92
        0
176
     1
 66
   257
176
     1
 43
1.0
176
     1
 76
     1
176
     1
 77
     6
176
     1
 78
     2
176
     1
 67
     7
176
     1
 79
     5
176
     1
170
     0
176
     1
171
     0
176
     1
290
     0
176
     1
 93
        1
176
     1
 44
0.0
176
     1
173
     0
176
     1
  0
VISUALSTYLE
  5
32
102
{ACAD_REACTORS
330
2A
102
}
330
2A
100
AcDbVisualStyle
  2
Basic
 70
     7
177
     2
291
     1
 71
     1
176
     1
 72
     0
176
     1
 73
     1
176
     1
 90
        0
176
     1
 40
-0.6
176
     1
 41
-30.0
176
     1
 62
     5
 63
     7
421
 16777215
176
     1
 74
     0
176
     1
 91
        4
176
     1
 64
     7
176
     1
 65
   257
176
     1
 75
     1
176
     1
175
     1
176
     1
 42
1.0
176
     1
 92
        8
176
     1
 66
     7
176
     1
 43
1.0
176
     1
 76
     1
176
     1
 77
     6
176
     1
 78
     2
176
     1
 67
     7
176
     1
 79
     5
176
     1
170
     0
176
     1
171
     0
176
     1
290
     0
176
     1
 93
        1
176
     1
 44
0.0
176
     1
173
     0
176
     1
  0
VISUALSTYLE
  5
36
102
{ACAD_REACTORS
330
2A
102
}
330
2A
100
AcDbVisualStyle
  2
Brighten
 70
    12
177
     2
291
     1
 71
     2
176
     1
 72
     2
176
     1
 73
     0
176
     1
 90
        0
176
     1
 40
-0.6
176
     1
 41
-30.0
176
     1
 62
     5
 63
     7
421
 16777215
176
     1
 74
     1
176
     1
 91
        4
176
     1
 64
     7
176
     1
 65
   257
176
     1
 75
     1
176
     1
175
     1
176
     1
 42
1.0
176
     1
 92
        8
176
     1
 66
     7
176
     1
 43
1.0
176
     1
 76
     1
176
     1
 77
     6
176
     1
 78
     2
176
     1
 67
     7
176
     1
 79
     5
176
     1
170
     0
176
     1
171
     0
176
     1
290
     0
176
     1
 93
        1
176
     1
 44
50.0
176
     1
173
     0
176
     1
  0
VISUALSTYLE
  5
3A
102
{ACAD_REACTORS
330
2A
102
}
330
2A
100
AcDbVisualStyle
  2
ColorChange
 70
    16
177
     2
291
     1
 71
     2
176
     1
 72
     2
176
     1
 73
     3
176
     1
 90
        0
176
     1
 40
-0.6
176
     1
 41
-30.0
176
     1
 62
     5
 63
     8
421
  8421504
176
     1
 74
     1
176
     1
 91
        4
176
     1
 64
     7
176
     1
 65
   257
176
     1
 75
     1
176
     1
175
     1
176
     1
 42
1.0
176
     1
 92
        8
176
     1
 66
     8
424
  8421504
176
     1
 43
1.0
176
     1
 76
     1
176
     1
 77
     6
176
     1
 78
     2
176
     1
 67
     7
176
     1
 79
     5
176
     1
170
     0
176
     1
171
     0
176
     1
290
     0
176
     1
 93
        1
176
     1
 44
0.0
176
     1
173
     0
176
     1
  0
VISUALSTYLE
  5
34
102
{ACAD_REACTORS
330
2A
102
}
330
2A
100
AcDbVisualStyle
  2
Conceptual
 70
     9
177
     2
291
     0
 71
     3
176
     1
 72
     2
176
     1
 73
     0
176
     1
 90
        0
176
     1
 40
-0.6
176
     1
 41
-30.0
176
     1
 62
     5
 63
     7
421
 16777215
176
     1
 74
     2
176
     1
 91
        2
176
     1
 64
     7
176
     1
 65
   257
176
     1
 75
     1
176
     1
175
     1
176
     1
 42
40.0
176
     1
 92
        8
176
     1
 66
     7
176
     1
 43
1.0
176
     1
 76
     1
176
     1
 77
     6
176
     1
 78
     2
176
     1
 67
     7
176
     1
 79
     3
176
     1
170
     0
176
     1
171
     0
176
     1
290
     0
176
     1
 93
        1
176
     1
 44
0.0
176
     1
173
     0
176
     1
  0
VISUALSTYLE
  5
35
102
{ACAD_REACTORS
330
2A
102
}
330
2A
100
AcDbVisualStyle
  2
Dim
 70
    11
177
     2
291
     1
 71
     2
176
     1
 72
     2
176
     1
 73
     0
176
     1
 90
        0
176
     1
 40
-0.6
176
     1
 41
-30.0
176
     1
 62
     5
 63
     7
421
 16777215
176
     1
 74
     1
176
     1
 91
        4
176
     1
 64
     7
176
     1
 65
   257
176
     1
 75
     1
176
     1
175
     1
176
     1
 42
1.0
176
     1
 92
        8
176
     1
 66
     7
176
     1
 43
1.0
176
     1
 76
     1
176
     1
 77
     6
176
     1
 78
     2
176
     1
 67
     7
176
     1
 79
     5
176
     1
170
     0
176
     1
171
     0
176
     1
290
     0
176
     1
 93
        1
176
     1
 44
-50.0
176
     1
173
     0
176
     1
  0
VISUALSTYLE
  5
39
102
{ACAD_REACTORS
330
2A
102
}
330
2A
100
AcDbVisualStyle
  2
Facepattern
 70
    15
177
     2
291
     1
 71
     2
176
     1
 72
     2
176
     1
 73
     0
176
     1
 90
        0
176
     1
 40
-0.6
176
     1
 41
-30.0
176
     1
 62
     5
 63
     7
421
 16777215
176
     1
 74
     1
176
     1
 91
        4
176
     1
 64
     7
176
     1
 65
   257
176
     1
 75
     1
176
     1
175
     1
176
     1
 42
1.0
176
     1
 92
        8
176
     1
 66
     7
176
     1
 43
1.0
176
     1
 76
     1
176
     1
 77
     6
176
     1
 78
     2
176
     1
 67
     7
176
     1
 79
     5
176
     1
170
     0
176
     1
171
     0
176
     1
290
     0
176
     1
 93
        1
176
     1
 44
0.0
176
     1
173
     0
176
     1
  0
VISUALSTYLE
  5
2B
102
{ACAD_REACTORS
330
2A
102
}
330
2A
100
AcDbVisualStyle
  2
Flat
 70
     0
177
     2
291
     1
 71
     2
176
     1
 72
     1
176
     1
 73
     1
176
     1
 90
        2
176
     1
 40
-0.6
176
     1
 41
30.0
176
     1
 62
     5
 63
     7
421
 16777215
176
     1
 74
     0
176
     1
 91
        4
176
     1
 64
     7
176
     1
 65
   257
176
     1
 75
     1
176
     1
175
     1
176
     1
 42
1.0
176
     1
 92
        8
176
     1
 66
     7
176
     1
 43
1.0
176
     1
 76
     1
176
     1
 77
     6
176
     1
 78
     2
176
     1
 67
     7
176
     1
 79
     5
176
     1
170
     0
176
     1
171
     0
176
     1
290
     0
176
     1
 93
       13
176
     1
 44
0.0
176
     1
173
     0
176
     1
  0
VISUALSTYLE
  5
2C
102
{ACAD_REACTORS
330
2A
102
}
330
2A
100
AcDbVisualStyle
  2
FlatWithEdges
 70
     1
177
     2
291
     1
 71
     2
176
     1
 72
     1
176
     1
 73
     1
176
     1
 90
        2
176
     1
 40
-0.6
176
     1
 41
30.0
176
     1
 62
     5
 63
     7
421
 16777215
176
     1
 74
     1
176
     1
 91
        4
176
     1
 64
     7
176
     1
 65
   257
176
     1
 75
     1
176
     1
175
     1
176
     1
 42
1.0
176
     1
 92
        0
176
     1
 66
   257
176
     1
 43
1.0
176
     1
 76
     1
176
     1
 77
     6
176
     1
 78
     2
176
     1
 67
     7
176
     1
 79
     5
176
     1
170
     0
176
     1
171
     0
176
     1
290
     0
176
     1
 93
       13
176
     1
 44
0.0
176
     1
173
     0
176
     1
  0
VISUALSTYLE
  5
2D
102
{ACAD_REACTORS
330
2A
102
}
330
2A
100
AcDbVisualStyle
  2
Gouraud
 70
     2
177
     2
291
     1
 71
     2
176
     1
 72
     2
176
     1
 73
     1
176
     1
 90
        2
176
     1
 40
-0.6
176
     1
 41
30.0
176
     1
 62
     5
 63
     7
421
 16777215
176
     1
 74
     0
176
     1
 91
        4
176
     1
 64
     7
176
     1
 65
   257
176
     1
 75
     1
176
     1
175
     1
176
     1
 42
1.0
176
     1
 92
        0
176
     1
 66
     7
176
     1
 43
1.0
176
     1
 76
     1
176
     1
 77
     6
176
     1
 78
     2
176
     1
 67
     7
176
     1
 79
     5
176
     1
170
     0
176
     1
171
     0
176
     1
290
     0
176
     1
 93
       13
176
     1
 44
0.0
176
     1
173
     0
176
     1
  0
VISUALSTYLE
  5
2E
102
{ACAD_REACTORS
330
2A
102
}
330
2A
100
AcDbVisualStyle
  2
GouraudWithEdges
 70
     3
177
     2
291
     1
 71
     2
176
     1
 72
     2
176
     1
 73
     1
176
     1
 90
        2
176
     1
 40
-0.6
176
     1
 41
30.0
176
     1
 62
     5
 63
     7
421
 16777215
176
     1
 74
     1
176
     1
 91
        4
176
     1
 64
     7
176
     1
 65
   257
176
     1
 75
     1
176
     1
175
     1
176
     1
 42
1.0
176
     1
 92
        0
176
     1
 66
   257
176
     1
 43
1.0
176
     1
 76
     1
176
     1
 77
     6
176
     1
 78
     2
176
     1
 67
     7
176
     1
 79
     5
176
     1
170
     0
176
     1
171
     0
176
     1
290
     0
176
     1
 93
       13
176
     1
 44
0.0
176
     1
173
     0
176
     1
  0
VISUALSTYLE
  5
38
102
{ACAD_REACTORS
330
2A
102
}
330
2A
100
AcDbVisualStyle
  2
Linepattern
 70
    14
177
     2
291
     1
 71
     2
176
     1
 72
     2
176
     1
 73
     0
176
     1
 90
        0
176
     1
 40
-0.6
176
     1
 41
-30.0
176
     1
 62
     5
 63
     7
421
 16777215
176
     1
 74
     1
176
     1
 91
        4
176
     1
 64
     7
176
     1
 65
   257
176
     1
 75
     7
176
     1
175
     7
176
     1
 42
1.0
176
     1
 92
        8
176
     1
 66
     7
176
     1
 43
1.0
176
     1
 76
     1
176
     1
 77
     6
176
     1
 78
     2
176
     1
 67
     7
176
     1
 79
     5
176
     1
170
     0
176
     1
171
     0
176
     1
290
     0
176
     1
 93
        1
176
     1
 44
0.0
176
     1
173
     0
176
     1
  0
VISUALSTYLE
  5
33
102
{ACAD_REACTORS
330
2A
102
}
330
2A
100
AcDbVisualStyle
  2
Realistic
 70
     8
177
     2
291
     0
 71
     2
176
     1
 72
     2
176
     1
 73
     0
176
     1
 90
        0
176
     1
 40
-0.6
176
     1
 41
-30.0
176
     1
 62
     5
 63
     7
421
 16777215
176
     1
 74
     1
176
     1
 91
        0
176
     1
 64
     7
176
     1
 65
   257
176
     1
 75
     1
176
     1
175
     1
176
     1
 42
1.0
176
     1
 92
        8
176
     1
 66
     8
424
  7895160
176
     1
 43
1.0
176
     1
 76
     1
176
     1
 77
     6
176
     1
 78
     2
176
     1
 67
     7
176
     1
 79
     5
176
     1
170
     0
176
     1
171
     0
176
     1
290
     0
176
     1
 93
       13
176
     1
 44
0.0
176
     1
173
     0
176
     1
  0
VISUALSTYLE
  5
37
102
{ACAD_REACTORS
330
2A
102
}
330
2A
100
AcDbVisualStyle
  2
Thicken
 70
    13
177
     2
291
     1
 71
     2
176
     1
 72
     2
176
     1
 73
     0
176
     1
 90
        0
176
     1
 40
-0.6
176
     1
 41
-30.0
176
     1
 62
     5
 63
     7
421
 16777215
176
     1
 74
     1
176
     1
 91
        4
176
     1
 64
     7
176
     1
 65
   257
176
     1
 75
     1
176
     1
175
     1
176
     1
 42
1.0
176
     1
 92
       12
176
     1
 66
     7
176
     1
 43
1.0
176
     1
 76
     1
176
     1
 77
     6
176
     1
 78
     2
176
     1
 67
     7
176
     1
 79
     5
176
     1
170
     0
176
     1
171
     0
176
     1
290
     0
176
     1
 93
        1
176
     1
 44
0.0
176
     1
173
     0
176
     1
  0
ENDSEC
  0
EOF
