  0
SECTION
  2
HEADER
  9
$ACADVER
  1
AC1024
  9
$ACADMAINTVER
 70
     6
  9
$DWGCODEPAGE
  3
UNDEFINED
  9
$INSBASE
 10
0.0
 20
0.0
 30
0.0
  9
$EXTMIN
 10
1.000000000000000E+20
 20
1.000000000000000E+20
 30
1.000000000000000E+20
  9
$EXTMAX
 10
-1.000000000000000E+20
 20
-1.000000000000000E+20
 30
-1.000000000000000E+20
  9
$LIMMIN
 10
0.0
 20
0.0
  9
$LIMMAX
 10
12.0
 20
9.0
  9
$ORTHOMODE
 70
     0
  9
$REGENMODE
 70
     1
  9
$FILLMODE
 70
     1
  9
$QTEXTMODE
 70
     0
  9
$MIRRTEXT
 70
     1
  9
$LTSCALE
 40
1.0
  9
$ATTMODE
 70
     1
  9
$TEXTSIZE
 40
0.2
  9
$TRACEWID
 40
0.05
  9
$TEXTSTYLE
  7
Standard
  9
$CLAYER
  8
0
  9
$CELTYPE
  6
ByLayer
  9
$CECOLOR
 62
   256
  9
$CELTSCALE
 40
1.0
  9
$DISPSILH
 70
     0
  9
$DIMSCALE
 40
1.0
  9
$DIMASZ
 40
0.18
  9
$DIMEXO
 40
0.0625
  9
$DIMDLI
 40
0.38
  9
$DIMRND
 40
0.0
  9
$DIMDLE
 40
0.0
  9
$DIMEXE
 40
0.18
  9
$DIMTP
 40
0.0
  9
$DIMTM
 40
0.0
  9
$DIMTXT
 40
0.18
  9
$DIMCEN
 40
0.09
  9
$DIMTSZ
 40
0.0
  9
$DIMTOL
 70
     0
  9
$DIMLIM
 70
     0
  9
$DIMTIH
 70
     1
  9
$DIMTOH
 70
     1
  9
$DIMSE1
 70
     0
  9
$DIMSE2
 70
     0
  9
$DIMTAD
 70
     0
  9
$DIMZIN
 70
     0
  9
$DIMBLK
  1

  9
$DIMASO
 70
     1
  9
$DIMSHO
 70
     1
  9
$DIMPOST
  1

  9
$DIMAPOST
  1

  9
$DIMALT
 70
     0
  9
$DIMALTD
 70
     2
  9
$DIMALTF
 40
25.4
  9
$DIMLFAC
 40
1.0
  9
$DIMTOFL
 70
     0
  9
$DIMTVP
 40
0.0
  9
$DIMTIX
 70
     0
  9
$DIMSOXD
 70
     0
  9
$DIMSAH
 70
     0
  9
$DIMBLK1
  1

  9
$DIMBLK2
  1

  9
$DIMSTYLE
  2
Standard
  9
$DIMCLRD
 70
     0
  9
$DIMCLRE
 70
     0
  9
$DIMCLRT
 70
     0
  9
$DIMTFAC
 40
1.0
  9
$DIMGAP
 40
0.09
  9
$DIMJUST
 70
     0
  9
$DIMSD1
 70
     0
  9
$DIMSD2
 70
     0
  9
$DIMTOLJ
 70
     1
  9
$DIMTZIN
 70
     0
  9
$DIMALTZ
 70
     0
  9
$DIMALTTZ
 70
     0
  9
$DIMUPT
 70
     0
  9
$DIMDEC
 70
     4
  9
$DIMTDEC
 70
     4
  9
$DIMALTU
 70
     2
  9
$DIMALTTD
 70
     2
  9
$DIMTXSTY
  7
Standard
  9
$DIMAUNIT
 70
     0
  9
$DIMADEC
 70
     0
  9
$DIMALTRND
 40
0.0
  9
$DIMAZIN
 70
     0
  9
$DIMDSEP
 70
    46
  9
$DIMATFIT
 70
     3
  9
$DIMFRAC
 70
     0
  9
$DIMLDRBLK
  1

  9
$DIMLUNIT
 70
     2
  9
$DIMLWD
 70
    -2
  9
$DIMLWE
 70
    -2
  9
$DIMTMOVE
 70
     0
  9
$DIMFXL
 40
1.0
  9
$DIMFXLON
 70
     0
  9
$DIMJOGANG
 40
0.7853981633974483
  9
$DIMTFILL
 70
     0
  9
$DIMTFILLCLR
 70
     0
  9
$DIMARCSYM
 70
     0
  9
$DIMLTYPE
  6

  9
$DIMLTEX1
  6

  9
$DIMLTEX2
  6

  9
$DIMTXTDIRECTION
 70
     0
  9
$LUNITS
 70
     2
  9
$LUPREC
 70
     4
  9
$SKETCHINC
 40
0.1
  9
$FILLETRAD
 40
0.5
  9
$AUNITS
 70
     0
  9
$AUPREC
 70
     0
  9
$MENU
  1
.
  9
$ELEVATION
 40
0.0
  9
$PELEVATION
 40
0.0
  9
$THICKNESS
 40
0.0
  9
$LIMCHECK
 70
     0
  9
$CHAMFERA
 40
0.5
  9
$CHAMFERB
 40
0.5
  9
$CHAMFERC
 40
1.0
  9
$CHAMFERD
 40
0.0
  9
$SKPOLY
 70
     0
  9
$TDCREATE
 40
2457917.612789352
  9
$TDUCREATE
 40
2457917.237789352
  9
$TDUPDATE
 40
2457917.612789352
  9
$TDUUPDATE
 40
2457917.237789352
  9
$TDINDWG
 40
0.0000000116
  9
$TDUSRTIMER
 40
0.0000000116
  9
$USRTIMER
 70
     1
  9
$ANGBASE
 50
0.0
  9
$ANGDIR
 70
     0
  9
$PDMODE
 70
     0
  9
$PDSIZE
 40
0.0
  9
$PLINEWID
 40
0.0
  9
$SPLFRAME
 70
     0
  9
$SPLINETYPE
 70
     6
  9
$SPLINESEGS
 70
     8
  9
$HANDSEED
  5
D6
  9
$SURFTAB1
 70
     6
  9
$SURFTAB2
 70
     6
  9
$SURFTYPE
 70
     6
  9
$SURFU
 70
     6
  9
$SURFV
 70
     6
  9
$UCSBASE
  2

  9
$UCSNAME
  2

  9
$UCSORG
 10
0.0
 20
0.0
 30
0.0
  9
$UCSXDIR
 10
1.0
 20
0.0
 30
0.0
  9
$UCSYDIR
 10
0.0
 20
1.0
 30
0.0
  9
$UCSORTHOREF
  2

  9
$UCSORTHOVIEW
 70
     0
  9
$UCSORGTOP
 10
0.0
 20
0.0
 30
0.0
  9
$UCSORGBOTTOM
 10
0.0
 20
0.0
 30
0.0
  9
$UCSORGLEFT
 10
0.0
 20
0.0
 30
0.0
  9
$UCSORGRIGHT
 10
0.0
 20
0.0
 30
0.0
  9
$UCSORGFRONT
 10
0.0
 20
0.0
 30
0.0
  9
$UCSORGBACK
 10
0.0
 20
0.0
 30
0.0
  9
$PUCSBASE
  2

  9
$PUCSNAME
  2

  9
$PUCSORG
 10
0.0
 20
0.0
 30
0.0
  9
$PUCSXDIR
 10
1.0
 20
0.0
 30
0.0
  9
$PUCSYDIR
 10
0.0
 20
1.0
 30
0.0
  9
$PUCSORTHOREF
  2

  9
$PUCSORTHOVIEW
 70
     0
  9
$PUCSORGTOP
 10
0.0
 20
0.0
 30
0.0
  9
$PUCSORGBOTTOM
 10
0.0
 20
0.0
 30
0.0
  9
$PUCSORGLEFT
 10
0.0
 20
0.0
 30
0.0
  9
$PUCSORGRIGHT
 10
0.0
 20
0.0
 30
0.0
  9
$PUCSORGFRONT
 10
0.0
 20
0.0
 30
0.0
  9
$PUCSORGBACK
 10
0.0
 20
0.0
 30
0.0
  9
$USERI1
 70
     0
  9
$USERI2
 70
     0
  9
$USERI3
 70
     0
  9
$USERI4
 70
     0
  9
$USERI5
 70
     0
  9
$USERR1
 40
0.0
  9
$USERR2
 40
0.0
  9
$USERR3
 40
0.0
  9
$USERR4
 40
0.0
  9
$USERR5
 40
0.0
  9
$WORLDVIEW
 70
     1
  9
$SHADEDGE
 70
     3
  9
$SHADEDIF
 70
    70
  9
$TILEMODE
 70
     1
  9
$MAXACTVP
 70
    64
  9
$PINSBASE
 10
0.0
 20
0.0
 30
0.0
  9
$PLIMCHECK
 70
     0
  9
$PEXTMIN
 10
1.000000000000000E+20
 20
1.000000000000000E+20
 30
1.000000000000000E+20
  9
$PEXTMAX
 10
-1.000000000000000E+20
 20
-1.000000000000000E+20
 30
-1.000000000000000E+20
  9
$PLIMMIN
 10
0.0
 20
0.0
  9
$PLIMMAX
 10
12.0
 20
9.0
  9
$UNITMODE
 70
     0
  9
$VISRETAIN
 70
     1
  9
$PLINEGEN
 70
     0
  9
$PSLTSCALE
 70
     1
  9
$TREEDEPTH
 70
  3020
  9
$CMLSTYLE
  2
Standard
  9
$CMLJUST
 70
     0
  9
$CMLSCALE
 40
1.0
  9
$PROXYGRAPHICS
 70
     1
  9
$MEASUREMENT
 70
     0
  9
$CELWEIGHT
370
    -1
  9
$ENDCAPS
280
     0
  9
$JOINSTYLE
280
     0
  9
$LWDISPLAY
290
     1
  9
$INSUNITS
 70
     1
  9
$HYPERLINKBASE
  1

  9
$STYLESHEET
  1

  9
$XEDIT
290
     1
  9
$CEPSNTYPE
380
     0
  9
$PSTYLEMODE
290
     1
  9
$FINGERPRINTGUID
  2
{E3E43BAC-9841-08C0-33C9-D643E13520E9}
  9
$VERSIONGUID
  2
{FAEB1C32-E019-11D5-929B-00C0DF256EC4}
  9
$EXTNAMES
290
     1
  9
$PSVPSCALE
 40
0.0
  9
$OLESTARTUP
290
     0
  9
$SORTENTS
280
   127
  9
$INDEXCTL
280
     0
  9
$HIDETEXT
280
     1
  9
$XCLIPFRAME
280
     2
  9
$HALOGAP
280
     0
  9
$OBSCOLOR
 70
   257
  9
$OBSLTYPE
280
     0
  9
$INTERSECTIONDISPLAY
280
     0
  9
$INTERSECTIONCOLOR
 70
   257
  9
$DIMASSOC
280
     2
  9
$PROJECTNAME
  1

  9
$CAMERADISPLAY
290
     0
  9
$LENSLENGTH
 40
50.0
  9
$CAMERAHEIGHT
 40
0.0
  9
$STEPSPERSEC
 40
2.0
  9
$STEPSIZE
 40
6.0
  9
$3DDWFPREC
 40
2.0
  9
$PSOLWIDTH
 40
0.25
  9
$PSOLHEIGHT
 40
4.0
  9
$LOFTANG1
 40
1.570796326794897
  9
$LOFTANG2
 40
1.570796326794897
  9
$LOFTMAG1
 40
0.0
  9
$LOFTMAG2
 40
0.0
  9
$LOFTPARAM
 70
     7
  9
$LOFTNORMALS
280
     1
  9
$LATITUDE
 40
37.795
  9
$LONGITUDE
 40
-122.394
  9
$NORTHDIRECTION
 40
0.0
  9
$TIMEZONE
 70
 -8000
  9
$LIGHTGLYPHDISPLAY
280
     1
  9
$TILEMODELIGHTSYNCH
280
     1
  9
$CMATERIAL
347
3C
  9
$SOLIDHIST
280
     1
  9
$SHOWHIST
280
     1
  9
$DWFFRAME
280
     2
  9
$DGNFRAME
280
     2
  9
$REALWORLDSCALE
290
     1
  9
$INTERFERECOLOR
 62
   256
  9
$CSHADOW
280
     0
  9
$SHADOWPLANELOCATION
 40
0.0
  0
ENDSEC
  0
SECTION
  2
CLASSES
  0
CLASS
  1
ACDBDICTIONARYWDFLT
  2
AcDbDictionaryWithDefault
  3
ObjectDBX Classes
 90
        0
 91
        4
280
     0
281
     0
  0
CLASS
  1
VISUALSTYLE
  2
AcDbVisualStyle
  3
ObjectDBX Classes
 90
     4095
 91
        4
280
     0
281
     0
  0
CLASS
  1
MATERIAL
  2
AcDbMaterial
  3
ObjectDBX Classes
 90
     1153
 91
        4
280
     0
281
     0
  0
CLASS
  1
SUN
  2
AcDbSun
  3
SCENEOE
 90
     1024
 91
        4
280
     0
281
     0
  0
ENDSEC
  0
SECTION
  2
TABLES
  0
TABLE
  2
VPORT
  5
8
330
0
100
AcDbSymbolTable
 70
     1
  0
VPORT
  5
29
330
8
100
AcDbSymbolTableRecord
100
AcDbViewportTableRecord
  2
*Active
 70
     0
 10
0.0
 20
0.0
 11
1.0
 21
1.0
 12
0.0
 22
0.0
 13
0.0
 23
0.0
 14
0.5
 24
0.5
 15
0.5
 25
0.5
 16
0.0
 26
0.0
 36
1.0
 17
91.00082462281999
 27
-128.4993055234307
 37
0.0
 40
256.9986110468615
 41
0.7081814508812795
 42
50.0
 43
0.0
 44
0.0
 50
0.0
 51
0.0
 71
     0
 72
   100
 73
     1
 74
     3
 75
     0
 76
     0
 77
     0
 78
     0
281
     0
 65
     1
110
0.0
120
0.0
130
0.0
111
1.0
121
0.0
131
0.0
112
0.0
122
1.0
132
0.0
 79
     0
146
0.0
 60
     3
 61
     5
292
     1
282
     1
141
0.0
142
0.0
 63
   250
361
3F
  0
ENDTAB
  0
TABLE
  2
LTYPE
  5
5
330
0
100
AcDbSymbolTable
 70
     1
  0
LTYPE
  5
14
330
5
100
AcDbSymbolTableRecord
100
AcDbLinetypeTableRecord
  2
ByBlock
 70
     0
  3

 72
    65
 73
     0
 40
0.0
  0
LTYPE
  5
15
330
5
100
AcDbSymbolTableRecord
100
AcDbLinetypeTableRecord
  2
ByLayer
 70
     0
  3

 72
    65
 73
     0
 40
0.0
  0
LTYPE
  5
16
330
5
100
AcDbSymbolTableRecord
100
AcDbLinetypeTableRecord
  2
Continuous
 70
     0
  3
Solid line
 72
    65
 73
     0
 40
0.0
  0
ENDTAB
  0
TABLE
  2
LAYER
  5
2
330
0
100
AcDbSymbolTable
 70
     2
  0
LAYER
  5
10
330
2
100
AcDbSymbolTableRecord
100
AcDbLayerTableRecord
  2
0
 70
     0
 62
     7
  6
Continuous
370
    -3
390
F
347
3E
  0
LAYER
  5
40
330
2
100
AcDbSymbolTableRecord
100
AcDbLayerTableRecord
  2
_U+30EC_U+30A4_U+30E4_U+30FC 1
 70
     0
 62
     7
  6
Continuous
370
    -3
390
F
347
3E
  0
ENDTAB
  0
TABLE
  2
STYLE
  5
3
330
0
100
AcDbSymbolTable
 70
     1
  0
STYLE
  5
11
330
3
100
AcDbSymbolTableRecord
100
AcDbTextStyleTableRecord
  2
Standard
 70
     0
 40
0.0
 41
1.0
 50
0.0
 71
     0
 42
0.2
  3
txt
  4

  0
ENDTAB
  0
TABLE
  2
VIEW
  5
6
330
0
100
AcDbSymbolTable
 70
     0
  0
ENDTAB
  0
TABLE
  2
UCS
  5
7
330
0
100
AcDbSymbolTable
 70
     0
  0
ENDTAB
  0
TABLE
  2
APPID
  5
9
330
0
100
AcDbSymbolTable
 70
     1
  0
APPID
  5
12
330
9
100
AcDbSymbolTableRecord
100
AcDbRegAppTableRecord
  2
ACAD
 70
     0
  0
ENDTAB
  0
TABLE
  2
DIMSTYLE
  5
A
330
0
100
AcDbSymbolTable
 70
     1
100
AcDbDimStyleTable
  0
DIMSTYLE
105
27
330
A
100
AcDbSymbolTableRecord
100
AcDbDimStyleTableRecord
  2
Standard
 70
     0
178
     0
340
11
  0
ENDTAB
  0
TABLE
  2
BLOCK_RECORD
  5
1
330
0
100
AcDbSymbolTable
 70
     8
  0
BLOCK_RECORD
  5
1F
330
1
100
AcDbSymbolTableRecord
100
AcDbBlockTableRecord
  2
*Model_Space
340
22
 70
     0
280
     1
281
     0
  0
BLOCK_RECORD
  5
1B
330
1
100
AcDbSymbolTableRecord
100
AcDbBlockTableRecord
  2
*Paper_Space
340
1E
 70
     0
280
     1
281
     0
  0
BLOCK_RECORD
  5
23
330
1
100
AcDbSymbolTableRecord
100
AcDbBlockTableRecord
  2
*Paper_Space0
340
26
 70
     0
280
     1
281
     0
  0
BLOCK_RECORD
  5
51
330
1
100
AcDbSymbolTableRecord
100
AcDbBlockTableRecord
  2
block 2
340
0
102
{BLKREFS
331
52
102
}
 70
     0
280
     1
281
     0
  0
BLOCK_RECORD
  5
78
330
1
100
AcDbSymbolTableRecord
100
AcDbBlockTableRecord
  2
block 3
340
0
102
{BLKREFS
331
79
102
}
 70
     0
280
     1
281
     0
  0
BLOCK_RECORD
  5
84
330
1
100
AcDbSymbolTableRecord
100
AcDbBlockTableRecord
  2
block 4
340
0
102
{BLKREFS
331
85
102
}
 70
     0
280
     1
281
     0
  0
BLOCK_RECORD
  5
A3
330
1
100
AcDbSymbolTableRecord
100
AcDbBlockTableRecord
  2
block 5
340
0
102
{BLKREFS
331
A4
102
}
 70
     0
280
     1
281
     0
  0
BLOCK_RECORD
  5
A8
330
1
100
AcDbSymbolTableRecord
100
AcDbBlockTableRecord
  2
block 6
340
0
102
{BLKREFS
331
A9
102
}
 70
     0
280
     1
281
     0
  0
BLOCK_RECORD
  5
B1
330
1
100
AcDbSymbolTableRecord
100
AcDbBlockTableRecord
  2
block 7
340
0
102
{BLKREFS
331
B2
102
}
 70
     0
280
     1
281
     0
  0
BLOCK_RECORD
  5
C0
330
1
100
AcDbSymbolTableRecord
100
AcDbBlockTableRecord
  2
block 8
340
0
102
{BLKREFS
331
C1
102
}
 70
     0
280
     1
281
     0
  0
ENDTAB
  0
ENDSEC
  0
SECTION
  2
BLOCKS
  0
BLOCK
  5
20
330
1F
100
AcDbEntity
  8
0
100
AcDbBlockBegin
  2
*Model_Space
 70
     0
 10
0.0
 20
0.0
 30
0.0
  3
*Model_Space
  1

  0
ENDBLK
  5
21
330
1F
100
AcDbEntity
  8
0
100
AcDbBlockEnd
  0
BLOCK
  5
1C
330
1B
100
AcDbEntity
 67
     1
  8
0
100
AcDbBlockBegin
  2
*Paper_Space
 70
     0
 10
0.0
 20
0.0
 30
0.0
  3
*Paper_Space
  1

  0
ENDBLK
  5
1D
330
1B
100
AcDbEntity
 67
     1
  8
0
100
AcDbBlockEnd
  0
BLOCK
  5
24
330
23
100
AcDbEntity
  8
0
100
AcDbBlockBegin
  2
*Paper_Space0
 70
     0
 10
0.0
 20
0.0
 30
0.0
  3
*Paper_Space0
  1

  0
ENDBLK
  5
25
330
23
100
AcDbEntity
  8
0
100
AcDbBlockEnd
  0
BLOCK
  5
53
330
51
100
AcDbEntity
  8
0
100
AcDbBlockBegin
  2
block 2
 70
     0
 10
0.0
 20
0.0
 30
0.0
  3
block 2
  1

  0
POLYLINE
  5
55
330
51
100
AcDbEntity
  8
_U+30EC_U+30A4_U+30E4_U+30FC 1
370
     0
100
AcDb2dPolyline
 66
     1
 10
0.0
 20
0.0
 30
0.0
  0
VERTEX
  5
56
330
55
100
AcDbEntity
  8
_U+30EC_U+30A4_U+30E4_U+30FC 1
370
     0
100
AcDbVertex
100
AcDb2dVertex
 10
85.6269870120134
 20
-108.3082899034785
 30
0.0
  0
VERTEX
  5
57
330
55
100
AcDbEntity
  8
_U+30EC_U+30A4_U+30E4_U+30FC 1
370
     0
100
AcDbVertex
100
AcDb2dVertex
 10
85.6269870120134
 20
-108.6827717827251
 30
0.0
  0
VERTEX
  5
58
330
55
100
AcDbEntity
  8
_U+30EC_U+30A4_U+30E4_U+30FC 1
370
     0
100
AcDbVertex
100
AcDb2dVertex
 10
85.3918592451451
 20
-108.6827717827251
 30
0.0
  0
VERTEX
  5
59
330
55
100
AcDbEntity
  8
_U+30EC_U+30A4_U+30E4_U+30FC 1
370
     0
100
AcDbVertex
100
AcDb2dVertex
 10
85.3918592451451
 20
-108.3082899034785
 30
0.0
  0
VERTEX
  5
5A
330
55
100
AcDbEntity
  8
_U+30EC_U+30A4_U+30E4_U+30FC 1
370
     0
100
AcDbVertex
100
AcDb2dVertex
 10
84.68440888724903
 20
-108.3082899034785
 30
0.0
  0
VERTEX
  5
5B
330
55
100
AcDbEntity
  8
_U+30EC_U+30A4_U+30E4_U+30FC 1
370
     0
100
AcDbVertex
100
AcDb2dVertex
 10
84.68440888724903
 20
-108.066444200414
 30
0.0
  0
VERTEX
  5
5C
330
55
100
AcDbEntity
  8
_U+30EC_U+30A4_U+30E4_U+30FC 1
370
     0
100
AcDbVertex
100
AcDb2dVertex
 10
85.41700844218742
 20
-107.0167236060583
 30
0.0
  0
VERTEX
  5
5D
330
55
100
AcDbEntity
  8
_U+30EC_U+30A4_U+30E4_U+30FC 1
370
     0
100
AcDbVertex
100
AcDb2dVertex
 10
85.6269870120134
 20
-107.0167236060583
 30
0.0
  0
VERTEX
  5
5E
330
55
100
AcDbEntity
  8
_U+30EC_U+30A4_U+30E4_U+30FC 1
370
     0
100
AcDbVertex
100
AcDb2dVertex
 10
85.6269870120134
 20
-108.0940049642959
 30
0.0
  0
VERTEX
  5
5F
330
55
100
AcDbEntity
  8
_U+30EC_U+30A4_U+30E4_U+30FC 1
370
     0
100
AcDbVertex
100
AcDb2dVertex
 10
85.85057370900611
 20
-108.0940049642959
 30
0.0
  0
VERTEX
  5
60
330
55
100
AcDbEntity
  8
_U+30EC_U+30A4_U+30E4_U+30FC 1
370
     0
100
AcDbVertex
100
AcDb2dVertex
 10
85.85057370900611
 20
-108.3082899034785
 30
0.0
  0
VERTEX
  5
61
330
55
100
AcDbEntity
  8
_U+30EC_U+30A4_U+30E4_U+30FC 1
370
     0
100
AcDbVertex
100
AcDb2dVertex
 10
85.6269870120134
 20
-108.3082899034785
 30
0.0
  0
SEQEND
  5
62
330
55
100
AcDbEntity
  8
_U+30EC_U+30A4_U+30E4_U+30FC 1
370
     0
  0
POLYLINE
  5
63
330
51
100
AcDbEntity
  8
_U+30EC_U+30A4_U+30E4_U+30FC 1
370
     0
100
AcDb2dPolyline
 66
     1
 10
0.0
 20
0.0
 30
0.0
  0
VERTEX
  5
64
330
63
100
AcDbEntity
  8
_U+30EC_U+30A4_U+30E4_U+30FC 1
370
     0
100
AcDbVertex
100
AcDb2dVertex
 10
85.3918592451451
 20
-107.3863823516256
 30
0.0
  0
VERTEX
  5
65
330
63
100
AcDbEntity
  8
_U+30EC_U+30A4_U+30E4_U+30FC 1
370
     0
100
AcDbVertex
100
AcDb2dVertex
 10
84.89886608120584
 20
-108.0940049642959
 30
0.0
  0
VERTEX
  5
66
330
63
100
AcDbEntity
  8
_U+30EC_U+30A4_U+30E4_U+30FC 1
370
     0
100
AcDbVertex
100
AcDb2dVertex
 10
85.3918592451451
 20
-108.0940049642959
 30
0.0
  0
VERTEX
  5
67
330
63
100
AcDbEntity
  8
_U+30EC_U+30A4_U+30E4_U+30FC 1
370
     0
100
AcDbVertex
100
AcDb2dVertex
 10
85.3918592451451
 20
-107.3863823516256
 30
0.0
  0
SEQEND
  5
68
330
63
100
AcDbEntity
  8
_U+30EC_U+30A4_U+30E4_U+30FC 1
370
     0
  0
HATCH
  5
69
330
51
100
AcDbEntity
  8
_U+30EC_U+30A4_U+30E4_U+30FC 1
 62
     7
420
 16777215
100
AcDbHatch
 10
0.0
 20
0.0
 30
0.0
210
0.0
220
0.0
230
1.0
  2
SOLID
 70
     1
 71
     0
 91
        2
 92
        1
 93
       11
 72
     1
 10
85.6269870120134
 20
-108.3082899034785
 11
85.6269870120134
 21
-108.6827717827251
 72
     1
 10
85.6269870120134
 20
-108.6827717827251
 11
85.3918592451451
 21
-108.6827717827251
 72
     1
 10
85.3918592451451
 20
-108.6827717827251
 11
85.3918592451451
 21
-108.3082899034785
 72
     1
 10
85.3918592451451
 20
-108.3082899034785
 11
84.68440888724903
 21
-108.3082899034785
 72
     1
 10
84.68440888724903
 20
-108.3082899034785
 11
84.68440888724903
 21
-108.066444200414
 72
     1
 10
84.68440888724903
 20
-108.066444200414
 11
85.41700844218742
 21
-107.0167236060583
 72
     1
 10
85.41700844218742
 20
-107.0167236060583
 11
85.6269870120134
 21
-107.0167236060583
 72
     1
 10
85.6269870120134
 20
-107.0167236060583
 11
85.6269870120134
 21
-108.0940049642959
 72
     1
 10
85.6269870120134
 20
-108.0940049642959
 11
85.85057370900611
 21
-108.0940049642959
 72
     1
 10
85.85057370900611
 20
-108.0940049642959
 11
85.85057370900611
 21
-108.3082899034785
 72
     1
 10
85.85057370900611
 20
-108.3082899034785
 11
85.6269870120134
 21
-108.3082899034785
 97
        0
 92
        1
 93
        3
 72
     1
 10
85.3918592451451
 20
-107.3863823516256
 11
84.89886608120584
 21
-108.0940049642959
 72
     1
 10
84.89886608120584
 20
-108.0940049642959
 11
85.3918592451451
 21
-108.0940049642959
 72
     1
 10
85.3918592451451
 20
-108.0940049642959
 11
85.3918592451451
 21
-107.3863823516256
 97
        0
 75
     2
 76
     1
 98
        0
  0
SPLINE
  5
6A
330
51
100
AcDbEntity
  8
_U+30EC_U+30A4_U+30E4_U+30FC 1
370
     0
100
AcDbSpline
210
0.0
220
0.0
230
1.0
 70
    11
 71
     3
 72
    53
 73
    49
 74
     0
 42
0.0000000001
 43
0.0000000001
 12
1.0
 22
0.0
 32
0.0
 13
1.0
 23
0.0
 33
0.0
 40
0.0
 40
0.0
 40
0.0
 40
0.0
 40
1.0
 40
1.0
 40
1.0
 40
2.0
 40
2.0
 40
2.0
 40
3.0
 40
3.0
 40
3.0
 40
4.0
 40
4.0
 40
4.0
 40
5.0
 40
5.0
 40
5.0
 40
6.0
 40
6.0
 40
6.0
 40
7.0
 40
7.0
 40
7.0
 40
8.0
 40
8.0
 40
8.0
 40
9.0
 40
9.0
 40
9.0
 40
10.0
 40
10.0
 40
10.0
 40
11.0
 40
11.0
 40
11.0
 40
12.0
 40
12.0
 40
12.0
 40
13.0
 40
13.0
 40
13.0
 40
14.0
 40
14.0
 40
14.0
 40
15.0
 40
15.0
 40
15.0
 40
16.0
 40
16.0
 40
16.0
 40
16.0
 10
86.5184054688218
 20
-108.7375488009406
 30
0.0
 10
86.43400062943317
 20
-108.7375488009406
 30
0.0
 10
86.32444659300222
 20
-108.7192897948688
 30
0.0
 10
86.21489255657129
 20
-108.6507323947123
 30
0.0
 10
86.02765161694795
 20
-108.5322211100197
 30
0.0
 10
86.00491398674531
 20
-108.390627685576
 30
0.0
 10
85.98441566860807
 20
-108.2741834581745
 30
0.0
 10
85.98441566860807
 20
-108.2741834581745
 30
0.0
 10
86.2240220596072
 20
-108.2741834581745
 30
0.0
 10
86.2240220596072
 20
-108.2741834581745
 30
0.0
 10
86.2832777019535
 20
-108.4888129069056
 30
0.0
 10
86.42039250226644
 20
-108.5208522949184
 30
0.0
 10
86.52064478088721
 20
-108.5208522949184
 30
0.0
 10
86.67136770836689
 20
-108.5208522949184
 30
0.0
 10
86.8356987630133
 20
-108.4133653157786
 30
0.0
 10
86.8356987630133
 20
-108.1622178549039
 30
0.0
 10
86.8356987630133
 20
-107.8862657065354
 30
0.0
 10
86.64173988719374
 20
-107.8108181154084
 30
0.0
 10
86.51168753262556
 20
-107.8108181154084
 30
0.0
 10
86.47740883254731
 20
-107.8108181154084
 30
0.0
 10
86.32444659300222
 20
-107.8108181154084
 30
0.0
 10
86.22850068373802
 20
-107.9499999730125
 30
0.0
 10
86.22850068373802
 20
-107.9499999730125
 30
0.0
 10
86.03919268682354
 20
-107.9296739096495
 30
0.0
 10
86.03919268682354
 20
-107.9296739096495
 30
0.0
 10
86.03919268682354
 20
-107.9296739096495
 30
0.0
 10
86.16924504139172
 20
-107.0167236060583
 30
0.0
 10
86.16924504139172
 20
-107.0167236060583
 30
0.0
 10
86.16924504139172
 20
-107.0167236060583
 30
0.0
 10
87.00915932069563
 20
-107.0167236060583
 30
0.0
 10
87.00915932069563
 20
-107.0167236060583
 30
0.0
 10
87.00915932069563
 20
-107.0167236060583
 30
0.0
 10
87.00915932069563
 20
-107.22652992111
 30
0.0
 10
87.00915932069563
 20
-107.22652992111
 30
0.0
 10
87.00915932069563
 20
-107.22652992111
 30
0.0
 10
86.34494491113946
 20
-107.22652992111
 30
0.0
 10
86.34494491113946
 20
-107.22652992111
 30
0.0
 10
86.34494491113946
 20
-107.22652992111
 30
0.0
 10
86.27432045369184
 20
-107.6830050729056
 30
0.0
 10
86.27432045369184
 20
-107.6830050729056
 30
0.0
 10
86.34046628700864
 20
-107.646487060762
 30
0.0
 10
86.42934975052809
 20
-107.6030788576478
 30
0.0
 10
86.55716279303086
 20
-107.6030788576478
 30
0.0
 10
86.83104788410822
 20
-107.6030788576478
 30
0.0
 10
87.08667396911375
 20
-107.8039279244379
 30
0.0
 10
87.08667396911375
 20
-108.1418917915409
 30
0.0
 10
87.08667396911375
 20
-108.4843342827748
 30
0.0
 10
86.84482826604922
 20
-108.7375488009406
 30
0.0
 10
86.5184054688218
 20
-108.7375488009406
 30
0.0
  0
HATCH
  5
6B
330
51
100
AcDbEntity
  8
_U+30EC_U+30A4_U+30E4_U+30FC 1
 62
     7
420
 16777215
100
AcDbHatch
 10
0.0
 20
0.0
 30
0.0
210
0.0
220
0.0
230
1.0
  2
SOLID
 70
     1
 71
     0
 91
        1
 92
        1
 93
        1
 72
     4
 94
        3
 73
     0
 74
     1
 95
       53
 96
       49
 40
0.0
 40
0.0
 40
0.0
 40
0.0
 40
1.0
 40
1.0
 40
1.0
 40
2.0
 40
2.0
 40
2.0
 40
3.0
 40
3.0
 40
3.0
 40
4.0
 40
4.0
 40
4.0
 40
5.0
 40
5.0
 40
5.0
 40
6.0
 40
6.0
 40
6.0
 40
7.0
 40
7.0
 40
7.0
 40
8.0
 40
8.0
 40
8.0
 40
9.0
 40
9.0
 40
9.0
 40
10.0
 40
10.0
 40
10.0
 40
11.0
 40
11.0
 40
11.0
 40
12.0
 40
12.0
 40
12.0
 40
13.0
 40
13.0
 40
13.0
 40
14.0
 40
14.0
 40
14.0
 40
15.0
 40
15.0
 40
15.0
 40
16.0
 40
16.0
 40
16.0
 40
16.0
 10
86.5184054688218
 20
-108.7375488009406
 10
86.43400062943317
 20
-108.7375488009406
 10
86.32444659300222
 20
-108.7192897948688
 10
86.21489255657129
 20
-108.6507323947123
 10
86.02765161694795
 20
-108.5322211100197
 10
86.00491398674531
 20
-108.390627685576
 10
85.98441566860807
 20
-108.2741834581745
 10
85.98441566860807
 20
-108.2741834581745
 10
86.2240220596072
 20
-108.2741834581745
 10
86.2240220596072
 20
-108.2741834581745
 10
86.2832777019535
 20
-108.4888129069056
 10
86.42039250226644
 20
-108.5208522949184
 10
86.52064478088721
 20
-108.5208522949184
 10
86.67136770836689
 20
-108.5208522949184
 10
86.8356987630133
 20
-108.4133653157786
 10
86.8356987630133
 20
-108.1622178549039
 10
86.8356987630133
 20
-107.8862657065354
 10
86.64173988719374
 20
-107.8108181154084
 10
86.51168753262556
 20
-107.8108181154084
 10
86.47740883254731
 20
-107.8108181154084
 10
86.32444659300222
 20
-107.8108181154084
 10
86.22850068373802
 20
-107.9499999730125
 10
86.22850068373802
 20
-107.9499999730125
 10
86.03919268682354
 20
-107.9296739096495
 10
86.03919268682354
 20
-107.9296739096495
 10
86.03919268682354
 20
-107.9296739096495
 10
86.16924504139172
 20
-107.0167236060583
 10
86.16924504139172
 20
-107.0167236060583
 10
86.16924504139172
 20
-107.0167236060583
 10
87.00915932069563
 20
-107.0167236060583
 10
87.00915932069563
 20
-107.0167236060583
 10
87.00915932069563
 20
-107.0167236060583
 10
87.00915932069563
 20
-107.22652992111
 10
87.00915932069563
 20
-107.22652992111
 10
87.00915932069563
 20
-107.22652992111
 10
86.34494491113946
 20
-107.22652992111
 10
86.34494491113946
 20
-107.22652992111
 10
86.34494491113946
 20
-107.22652992111
 10
86.27432045369184
 20
-107.6830050729056
 10
86.27432045369184
 20
-107.6830050729056
 10
86.34046628700864
 20
-107.646487060762
 10
86.42934975052809
 20
-107.6030788576478
 10
86.55716279303086
 20
-107.6030788576478
 10
86.83104788410822
 20
-107.6030788576478
 10
87.08667396911375
 20
-107.8039279244379
 10
87.08667396911375
 20
-108.1418917915409
 10
87.08667396911375
 20
-108.4843342827748
 10
86.84482826604922
 20
-108.7375488009406
 10
86.5184054688218
 20
-108.7375488009406
 97
        0
 97
        0
 75
     2
 76
     1
 98
        0
  0
ENDBLK
  5
54
330
51
100
AcDbEntity
  8
0
100
AcDbBlockEnd
  0
BLOCK
  5
7A
330
78
100
AcDbEntity
  8
0
100
AcDbBlockBegin
  2
block 3
 70
     0
 10
0.0
 20
0.0
 30
0.0
  3
block 3
  1

  0
SPLINE
  5
7C
330
78
100
AcDbEntity
  8
_U+30EC_U+30A4_U+30E4_U+30FC 1
370
     0
100
AcDbSpline
210
0.0
220
0.0
230
1.0
 70
    11
 71
     3
 72
    44
 73
    40
 74
     0
 42
0.0000000001
 43
0.0000000001
 12
1.0
 22
0.0
 32
0.0
 13
1.0
 23
0.0
 33
0.0
 40
0.0
 40
0.0
 40
0.0
 40
0.0
 40
1.0
 40
1.0
 40
1.0
 40
2.0
 40
2.0
 40
2.0
 40
3.0
 40
3.0
 40
3.0
 40
4.0
 40
4.0
 40
4.0
 40
5.0
 40
5.0
 40
5.0
 40
6.0
 40
6.0
 40
6.0
 40
7.0
 40
7.0
 40
7.0
 40
8.0
 40
8.0
 40
8.0
 40
9.0
 40
9.0
 40
9.0
 40
10.0
 40
10.0
 40
10.0
 40
11.0
 40
11.0
 40
11.0
 40
12.0
 40
12.0
 40
12.0
 40
13.0
 40
13.0
 40
13.0
 40
13.0
 10
75.37024873332759
 20
-148.9583495721354
 30
0.0
 10
75.13512096645928
 20
-149.1292263082038
 30
0.0
 10
75.03469643306424
 20
-149.2091525234616
 30
0.0
 10
74.9821587269142
 20
-149.3645263298464
 30
0.0
 10
74.9821587269142
 20
-149.3645263298464
 30
0.0
 10
75.82207300621809
 20
-149.3645263298464
 30
0.0
 10
75.82207300621809
 20
-149.3645263298464
 30
0.0
 10
75.82207300621809
 20
-149.3645263298464
 30
0.0
 10
75.82207300621809
 20
-149.5860459695479
 30
0.0
 10
75.82207300621809
 20
-149.5860459695479
 30
0.0
 10
75.82207300621809
 20
-149.5860459695479
 30
0.0
 10
74.71292451474191
 20
-149.5860459695479
 30
0.0
 10
74.71292451474191
 20
-149.5860459695479
 30
0.0
 10
74.74703096004589
 20
-149.2001952751999
 30
0.0
 10
74.81782767226777
 20
-149.1157904358113
 30
0.0
 10
75.23313393301464
 20
-148.7936740079405
 30
0.0
 10
75.50943059093167
 20
-148.5793890687579
 30
0.0
 10
75.5800550483793
 20
-148.5063530444706
 30
0.0
 10
75.5800550483793
 20
-148.3578694290564
 30
0.0
 10
75.5800550483793
 20
-148.2300563865536
 30
0.0
 10
75.50254039996118
 20
-148.0888074716584
 30
0.0
 10
75.29032251806979
 20
-148.0888074716584
 30
0.0
 10
75.00954723602192
 20
-148.0888074716584
 30
0.0
 10
75.00041773298601
 20
-148.3375433656934
 30
0.0
 10
74.99576685408093
 20
-148.4629448413565
 30
0.0
 10
74.99576685408093
 20
-148.4629448413565
 30
0.0
 10
74.75392115101639
 20
-148.4629448413565
 30
0.0
 10
74.75392115101639
 20
-148.4629448413565
 30
0.0
 10
74.7630506540523
 20
-148.3258300410436
 30
0.0
 10
74.77441946915361
 20
-148.2052516990598
 30
0.0
 10
74.86123587538192
 20
-148.0770941470085
 30
0.0
 10
74.97991941484878
 20
-147.9038058441004
 30
0.0
 10
75.18076848163884
 20
-147.8672878319568
 30
0.0
 10
75.30616995730193
 20
-147.8672878319568
 30
0.0
 10
75.60520424542162
 20
-147.8672878319568
 30
0.0
 10
75.8289631971886
 20
-148.0657253319072
 30
0.0
 10
75.8289631971886
 20
-148.360280995896
 30
0.0
 10
75.8289631971886
 20
-148.6069498326399
 30
0.0
 10
75.70338946675123
 20
-148.7140923022312
 30
0.0
 10
75.37024873332759
 20
-148.9583495721354
 30
0.0
  0
HATCH
  5
7D
330
78
100
AcDbEntity
  8
_U+30EC_U+30A4_U+30E4_U+30FC 1
 62
     7
420
 16777215
100
AcDbHatch
 10
0.0
 20
0.0
 30
0.0
210
0.0
220
0.0
230
1.0
  2
SOLID
 70
     1
 71
     0
 91
        1
 92
        1
 93
        1
 72
     4
 94
        3
 73
     0
 74
     1
 95
       44
 96
       40
 40
0.0
 40
0.0
 40
0.0
 40
0.0
 40
1.0
 40
1.0
 40
1.0
 40
2.0
 40
2.0
 40
2.0
 40
3.0
 40
3.0
 40
3.0
 40
4.0
 40
4.0
 40
4.0
 40
5.0
 40
5.0
 40
5.0
 40
6.0
 40
6.0
 40
6.0
 40
7.0
 40
7.0
 40
7.0
 40
8.0
 40
8.0
 40
8.0
 40
9.0
 40
9.0
 40
9.0
 40
10.0
 40
10.0
 40
10.0
 40
11.0
 40
11.0
 40
11.0
 40
12.0
 40
12.0
 40
12.0
 40
13.0
 40
13.0
 40
13.0
 40
13.0
 10
75.37024873332759
 20
-148.9583495721354
 10
75.13512096645928
 20
-149.1292263082038
 10
75.03469643306424
 20
-149.2091525234616
 10
74.9821587269142
 20
-149.3645263298464
 10
74.9821587269142
 20
-149.3645263298464
 10
75.82207300621809
 20
-149.3645263298464
 10
75.82207300621809
 20
-149.3645263298464
 10
75.82207300621809
 20
-149.3645263298464
 10
75.82207300621809
 20
-149.5860459695479
 10
75.82207300621809
 20
-149.5860459695479
 10
75.82207300621809
 20
-149.5860459695479
 10
74.71292451474191
 20
-149.5860459695479
 10
74.71292451474191
 20
-149.5860459695479
 10
74.74703096004589
 20
-149.2001952751999
 10
74.81782767226777
 20
-149.1157904358113
 10
75.23313393301464
 20
-148.7936740079405
 10
75.50943059093167
 20
-148.5793890687579
 10
75.5800550483793
 20
-148.5063530444706
 10
75.5800550483793
 20
-148.3578694290564
 10
75.5800550483793
 20
-148.2300563865536
 10
75.50254039996118
 20
-148.0888074716584
 10
75.29032251806979
 20
-148.0888074716584
 10
75.00954723602192
 20
-148.0888074716584
 10
75.00041773298601
 20
-148.3375433656934
 10
74.99576685408093
 20
-148.4629448413565
 10
74.99576685408093
 20
-148.4629448413565
 10
74.75392115101639
 20
-148.4629448413565
 10
74.75392115101639
 20
-148.4629448413565
 10
74.7630506540523
 20
-148.3258300410436
 10
74.77441946915361
 20
-148.2052516990598
 10
74.86123587538192
 20
-148.0770941470085
 10
74.97991941484878
 20
-147.9038058441004
 10
75.18076848163884
 20
-147.8672878319568
 10
75.30616995730193
 20
-147.8672878319568
 10
75.60520424542162
 20
-147.8672878319568
 10
75.8289631971886
 20
-148.0657253319072
 10
75.8289631971886
 20
-148.360280995896
 10
75.8289631971886
 20
-148.6069498326399
 10
75.70338946675123
 20
-148.7140923022312
 10
75.37024873332759
 20
-148.9583495721354
 97
        0
 97
        0
 75
     2
 76
     1
 98
        0
  0
SPLINE
  5
7E
330
78
100
AcDbEntity
  8
_U+30EC_U+30A4_U+30E4_U+30FC 1
370
     0
100
AcDbSpline
210
0.0
220
0.0
230
1.0
 70
    11
 71
     3
 72
    53
 73
    49
 74
     0
 42
0.0000000001
 43
0.0000000001
 12
1.0
 22
0.0
 32
0.0
 13
1.0
 23
0.0
 33
0.0
 40
0.0
 40
0.0
 40
0.0
 40
0.0
 40
1.0
 40
1.0
 40
1.0
 40
2.0
 40
2.0
 40
2.0
 40
3.0
 40
3.0
 40
3.0
 40
4.0
 40
4.0
 40
4.0
 40
5.0
 40
5.0
 40
5.0
 40
6.0
 40
6.0
 40
6.0
 40
7.0
 40
7.0
 40
7.0
 40
8.0
 40
8.0
 40
8.0
 40
9.0
 40
9.0
 40
9.0
 40
10.0
 40
10.0
 40
10.0
 40
11.0
 40
11.0
 40
11.0
 40
12.0
 40
12.0
 40
12.0
 40
13.0
 40
13.0
 40
13.0
 40
14.0
 40
14.0
 40
14.0
 40
15.0
 40
15.0
 40
15.0
 40
16.0
 40
16.0
 40
16.0
 40
16.0
 10
76.51953258720692
 20
-149.6404784782149
 30
0.0
 10
76.4351277478183
 20
-149.6404784782149
 30
0.0
 10
76.32557371138736
 20
-149.6225639816916
 30
0.0
 10
76.21601967495641
 20
-149.5540065815351
 30
0.0
 10
76.02895099010735
 20
-149.435150787294
 30
0.0
 10
76.00604110513044
 20
-149.2939018723987
 30
0.0
 10
75.98554278699321
 20
-149.1774576449973
 30
0.0
 10
75.98554278699321
 20
-149.1774576449973
 30
0.0
 10
76.22497692321807
 20
-149.1774576449973
 30
0.0
 10
76.22497692321807
 20
-149.1774576449973
 30
0.0
 10
76.28457707511289
 20
-149.3917425841798
 30
0.0
 10
76.42134736587731
 20
-149.4237819721927
 30
0.0
 10
76.52194415404661
 20
-149.4237819721927
 30
0.0
 10
76.67249482675201
 20
-149.4237819721927
 30
0.0
 10
76.83682588139844
 20
-149.3166395026014
 30
0.0
 10
76.83682588139844
 20
-149.0654920417267
 30
0.0
 10
76.83682588139844
 20
-148.7895398933582
 30
0.0
 10
76.64286700557886
 20
-148.7140923022312
 30
0.0
 10
76.51264239623643
 20
-148.7140923022312
 30
0.0
 10
76.47853595093245
 20
-148.7140923022312
 30
0.0
 10
76.32557371138736
 20
-148.7140923022312
 30
0.0
 10
76.22980005689742
 20
-148.8532741598353
 30
0.0
 10
76.22980005689742
 20
-148.8532741598353
 30
0.0
 10
76.04031980520867
 20
-148.8326035869238
 30
0.0
 10
76.04031980520867
 20
-148.8326035869238
 30
0.0
 10
76.04031980520867
 20
-148.8326035869238
 30
0.0
 10
76.17054441455112
 20
-147.9196532833326
 30
0.0
 10
76.17054441455112
 20
-147.9196532833326
 30
0.0
 10
76.17054441455112
 20
-147.9196532833326
 30
0.0
 10
77.01045869385503
 20
-147.9196532833326
 30
0.0
 10
77.01045869385503
 20
-147.9196532833326
 30
0.0
 10
77.01045869385503
 20
-147.9196532833326
 30
0.0
 10
77.01045869385503
 20
-148.1298041079328
 30
0.0
 10
77.01045869385503
 20
-148.1298041079328
 30
0.0
 10
77.01045869385503
 20
-148.1298041079328
 30
0.0
 10
76.34624428429886
 20
-148.1298041079328
 30
0.0
 10
76.34624428429886
 20
-148.1298041079328
 30
0.0
 10
76.34624428429886
 20
-148.1298041079328
 30
0.0
 10
76.27527531730271
 20
-148.5862792597284
 30
0.0
 10
76.27527531730271
 20
-148.5862792597284
 30
0.0
 10
76.34142115061951
 20
-148.5497612475848
 30
0.0
 10
76.43064912368747
 20
-148.5063530444706
 30
0.0
 10
76.55846216619025
 20
-148.5063530444706
 30
0.0
 10
76.83234725726761
 20
-148.5063530444706
 30
0.0
 10
77.08797334227314
 20
-148.7072021112607
 30
0.0
 10
77.08797334227314
 20
-149.0451659783637
 30
0.0
 10
77.08797334227314
 20
-149.387263960049
 30
0.0
 10
76.84578312966009
 20
-149.6404784782149
 30
0.0
 10
76.51953258720692
 20
-149.6404784782149
 30
0.0
  0
HATCH
  5
7F
330
78
100
AcDbEntity
  8
_U+30EC_U+30A4_U+30E4_U+30FC 1
 62
     7
420
 16777215
100
AcDbHatch
 10
0.0
 20
0.0
 30
0.0
210
0.0
220
0.0
230
1.0
  2
SOLID
 70
     1
 71
     0
 91
        1
 92
        1
 93
        1
 72
     4
 94
        3
 73
     0
 74
     1
 95
       53
 96
       49
 40
0.0
 40
0.0
 40
0.0
 40
0.0
 40
1.0
 40
1.0
 40
1.0
 40
2.0
 40
2.0
 40
2.0
 40
3.0
 40
3.0
 40
3.0
 40
4.0
 40
4.0
 40
4.0
 40
5.0
 40
5.0
 40
5.0
 40
6.0
 40
6.0
 40
6.0
 40
7.0
 40
7.0
 40
7.0
 40
8.0
 40
8.0
 40
8.0
 40
9.0
 40
9.0
 40
9.0
 40
10.0
 40
10.0
 40
10.0
 40
11.0
 40
11.0
 40
11.0
 40
12.0
 40
12.0
 40
12.0
 40
13.0
 40
13.0
 40
13.0
 40
14.0
 40
14.0
 40
14.0
 40
15.0
 40
15.0
 40
15.0
 40
16.0
 40
16.0
 40
16.0
 40
16.0
 10
76.51953258720692
 20
-149.6404784782149
 10
76.4351277478183
 20
-149.6404784782149
 10
76.32557371138736
 20
-149.6225639816916
 10
76.21601967495641
 20
-149.5540065815351
 10
76.02895099010735
 20
-149.435150787294
 10
76.00604110513044
 20
-149.2939018723987
 10
75.98554278699321
 20
-149.1774576449973
 10
75.98554278699321
 20
-149.1774576449973
 10
76.22497692321807
 20
-149.1774576449973
 10
76.22497692321807
 20
-149.1774576449973
 10
76.28457707511289
 20
-149.3917425841798
 10
76.42134736587731
 20
-149.4237819721927
 10
76.52194415404661
 20
-149.4237819721927
 10
76.67249482675201
 20
-149.4237819721927
 10
76.83682588139844
 20
-149.3166395026014
 10
76.83682588139844
 20
-149.0654920417267
 10
76.83682588139844
 20
-148.7895398933582
 10
76.64286700557886
 20
-148.7140923022312
 10
76.51264239623643
 20
-148.7140923022312
 10
76.47853595093245
 20
-148.7140923022312
 10
76.32557371138736
 20
-148.7140923022312
 10
76.22980005689742
 20
-148.8532741598353
 10
76.22980005689742
 20
-148.8532741598353
 10
76.04031980520867
 20
-148.8326035869238
 10
76.04031980520867
 20
-148.8326035869238
 10
76.04031980520867
 20
-148.8326035869238
 10
76.17054441455112
 20
-147.9196532833326
 10
76.17054441455112
 20
-147.9196532833326
 10
76.17054441455112
 20
-147.9196532833326
 10
77.01045869385503
 20
-147.9196532833326
 10
77.01045869385503
 20
-147.9196532833326
 10
77.01045869385503
 20
-147.9196532833326
 10
77.01045869385503
 20
-148.1298041079328
 10
77.01045869385503
 20
-148.1298041079328
 10
77.01045869385503
 20
-148.1298041079328
 10
76.34624428429886
 20
-148.1298041079328
 10
76.34624428429886
 20
-148.1298041079328
 10
76.34624428429886
 20
-148.1298041079328
 10
76.27527531730271
 20
-148.5862792597284
 10
76.27527531730271
 20
-148.5862792597284
 10
76.34142115061951
 20
-148.5497612475848
 10
76.43064912368747
 20
-148.5063530444706
 10
76.55846216619025
 20
-148.5063530444706
 10
76.83234725726761
 20
-148.5063530444706
 10
77.08797334227314
 20
-148.7072021112607
 10
77.08797334227314
 20
-149.0451659783637
 10
77.08797334227314
 20
-149.387263960049
 10
76.84578312966009
 20
-149.6404784782149
 10
76.51953258720692
 20
-149.6404784782149
 97
        0
 97
        0
 75
     2
 76
     1
 98
        0
  0
ENDBLK
  5
7B
330
78
100
AcDbEntity
  8
0
100
AcDbBlockEnd
  0
BLOCK
  5
86
330
84
100
AcDbEntity
  8
0
100
AcDbBlockBegin
  2
block 4
 70
     0
 10
0.0
 20
0.0
 30
0.0
  3
block 4
  1

  0
SPLINE
  5
88
330
84
100
AcDbEntity
  8
_U+30EC_U+30A4_U+30E4_U+30FC 1
370
     0
100
AcDbSpline
210
0.0
220
0.0
230
1.0
 70
    11
 71
     3
 72
    62
 73
    58
 74
     0
 42
0.0000000001
 43
0.0000000001
 12
1.0
 22
0.0
 32
0.0
 13
1.0
 23
0.0
 33
0.0
 40
0.0
 40
0.0
 40
0.0
 40
0.0
 40
1.0
 40
1.0
 40
1.0
 40
2.0
 40
2.0
 40
2.0
 40
3.0
 40
3.0
 40
3.0
 40
4.0
 40
4.0
 40
4.0
 40
5.0
 40
5.0
 40
5.0
 40
6.0
 40
6.0
 40
6.0
 40
7.0
 40
7.0
 40
7.0
 40
8.0
 40
8.0
 40
8.0
 40
9.0
 40
9.0
 40
9.0
 40
10.0
 40
10.0
 40
10.0
 40
11.0
 40
11.0
 40
11.0
 40
12.0
 40
12.0
 40
12.0
 40
13.0
 40
13.0
 40
13.0
 40
14.0
 40
14.0
 40
14.0
 40
15.0
 40
15.0
 40
15.0
 40
16.0
 40
16.0
 40
16.0
 40
17.0
 40
17.0
 40
17.0
 40
18.0
 40
18.0
 40
18.0
 40
19.0
 40
19.0
 40
19.0
 40
19.0
 10
111.9621581751345
 20
-131.2099066512253
 30
0.0
 10
111.9621581751345
 20
-131.3125704966858
 30
0.0
 10
111.9394205449318
 20
-131.5475260087798
 30
0.0
 10
111.7385714781418
 20
-131.6822292422531
 30
0.0
 10
111.6176486266095
 20
-131.7621554575109
 30
0.0
 10
111.5101616474697
 20
-131.7666340816417
 30
0.0
 10
111.4188666171106
 20
-131.771457215321
 30
0.0
 10
111.4188666171106
 20
-131.771457215321
 30
0.0
 10
111.4188666171106
 20
-131.5337456268388
 30
0.0
 10
111.4188666171106
 20
-131.5337456268388
 30
0.0
 10
111.4987928323684
 20
-131.5316785695476
 30
0.0
 10
111.7520073505342
 20
-131.5203097544463
 30
0.0
 10
111.7520073505342
 20
-131.2143852753561
 30
0.0
 10
111.7520073505342
 20
-131.0659016599419
 30
0.0
 10
111.6769042689558
 20
-130.9015706052954
 30
0.0
 10
111.4302354322119
 20
-130.9015706052954
 30
0.0
 10
111.3048339565488
 20
-130.9015706052954
 30
0.0
 10
111.252468505173
 20
-130.9429117511185
 30
0.0
 10
111.2180175503205
 20
-130.9770181964224
 30
0.0
 10
111.1380913350627
 20
-131.0569444116802
 30
0.0
 10
111.1246554626702
 20
-131.1823458873433
 30
0.0
 10
111.1246554626702
 20
-131.2416015296896
 30
0.0
 10
111.1246554626702
 20
-131.2622721026011
 30
0.0
 10
111.1267225199614
 20
-131.3012016815844
 30
0.0
 10
111.1312011440922
 20
-131.3308295027576
 30
0.0
 10
111.1312011440922
 20
-131.3308295027576
 30
0.0
 10
110.9213948290405
 20
-131.3308295027576
 30
0.0
 10
110.9213948290405
 20
-131.3308295027576
 30
0.0
 10
110.928285020011
 20
-131.2898328664831
 30
0.0
 10
110.9306965868507
 20
-131.2440130965293
 30
0.0
 10
110.9306965868507
 20
-131.2371229055588
 30
0.0
 10
110.9306965868507
 20
-131.1664984481112
 30
0.0
 10
110.9076144470995
 20
-130.9518689993801
 30
0.0
 10
110.651988362094
 20
-130.9518689993801
 30
0.0
 10
110.4604410531141
 20
-130.9518689993801
 30
0.0
 10
110.4008409012192
 20
-131.0934624238239
 30
0.0
 10
110.4008409012192
 20
-131.2119737085165
 30
0.0
 10
110.4008409012192
 20
-131.4972276146951
 30
0.0
 10
110.651988362094
 20
-131.5065293725053
 30
0.0
 10
110.7295030105121
 20
-131.5110079966362
 30
0.0
 10
110.7295030105121
 20
-131.5110079966362
 30
0.0
 10
110.7295030105121
 20
-131.730116069498
 30
0.0
 10
110.7295030105121
 20
-131.730116069498
 30
0.0
 10
110.5951442865873
 20
-131.7211588212364
 30
0.0
 10
110.1886230193278
 20
-131.6915310000632
 30
0.0
 10
110.1886230193278
 20
-131.198537836124
 30
0.0
 10
110.1886230193278
 20
-130.9563476235109
 30
0.0
 10
110.3257378196408
 20
-130.6962429143746
 30
0.0
 10
110.6450981711235
 20
-130.6962429143746
 30
0.0
 10
110.8459472379135
 20
-130.6962429143746
 30
0.0
 10
110.9351752109815
 20
-130.798906759835
 30
0.0
 10
111.0013210442983
 20
-130.9063937389748
 30
0.0
 10
111.0309488654714
 20
-130.8399033961095
 30
0.0
 10
111.1177652716997
 20
-130.6438774629987
 30
0.0
 10
111.4167995598194
 20
-130.6438774629987
 30
0.0
 10
111.7819796812559
 20
-130.6438774629987
 30
0.0
 10
111.9621581751345
 20
-130.9108723631056
 30
0.0
 10
111.9621581751345
 20
-131.2099066512253
 30
0.0
  0
HATCH
  5
89
330
84
100
AcDbEntity
  8
_U+30EC_U+30A4_U+30E4_U+30FC 1
 62
     7
420
 16777215
100
AcDbHatch
 10
0.0
 20
0.0
 30
0.0
210
0.0
220
0.0
230
1.0
  2
SOLID
 70
     1
 71
     0
 91
        1
 92
        1
 93
        1
 72
     4
 94
        3
 73
     0
 74
     1
 95
       62
 96
       58
 40
0.0
 40
0.0
 40
0.0
 40
0.0
 40
1.0
 40
1.0
 40
1.0
 40
2.0
 40
2.0
 40
2.0
 40
3.0
 40
3.0
 40
3.0
 40
4.0
 40
4.0
 40
4.0
 40
5.0
 40
5.0
 40
5.0
 40
6.0
 40
6.0
 40
6.0
 40
7.0
 40
7.0
 40
7.0
 40
8.0
 40
8.0
 40
8.0
 40
9.0
 40
9.0
 40
9.0
 40
10.0
 40
10.0
 40
10.0
 40
11.0
 40
11.0
 40
11.0
 40
12.0
 40
12.0
 40
12.0
 40
13.0
 40
13.0
 40
13.0
 40
14.0
 40
14.0
 40
14.0
 40
15.0
 40
15.0
 40
15.0
 40
16.0
 40
16.0
 40
16.0
 40
17.0
 40
17.0
 40
17.0
 40
18.0
 40
18.0
 40
18.0
 40
19.0
 40
19.0
 40
19.0
 40
19.0
 10
111.9621581751345
 20
-131.2099066512253
 10
111.9621581751345
 20
-131.3125704966858
 10
111.9394205449318
 20
-131.5475260087798
 10
111.7385714781418
 20
-131.6822292422531
 10
111.6176486266095
 20
-131.7621554575109
 10
111.5101616474697
 20
-131.7666340816417
 10
111.4188666171106
 20
-131.771457215321
 10
111.4188666171106
 20
-131.771457215321
 10
111.4188666171106
 20
-131.5337456268388
 10
111.4188666171106
 20
-131.5337456268388
 10
111.4987928323684
 20
-131.5316785695476
 10
111.7520073505342
 20
-131.5203097544463
 10
111.7520073505342
 20
-131.2143852753561
 10
111.7520073505342
 20
-131.0659016599419
 10
111.6769042689558
 20
-130.9015706052954
 10
111.4302354322119
 20
-130.9015706052954
 10
111.3048339565488
 20
-130.9015706052954
 10
111.252468505173
 20
-130.9429117511185
 10
111.2180175503205
 20
-130.9770181964224
 10
111.1380913350627
 20
-131.0569444116802
 10
111.1246554626702
 20
-131.1823458873433
 10
111.1246554626702
 20
-131.2416015296896
 10
111.1246554626702
 20
-131.2622721026011
 10
111.1267225199614
 20
-131.3012016815844
 10
111.1312011440922
 20
-131.3308295027576
 10
111.1312011440922
 20
-131.3308295027576
 10
110.9213948290405
 20
-131.3308295027576
 10
110.9213948290405
 20
-131.3308295027576
 10
110.928285020011
 20
-131.2898328664831
 10
110.9306965868507
 20
-131.2440130965293
 10
110.9306965868507
 20
-131.2371229055588
 10
110.9306965868507
 20
-131.1664984481112
 10
110.9076144470995
 20
-130.9518689993801
 10
110.651988362094
 20
-130.9518689993801
 10
110.4604410531141
 20
-130.9518689993801
 10
110.4008409012192
 20
-131.0934624238239
 10
110.4008409012192
 20
-131.2119737085165
 10
110.4008409012192
 20
-131.4972276146951
 10
110.651988362094
 20
-131.5065293725053
 10
110.7295030105121
 20
-131.5110079966362
 10
110.7295030105121
 20
-131.5110079966362
 10
110.7295030105121
 20
-131.730116069498
 10
110.7295030105121
 20
-131.730116069498
 10
110.5951442865873
 20
-131.7211588212364
 10
110.1886230193278
 20
-131.6915310000632
 10
110.1886230193278
 20
-131.198537836124
 10
110.1886230193278
 20
-130.9563476235109
 10
110.3257378196408
 20
-130.6962429143746
 10
110.6450981711235
 20
-130.6962429143746
 10
110.8459472379135
 20
-130.6962429143746
 10
110.9351752109815
 20
-130.798906759835
 10
111.0013210442983
 20
-130.9063937389748
 10
111.0309488654714
 20
-130.8399033961095
 10
111.1177652716997
 20
-130.6438774629987
 10
111.4167995598194
 20
-130.6438774629987
 10
111.7819796812559
 20
-130.6438774629987
 10
111.9621581751345
 20
-130.9108723631056
 10
111.9621581751345
 20
-131.2099066512253
 97
        0
 97
        0
 75
     2
 76
     1
 98
        0
  0
SPLINE
  5
8A
330
84
100
AcDbEntity
  8
_U+30EC_U+30A4_U+30E4_U+30FC 1
370
     0
100
AcDbSpline
210
0.0
220
0.0
230
1.0
 70
    11
 71
     3
 72
    29
 73
    25
 74
     0
 42
0.0000000001
 43
0.0000000001
 12
1.0
 22
0.0
 32
0.0
 13
1.0
 23
0.0
 33
0.0
 40
0.0
 40
0.0
 40
0.0
 40
0.0
 40
1.0
 40
1.0
 40
1.0
 40
2.0
 40
2.0
 40
2.0
 40
3.0
 40
3.0
 40
3.0
 40
4.0
 40
4.0
 40
4.0
 40
5.0
 40
5.0
 40
5.0
 40
6.0
 40
6.0
 40
6.0
 40
7.0
 40
7.0
 40
7.0
 40
8.0
 40
8.0
 40
8.0
 40
8.0
 10
111.7154893383906
 20
-129.5014838000899
 30
0.0
 10
111.941487602223
 20
-129.6179280274914
 30
0.0
 10
111.9621581751345
 20
-129.8049967123404
 30
0.0
 10
111.9621581751345
 20
-129.9303981880035
 30
0.0
 10
111.9621581751345
 20
-130.1040310004601
 30
0.0
 10
111.9118597810498
 20
-130.2569932400052
 30
0.0
 10
111.7154893383906
 20
-130.3596570854656
 30
0.0
 10
111.5056830233389
 20
-130.4712781791877
 30
0.0
 10
111.2500569383333
 20
-130.4919487520992
 30
0.0
 10
111.0743570685856
 20
-130.4919487520992
 30
0.0
 10
110.9189832622008
 20
-130.4919487520992
 30
0.0
 10
110.6475097379631
 20
-130.4736897460274
 30
0.0
 10
110.4328802892321
 20
-130.3596570854656
 30
0.0
 10
110.2137722163702
 20
-130.2432128580642
 30
0.0
 10
110.1886230193278
 20
-130.0695800456076
 30
0.0
 10
110.1886230193278
 20
-129.9303981880035
 30
0.0
 10
110.1886230193278
 20
-129.7591769423866
 30
0.0
 10
110.2368543561213
 20
-129.6041476455504
 30
0.0
 10
110.4328802892321
 20
-129.5014838000899
 30
0.0
 10
110.6406195469926
 20
-129.3939968209501
 30
0.0
 10
110.8872883837365
 20
-129.3688476239078
 30
0.0
 10
111.0743570685856
 20
-129.3688476239078
 30
0.0
 10
111.2593586961435
 20
-129.3688476239078
 30
0.0
 10
111.5080945901785
 20
-129.391929763659
 30
0.0
 10
111.7154893383906
 20
-129.5014838000899
 30
0.0
  0
SPLINE
  5
8B
330
84
100
AcDbEntity
  8
_U+30EC_U+30A4_U+30E4_U+30FC 1
370
     0
100
AcDbSpline
210
0.0
220
0.0
230
1.0
 70
    11
 71
     3
 72
    17
 73
    13
 74
     0
 42
0.0000000001
 43
0.0000000001
 12
1.0
 22
0.0
 32
0.0
 13
1.0
 23
0.0
 33
0.0
 40
0.0
 40
0.0
 40
0.0
 40
0.0
 40
1.0
 40
1.0
 40
1.0
 40
2.0
 40
2.0
 40
2.0
 40
3.0
 40
3.0
 40
3.0
 40
4.0
 40
4.0
 40
4.0
 40
4.0
 10
110.3963622770884
 20
-129.9303981880035
 30
0.0
 10
110.3963622770884
 20
-130.19980465495
 30
0.0
 10
110.7022867561786
 20
-130.2501030490347
 30
0.0
 10
111.0743570685856
 20
-130.2501030490347
 30
0.0
 10
111.4188666171106
 20
-130.2501030490347
 30
0.0
 10
111.7520073505342
 20
-130.2111734700514
 30
0.0
 10
111.7520073505342
 20
-129.9303981880035
 30
0.0
 10
111.7520073505342
 20
-129.6634032878966
 30
0.0
 10
111.4484944382837
 20
-129.6110378365209
 30
0.0
 10
111.0743570685856
 20
-129.6110378365209
 30
0.0
 10
110.7295030105121
 20
-129.6110378365209
 30
0.0
 10
110.3963622770884
 20
-129.6520344727953
 30
0.0
 10
110.3963622770884
 20
-129.9303981880035
 30
0.0
  0
HATCH
  5
8C
330
84
100
AcDbEntity
  8
_U+30EC_U+30A4_U+30E4_U+30FC 1
 62
     7
420
 16777215
100
AcDbHatch
 10
0.0
 20
0.0
 30
0.0
210
0.0
220
0.0
230
1.0
  2
SOLID
 70
     1
 71
     0
 91
        2
 92
        1
 93
        1
 72
     4
 94
        3
 73
     0
 74
     1
 95
       29
 96
       25
 40
0.0
 40
0.0
 40
0.0
 40
0.0
 40
1.0
 40
1.0
 40
1.0
 40
2.0
 40
2.0
 40
2.0
 40
3.0
 40
3.0
 40
3.0
 40
4.0
 40
4.0
 40
4.0
 40
5.0
 40
5.0
 40
5.0
 40
6.0
 40
6.0
 40
6.0
 40
7.0
 40
7.0
 40
7.0
 40
8.0
 40
8.0
 40
8.0
 40
8.0
 10
111.7154893383906
 20
-129.5014838000899
 10
111.941487602223
 20
-129.6179280274914
 10
111.9621581751345
 20
-129.8049967123404
 10
111.9621581751345
 20
-129.9303981880035
 10
111.9621581751345
 20
-130.1040310004601
 10
111.9118597810498
 20
-130.2569932400052
 10
111.7154893383906
 20
-130.3596570854656
 10
111.5056830233389
 20
-130.4712781791877
 10
111.2500569383333
 20
-130.4919487520992
 10
111.0743570685856
 20
-130.4919487520992
 10
110.9189832622008
 20
-130.4919487520992
 10
110.6475097379631
 20
-130.4736897460274
 10
110.4328802892321
 20
-130.3596570854656
 10
110.2137722163702
 20
-130.2432128580642
 10
110.1886230193278
 20
-130.0695800456076
 10
110.1886230193278
 20
-129.9303981880035
 10
110.1886230193278
 20
-129.7591769423866
 10
110.2368543561213
 20
-129.6041476455504
 10
110.4328802892321
 20
-129.5014838000899
 10
110.6406195469926
 20
-129.3939968209501
 10
110.8872883837365
 20
-129.3688476239078
 10
111.0743570685856
 20
-129.3688476239078
 10
111.2593586961435
 20
-129.3688476239078
 10
111.5080945901785
 20
-129.391929763659
 10
111.7154893383906
 20
-129.5014838000899
 97
        0
 97
        0
 92
        1
 93
        1
 72
     4
 94
        3
 73
     0
 74
     1
 95
       17
 96
       13
 40
0.0
 40
0.0
 40
0.0
 40
0.0
 40
1.0
 40
1.0
 40
1.0
 40
2.0
 40
2.0
 40
2.0
 40
3.0
 40
3.0
 40
3.0
 40
4.0
 40
4.0
 40
4.0
 40
4.0
 10
110.3963622770884
 20
-129.9303981880035
 10
110.3963622770884
 20
-130.19980465495
 10
110.7022867561786
 20
-130.2501030490347
 10
111.0743570685856
 20
-130.2501030490347
 10
111.4188666171106
 20
-130.2501030490347
 10
111.7520073505342
 20
-130.2111734700514
 10
111.7520073505342
 20
-129.9303981880035
 10
111.7520073505342
 20
-129.6634032878966
 10
111.4484944382837
 20
-129.6110378365209
 10
111.0743570685856
 20
-129.6110378365209
 10
110.7295030105121
 20
-129.6110378365209
 10
110.3963622770884
 20
-129.6520344727953
 10
110.3963622770884
 20
-129.9303981880035
 97
        0
 97
        0
 75
     2
 76
     1
 98
        0
  0
POLYLINE
  5
8D
330
84
100
AcDbEntity
  8
_U+30EC_U+30A4_U+30E4_U+30FC 1
370
     0
100
AcDb2dPolyline
 66
     1
 10
0.0
 20
0.0
 30
0.0
  0
VERTEX
  5
8E
330
8D
100
AcDbEntity
  8
_U+30EC_U+30A4_U+30E4_U+30FC 1
370
     0
100
AcDbVertex
100
AcDb2dVertex
 10
111.907381156919
 20
-129.1349256404593
 30
0.0
  0
VERTEX
  5
8F
330
8D
100
AcDbEntity
  8
_U+30EC_U+30A4_U+30E4_U+30FC 1
370
     0
100
AcDbVertex
100
AcDb2dVertex
 10
111.6359076326813
 20
-129.1349256404593
 30
0.0
  0
VERTEX
  5
90
330
8D
100
AcDbEntity
  8
_U+30EC_U+30A4_U+30E4_U+30FC 1
370
     0
100
AcDbVertex
100
AcDb2dVertex
 10
111.6359076326813
 20
-128.8634521162217
 30
0.0
  0
VERTEX
  5
91
330
8D
100
AcDbEntity
  8
_U+30EC_U+30A4_U+30E4_U+30FC 1
370
     0
100
AcDbVertex
100
AcDb2dVertex
 10
111.907381156919
 20
-128.8634521162217
 30
0.0
  0
VERTEX
  5
92
330
8D
100
AcDbEntity
  8
_U+30EC_U+30A4_U+30E4_U+30FC 1
370
     0
100
AcDbVertex
100
AcDb2dVertex
 10
111.907381156919
 20
-129.1349256404593
 30
0.0
  0
SEQEND
  5
93
330
8D
100
AcDbEntity
  8
_U+30EC_U+30A4_U+30E4_U+30FC 1
370
     0
  0
HATCH
  5
94
330
84
100
AcDbEntity
  8
_U+30EC_U+30A4_U+30E4_U+30FC 1
 62
     7
420
 16777215
100
AcDbHatch
 10
0.0
 20
0.0
 30
0.0
210
0.0
220
0.0
230
1.0
  2
SOLID
 70
     1
 71
     0
 91
        1
 92
        1
 93
        4
 72
     1
 10
111.907381156919
 20
-129.1349256404593
 11
111.6359076326813
 21
-129.1349256404593
 72
     1
 10
111.6359076326813
 20
-129.1349256404593
 11
111.6359076326813
 21
-128.8634521162217
 72
     1
 10
111.6359076326813
 20
-128.8634521162217
 11
111.907381156919
 21
-128.8634521162217
 72
     1
 10
111.907381156919
 20
-128.8634521162217
 11
111.907381156919
 21
-129.1349256404593
 97
        0
 75
     2
 76
     1
 98
        0
  0
SPLINE
  5
95
330
84
100
AcDbEntity
  8
_U+30EC_U+30A4_U+30E4_U+30FC 1
370
     0
100
AcDbSpline
210
0.0
220
0.0
230
1.0
 70
    11
 71
     3
 72
    53
 73
    49
 74
     0
 42
0.0000000001
 43
0.0000000001
 12
1.0
 22
0.0
 32
0.0
 13
1.0
 23
0.0
 33
0.0
 40
0.0
 40
0.0
 40
0.0
 40
0.0
 40
1.0
 40
1.0
 40
1.0
 40
2.0
 40
2.0
 40
2.0
 40
3.0
 40
3.0
 40
3.0
 40
4.0
 40
4.0
 40
4.0
 40
5.0
 40
5.0
 40
5.0
 40
6.0
 40
6.0
 40
6.0
 40
7.0
 40
7.0
 40
7.0
 40
8.0
 40
8.0
 40
8.0
 40
9.0
 40
9.0
 40
9.0
 40
10.0
 40
10.0
 40
10.0
 40
11.0
 40
11.0
 40
11.0
 40
12.0
 40
12.0
 40
12.0
 40
13.0
 40
13.0
 40
13.0
 40
14.0
 40
14.0
 40
14.0
 40
15.0
 40
15.0
 40
15.0
 40
16.0
 40
16.0
 40
16.0
 40
16.0
 10
111.9621581751345
 20
-128.0889946511375
 30
0.0
 10
111.9621581751345
 20
-128.1733994905261
 30
0.0
 10
111.9438991690626
 20
-128.282953526957
 30
0.0
 10
111.8753417689062
 20
-128.392507563388
 30
0.0
 10
111.7568304842136
 20
-128.5795762482371
 30
0.0
 10
111.6152370597698
 20
-128.6026583879882
 30
0.0
 10
111.4987928323684
 20
-128.6229844513512
 30
0.0
 10
111.4987928323684
 20
-128.6229844513512
 30
0.0
 10
111.4987928323684
 20
-128.3835503151263
 30
0.0
 10
111.4987928323684
 20
-128.3835503151263
 30
0.0
 10
111.7134222810994
 20
-128.3239501632315
 30
0.0
 10
111.7454616691122
 20
-128.1871798724671
 30
0.0
 10
111.7454616691122
 20
-128.0865830842978
 30
0.0
 10
111.7454616691122
 20
-127.9360324115924
 30
0.0
 10
111.6379746899725
 20
-127.771701356946
 30
0.0
 10
111.3868272290977
 20
-127.771701356946
 30
0.0
 10
111.1108750807292
 20
-127.771701356946
 30
0.0
 10
111.0354274896023
 20
-127.9656602327655
 30
0.0
 10
111.0354274896023
 20
-128.095884842108
 30
0.0
 10
111.0354274896023
 20
-128.1299912874119
 30
0.0
 10
111.0354274896023
 20
-128.282953526957
 30
0.0
 10
111.1746093472064
 20
-128.378727181447
 30
0.0
 10
111.1746093472064
 20
-128.378727181447
 30
0.0
 10
111.1542832838434
 20
-128.5682074331357
 30
0.0
 10
111.1542832838434
 20
-128.5682074331357
 30
0.0
 10
111.1542832838434
 20
-128.5682074331357
 30
0.0
 10
110.2413329802522
 20
-128.4379828237933
 30
0.0
 10
110.2413329802522
 20
-128.4379828237933
 30
0.0
 10
110.2413329802522
 20
-128.4379828237933
 30
0.0
 10
110.2413329802522
 20
-127.5980685444894
 30
0.0
 10
110.2413329802522
 20
-127.5980685444894
 30
0.0
 10
110.2413329802522
 20
-127.5980685444894
 30
0.0
 10
110.4511392953039
 20
-127.5980685444894
 30
0.0
 10
110.4511392953039
 20
-127.5980685444894
 30
0.0
 10
110.4511392953039
 20
-127.5980685444894
 30
0.0
 10
110.4511392953039
 20
-128.2622829540456
 30
0.0
 10
110.4511392953039
 20
-128.2622829540456
 30
0.0
 10
110.4511392953039
 20
-128.2622829540456
 30
0.0
 10
110.9076144470995
 20
-128.3332519210417
 30
0.0
 10
110.9076144470995
 20
-128.3332519210417
 30
0.0
 10
110.8710964349558
 20
-128.2671060877249
 30
0.0
 10
110.8276882318417
 20
-128.1778781146569
 30
0.0
 10
110.8276882318417
 20
-128.0500650721542
 30
0.0
 10
110.8276882318417
 20
-127.7761799810768
 30
0.0
 10
111.0285372986318
 20
-127.5205538960713
 30
0.0
 10
111.3665011657348
 20
-127.5205538960713
 30
0.0
 10
111.7089436569686
 20
-127.5205538960713
 30
0.0
 10
111.9621581751345
 20
-127.7627441086843
 30
0.0
 10
111.9621581751345
 20
-128.0889946511375
 30
0.0
  0
HATCH
  5
96
330
84
100
AcDbEntity
  8
_U+30EC_U+30A4_U+30E4_U+30FC 1
 62
     7
420
 16777215
100
AcDbHatch
 10
0.0
 20
0.0
 30
0.0
210
0.0
220
0.0
230
1.0
  2
SOLID
 70
     1
 71
     0
 91
        1
 92
        1
 93
        1
 72
     4
 94
        3
 73
     0
 74
     1
 95
       53
 96
       49
 40
0.0
 40
0.0
 40
0.0
 40
0.0
 40
1.0
 40
1.0
 40
1.0
 40
2.0
 40
2.0
 40
2.0
 40
3.0
 40
3.0
 40
3.0
 40
4.0
 40
4.0
 40
4.0
 40
5.0
 40
5.0
 40
5.0
 40
6.0
 40
6.0
 40
6.0
 40
7.0
 40
7.0
 40
7.0
 40
8.0
 40
8.0
 40
8.0
 40
9.0
 40
9.0
 40
9.0
 40
10.0
 40
10.0
 40
10.0
 40
11.0
 40
11.0
 40
11.0
 40
12.0
 40
12.0
 40
12.0
 40
13.0
 40
13.0
 40
13.0
 40
14.0
 40
14.0
 40
14.0
 40
15.0
 40
15.0
 40
15.0
 40
16.0
 40
16.0
 40
16.0
 40
16.0
 10
111.9621581751345
 20
-128.0889946511375
 10
111.9621581751345
 20
-128.1733994905261
 10
111.9438991690626
 20
-128.282953526957
 10
111.8753417689062
 20
-128.392507563388
 10
111.7568304842136
 20
-128.5795762482371
 10
111.6152370597698
 20
-128.6026583879882
 10
111.4987928323684
 20
-128.6229844513512
 10
111.4987928323684
 20
-128.6229844513512
 10
111.4987928323684
 20
-128.3835503151263
 10
111.4987928323684
 20
-128.3835503151263
 10
111.7134222810994
 20
-128.3239501632315
 10
111.7454616691122
 20
-128.1871798724671
 10
111.7454616691122
 20
-128.0865830842978
 10
111.7454616691122
 20
-127.9360324115924
 10
111.6379746899725
 20
-127.771701356946
 10
111.3868272290977
 20
-127.771701356946
 10
111.1108750807292
 20
-127.771701356946
 10
111.0354274896023
 20
-127.9656602327655
 10
111.0354274896023
 20
-128.095884842108
 10
111.0354274896023
 20
-128.1299912874119
 10
111.0354274896023
 20
-128.282953526957
 10
111.1746093472064
 20
-128.378727181447
 10
111.1746093472064
 20
-128.378727181447
 10
111.1542832838434
 20
-128.5682074331357
 10
111.1542832838434
 20
-128.5682074331357
 10
111.1542832838434
 20
-128.5682074331357
 10
110.2413329802522
 20
-128.4379828237933
 10
110.2413329802522
 20
-128.4379828237933
 10
110.2413329802522
 20
-128.4379828237933
 10
110.2413329802522
 20
-127.5980685444894
 10
110.2413329802522
 20
-127.5980685444894
 10
110.2413329802522
 20
-127.5980685444894
 10
110.4511392953039
 20
-127.5980685444894
 10
110.4511392953039
 20
-127.5980685444894
 10
110.4511392953039
 20
-127.5980685444894
 10
110.4511392953039
 20
-128.2622829540456
 10
110.4511392953039
 20
-128.2622829540456
 10
110.4511392953039
 20
-128.2622829540456
 10
110.9076144470995
 20
-128.3332519210417
 10
110.9076144470995
 20
-128.3332519210417
 10
110.8710964349558
 20
-128.2671060877249
 10
110.8276882318417
 20
-128.1778781146569
 10
110.8276882318417
 20
-128.0500650721542
 10
110.8276882318417
 20
-127.7761799810768
 10
111.0285372986318
 20
-127.5205538960713
 10
111.3665011657348
 20
-127.5205538960713
 10
111.7089436569686
 20
-127.5205538960713
 10
111.9621581751345
 20
-127.7627441086843
 10
111.9621581751345
 20
-128.0889946511375
 97
        0
 97
        0
 75
     2
 76
     1
 98
        0
  0
ENDBLK
  5
87
330
84
100
AcDbEntity
  8
0
100
AcDbBlockEnd
  0
BLOCK
  5
A5
330
A3
100
AcDbEntity
  8
0
100
AcDbBlockBegin
  2
block 5
 70
     0
 10
0.0
 20
0.0
 30
0.0
  3
block 5
  1

  0
SPLINE
  5
A7
330
A3
100
AcDbEntity
  8
_U+30EC_U+30A4_U+30E4_U+30FC 1
 62
     7
420
 16777215
370
     9
100
AcDbSpline
210
0.0
220
0.0
230
1.0
 70
    11
 71
     3
 72
    17
 73
    13
 74
     0
 42
0.0000000001
 43
0.0000000001
 12
1.0
 22
0.0
 32
0.0
 13
1.0
 23
0.0
 33
0.0
 40
0.0
 40
0.0
 40
0.0
 40
0.0
 40
1.0
 40
1.0
 40
1.0
 40
2.0
 40
2.0
 40
2.0
 40
3.0
 40
3.0
 40
3.0
 40
4.0
 40
4.0
 40
4.0
 40
4.0
 10
112.5047462964315
 20
-114.3804333047382
 30
0.0
 10
112.5047462964315
 20
-114.325329415863
 30
0.0
 10
112.4599787975736
 20
-114.2805266380966
 30
0.0
 10
112.4048396323136
 20
-114.2805266380966
 30
0.0
 10
112.3497357448306
 20
-114.2805266380966
 30
0.0
 10
112.3049329681958
 20
-114.325329415863
 30
0.0
 10
112.3049329681958
 20
-114.3804333047382
 30
0.0
 10
112.3049329681958
 20
-114.435572471391
 30
0.0
 10
112.3497357448306
 20
-114.4803399713799
 30
0.0
 10
112.4048396323136
 20
-114.4803399713799
 30
0.0
 10
112.4599787975736
 20
-114.4803399713799
 30
0.0
 10
112.5047462964315
 20
-114.435572471391
 30
0.0
 10
112.5047462964315
 20
-114.3804333047382
 30
0.0
  0
INSERT
  5
A9
330
A3
100
AcDbEntity
  8
_U+30EC_U+30A4_U+30E4_U+30FC 1
100
AcDbBlockReference
  2
block 6
 10
0.0
 20
0.0
 30
0.0
  0
ENDBLK
  5
A6
330
A3
100
AcDbEntity
  8
0
100
AcDbBlockEnd
  0
BLOCK
  5
AA
330
A8
100
AcDbEntity
  8
0
100
AcDbBlockBegin
  2
block 6
 70
     0
 10
0.0
 20
0.0
 30
0.0
  3
block 6
  1

  0
SPLINE
  5
AC
330
A8
100
AcDbEntity
  8
_U+30EC_U+30A4_U+30E4_U+30FC 1
 62
     7
420
 16777215
370
     9
100
AcDbSpline
210
0.0
220
0.0
230
1.0
 70
    11
 71
     3
 72
    17
 73
    13
 74
     0
 42
0.0000000001
 43
0.0000000001
 12
1.0
 22
0.0
 32
0.0
 13
1.0
 23
0.0
 33
0.0
 40
0.0
 40
0.0
 40
0.0
 40
0.0
 40
1.0
 40
1.0
 40
1.0
 40
2.0
 40
2.0
 40
2.0
 40
3.0
 40
3.0
 40
3.0
 40
4.0
 40
4.0
 40
4.0
 40
4.0
 10
112.5047462964315
 20
-114.3804333047382
 30
0.0
 10
112.5047462964315
 20
-114.325329415863
 30
0.0
 10
112.4599787975736
 20
-114.2805266380966
 30
0.0
 10
112.4048396323136
 20
-114.2805266380966
 30
0.0
 10
112.3497357448306
 20
-114.2805266380966
 30
0.0
 10
112.3049329681958
 20
-114.325329415863
 30
0.0
 10
112.3049329681958
 20
-114.3804333047382
 30
0.0
 10
112.3049329681958
 20
-114.435572471391
 30
0.0
 10
112.3497357448306
 20
-114.4803399713799
 30
0.0
 10
112.4048396323136
 20
-114.4803399713799
 30
0.0
 10
112.4599787975736
 20
-114.4803399713799
 30
0.0
 10
112.5047462964315
 20
-114.435572471391
 30
0.0
 10
112.5047462964315
 20
-114.3804333047382
 30
0.0
  0
POLYLINE
  5
AD
330
A8
100
AcDbEntity
  8
_U+30EC_U+30A4_U+30E4_U+30FC 1
 62
     7
420
 16777215
370
     9
100
AcDb2dPolyline
 66
     1
 10
0.0
 20
0.0
 30
0.0
  0
VERTEX
  5
AE
330
AD
100
AcDbEntity
  8
_U+30EC_U+30A4_U+30E4_U+30FC 1
 62
     7
420
 16777215
370
     9
100
AcDbVertex
100
AcDb2dVertex
 10
110.9448335584504
 20
-114.3804333047382
 30
0.0
  0
VERTEX
  5
AF
330
AD
100
AcDbEntity
  8
_U+30EC_U+30A4_U+30E4_U+30FC 1
 62
     7
420
 16777215
370
     9
100
AcDbVertex
100
AcDb2dVertex
 10
113.4053173845671
 20
-114.3804333047382
 30
0.0
  0
SEQEND
  5
B0
330
AD
100
AcDbEntity
  8
_U+30EC_U+30A4_U+30E4_U+30FC 1
 62
     7
420
 16777215
370
     9
  0
ENDBLK
  5
AB
330
A8
100
AcDbEntity
  8
0
100
AcDbBlockEnd
  0
BLOCK
  5
B3
330
B1
100
AcDbEntity
  8
0
100
AcDbBlockBegin
  2
block 7
 70
     0
 10
0.0
 20
0.0
 30
0.0
  3
block 7
  1

  0
SPLINE
  5
B5
330
B1
100
AcDbEntity
  8
_U+30EC_U+30A4_U+30E4_U+30FC 1
 62
     7
420
 16777215
370
     9
100
AcDbSpline
210
0.0
220
0.0
230
1.0
 70
    11
 71
     3
 72
    17
 73
    13
 74
     0
 42
0.0000000001
 43
0.0000000001
 12
1.0
 22
0.0
 32
0.0
 13
1.0
 23
0.0
 33
0.0
 40
0.0
 40
0.0
 40
0.0
 40
0.0
 40
1.0
 40
1.0
 40
1.0
 40
2.0
 40
2.0
 40
2.0
 40
3.0
 40
3.0
 40
3.0
 40
4.0
 40
4.0
 40
4.0
 40
4.0
 10
112.5192101849513
 20
-144.8638552415616
 30
0.0
 10
112.5192101849513
 20
-144.8087160749091
 30
0.0
 10
112.4744426860935
 20
-144.7639485749199
 30
0.0
 10
112.4193035208335
 20
-144.7639485749199
 30
0.0
 10
112.3641996333504
 20
-144.7639485749199
 30
0.0
 10
112.3193968567157
 20
-144.8087160749091
 30
0.0
 10
112.3193968567157
 20
-144.8638552415616
 30
0.0
 10
112.3193968567157
 20
-144.919664685992
 30
0.0
 10
112.3641996333504
 20
-144.9644674637588
 30
0.0
 10
112.4193035208335
 20
-144.9644674637588
 30
0.0
 10
112.4744426860935
 20
-144.9644674637588
 30
0.0
 10
112.5192101849513
 20
-144.919664685992
 30
0.0
 10
112.5192101849513
 20
-144.8638552415616
 30
0.0
  0
SPLINE
  5
B6
330
B1
100
AcDbEntity
  8
_U+30EC_U+30A4_U+30E4_U+30FC 1
 62
     7
420
 16777215
370
     9
100
AcDbSpline
210
0.0
220
0.0
230
1.0
 70
    11
 71
     3
 72
    17
 73
    13
 74
     0
 42
0.0000000001
 43
0.0000000001
 12
1.0
 22
0.0
 32
0.0
 13
1.0
 23
0.0
 33
0.0
 40
0.0
 40
0.0
 40
0.0
 40
0.0
 40
1.0
 40
1.0
 40
1.0
 40
2.0
 40
2.0
 40
2.0
 40
3.0
 40
3.0
 40
3.0
 40
4.0
 40
4.0
 40
4.0
 40
4.0
 10
112.5192101849513
 20
-144.8624794082287
 30
0.0
 10
112.5192101849513
 20
-144.8073402415763
 30
0.0
 10
112.4744426860935
 20
-144.7629255193648
 30
0.0
 10
112.4193035208335
 20
-144.7629255193648
 30
0.0
 10
112.3641996333504
 20
-144.7629255193648
 30
0.0
 10
112.3193968567157
 20
-144.8073402415763
 30
0.0
 10
112.3193968567157
 20
-144.8624794082287
 30
0.0
 10
112.3193968567157
 20
-144.9182888526591
 30
0.0
 10
112.3641996333504
 20
-144.9627388526481
 30
0.0
 10
112.4193035208335
 20
-144.9627388526481
 30
0.0
 10
112.4744426860935
 20
-144.9627388526481
 30
0.0
 10
112.5192101849513
 20
-144.9182888526591
 30
0.0
 10
112.5192101849513
 20
-144.8624794082287
 30
0.0
  0
SPLINE
  5
B7
330
B1
100
AcDbEntity
  8
_U+30EC_U+30A4_U+30E4_U+30FC 1
 62
     7
420
 16777215
370
     9
100
AcDbSpline
210
0.0
220
0.0
230
1.0
 70
    11
 71
     3
 72
    17
 73
    13
 74
     0
 42
0.0000000001
 43
0.0000000001
 12
1.0
 22
0.0
 32
0.0
 13
1.0
 23
0.0
 33
0.0
 40
0.0
 40
0.0
 40
0.0
 40
0.0
 40
1.0
 40
1.0
 40
1.0
 40
2.0
 40
2.0
 40
2.0
 40
3.0
 40
3.0
 40
3.0
 40
4.0
 40
4.0
 40
4.0
 40
4.0
 10
112.5192101849513
 20
-146.0624177412623
 30
0.0
 10
112.5192101849513
 20
-146.0072785746092
 30
0.0
 10
112.4744426860935
 20
-145.9625110746206
 30
0.0
 10
112.4193035208335
 20
-145.9625110746206
 30
0.0
 10
112.3641996333504
 20
-145.9625110746206
 30
0.0
 10
112.3193968567157
 20
-146.0072785746092
 30
0.0
 10
112.3193968567157
 20
-146.0624177412623
 30
0.0
 10
112.3193968567157
 20
-146.1182271856927
 30
0.0
 10
112.3641996333504
 20
-146.1629946856813
 30
0.0
 10
112.4193035208335
 20
-146.1629946856813
 30
0.0
 10
112.4744426860935
 20
-146.1629946856813
 30
0.0
 10
112.5192101849513
 20
-146.1182271856927
 30
0.0
 10
112.5192101849513
 20
-146.0624177412623
 30
0.0
  0
POLYLINE
  5
B8
330
B1
100
AcDbEntity
  8
_U+30EC_U+30A4_U+30E4_U+30FC 1
 62
     7
420
 16777215
370
     9
100
AcDb2dPolyline
 66
     1
 10
0.0
 20
0.0
 30
0.0
  0
VERTEX
  5
B9
330
B8
100
AcDbEntity
  8
_U+30EC_U+30A4_U+30E4_U+30FC 1
 62
     7
420
 16777215
370
     9
100
AcDbVertex
100
AcDb2dVertex
 10
112.4193035208335
 20
-144.8624794082287
 30
0.0
  0
VERTEX
  5
BA
330
B8
100
AcDbEntity
  8
_U+30EC_U+30A4_U+30E4_U+30FC 1
 62
     7
420
 16777215
370
     9
100
AcDbVertex
100
AcDb2dVertex
 10
112.4193035208335
 20
-146.0627352412619
 30
0.0
  0
SEQEND
  5
BB
330
B8
100
AcDbEntity
  8
_U+30EC_U+30A4_U+30E4_U+30FC 1
 62
     7
420
 16777215
370
     9
  0
POLYLINE
  5
BC
330
B1
100
AcDbEntity
  8
_U+30EC_U+30A4_U+30E4_U+30FC 1
 62
     7
420
 16777215
370
     9
100
AcDb2dPolyline
 66
     1
 10
0.0
 20
0.0
 30
0.0
  0
VERTEX
  5
BD
330
BC
100
AcDbEntity
  8
_U+30EC_U+30A4_U+30E4_U+30FC 1
 62
     7
420
 16777215
370
     9
100
AcDbVertex
100
AcDb2dVertex
 10
90.95983184608802
 20
-146.0627352412619
 30
0.0
  0
VERTEX
  5
BE
330
BC
100
AcDbEntity
  8
_U+30EC_U+30A4_U+30E4_U+30FC 1
 62
     7
420
 16777215
370
     9
100
AcDbVertex
100
AcDb2dVertex
 10
113.419781273087
 20
-146.0627352412619
 30
0.0
  0
SEQEND
  5
BF
330
BC
100
AcDbEntity
  8
_U+30EC_U+30A4_U+30E4_U+30FC 1
 62
     7
420
 16777215
370
     9
  0
INSERT
  5
C1
330
B1
100
AcDbEntity
  8
_U+30EC_U+30A4_U+30E4_U+30FC 1
100
AcDbBlockReference
  2
block 8
 10
0.0
 20
0.0
 30
0.0
  0
POLYLINE
  5
D0
330
B1
100
AcDbEntity
  8
_U+30EC_U+30A4_U+30E4_U+30FC 1
 62
     7
420
 16777215
370
     9
100
AcDb2dPolyline
 66
     1
 10
0.0
 20
0.0
 30
0.0
  0
VERTEX
  5
D1
330
D0
100
AcDbEntity
  8
_U+30EC_U+30A4_U+30E4_U+30FC 1
 62
     7
420
 16777215
370
     9
100
AcDbVertex
100
AcDb2dVertex
 10
90.95983184608802
 20
-144.8624794082287
 30
0.0
  0
VERTEX
  5
D2
330
D0
100
AcDbEntity
  8
_U+30EC_U+30A4_U+30E4_U+30FC 1
 62
     7
420
 16777215
370
     9
100
AcDbVertex
100
AcDb2dVertex
 10
113.419781273087
 20
-144.8624794082287
 30
0.0
  0
SEQEND
  5
D3
330
D0
100
AcDbEntity
  8
_U+30EC_U+30A4_U+30E4_U+30FC 1
 62
     7
420
 16777215
370
     9
  0
ENDBLK
  5
B4
330
B1
100
AcDbEntity
  8
0
100
AcDbBlockEnd
  0
BLOCK
  5
C2
330
C0
100
AcDbEntity
  8
0
100
AcDbBlockBegin
  2
block 8
 70
     0
 10
0.0
 20
0.0
 30
0.0
  3
block 8
  1

  0
SPLINE
  5
C4
330
C0
100
AcDbEntity
  8
_U+30EC_U+30A4_U+30E4_U+30FC 1
370
     0
100
AcDbSpline
210
0.0
220
0.0
230
1.0
 70
    11
 71
     3
 72
    26
 73
    22
 74
     0
 42
0.0000000001
 43
0.0000000001
 12
1.0
 22
0.0
 32
0.0
 13
1.0
 23
0.0
 33
0.0
 40
0.0
 40
0.0
 40
0.0
 40
0.0
 40
1.0
 40
1.0
 40
1.0
 40
2.0
 40
2.0
 40
2.0
 40
3.0
 40
3.0
 40
3.0
 40
4.0
 40
4.0
 40
4.0
 40
5.0
 40
5.0
 40
5.0
 40
6.0
 40
6.0
 40
6.0
 40
7.0
 40
7.0
 40
7.0
 40
7.0
 10
116.3315727790768
 20
-147.049766673307
 30
0.0
 10
116.3315727790768
 20
-147.049766673307
 30
0.0
 10
115.1402587602774
 20
-147.049766673307
 30
0.0
 10
115.1402587602774
 20
-147.049766673307
 30
0.0
 10
115.1402587602774
 20
-147.049766673307
 30
0.0
 10
115.1402587602774
 20
-147.4056450369333
 30
0.0
 10
115.1402587602774
 20
-147.4056450369333
 30
0.0
 10
115.1402587602774
 20
-147.4056450369333
 30
0.0
 10
114.9804063297618
 20
-147.4056450369333
 30
0.0
 10
114.9804063297618
 20
-147.4056450369333
 30
0.0
 10
114.9645588905297
 20
-147.0473551064673
 30
0.0
 10
114.7885145112334
 20
-146.9970567123827
 30
0.0
 10
114.66552460241
 20
-146.9650173243699
 30
0.0
 10
114.66552460241
 20
-146.9650173243699
 30
0.0
 10
114.66552460241
 20
-146.807576460694
 30
0.0
 10
114.66552460241
 20
-146.807576460694
 30
0.0
 10
114.66552460241
 20
-146.807576460694
 30
0.0
 10
116.3315727790768
 20
-146.807576460694
 30
0.0
 10
116.3315727790768
 20
-146.807576460694
 30
0.0
 10
116.3315727790768
 20
-146.807576460694
 30
0.0
 10
116.3315727790768
 20
-147.049766673307
 30
0.0
 10
116.3315727790768
 20
-147.049766673307
 30
0.0
  0
HATCH
  5
C5
330
C0
100
AcDbEntity
  8
_U+30EC_U+30A4_U+30E4_U+30FC 1
 62
     7
420
 16777215
100
AcDbHatch
 10
0.0
 20
0.0
 30
0.0
210
0.0
220
0.0
230
1.0
  2
SOLID
 70
     1
 71
     0
 91
        1
 92
        1
 93
        1
 72
     4
 94
        3
 73
     0
 74
     1
 95
       26
 96
       22
 40
0.0
 40
0.0
 40
0.0
 40
0.0
 40
1.0
 40
1.0
 40
1.0
 40
2.0
 40
2.0
 40
2.0
 40
3.0
 40
3.0
 40
3.0
 40
4.0
 40
4.0
 40
4.0
 40
5.0
 40
5.0
 40
5.0
 40
6.0
 40
6.0
 40
6.0
 40
7.0
 40
7.0
 40
7.0
 40
7.0
 10
116.3315727790768
 20
-147.049766673307
 10
116.3315727790768
 20
-147.049766673307
 10
115.1402587602774
 20
-147.049766673307
 10
115.1402587602774
 20
-147.049766673307
 10
115.1402587602774
 20
-147.049766673307
 10
115.1402587602774
 20
-147.4056450369333
 10
115.1402587602774
 20
-147.4056450369333
 10
115.1402587602774
 20
-147.4056450369333
 10
114.9804063297618
 20
-147.4056450369333
 10
114.9804063297618
 20
-147.4056450369333
 10
114.9645588905297
 20
-147.0473551064673
 10
114.7885145112334
 20
-146.9970567123827
 10
114.66552460241
 20
-146.9650173243699
 10
114.66552460241
 20
-146.9650173243699
 10
114.66552460241
 20
-146.807576460694
 10
114.66552460241
 20
-146.807576460694
 10
114.66552460241
 20
-146.807576460694
 10
116.3315727790768
 20
-146.807576460694
 10
116.3315727790768
 20
-146.807576460694
 10
116.3315727790768
 20
-146.807576460694
 10
116.3315727790768
 20
-147.049766673307
 10
116.3315727790768
 20
-147.049766673307
 97
        0
 97
        0
 75
     2
 76
     1
 98
        0
  0
POLYLINE
  5
C6
330
C0
100
AcDbEntity
  8
_U+30EC_U+30A4_U+30E4_U+30FC 1
370
     0
100
AcDb2dPolyline
 66
     1
 10
0.0
 20
0.0
 30
0.0
  0
VERTEX
  5
C7
330
C6
100
AcDbEntity
  8
_U+30EC_U+30A4_U+30E4_U+30FC 1
370
     0
100
AcDbVertex
100
AcDb2dVertex
 10
116.3315727790768
 20
-146.2015841648385
 30
0.0
  0
VERTEX
  5
C8
330
C6
100
AcDbEntity
  8
_U+30EC_U+30A4_U+30E4_U+30FC 1
370
     0
100
AcDbVertex
100
AcDb2dVertex
 10
116.0600992548391
 20
-146.2015841648385
 30
0.0
  0
VERTEX
  5
C9
330
C6
100
AcDbEntity
  8
_U+30EC_U+30A4_U+30E4_U+30FC 1
370
     0
100
AcDbVertex
100
AcDb2dVertex
 10
116.0600992548391
 20
-145.9301106406008
 30
0.0
  0
VERTEX
  5
CA
330
C6
100
AcDbEntity
  8
_U+30EC_U+30A4_U+30E4_U+30FC 1
370
     0
100
AcDbVertex
100
AcDb2dVertex
 10
116.3315727790768
 20
-145.9301106406008
 30
0.0
  0
VERTEX
  5
CB
330
C6
100
AcDbEntity
  8
_U+30EC_U+30A4_U+30E4_U+30FC 1
370
     0
100
AcDbVertex
100
AcDb2dVertex
 10
116.3315727790768
 20
-146.2015841648385
 30
0.0
  0
SEQEND
  5
CC
330
C6
100
AcDbEntity
  8
_U+30EC_U+30A4_U+30E4_U+30FC 1
370
     0
  0
HATCH
  5
CD
330
C0
100
AcDbEntity
  8
_U+30EC_U+30A4_U+30E4_U+30FC 1
 62
     7
420
 16777215
100
AcDbHatch
 10
0.0
 20
0.0
 30
0.0
210
0.0
220
0.0
230
1.0
  2
SOLID
 70
     1
 71
     0
 91
        1
 92
        1
 93
        4
 72
     1
 10
116.3315727790768
 20
-146.2015841648385
 11
116.0600992548391
 21
-146.2015841648385
 72
     1
 10
116.0600992548391
 20
-146.2015841648385
 11
116.0600992548391
 21
-145.9301106406008
 72
     1
 10
116.0600992548391
 20
-145.9301106406008
 11
116.3315727790768
 21
-145.9301106406008
 72
     1
 10
116.3315727790768
 20
-145.9301106406008
 11
116.3315727790768
 21
-146.2015841648385
 97
        0
 75
     2
 76
     1
 98
        0
  0
SPLINE
  5
CE
330
C0
100
AcDbEntity
  8
_U+30EC_U+30A4_U+30E4_U+30FC 1
370
     0
100
AcDbSpline
210
0.0
220
0.0
230
1.0
 70
    11
 71
     3
 72
    44
 73
    40
 74
     0
 42
0.0000000001
 43
0.0000000001
 12
1.0
 22
0.0
 32
0.0
 13
1.0
 23
0.0
 33
0.0
 40
0.0
 40
0.0
 40
0.0
 40
0.0
 40
1.0
 40
1.0
 40
1.0
 40
2.0
 40
2.0
 40
2.0
 40
3.0
 40
3.0
 40
3.0
 40
4.0
 40
4.0
 40
4.0
 40
5.0
 40
5.0
 40
5.0
 40
6.0
 40
6.0
 40
6.0
 40
7.0
 40
7.0
 40
7.0
 40
8.0
 40
8.0
 40
8.0
 40
9.0
 40
9.0
 40
9.0
 40
10.0
 40
10.0
 40
10.0
 40
11.0
 40
11.0
 40
11.0
 40
12.0
 40
12.0
 40
12.0
 40
13.0
 40
13.0
 40
13.0
 40
13.0
 10
115.7038763816643
 20
-145.0347303239844
 30
0.0
 10
115.8750976272812
 20
-145.2696858360784
 30
0.0
 10
115.955023842539
 20
-145.3702826242477
 30
0.0
 10
116.1100531393753
 20
-145.4226480756235
 30
0.0
 10
116.1100531393753
 20
-145.4226480756235
 30
0.0
 10
116.1100531393753
 20
-144.5827337963196
 30
0.0
 10
116.1100531393753
 20
-144.5827337963196
 30
0.0
 10
116.1100531393753
 20
-144.5827337963196
 30
0.0
 10
116.3315727790768
 20
-144.5827337963196
 30
0.0
 10
116.3315727790768
 20
-144.5827337963196
 30
0.0
 10
116.3315727790768
 20
-144.5827337963196
 30
0.0
 10
116.3315727790768
 20
-145.69205454257
 30
0.0
 10
116.3315727790768
 20
-145.69205454257
 30
0.0
 10
115.9457220847289
 20
-145.6576035877175
 30
0.0
 10
115.8613172453402
 20
-145.5869791302699
 30
0.0
 10
115.5395453270179
 20
-145.1715006147488
 30
0.0
 10
115.3249158782868
 20
-144.8955484663803
 30
0.0
 10
115.2518798539995
 20
-144.8245794993841
 30
0.0
 10
115.1037407481338
 20
-144.8245794993841
 30
0.0
 10
114.975927705631
 20
-144.8245794993841
 30
0.0
 10
114.8343342811873
 20
-144.9020941478023
 30
0.0
 10
114.8343342811873
 20
-145.1146565392422
 30
0.0
 10
114.8343342811873
 20
-145.39543182129
 30
0.0
 10
115.0830701752223
 20
-145.4043890695517
 30
0.0
 10
115.2088161604339
 20
-145.4088676936825
 30
0.0
 10
115.2088161604339
 20
-145.4088676936825
 30
0.0
 10
115.2088161604339
 20
-145.6510579062956
 30
0.0
 10
115.2088161604339
 20
-145.6510579062956
 30
0.0
 10
115.071701360121
 20
-145.6417561484854
 30
0.0
 10
114.9507785085887
 20
-145.6303873333841
 30
0.0
 10
114.8229654660859
 20
-145.5435709271558
 30
0.0
 10
114.6493326536293
 20
-145.4250596424632
 30
0.0
 10
114.6128146414857
 20
-145.2242105756731
 30
0.0
 10
114.6128146414857
 20
-145.0984645904615
 30
0.0
 10
114.6128146414857
 20
-144.7994303023418
 30
0.0
 10
114.8115966509846
 20
-144.5758436053491
 30
0.0
 10
115.1058078054249
 20
-144.5758436053491
 30
0.0
 10
115.3524766421688
 20
-144.5758436053491
 30
0.0
 10
115.4596191117601
 20
-144.7015895905607
 30
0.0
 10
115.7038763816643
 20
-145.0347303239844
 30
0.0
  0
HATCH
  5
CF
330
C0
100
AcDbEntity
  8
_U+30EC_U+30A4_U+30E4_U+30FC 1
 62
     7
420
 16777215
100
AcDbHatch
 10
0.0
 20
0.0
 30
0.0
210
0.0
220
0.0
230
1.0
  2
SOLID
 70
     1
 71
     0
 91
        1
 92
        1
 93
        1
 72
     4
 94
        3
 73
     0
 74
     1
 95
       44
 96
       40
 40
0.0
 40
0.0
 40
0.0
 40
0.0
 40
1.0
 40
1.0
 40
1.0
 40
2.0
 40
2.0
 40
2.0
 40
3.0
 40
3.0
 40
3.0
 40
4.0
 40
4.0
 40
4.0
 40
5.0
 40
5.0
 40
5.0
 40
6.0
 40
6.0
 40
6.0
 40
7.0
 40
7.0
 40
7.0
 40
8.0
 40
8.0
 40
8.0
 40
9.0
 40
9.0
 40
9.0
 40
10.0
 40
10.0
 40
10.0
 40
11.0
 40
11.0
 40
11.0
 40
12.0
 40
12.0
 40
12.0
 40
13.0
 40
13.0
 40
13.0
 40
13.0
 10
115.7038763816643
 20
-145.0347303239844
 10
115.8750976272812
 20
-145.2696858360784
 10
115.955023842539
 20
-145.3702826242477
 10
116.1100531393753
 20
-145.4226480756235
 10
116.1100531393753
 20
-145.4226480756235
 10
116.1100531393753
 20
-144.5827337963196
 10
116.1100531393753
 20
-144.5827337963196
 10
116.1100531393753
 20
-144.5827337963196
 10
116.3315727790768
 20
-144.5827337963196
 10
116.3315727790768
 20
-144.5827337963196
 10
116.3315727790768
 20
-144.5827337963196
 10
116.3315727790768
 20
-145.69205454257
 10
116.3315727790768
 20
-145.69205454257
 10
115.9457220847289
 20
-145.6576035877175
 10
115.8613172453402
 20
-145.5869791302699
 10
115.5395453270179
 20
-145.1715006147488
 10
115.3249158782868
 20
-144.8955484663803
 10
115.2518798539995
 20
-144.8245794993841
 10
115.1037407481338
 20
-144.8245794993841
 10
114.975927705631
 20
-144.8245794993841
 10
114.8343342811873
 20
-144.9020941478023
 10
114.8343342811873
 20
-145.1146565392422
 10
114.8343342811873
 20
-145.39543182129
 10
115.0830701752223
 20
-145.4043890695517
 10
115.2088161604339
 20
-145.4088676936825
 10
115.2088161604339
 20
-145.4088676936825
 10
115.2088161604339
 20
-145.6510579062956
 10
115.2088161604339
 20
-145.6510579062956
 10
115.071701360121
 20
-145.6417561484854
 10
114.9507785085887
 20
-145.6303873333841
 10
114.8229654660859
 20
-145.5435709271558
 10
114.6493326536293
 20
-145.4250596424632
 10
114.6128146414857
 20
-145.2242105756731
 10
114.6128146414857
 20
-145.0984645904615
 10
114.6128146414857
 20
-144.7994303023418
 10
114.8115966509846
 20
-144.5758436053491
 10
115.1058078054249
 20
-144.5758436053491
 10
115.3524766421688
 20
-144.5758436053491
 10
115.4596191117601
 20
-144.7015895905607
 10
115.7038763816643
 20
-145.0347303239844
 97
        0
 97
        0
 75
     2
 76
     1
 98
        0
  0
ENDBLK
  5
C3
330
C0
100
AcDbEntity
  8
0
100
AcDbBlockEnd
  0
ENDSEC
  0
SECTION
  2
ENTITIES
  0
SPLINE
  5
41
330
1F
100
AcDbEntity
  8
_U+30EC_U+30A4_U+30E4_U+30FC 1
 62
     7
420
 16777215
370
     9
100
AcDbSpline
210
0.0
220
0.0
230
1.0
 70
    11
 71
     3
 72
    17
 73
    13
 74
     0
 42
0.0000000001
 43
0.0000000001
 12
1.0
 22
0.0
 32
0.0
 13
1.0
 23
0.0
 33
0.0
 40
0.0
 40
0.0
 40
0.0
 40
0.0
 40
1.0
 40
1.0
 40
1.0
 40
2.0
 40
2.0
 40
2.0
 40
3.0
 40
3.0
 40
3.0
 40
4.0
 40
4.0
 40
4.0
 40
4.0
 10
108.5029411207482
 20
-109.1805946949271
 30
0.0
 10
108.5029411207482
 20
-109.1254555282743
 30
0.0
 10
108.4581383441135
 20
-109.0806880282854
 30
0.0
 10
108.4030344566304
 20
-109.0806880282854
 30
0.0
 10
108.3478952913705
 20
-109.0806880282854
 30
0.0
 10
108.3031305284799
 20
-109.1254555282743
 30
0.0
 10
108.3031305284799
 20
-109.1805946949271
 30
0.0
 10
108.3031305284799
 20
-109.2364041393575
 30
0.0
 10
108.3478952913705
 20
-109.2811716393464
 30
0.0
 10
108.4030344566304
 20
-109.2811716393464
 30
0.0
 10
108.4581383441135
 20
-109.2811716393464
 30
0.0
 10
108.5029411207482
 20
-109.2364041393575
 30
0.0
 10
108.5029411207482
 20
-109.1805946949271
 30
0.0
  0
SPLINE
  5
42
330
1F
100
AcDbEntity
  8
_U+30EC_U+30A4_U+30E4_U+30FC 1
 62
     7
420
 16777215
370
     9
100
AcDbSpline
210
0.0
220
0.0
230
1.0
 70
    11
 71
     3
 72
    17
 73
    13
 74
     0
 42
0.0000000001
 43
0.0000000001
 12
1.0
 22
0.0
 32
0.0
 13
1.0
 23
0.0
 33
0.0
 40
0.0
 40
0.0
 40
0.0
 40
0.0
 40
1.0
 40
1.0
 40
1.0
 40
2.0
 40
2.0
 40
2.0
 40
3.0
 40
3.0
 40
3.0
 40
4.0
 40
4.0
 40
4.0
 40
4.0
 10
63.50500782429672
 20
-109.1805946949271
 30
0.0
 10
63.50500782429672
 20
-109.1254555282743
 30
0.0
 10
63.46020504766196
 20
-109.0806880282854
 30
0.0
 10
63.40510276192642
 20
-109.0806880282854
 30
0.0
 10
63.34960921715016
 20
-109.0806880282854
 30
0.0
 10
63.30484171829227
 20
-109.1254555282743
 30
0.0
 10
63.30484171829227
 20
-109.1805946949271
 30
0.0
 10
63.30484171829227
 20
-109.2364041393575
 30
0.0
 10
63.34960921715016
 20
-109.2811716393464
 30
0.0
 10
63.40510276192642
 20
-109.2811716393464
 30
0.0
 10
63.46020504766196
 20
-109.2811716393464
 30
0.0
 10
63.50500782429672
 20
-109.2364041393575
 30
0.0
 10
63.50500782429672
 20
-109.1805946949271
 30
0.0
  0
SPLINE
  5
43
330
1F
100
AcDbEntity
  8
_U+30EC_U+30A4_U+30E4_U+30FC 1
 62
     7
420
 16777215
370
     9
100
AcDbSpline
210
0.0
220
0.0
230
1.0
 70
    11
 71
     3
 72
    17
 73
    13
 74
     0
 42
0.0000000001
 43
0.0000000001
 12
1.0
 22
0.0
 32
0.0
 13
1.0
 23
0.0
 33
0.0
 40
0.0
 40
0.0
 40
0.0
 40
0.0
 40
1.0
 40
1.0
 40
1.0
 40
2.0
 40
2.0
 40
2.0
 40
3.0
 40
3.0
 40
3.0
 40
4.0
 40
4.0
 40
4.0
 40
4.0
 10
63.50500782429672
 20
-150.0835199624792
 30
0.0
 10
63.50500782429672
 20
-150.0283807958262
 30
0.0
 10
63.46020504766196
 20
-149.9836132958376
 30
0.0
 10
63.40510276192642
 20
-149.9836132958376
 30
0.0
 10
63.34960921715016
 20
-149.9836132958376
 30
0.0
 10
63.30484171829227
 20
-150.0283807958262
 30
0.0
 10
63.30484171829227
 20
-150.0835199624792
 30
0.0
 10
63.30484171829227
 20
-150.1386238513541
 30
0.0
 10
63.34960921715016
 20
-150.1834266291209
 30
0.0
 10
63.40510276192642
 20
-150.1834266291209
 30
0.0
 10
63.46020504766196
 20
-150.1834266291209
 30
0.0
 10
63.50500782429672
 20
-150.1386238513541
 30
0.0
 10
63.50500782429672
 20
-150.0835199624792
 30
0.0
  0
SPLINE
  5
44
330
1F
100
AcDbEntity
  8
_U+30EC_U+30A4_U+30E4_U+30FC 1
 62
     7
420
 16777215
370
     9
100
AcDbSpline
210
0.0
220
0.0
230
1.0
 70
    11
 71
     3
 72
    17
 73
    13
 74
     0
 42
0.0000000001
 43
0.0000000001
 12
1.0
 22
0.0
 32
0.0
 13
1.0
 23
0.0
 33
0.0
 40
0.0
 40
0.0
 40
0.0
 40
0.0
 40
1.0
 40
1.0
 40
1.0
 40
2.0
 40
2.0
 40
2.0
 40
3.0
 40
3.0
 40
3.0
 40
4.0
 40
4.0
 40
4.0
 40
4.0
 10
88.50485135316424
 20
-150.0835199624792
 30
0.0
 10
88.50485135316424
 20
-150.0283807958262
 30
0.0
 10
88.46004857652947
 20
-149.9836132958376
 30
0.0
 10
88.4049446890464
 20
-149.9836132958376
 30
0.0
 10
88.34980552378646
 20
-149.9836132958376
 30
0.0
 10
88.30503802492858
 20
-150.0283807958262
 30
0.0
 10
88.30503802492858
 20
-150.0835199624792
 30
0.0
 10
88.30503802492858
 20
-150.1386238513541
 30
0.0
 10
88.34980552378646
 20
-150.1834266291209
 30
0.0
 10
88.4049446890464
 20
-150.1834266291209
 30
0.0
 10
88.46004857652947
 20
-150.1834266291209
 30
0.0
 10
88.50485135316424
 20
-150.1386238513541
 30
0.0
 10
88.50485135316424
 20
-150.0835199624792
 30
0.0
  0
POLYLINE
  5
45
330
1F
100
AcDbEntity
  8
_U+30EC_U+30A4_U+30E4_U+30FC 1
 62
     7
420
 16777215
370
     9
100
AcDb2dPolyline
 66
     1
 10
0.0
 20
0.0
 30
0.0
  0
VERTEX
  5
46
330
45
100
AcDbEntity
  8
_U+30EC_U+30A4_U+30E4_U+30FC 1
 62
     7
420
 16777215
370
     9
100
AcDbVertex
100
AcDb2dVertex
 10
63.40510276192642
 20
-109.1805946949271
 30
0.0
  0
VERTEX
  5
47
330
45
100
AcDbEntity
  8
_U+30EC_U+30A4_U+30E4_U+30FC 1
 62
     7
420
 16777215
370
     9
100
AcDbVertex
100
AcDb2dVertex
 10
108.4030344566304
 20
-109.1805946949271
 30
0.0
  0
SEQEND
  5
48
330
45
100
AcDbEntity
  8
_U+30EC_U+30A4_U+30E4_U+30FC 1
 62
     7
420
 16777215
370
     9
  0
POLYLINE
  5
49
330
1F
100
AcDbEntity
  8
_U+30EC_U+30A4_U+30E4_U+30FC 1
 62
     7
420
 16777215
370
     9
100
AcDb2dPolyline
 66
     1
 10
0.0
 20
0.0
 30
0.0
  0
VERTEX
  5
4A
330
49
100
AcDbEntity
  8
_U+30EC_U+30A4_U+30E4_U+30FC 1
 62
     7
420
 16777215
370
     9
100
AcDbVertex
100
AcDb2dVertex
 10
63.40510276192642
 20
-107.720553306403
 30
0.0
  0
VERTEX
  5
4B
330
49
100
AcDbEntity
  8
_U+30EC_U+30A4_U+30E4_U+30FC 1
 62
     7
420
 16777215
370
     9
100
AcDbVertex
100
AcDb2dVertex
 10
63.40510276192642
 20
-110.181037194677
 30
0.0
  0
SEQEND
  5
4C
330
49
100
AcDbEntity
  8
_U+30EC_U+30A4_U+30E4_U+30FC 1
 62
     7
420
 16777215
370
     9
  0
POLYLINE
  5
4D
330
1F
100
AcDbEntity
  8
_U+30EC_U+30A4_U+30E4_U+30FC 1
 62
     7
420
 16777215
370
     9
100
AcDb2dPolyline
 66
     1
 10
0.0
 20
0.0
 30
0.0
  0
VERTEX
  5
4E
330
4D
100
AcDbEntity
  8
_U+30EC_U+30A4_U+30E4_U+30FC 1
 62
     7
420
 16777215
370
     9
100
AcDbVertex
100
AcDb2dVertex
 10
108.4030344566304
 20
-107.720553306403
 30
0.0
  0
VERTEX
  5
4F
330
4D
100
AcDbEntity
  8
_U+30EC_U+30A4_U+30E4_U+30FC 1
 62
     7
420
 16777215
370
     9
100
AcDbVertex
100
AcDb2dVertex
 10
108.4030344566304
 20
-110.181037194677
 30
0.0
  0
SEQEND
  5
50
330
4D
100
AcDbEntity
  8
_U+30EC_U+30A4_U+30E4_U+30FC 1
 62
     7
420
 16777215
370
     9
  0
INSERT
  5
52
330
1F
100
AcDbEntity
  8
_U+30EC_U+30A4_U+30E4_U+30FC 1
100
AcDbBlockReference
  2
block 2
 10
0.0
 20
0.0
 30
0.0
  0
POLYLINE
  5
6C
330
1F
100
AcDbEntity
  8
_U+30EC_U+30A4_U+30E4_U+30FC 1
 62
     7
420
 16777215
370
     9
100
AcDb2dPolyline
 66
     1
 10
0.0
 20
0.0
 30
0.0
  0
VERTEX
  5
6D
330
6C
100
AcDbEntity
  8
_U+30EC_U+30A4_U+30E4_U+30FC 1
 62
     7
420
 16777215
370
     9
100
AcDbVertex
100
AcDb2dVertex
 10
63.40510276192642
 20
-150.0835199624792
 30
0.0
  0
VERTEX
  5
6E
330
6C
100
AcDbEntity
  8
_U+30EC_U+30A4_U+30E4_U+30FC 1
 62
     7
420
 16777215
370
     9
100
AcDbVertex
100
AcDb2dVertex
 10
88.4049446890464
 20
-150.0835199624792
 30
0.0
  0
SEQEND
  5
6F
330
6C
100
AcDbEntity
  8
_U+30EC_U+30A4_U+30E4_U+30FC 1
 62
     7
420
 16777215
370
     9
  0
POLYLINE
  5
70
330
1F
100
AcDbEntity
  8
_U+30EC_U+30A4_U+30E4_U+30FC 1
 62
     7
420
 16777215
370
     9
100
AcDb2dPolyline
 66
     1
 10
0.0
 20
0.0
 30
0.0
  0
VERTEX
  5
71
330
70
100
AcDbEntity
  8
_U+30EC_U+30A4_U+30E4_U+30FC 1
 62
     7
420
 16777215
370
     9
100
AcDbVertex
100
AcDb2dVertex
 10
63.40510276192642
 20
-151.5435613510029
 30
0.0
  0
VERTEX
  5
72
330
70
100
AcDbEntity
  8
_U+30EC_U+30A4_U+30E4_U+30FC 1
 62
     7
420
 16777215
370
     9
100
AcDbVertex
100
AcDb2dVertex
 10
63.40510276192642
 20
-149.0837477405067
 30
0.0
  0
SEQEND
  5
73
330
70
100
AcDbEntity
  8
_U+30EC_U+30A4_U+30E4_U+30FC 1
 62
     7
420
 16777215
370
     9
  0
POLYLINE
  5
74
330
1F
100
AcDbEntity
  8
_U+30EC_U+30A4_U+30E4_U+30FC 1
 62
     7
420
 16777215
370
     9
100
AcDb2dPolyline
 66
     1
 10
0.0
 20
0.0
 30
0.0
  0
VERTEX
  5
75
330
74
100
AcDbEntity
  8
_U+30EC_U+30A4_U+30E4_U+30FC 1
 62
     7
420
 16777215
370
     9
100
AcDbVertex
100
AcDb2dVertex
 10
88.4049446890464
 20
-151.5435613510029
 30
0.0
  0
VERTEX
  5
76
330
74
100
AcDbEntity
  8
_U+30EC_U+30A4_U+30E4_U+30FC 1
 62
     7
420
 16777215
370
     9
100
AcDbVertex
100
AcDb2dVertex
 10
88.4049446890464
 20
-149.0837477405067
 30
0.0
  0
SEQEND
  5
77
330
74
100
AcDbEntity
  8
_U+30EC_U+30A4_U+30E4_U+30FC 1
 62
     7
420
 16777215
370
     9
  0
INSERT
  5
79
330
1F
100
AcDbEntity
  8
_U+30EC_U+30A4_U+30E4_U+30FC 1
100
AcDbBlockReference
  2
block 3
 10
0.0
 20
0.0
 30
0.0
  0
POLYLINE
  5
80
330
1F
100
AcDbEntity
  8
_U+30EC_U+30A4_U+30E4_U+30FC 1
 62
     7
420
 16777215
370
     9
100
AcDb2dPolyline
 66
     1
 10
0.0
 20
0.0
 30
0.0
  0
VERTEX
  5
81
330
80
100
AcDbEntity
  8
_U+30EC_U+30A4_U+30E4_U+30FC 1
 62
     7
420
 16777215
370
     9
100
AcDbVertex
100
AcDb2dVertex
 10
112.4048396323136
 20
-144.8779663526695
 30
0.0
  0
VERTEX
  5
82
330
80
100
AcDbEntity
  8
_U+30EC_U+30A4_U+30E4_U+30FC 1
 62
     7
420
 16777215
370
     9
100
AcDbVertex
100
AcDb2dVertex
 10
112.4048396323136
 20
-114.3804333047382
 30
0.0
  0
SEQEND
  5
83
330
80
100
AcDbEntity
  8
_U+30EC_U+30A4_U+30E4_U+30FC 1
 62
     7
420
 16777215
370
     9
  0
INSERT
  5
85
330
1F
100
AcDbEntity
  8
_U+30EC_U+30A4_U+30E4_U+30FC 1
100
AcDbBlockReference
  2
block 4
 10
0.0
 20
0.0
 30
0.0
  0
POLYLINE
  5
97
330
1F
100
AcDbEntity
  8
_U+30EC_U+30A4_U+30E4_U+30FC 1
 62
   179
420
  2234388
370
    25
100
AcDb2dPolyline
 66
     1
 10
0.0
 20
0.0
 30
0.0
  0
VERTEX
  5
98
330
97
100
AcDbEntity
  8
_U+30EC_U+30A4_U+30E4_U+30FC 1
 62
   179
420
  2234388
370
    25
100
AcDbVertex
100
AcDb2dVertex
 10
63.40510276192642
 20
-113.1801774717051
 30
0.0
  0
VERTEX
  5
99
330
97
100
AcDbEntity
  8
_U+30EC_U+30A4_U+30E4_U+30FC 1
 62
   179
420
  2234388
370
    25
100
AcDbVertex
100
AcDb2dVertex
 10
108.4030344566304
 20
-113.1801774717051
 30
0.0
  0
VERTEX
  5
9A
330
97
100
AcDbEntity
  8
_U+30EC_U+30A4_U+30E4_U+30FC 1
 62
   179
420
  2234388
370
    25
100
AcDbVertex
100
AcDb2dVertex
 10
108.4030344566304
 20
-114.3804333047382
 30
0.0
  0
VERTEX
  5
9B
330
97
100
AcDbEntity
  8
_U+30EC_U+30A4_U+30E4_U+30FC 1
 62
   179
420
  2234388
370
    25
100
AcDbVertex
100
AcDb2dVertex
 10
64.60500418512237
 20
-114.3804333047382
 30
0.0
  0
VERTEX
  5
9C
330
97
100
AcDbEntity
  8
_U+30EC_U+30A4_U+30E4_U+30FC 1
 62
   179
420
  2234388
370
    25
100
AcDbVertex
100
AcDb2dVertex
 10
64.60500418512237
 20
-144.8835049637792
 30
0.0
  0
VERTEX
  5
9D
330
97
100
AcDbEntity
  8
_U+30EC_U+30A4_U+30E4_U+30FC 1
 62
   179
420
  2234388
370
    25
100
AcDbVertex
100
AcDb2dVertex
 10
88.4049446890464
 20
-144.8835049637792
 30
0.0
  0
VERTEX
  5
9E
330
97
100
AcDbEntity
  8
_U+30EC_U+30A4_U+30E4_U+30FC 1
 62
   179
420
  2234388
370
    25
100
AcDbVertex
100
AcDb2dVertex
 10
88.4049446890464
 20
-146.0837607968124
 30
0.0
  0
VERTEX
  5
9F
330
97
100
AcDbEntity
  8
_U+30EC_U+30A4_U+30E4_U+30FC 1
 62
   179
420
  2234388
370
    25
100
AcDbVertex
100
AcDb2dVertex
 10
63.40510276192642
 20
-146.0837607968124
 30
0.0
  0
VERTEX
  5
A0
330
97
100
AcDbEntity
  8
_U+30EC_U+30A4_U+30E4_U+30FC 1
 62
   179
420
  2234388
370
    25
100
AcDbVertex
100
AcDb2dVertex
 10
63.40510276192642
 20
-113.1801774717051
 30
0.0
  0
SEQEND
  5
A2
330
97
100
AcDbEntity
  8
_U+30EC_U+30A4_U+30E4_U+30FC 1
 62
   179
420
  2234388
370
    25
  0
HATCH
  5
A1
330
1F
100
AcDbEntity
  8
_U+30EC_U+30A4_U+30E4_U+30FC 1
 62
   253
420
 11711154
100
AcDbHatch
 10
0.0
 20
0.0
 30
0.0
210
0.0
220
0.0
230
1.0
  2
SOLID
 70
     1
 71
     0
 91
        1
 92
        1
 93
        8
 72
     1
 10
63.40510276192642
 20
-113.1801774717051
 11
108.4030344566304
 21
-113.1801774717051
 72
     1
 10
108.4030344566304
 20
-113.1801774717051
 11
108.4030344566304
 21
-114.3804333047382
 72
     1
 10
108.4030344566304
 20
-114.3804333047382
 11
64.60500418512237
 21
-114.3804333047382
 72
     1
 10
64.60500418512237
 20
-114.3804333047382
 11
64.60500418512237
 21
-144.8835049637792
 72
     1
 10
64.60500418512237
 20
-144.8835049637792
 11
88.4049446890464
 21
-144.8835049637792
 72
     1
 10
88.4049446890464
 20
-144.8835049637792
 11
88.4049446890464
 21
-146.0837607968124
 72
     1
 10
88.4049446890464
 20
-146.0837607968124
 11
63.40510276192642
 21
-146.0837607968124
 72
     1
 10
63.40510276192642
 20
-146.0837607968124
 11
63.40510276192642
 21
-113.1801774717051
 97
        0
 75
     2
 76
     1
 98
        0
  0
INSERT
  5
A4
330
1F
100
AcDbEntity
  8
_U+30EC_U+30A4_U+30E4_U+30FC 1
100
AcDbBlockReference
  2
block 5
 10
0.0
 20
0.0
 30
0.0
  0
INSERT
  5
B2
330
1F
100
AcDbEntity
  8
_U+30EC_U+30A4_U+30E4_U+30FC 1
100
AcDbBlockReference
  2
block 7
 10
0.0
 20
0.0
 30
0.0
  0
ENDSEC
  0
SECTION
  2
OBJECTS
  0
DICTIONARY
  5
C
330
0
100
AcDbDictionary
281
     1
  3
ACAD_GROUP
350
D
  3
ACAD_LAYOUT
350
1A
  3
ACAD_MATERIAL
350
3B
  3
ACAD_MLEADERSTYLE
350
D5
  3
ACAD_MLINESTYLE
350
17
  3
ACAD_PLOTSETTINGS
350
19
  3
ACAD_PLOTSTYLENAME
350
E
  3
ACAD_TABLESTYLE
350
D4
  3
ACAD_VISUALSTYLE
350
2A
  0
SUN
  5
3F
330
29
100
AcDbSun
 90
        1
290
     0
 63
     7
421
 16777215
 40
1.0
291
     1
 91
  2455826
 92
 54000000
292
     0
 70
     2
 71
   256
280
     1
  0
DICTIONARY
  5
D
102
{ACAD_REACTORS
330
C
102
}
330
C
100
AcDbDictionary
281
     1
  0
DICTIONARY
  5
1A
102
{ACAD_REACTORS
330
C
102
}
330
C
100
AcDbDictionary
281
     1
  3
Layout1
350
1E
  3
Layout2
350
26
  3
Model
350
22
  0
DICTIONARY
  5
3B
102
{ACAD_REACTORS
330
C
102
}
330
C
100
AcDbDictionary
281
     1
  3
ByBlock
350
3D
  3
ByLayer
350
3C
  3
Global
350
3E
  0
DICTIONARY
  5
D5
102
{ACAD_REACTORS
330
C
102
}
330
C
100
AcDbDictionary
281
     1
  0
DICTIONARY
  5
17
102
{ACAD_REACTORS
330
C
102
}
330
C
100
AcDbDictionary
281
     1
  3
Standard
350
18
  0
DICTIONARY
  5
19
102
{ACAD_REACTORS
330
C
102
}
330
C
100
AcDbDictionary
281
     1
  0
ACDBDICTIONARYWDFLT
  5
E
102
{ACAD_REACTORS
330
C
102
}
330
C
100
AcDbDictionary
281
     1
  3
Normal
350
F
100
AcDbDictionaryWithDefault
340
F
  0
DICTIONARY
  5
D4
102
{ACAD_REACTORS
330
C
102
}
330
C
100
AcDbDictionary
281
     1
  0
DICTIONARY
  5
2A
102
{ACAD_REACTORS
330
C
102
}
330
C
100
AcDbDictionary
281
     1
  3
2dWireframe
350
2F
  3
3D Hidden
350
31
  3
3dWireframe
350
30
  3
Basic
350
32
  3
Brighten
350
36
  3
ColorChange
350
3A
  3
Conceptual
350
34
  3
Dim
350
35
  3
Facepattern
350
39
  3
Flat
350
2B
  3
FlatWithEdges
350
2C
  3
Gouraud
350
2D
  3
GouraudWithEdges
350
2E
  3
Linepattern
350
38
  3
Realistic
350
33
  3
Thicken
350
37
  0
LAYOUT
  5
1E
102
{ACAD_REACTORS
330
1A
102
}
330
1A
100
AcDbPlotSettings
  1

  2
none_device
  4

  6

 40
0.0
 41
0.0
 42
0.0
 43
0.0
 44
0.0
 45
0.0
 46
0.0
 47
0.0
 48
0.0
 49
0.0
140
0.0
141
0.0
142
1.0
143
1.0
 70
   688
 72
     0
 73
     0
 74
     5
  7

 75
    16
 76
     0
 77
     2
 78
   300
147
1.0
148
0.0
149
0.0
100
AcDbLayout
  1
Layout1
 70
     1
 71
     1
 10
0.0
 20
0.0
 11
12.0
 21
9.0
 12
0.0
 22
0.0
 32
0.0
 14
1.000000000000000E+20
 24
1.000000000000000E+20
 34
1.000000000000000E+20
 15
-1.000000000000000E+20
 25
-1.000000000000000E+20
 35
-1.000000000000000E+20
146
0.0
 13
0.0
 23
0.0
 33
0.0
 16
1.0
 26
0.0
 36
0.0
 17
0.0
 27
1.0
 37
0.0
 76
     0
330
1B
  0
LAYOUT
  5
26
102
{ACAD_REACTORS
330
1A
102
}
330
1A
100
AcDbPlotSettings
  1

  2
none_device
  4

  6

 40
0.0
 41
0.0
 42
0.0
 43
0.0
 44
0.0
 45
0.0
 46
0.0
 47
0.0
 48
0.0
 49
0.0
140
0.0
141
0.0
142
1.0
143
1.0
 70
   688
 72
     0
 73
     0
 74
     5
  7

 75
    16
 76
     0
 77
     2
 78
   300
147
1.0
148
0.0
149
0.0
100
AcDbLayout
  1
Layout2
 70
     1
 71
     2
 10
0.0
 20
0.0
 11
0.0
 21
0.0
 12
0.0
 22
0.0
 32
0.0
 14
0.0
 24
0.0
 34
0.0
 15
0.0
 25
0.0
 35
0.0
146
0.0
 13
0.0
 23
0.0
 33
0.0
 16
1.0
 26
0.0
 36
0.0
 17
0.0
 27
1.0
 37
0.0
 76
     0
330
23
  0
LAYOUT
  5
22
102
{ACAD_REACTORS
330
1A
102
}
330
1A
100
AcDbPlotSettings
  1

  2
none_device
  4

  6

 40
0.0
 41
0.0
 42
0.0
 43
0.0
 44
0.0
 45
0.0
 46
0.0
 47
0.0
 48
0.0
 49
0.0
140
0.0
141
0.0
142
1.0
143
1.0
 70
  1712
 72
     0
 73
     0
 74
     0
  7

 75
     0
 76
     0
 77
     2
 78
   300
147
1.0
148
0.0
149
0.0
100
AcDbLayout
  1
Model
 70
     1
 71
     0
 10
0.0
 20
0.0
 11
12.0
 21
9.0
 12
0.0
 22
0.0
 32
0.0
 14
1.000000000000000E+20
 24
1.000000000000000E+20
 34
1.000000000000000E+20
 15
-1.000000000000000E+20
 25
-1.000000000000000E+20
 35
-1.000000000000000E+20
146
0.0
 13
0.0
 23
0.0
 33
0.0
 16
1.0
 26
0.0
 36
0.0
 17
0.0
 27
1.0
 37
0.0
 76
     0
330
1F
331
29
  0
MATERIAL
  5
3D
102
{ACAD_REACTORS
330
3B
102
}
330
3B
100
AcDbMaterial
  1
ByBlock
 72
     1
 94
      127
  0
MATERIAL
  5
3C
102
{ACAD_REACTORS
330
3B
102
}
330
3B
100
AcDbMaterial
  1
ByLayer
 72
     1
 94
      127
  0
MATERIAL
  5
3E
102
{ACAD_REACTORS
330
3B
102
}
330
3B
100
AcDbMaterial
  1
Global
 72
     1
 94
      127
  0
MLINESTYLE
  5
18
102
{ACAD_REACTORS
330
17
102
}
330
17
100
AcDbMlineStyle
  2
Standard
 70
     0
  3

 62
   256
 51
90.0
 52
90.0
 71
     2
 49
0.5
 62
   256
  6
BYLAYER
 49
-0.5
 62
   256
  6
BYLAYER
  0
ACDBPLACEHOLDER
  5
F
102
{ACAD_REACTORS
330
E
102
}
330
E
  0
VISUALSTYLE
  5
2F
102
{ACAD_REACTORS
330
2A
102
}
330
2A
100
AcDbVisualStyle
  2
2dWireframe
 70
     4
177
     2
291
     0
 71
     0
176
     1
 72
     2
176
     1
 73
     0
176
     1
 90
        0
176
     1
 40
-0.6
176
     1
 41
-30.0
176
     1
 62
     5
 63
     7
421
 16777215
176
     1
 74
     1
176
     1
 91
        4
176
     1
 64
     7
176
     1
 65
   257
176
     1
 75
     1
176
     1
175
     1
176
     1
 42
1.0
176
     1
 92
        0
176
     1
 66
   257
176
     1
 43
1.0
176
     1
 76
     1
176
     1
 77
     6
176
     1
 78
     2
176
     1
 67
     7
176
     1
 79
     5
176
     1
170
     0
176
     1
171
     0
176
     1
290
     0
176
     1
 93
        1
176
     1
 44
0.0
176
     1
173
     0
176
     1
  0
VISUALSTYLE
  5
31
102
{ACAD_REACTORS
330
2A
102
}
330
2A
100
AcDbVisualStyle
  2
3D Hidden
 70
     6
177
     2
291
     0
 71
     1
176
     1
 72
     2
176
     1
 73
     2
176
     1
 90
        0
176
     1
 40
-0.6
176
     1
 41
-30.0
176
     1
 62
     5
 63
     7
421
 16777215
176
     1
 74
     2
176
     1
 91
        2
176
     1
 64
     7
176
     1
 65
   257
176
     1
 75
     2
176
     1
175
     1
176
     1
 42
40.0
176
     1
 92
        0
176
     1
 66
   257
176
     1
 43
1.0
176
     1
 76
     1
176
     1
 77
     6
176
     1
 78
     2
176
     1
 67
     7
176
     1
 79
     3
176
     1
170
     0
176
     1
171
     0
176
     1
290
     0
176
     1
 93
        1
176
     1
 44
0.0
176
     1
173
     0
176
     1
  0
VISUALSTYLE
  5
30
102
{ACAD_REACTORS
330
2A
102
}
330
2A
100
AcDbVisualStyle
  2
3dWireframe
 70
     5
177
     2
291
     0
 71
     0
176
     1
 72
     2
176
     1
 73
     0
176
     1
 90
        0
176
     1
 40
-0.6
176
     1
 41
-30.0
176
     1
 62
     5
 63
     7
421
 16777215
176
     1
 74
     1
176
     1
 91
        4
176
     1
 64
     7
176
     1
 65
   257
176
     1
 75
     1
176
     1
175
     1
176
     1
 42
1.0
176
     1
 92
        0
176
     1
 66
   257
176
     1
 43
1.0
176
     1
 76
     1
176
     1
 77
     6
176
     1
 78
     2
176
     1
 67
     7
176
     1
 79
     5
176
     1
170
     0
176
     1
171
     0
176
     1
290
     0
176
     1
 93
        1
176
     1
 44
0.0
176
     1
173
     0
176
     1
  0
VISUALSTYLE
  5
32
102
{ACAD_REACTORS
330
2A
102
}
330
2A
100
AcDbVisualStyle
  2
Basic
 70
     7
177
     2
291
     1
 71
     1
176
     1
 72
     0
176
     1
 73
     1
176
     1
 90
        0
176
     1
 40
-0.6
176
     1
 41
-30.0
176
     1
 62
     5
 63
     7
421
 16777215
176
     1
 74
     0
176
     1
 91
        4
176
     1
 64
     7
176
     1
 65
   257
176
     1
 75
     1
176
     1
175
     1
176
     1
 42
1.0
176
     1
 92
        8
176
     1
 66
     7
176
     1
 43
1.0
176
     1
 76
     1
176
     1
 77
     6
176
     1
 78
     2
176
     1
 67
     7
176
     1
 79
     5
176
     1
170
     0
176
     1
171
     0
176
     1
290
     0
176
     1
 93
        1
176
     1
 44
0.0
176
     1
173
     0
176
     1
  0
VISUALSTYLE
  5
36
102
{ACAD_REACTORS
330
2A
102
}
330
2A
100
AcDbVisualStyle
  2
Brighten
 70
    12
177
     2
291
     1
 71
     2
176
     1
 72
     2
176
     1
 73
     0
176
     1
 90
        0
176
     1
 40
-0.6
176
     1
 41
-30.0
176
     1
 62
     5
 63
     7
421
 16777215
176
     1
 74
     1
176
     1
 91
        4
176
     1
 64
     7
176
     1
 65
   257
176
     1
 75
     1
176
     1
175
     1
176
     1
 42
1.0
176
     1
 92
        8
176
     1
 66
     7
176
     1
 43
1.0
176
     1
 76
     1
176
     1
 77
     6
176
     1
 78
     2
176
     1
 67
     7
176
     1
 79
     5
176
     1
170
     0
176
     1
171
     0
176
     1
290
     0
176
     1
 93
        1
176
     1
 44
50.0
176
     1
173
     0
176
     1
  0
VISUALSTYLE
  5
3A
102
{ACAD_REACTORS
330
2A
102
}
330
2A
100
AcDbVisualStyle
  2
ColorChange
 70
    16
177
     2
291
     1
 71
     2
176
     1
 72
     2
176
     1
 73
     3
176
     1
 90
        0
176
     1
 40
-0.6
176
     1
 41
-30.0
176
     1
 62
     5
 63
     8
421
  8421504
176
     1
 74
     1
176
     1
 91
        4
176
     1
 64
     7
176
     1
 65
   257
176
     1
 75
     1
176
     1
175
     1
176
     1
 42
1.0
176
     1
 92
        8
176
     1
 66
     8
424
  8421504
176
     1
 43
1.0
176
     1
 76
     1
176
     1
 77
     6
176
     1
 78
     2
176
     1
 67
     7
176
     1
 79
     5
176
     1
170
     0
176
     1
171
     0
176
     1
290
     0
176
     1
 93
        1
176
     1
 44
0.0
176
     1
173
     0
176
     1
  0
VISUALSTYLE
  5
34
102
{ACAD_REACTORS
330
2A
102
}
330
2A
100
AcDbVisualStyle
  2
Conceptual
 70
     9
177
     2
291
     0
 71
     3
176
     1
 72
     2
176
     1
 73
     0
176
     1
 90
        0
176
     1
 40
-0.6
176
     1
 41
-30.0
176
     1
 62
     5
 63
     7
421
 16777215
176
     1
 74
     2
176
     1
 91
        2
176
     1
 64
     7
176
     1
 65
   257
176
     1
 75
     1
176
     1
175
     1
176
     1
 42
40.0
176
     1
 92
        8
176
     1
 66
     7
176
     1
 43
1.0
176
     1
 76
     1
176
     1
 77
     6
176
     1
 78
     2
176
     1
 67
     7
176
     1
 79
     3
176
     1
170
     0
176
     1
171
     0
176
     1
290
     0
176
     1
 93
        1
176
     1
 44
0.0
176
     1
173
     0
176
     1
  0
VISUALSTYLE
  5
35
102
{ACAD_REACTORS
330
2A
102
}
330
2A
100
AcDbVisualStyle
  2
Dim
 70
    11
177
     2
291
     1
 71
     2
176
     1
 72
     2
176
     1
 73
     0
176
     1
 90
        0
176
     1
 40
-0.6
176
     1
 41
-30.0
176
     1
 62
     5
 63
     7
421
 16777215
176
     1
 74
     1
176
     1
 91
        4
176
     1
 64
     7
176
     1
 65
   257
176
     1
 75
     1
176
     1
175
     1
176
     1
 42
1.0
176
     1
 92
        8
176
     1
 66
     7
176
     1
 43
1.0
176
     1
 76
     1
176
     1
 77
     6
176
     1
 78
     2
176
     1
 67
     7
176
     1
 79
     5
176
     1
170
     0
176
     1
171
     0
176
     1
290
     0
176
     1
 93
        1
176
     1
 44
-50.0
176
     1
173
     0
176
     1
  0
VISUALSTYLE
  5
39
102
{ACAD_REACTORS
330
2A
102
}
330
2A
100
AcDbVisualStyle
  2
Facepattern
 70
    15
177
     2
291
     1
 71
     2
176
     1
 72
     2
176
     1
 73
     0
176
     1
 90
        0
176
     1
 40
-0.6
176
     1
 41
-30.0
176
     1
 62
     5
 63
     7
421
 16777215
176
     1
 74
     1
176
     1
 91
        4
176
     1
 64
     7
176
     1
 65
   257
176
     1
 75
     1
176
     1
175
     1
176
     1
 42
1.0
176
     1
 92
        8
176
     1
 66
     7
176
     1
 43
1.0
176
     1
 76
     1
176
     1
 77
     6
176
     1
 78
     2
176
     1
 67
     7
176
     1
 79
     5
176
     1
170
     0
176
     1
171
     0
176
     1
290
     0
176
     1
 93
        1
176
     1
 44
0.0
176
     1
173
     0
176
     1
  0
VISUALSTYLE
  5
2B
102
{ACAD_REACTORS
330
2A
102
}
330
2A
100
AcDbVisualStyle
  2
Flat
 70
     0
177
     2
291
     1
 71
     2
176
     1
 72
     1
176
     1
 73
     1
176
     1
 90
        2
176
     1
 40
-0.6
176
     1
 41
30.0
176
     1
 62
     5
 63
     7
421
 16777215
176
     1
 74
     0
176
     1
 91
        4
176
     1
 64
     7
176
     1
 65
   257
176
     1
 75
     1
176
     1
175
     1
176
     1
 42
1.0
176
     1
 92
        8
176
     1
 66
     7
176
     1
 43
1.0
176
     1
 76
     1
176
     1
 77
     6
176
     1
 78
     2
176
     1
 67
     7
176
     1
 79
     5
176
     1
170
     0
176
     1
171
     0
176
     1
290
     0
176
     1
 93
       13
176
     1
 44
0.0
176
     1
173
     0
176
     1
  0
VISUALSTYLE
  5
2C
102
{ACAD_REACTORS
330
2A
102
}
330
2A
100
AcDbVisualStyle
  2
FlatWithEdges
 70
     1
177
     2
291
     1
 71
     2
176
     1
 72
     1
176
     1
 73
     1
176
     1
 90
        2
176
     1
 40
-0.6
176
     1
 41
30.0
176
     1
 62
     5
 63
     7
421
 16777215
176
     1
 74
     1
176
     1
 91
        4
176
     1
 64
     7
176
     1
 65
   257
176
     1
 75
     1
176
     1
175
     1
176
     1
 42
1.0
176
     1
 92
        0
176
     1
 66
   257
176
     1
 43
1.0
176
     1
 76
     1
176
     1
 77
     6
176
     1
 78
     2
176
     1
 67
     7
176
     1
 79
     5
176
     1
170
     0
176
     1
171
     0
176
     1
290
     0
176
     1
 93
       13
176
     1
 44
0.0
176
     1
173
     0
176
     1
  0
VISUALSTYLE
  5
2D
102
{ACAD_REACTORS
330
2A
102
}
330
2A
100
AcDbVisualStyle
  2
Gouraud
 70
     2
177
     2
291
     1
 71
     2
176
     1
 72
     2
176
     1
 73
     1
176
     1
 90
        2
176
     1
 40
-0.6
176
     1
 41
30.0
176
     1
 62
     5
 63
     7
421
 16777215
176
     1
 74
     0
176
     1
 91
        4
176
     1
 64
     7
176
     1
 65
   257
176
     1
 75
     1
176
     1
175
     1
176
     1
 42
1.0
176
     1
 92
        0
176
     1
 66
     7
176
     1
 43
1.0
176
     1
 76
     1
176
     1
 77
     6
176
     1
 78
     2
176
     1
 67
     7
176
     1
 79
     5
176
     1
170
     0
176
     1
171
     0
176
     1
290
     0
176
     1
 93
       13
176
     1
 44
0.0
176
     1
173
     0
176
     1
  0
VISUALSTYLE
  5
2E
102
{ACAD_REACTORS
330
2A
102
}
330
2A
100
AcDbVisualStyle
  2
GouraudWithEdges
 70
     3
177
     2
291
     1
 71
     2
176
     1
 72
     2
176
     1
 73
     1
176
     1
 90
        2
176
     1
 40
-0.6
176
     1
 41
30.0
176
     1
 62
     5
 63
     7
421
 16777215
176
     1
 74
     1
176
     1
 91
        4
176
     1
 64
     7
176
     1
 65
   257
176
     1
 75
     1
176
     1
175
     1
176
     1
 42
1.0
176
     1
 92
        0
176
     1
 66
   257
176
     1
 43
1.0
176
     1
 76
     1
176
     1
 77
     6
176
     1
 78
     2
176
     1
 67
     7
176
     1
 79
     5
176
     1
170
     0
176
     1
171
     0
176
     1
290
     0
176
     1
 93
       13
176
     1
 44
0.0
176
     1
173
     0
176
     1
  0
VISUALSTYLE
  5
38
102
{ACAD_REACTORS
330
2A
102
}
330
2A
100
AcDbVisualStyle
  2
Linepattern
 70
    14
177
     2
291
     1
 71
     2
176
     1
 72
     2
176
     1
 73
     0
176
     1
 90
        0
176
     1
 40
-0.6
176
     1
 41
-30.0
176
     1
 62
     5
 63
     7
421
 16777215
176
     1
 74
     1
176
     1
 91
        4
176
     1
 64
     7
176
     1
 65
   257
176
     1
 75
     7
176
     1
175
     7
176
     1
 42
1.0
176
     1
 92
        8
176
     1
 66
     7
176
     1
 43
1.0
176
     1
 76
     1
176
     1
 77
     6
176
     1
 78
     2
176
     1
 67
     7
176
     1
 79
     5
176
     1
170
     0
176
     1
171
     0
176
     1
290
     0
176
     1
 93
        1
176
     1
 44
0.0
176
     1
173
     0
176
     1
  0
VISUALSTYLE
  5
33
102
{ACAD_REACTORS
330
2A
102
}
330
2A
100
AcDbVisualStyle
  2
Realistic
 70
     8
177
     2
291
     0
 71
     2
176
     1
 72
     2
176
     1
 73
     0
176
     1
 90
        0
176
     1
 40
-0.6
176
     1
 41
-30.0
176
     1
 62
     5
 63
     7
421
 16777215
176
     1
 74
     1
176
     1
 91
        0
176
     1
 64
     7
176
     1
 65
   257
176
     1
 75
     1
176
     1
175
     1
176
     1
 42
1.0
176
     1
 92
        8
176
     1
 66
     8
424
  7895160
176
     1
 43
1.0
176
     1
 76
     1
176
     1
 77
     6
176
     1
 78
     2
176
     1
 67
     7
176
     1
 79
     5
176
     1
170
     0
176
     1
171
     0
176
     1
290
     0
176
     1
 93
       13
176
     1
 44
0.0
176
     1
173
     0
176
     1
  0
VISUALSTYLE
  5
37
102
{ACAD_REACTORS
330
2A
102
}
330
2A
100
AcDbVisualStyle
  2
Thicken
 70
    13
177
     2
291
     1
 71
     2
176
     1
 72
     2
176
     1
 73
     0
176
     1
 90
        0
176
     1
 40
-0.6
176
     1
 41
-30.0
176
     1
 62
     5
 63
     7
421
 16777215
176
     1
 74
     1
176
     1
 91
        4
176
     1
 64
     7
176
     1
 65
   257
176
     1
 75
     1
176
     1
175
     1
176
     1
 42
1.0
176
     1
 92
       12
176
     1
 66
     7
176
     1
 43
1.0
176
     1
 76
     1
176
     1
 77
     6
176
     1
 78
     2
176
     1
 67
     7
176
     1
 79
     5
176
     1
170
     0
176
     1
171
     0
176
     1
290
     0
176
     1
 93
        1
176
     1
 44
0.0
176
     1
173
     0
176
     1
  0
ENDSEC
  0
EOF
